999
DXF file: E:\BT Custom\CADOUTPUT\_RIGHT.dxf
999
Pro/ENGINEER 2018400 by Parametric Technology Corporation
  0
SECTION
  2
HEADER
  9
$ACADVER
  1
AC1018
  9
$DWGCODEPAGE
  3
ANSI_1252
  9
$EXTMAX
 10
22.0
 20
17.0
 30
0.0
  9
$EXTMIN
 10
0.0
 20
0.0
 30
0.0
  9
$LIMMIN
 10
0.0
 20
0.0
  9
$LIMMAX
 10
22.0
 20
17.0
  9
$VIEWCTR
 10
11.0
 20
8.5
  9
$VIEWSIZE
 40
17.0
  9
$CLAYER
  8
0
  9
$LTSCALE
 40
1.21
  9
$CELTYPE
  6
BYLAYER
  9
$DIMSCALE
 40
1.0
  9
$DIMASZ
 40
0.1
  9
$DIMEXO
 40
0.0625
  9
$DIMDLI
 40
0.836
  9
$DIMEXE
 40
0.125
  9
$DIMCEN
 40
0.198
  9
$DIMLFAC
 40
1.0
  9
$DIMBLK
  1
_FILLED
  9
$DIMALT
 70
1
  9
$DIMALTD
 70
2
  9
$DIMALTTD
 70
2
  9
$DIMALTF
 40
25.4
  9
$DIMTXT
 40
0.08
  9
$DIMTOL
 70
1
  9
$DIMLIM
 70
0
  9
$DIMTFAC
 40
1.0
  9
$DIMTP
 40
0.001
  9
$DIMTM
 40
0.001
  9
$DIMGAP
 40
0.09
  9
$DIMDSEP
 70
46
  9
$AUNITS
 70
0
  9
$PDMODE
 70
3
  9
$PDSIZE
 40
0.06
  9
$HANDSEED
  5
485
  9
$TILEMODE
 70
1
  9
$MEASUREMENT
 70
0
  9
$INSUNITS
 70
1
  0
ENDSEC
  0
SECTION
  2
CLASSES
  0
CLASS
  1
ACDBDICTIONARYWDFLT
  2
AcDbDictionaryWithDefault
  3
AutoCAD 2000
 90
0
 91
1
280
0
281
0
  0
CLASS
  1
ACDBPLACEHOLDER
  2
AcDbPlaceHolder
  3
AutoCAD 2000
 90
0
 91
1
280
0
281
0
  0
CLASS
  1
LAYOUT
  2
AcDbLayout
  3
AutoCAD 2000
 90
0
 91
0
280
0
281
0
  0
ENDSEC
  0
SECTION
  2
TABLES
  0
TABLE
  2
VPORT
  5
8
100
AcDbSymbolTable
 70
2
  0
VPORT
  5
1F4
100
AcDbSymbolTableRecord
100
AcDbViewportTableRecord
  2
*ACTIVE
 70
0
 10
0.0
 20
0.0
 11
1.0
 21
1.0
 12
11.0
 22
8.5
 13
0.0
 23
0.0
 14
1.0
 24
1.0
 15
0.0
 25
0.0
 16
0.0
 26
0.0
 36
1.0
 17
0.0
 27
0.0
 37
0.0
 40
17.0
 41
1.2941176471
 42
50.0
 43
0.0
 44
0.0
 50
0.0
 51
0.0
 71
0
 72
100
 73
1
 74
1
 75
0
 76
0
 77
0
 78
0
  0
ENDTAB
  0
TABLE
  2
LTYPE
  5
5
100
AcDbSymbolTable
 70
6
  0
LTYPE
  5
14
100
AcDbSymbolTableRecord
100
AcDbLinetypeTableRecord
  2
BYBLOCK
 70
0
  3

 72
65
 73
0
 40
0.0
  0
LTYPE
  5
15
100
AcDbSymbolTableRecord
100
AcDbLinetypeTableRecord
  2
BYLAYER
 70
0
  3

 72
65
 73
0
 40
0.0
  0
LTYPE
  5
16
100
AcDbSymbolTableRecord
100
AcDbLinetypeTableRecord
  2
CONTINUOUS
 70
64
  3
Solid line
 72
65
 73
0
 40
0.0
  0
LTYPE
  5
1F5
100
AcDbSymbolTableRecord
100
AcDbLinetypeTableRecord
  2
CENTER
 70
64
  3
____ _ ____ _ ____ _ ____ _ ____ _ ____ _ ____
 72
65
 73
4
 40
0.6
 49
0.375
 74
0
 49
-0.075
 74
0
 49
0.075
 74
0
 49
-0.075
 74
0
  0
LTYPE
  5
1F6
100
AcDbSymbolTableRecord
100
AcDbLinetypeTableRecord
  2
HIDDEN
 70
64
  3
- - - - - - - - - - - - - - - - - - - -
 72
65
 73
2
 40
0.2
 49
0.1
 74
0
 49
-0.1
 74
0
  0
LTYPE
  5
1F7
100
AcDbSymbolTableRecord
100
AcDbLinetypeTableRecord
  2
PHANTOM
 70
64
  3
_____ _ _ _____ _ _ _____ _ _ _____
 72
65
 73
6
 40
0.8
 49
0.45
 74
0
 49
-0.05
 74
0
 49
0.1
 74
0
 49
-0.05
 74
0
 49
0.1
 74
0
 49
-0.05
 74
0
  0
LTYPE
  5
1F8
100
AcDbSymbolTableRecord
100
AcDbLinetypeTableRecord
  2
DOT
 70
64
  3
. . . . . . . . . . . . . . . . . . . .
 72
65
 73
2
 40
0.2
 49
0.1
 74
0
 49
-0.1
 74
0
  0
LTYPE
  5
1F9
100
AcDbSymbolTableRecord
100
AcDbLinetypeTableRecord
  2
DASHED
 70
64
  3
- - - - - - - - - - - - - - - - - - - -
 72
65
 73
2
 40
0.2
 49
0.1
 74
0
 49
-0.1
 74
0
  0
ENDTAB
  0
TABLE
  2
LAYER
  5
2
100
AcDbSymbolTable
 70
36
  0
LAYER
  5
10
100
AcDbSymbolTableRecord
100
AcDbLayerTableRecord
  2
0
 70
0
 62
7
  6
CONTINUOUS
370
-3
390
F
  0
LAYER
  5
1FA
100
AcDbSymbolTableRecord
100
AcDbLayerTableRecord
  2
DEFAULT_1
 70
0
 62
7
  6
CENTER
370
-3
390
F
  0
LAYER
  5
1FB
100
AcDbSymbolTableRecord
100
AcDbLayerTableRecord
  2
DEFAULT_2
 70
0
 62
8
  6
HIDDEN
370
-3
390
F
  0
LAYER
  5
1FC
100
AcDbSymbolTableRecord
100
AcDbLayerTableRecord
  2
DEFAULT_3
 70
0
 62
7
  6
PHANTOM
370
-3
390
F
  0
LAYER
  5
1FD
100
AcDbSymbolTableRecord
100
AcDbLayerTableRecord
  2
ALL_FEATURES
 70
0
 62
7
  6
CONTINUOUS
370
-3
390
F
  0
LAYER
  5
1FE
100
AcDbSymbolTableRecord
100
AcDbLayerTableRecord
  2
AXES_FEATURES
 70
0
 62
7
  6
CONTINUOUS
370
-3
390
F
  0
LAYER
  5
1FF
100
AcDbSymbolTableRecord
100
AcDbLayerTableRecord
  2
DIMENSIONS
 70
0
 62
7
  6
CONTINUOUS
370
-3
390
F
  0
ENDTAB
  0
TABLE
  2
STYLE
  5
3
100
AcDbSymbolTable
 70
1
  0
STYLE
  5
11
100
AcDbSymbolTableRecord
100
AcDbTextStyleTableRecord
  2
STANDARD
 70
0
 40
0.0
 41
0.8
 50
0.0
 71
0
 42
0.2
  3
txt
  4

  0
STYLE
  5
200
100
AcDbSymbolTableRecord
100
AcDbTextStyleTableRecord
  2
TEXTSTYLE_1
 70
0
 40
0.0
 41
0.8
 50
0.0
 71
0
 42
0.2
  3
gdt
  4

  0
ENDTAB
  0
TABLE
  2
VIEW
  5
6
100
AcDbSymbolTable
 70
0
  0
ENDTAB
  0
TABLE
  2
UCS
  5
7
100
AcDbSymbolTable
 70
0
  0
ENDTAB
  0
TABLE
  2
APPID
  5
9
100
AcDbSymbolTable
 70
1
  0
APPID
  5
201
100
AcDbSymbolTableRecord
100
AcDbRegAppTableRecord
  2
ACAD
 70
0
  0
ENDTAB
  0
TABLE
  2
BLOCK_RECORD
  5
1
100
AcDbSymbolTable
 70
0
  0
BLOCK_RECORD
  5
202
100
AcDbSymbolTableRecord
100
AcDbBlockTableRecord
  2
*Model_Space
  0
BLOCK_RECORD
  5
203
100
AcDbSymbolTableRecord
100
AcDbBlockTableRecord
  2
*Paper_Space
  0
BLOCK_RECORD
  5
204
100
AcDbSymbolTableRecord
100
AcDbBlockTableRecord
  2
_FILLED
  0
ENDTAB
  0
TABLE
  2
DIMSTYLE
  5
A
100
AcDbSymbolTable
 70
1
100
AcDbDimStyleTable
 71
0
  0
DIMSTYLE
105
205
100
AcDbSymbolTableRecord
100
AcDbDimStyleTableRecord
  2
STANDARD
 70
0
  3

  4

 40
1.0
 41
0.1
 42
0.0625
 43
0.38
 44
0.125
 45
0.0
 46
0.0
 47
0.001
 48
0.001
140
0.08
141
0.09
142
0.0
143
25.4
144
1.0
145
0.0
146
1.0
147
0.09
 71
1.0
 72
0.0
 73
1
 74
1
 75
0
 76
0
 77
0
 78
4
 79
1
170
1
171
2
172
0
173
0
174
0
175
0
176
0
177
0
178
0
270
2
179
3
271
3
272
3
273
2
274
2
275
0
280
0
281
0
282
0
283
1
284
4
285
0
286
0
287
3
288
0
340
11
278
46
341
204
342
204
343
204
344
204
  0
ENDTAB
  0
ENDSEC
  0
SECTION
  2
BLOCKS
  0
BLOCK
  5
20
100
AcDbEntity
  8
0
100
AcDbBlockBegin
  2
*Model_Space
 70
0
 10
0.0
 20
0.0
 30
0.0
  3
*Model_Space
  1

  0
ENDBLK
  5
21
100
AcDbEntity
  8
0
100
AcDbBlockEnd
  0
BLOCK
  5
1C
100
AcDbEntity
  8
0
100
AcDbBlockBegin
  2
*Paper_Space
 70
0
 10
0.0
 20
0.0
 30
0.0
  3
*Paper_Space
  1

  0
ENDBLK
  5
1D
100
AcDbEntity
  8
0
100
AcDbBlockEnd
  0
BLOCK
  5
206
100
AcDbEntity
  8
0
100
AcDbBlockBegin
  2
_FILLED
 70
64
 10
0.0
 20
0.0
  3
_FILLED
  1

  0
SOLID
  5
207
100
AcDbEntity
  8
0
  6
BYBLOCK
 62
0
100
AcDbTrace
 10
0.0
 20
0.0
 11
-1.0
 21
0.2
 12
-1.0
 22
-0.2
 13
-1.0
 23
-0.2
  0
ENDBLK
  5
208
100
AcDbEntity
  8
0
  6
BYBLOCK
 62
0
100
AcDbBlockEnd
  0
ENDSEC
  0
SECTION
  2
ENTITIES
  0
LINE
  5
209
100
AcDbEntity
  8
0
100
AcDbLine
 62
7
  6
CONTINUOUS
 10
-0.3902053198
 20
6.833391804
 11
-0.3902053198
 21
6.913391804
  0
LINE
  5
20A
100
AcDbEntity
  8
0
100
AcDbLine
 62
7
  6
CONTINUOUS
 10
0.5347946802
 20
6.833391804
 11
0.5347946802
 21
6.913391804
  0
LINE
  5
20B
100
AcDbEntity
  8
0
100
AcDbLine
 62
7
  6
CONTINUOUS
 10
3.7780287426
 20
6.931065807
 11
3.7780287426
 21
7.0257178011
  0
LINE
  5
20C
100
AcDbEntity
  8
0
100
AcDbLine
 62
7
  6
CONTINUOUS
 10
3.8158776878
 20
6.931065807
 11
3.8158776878
 21
7.0257178011
  0
LINE
  5
20D
100
AcDbEntity
  8
0
100
AcDbLine
 62
7
  6
CONTINUOUS
 10
3.8564450488
 20
6.931065807
 11
3.8564450488
 21
7.0257178011
  0
LINE
  5
20E
100
AcDbEntity
  8
0
100
AcDbLine
 62
7
  6
CONTINUOUS
 10
3.899300749
 20
6.931065807
 11
3.899300749
 21
7.0257178011
  0
LINE
  5
20F
100
AcDbEntity
  8
0
100
AcDbLine
 62
7
  6
CONTINUOUS
 10
3.9439904519
 20
6.931065807
 11
3.9439904519
 21
7.0257178011
  0
LINE
  5
210
100
AcDbEntity
  8
0
100
AcDbLine
 62
7
  6
CONTINUOUS
 10
3.9900403776
 20
6.931065807
 11
3.9900403776
 21
7.0257178011
  0
LINE
  5
211
100
AcDbEntity
  8
0
100
AcDbLine
 62
7
  6
CONTINUOUS
 10
4.0369623258
 20
6.931065807
 11
4.0369623258
 21
7.0257178011
  0
LINE
  5
212
100
AcDbEntity
  8
0
100
AcDbLine
 62
7
  6
CONTINUOUS
 10
4.0842588515
 20
6.931065807
 11
4.0842588515
 21
7.0257178011
  0
LINE
  5
213
100
AcDbEntity
  8
0
100
AcDbLine
 62
7
  6
CONTINUOUS
 10
4.1314285386
 20
6.931065807
 11
4.1314285386
 21
7.0257178011
  0
LINE
  5
214
100
AcDbEntity
  8
0
100
AcDbLine
 62
7
  6
CONTINUOUS
 10
4.1779713155
 20
6.931065807
 11
4.1779713155
 21
7.0257178011
  0
LINE
  5
215
100
AcDbEntity
  8
0
100
AcDbLine
 62
7
  6
CONTINUOUS
 10
4.2233937569
 20
6.931065807
 11
4.2233937569
 21
7.0257178011
  0
LINE
  5
216
100
AcDbEntity
  8
0
100
AcDbLine
 62
7
  6
CONTINUOUS
 10
4.267214315
 20
6.931065807
 11
4.267214315
 21
7.0257178011
  0
LINE
  5
217
100
AcDbEntity
  8
0
100
AcDbLine
 62
7
  6
CONTINUOUS
 10
4.3089684241
 20
6.931065807
 11
4.3089684241
 21
7.0257178011
  0
LINE
  5
218
100
AcDbEntity
  8
0
100
AcDbLine
 62
7
  6
CONTINUOUS
 10
4.3482134263
 20
6.931065807
 11
4.3482134263
 21
7.0257178011
  0
LINE
  5
219
100
AcDbEntity
  8
0
100
AcDbLine
 62
7
  6
CONTINUOUS
 10
4.384533264
 20
6.931065807
 11
4.384533264
 21
7.0257178011
  0
LINE
  5
21A
100
AcDbEntity
  8
0
100
AcDbLine
 62
7
  6
CONTINUOUS
 10
-0.7177053198
 20
6.333391804
 11
0.8622946802
 21
6.333391804
  0
LINE
  5
21B
100
AcDbEntity
  8
0
100
AcDbLine
 62
7
  6
CONTINUOUS
 10
3.4163003437
 20
6.333391804
 11
4.7282890167
 21
6.333391804
  0
LINE
  5
21C
100
AcDbEntity
  8
0
100
AcDbLine
 62
7
  6
CONTINUOUS
 10
10.8897946802
 20
6.333391804
 11
13.2547946802
 21
6.333391804
  0
LINE
  5
21D
100
AcDbEntity
  8
0
100
AcDbLine
 62
7
  6
CONTINUOUS
 10
20.0598116017
 20
6.333391804
 11
22.0847777587
 21
6.333391804
  0
LINE
  5
21E
100
AcDbEntity
  8
0
100
AcDbLine
 62
7
  6
CONTINUOUS
 10
4.5518656763
 20
6.458391804
 11
3.5927236842
 21
6.458391804
  0
LINE
  5
21F
100
AcDbEntity
  8
0
100
AcDbLine
 62
9
  6
CONTINUOUS
 10
13.2236306675
 20
6.4675154031
 11
10.9209586929
 21
6.4675154031
  0
LINE
  5
220
100
AcDbEntity
  8
0
100
AcDbLine
 62
9
  6
CONTINUOUS
 10
13.181415198
 20
6.5111563956
 11
10.9631741624
 21
6.5111563956
  0
LINE
  5
221
100
AcDbEntity
  8
0
100
AcDbLine
 62
9
  6
CONTINUOUS
 10
22.0847946802
 20
6.5823592717
 11
20.0597946802
 21
6.5823592717
  0
LINE
  5
222
100
AcDbEntity
  8
0
100
AcDbLine
 62
7
  6
CONTINUOUS
 10
4.3646171927
 20
6.583391804
 11
3.7799721678
 21
6.583391804
  0
LINE
  5
223
100
AcDbEntity
  8
0
100
AcDbLine
 62
7
  6
CONTINUOUS
 10
22.0472946802
 20
6.653391804
 11
20.0972946802
 21
6.653391804
  0
LINE
  5
224
100
AcDbEntity
  8
0
100
AcDbLine
 62
9
  6
CONTINUOUS
 10
12.9011718685
 20
6.7161698666
 11
11.2434174919
 21
6.7161698666
  0
LINE
  5
225
100
AcDbEntity
  8
0
100
AcDbLine
 62
7
  6
CONTINUOUS
 10
11.4072946802
 20
6.808391804
 11
12.7372946802
 21
6.808391804
  0
LINE
  5
226
100
AcDbEntity
  8
0
100
AcDbLine
 62
7
  6
CONTINUOUS
 10
0.5672942109
 20
6.833391804
 11
-0.4227048505
 21
6.833391804
  0
LINE
  5
227
100
AcDbEntity
  8
0
100
AcDbLine
 62
7
  6
CONTINUOUS
 10
3.6772946802
 20
6.898391804
 11
4.4672946802
 21
6.898391804
  0
LINE
  5
228
100
AcDbEntity
  8
0
100
AcDbLine
 62
9
  6
CONTINUOUS
 10
0.5347946802
 20
6.913391804
 11
-0.3902053198
 21
6.913391804
  0
LINE
  5
229
100
AcDbEntity
  8
0
100
AcDbLine
 62
7
  6
CONTINUOUS
 10
12.7387946802
 20
6.9683777403
 11
11.4057946802
 21
6.9683777403
  0
LINE
  5
22A
100
AcDbEntity
  8
0
100
AcDbLine
 62
7
  6
CONTINUOUS
 10
4.4672946802
 20
7.058391804
 11
3.6772946802
 21
7.058391804
  0
LINE
  5
22B
100
AcDbEntity
  8
0
100
AcDbLine
 62
9
  6
CONTINUOUS
 10
-0.3549934068
 20
7.0774943681
 11
0.4995827673
 21
7.0774943681
  0
LINE
  5
22C
100
AcDbEntity
  8
0
100
AcDbLine
 62
7
  6
CONTINUOUS
 10
-0.3458737046
 20
7.083391804
 11
0.4904627385
 21
7.083391804
  0
LINE
  5
22D
100
AcDbEntity
  8
0
100
AcDbLine
 62
9
  6
CONTINUOUS
 10
20.3641024827
 20
7.4941369442
 11
21.7804868778
 21
7.4941369442
  0
LINE
  5
22E
100
AcDbEntity
  8
0
100
AcDbLine
 62
9
  6
CONTINUOUS
 10
20.4154240768
 20
7.6367325769
 11
21.7291652836
 21
7.6367325769
  0
LINE
  5
22F
100
AcDbEntity
  8
0
100
AcDbLine
 62
7
  6
CONTINUOUS
 10
12.5622946802
 20
7.832391804
 11
11.5822946802
 21
7.832391804
  0
LINE
  5
230
100
AcDbEntity
  8
0
100
AcDbLine
 62
7
  6
CONTINUOUS
 10
12.5622946802
 20
7.952391804
 11
11.5822946802
 21
7.952391804
  0
LINE
  5
231
100
AcDbEntity
  8
0
100
AcDbLine
 62
7
  6
CONTINUOUS
 10
12.3623346842
 20
8.148391804
 11
11.7822546762
 21
8.148391804
  0
LINE
  5
232
100
AcDbEntity
  8
0
100
AcDbLine
 62
9
  6
CONTINUOUS
 10
12.3222946802
 20
8.755391804
 11
11.8222946802
 21
8.755391804
  0
LINE
  5
233
100
AcDbEntity
  8
0
100
AcDbLine
 62
7
  6
CONTINUOUS
 10
11.5676114143
 20
8.873391804
 11
12.5769779462
 21
8.873391804
  0
LINE
  5
234
100
AcDbEntity
  8
0
100
AcDbLine
 62
9
  6
CONTINUOUS
 10
12.6518513394
 20
8.9271255233
 11
11.492738021
 21
8.9271255233
  0
LINE
  5
235
100
AcDbEntity
  8
0
100
AcDbLine
 62
7
  6
CONTINUOUS
 10
11.6763148828
 20
8.977391804
 11
11.6575723273
 21
8.977391804
  0
LINE
  5
236
100
AcDbEntity
  8
0
100
AcDbLine
 62
7
  6
CONTINUOUS
 10
12.4682744777
 20
8.977391804
 11
12.4870170332
 21
8.977391804
  0
LINE
  5
237
100
AcDbEntity
  8
0
100
AcDbLine
 62
7
  6
CONTINUOUS
 10
10.9209586929
 20
6.4675154031
 11
10.8897946802
 21
6.333391804
  0
LINE
  5
238
100
AcDbEntity
  8
0
100
AcDbLine
 62
7
  6
CONTINUOUS
 10
11.4339955451
 20
9.0536018503
 11
11.4044090192
 21
9.0125649613
  0
LINE
  5
239
100
AcDbEntity
  8
0
100
AcDbLine
 62
7
  6
CONTINUOUS
 10
11.6763148828
 20
9.369391804
 11
11.6575723273
 21
9.369391804
  0
LINE
  5
23A
100
AcDbEntity
  8
0
100
AcDbLine
 62
7
  6
CONTINUOUS
 10
12.4682744777
 20
9.369391804
 11
12.4870170332
 21
9.369391804
  0
LINE
  5
23B
100
AcDbEntity
  8
0
100
AcDbLine
 62
9
  6
CONTINUOUS
 10
11.4945359841
 20
9.4249216833
 11
12.6500533764
 21
9.4249216834
  0
LINE
  5
23C
100
AcDbEntity
  8
0
100
AcDbLine
 62
7
  6
CONTINUOUS
 10
11.5422946792
 20
9.4733918058
 11
12.6022946813
 21
9.4733918059
  0
LINE
  5
23D
100
AcDbEntity
  8
0
100
AcDbLine
 62
9
  6
CONTINUOUS
 10
12.6104356964
 20
9.4874924576
 11
11.5341536641
 21
9.4874924576
  0
LINE
  5
23E
100
AcDbEntity
  8
0
100
AcDbLine
 62
9
  6
CONTINUOUS
 10
11.5498049574
 20
9.5426974349
 11
12.5947844031
 21
9.5426974349
  0
LINE
  5
23F
100
AcDbEntity
  8
0
100
AcDbLine
 62
9
  6
CONTINUOUS
 10
12.5429199746
 20
9.6192287798
 11
11.6016693859
 21
9.6192287798
  0
LINE
  5
240
100
AcDbEntity
  8
0
100
AcDbLine
 62
7
  6
CONTINUOUS
 10
12.527010988
 20
9.633391804
 11
11.6175783724
 21
9.633391804
  0
LINE
  5
241
100
AcDbEntity
  8
0
100
AcDbLine
 62
9
  6
CONTINUOUS
 10
11.6857768231
 20
9.6777033299
 11
12.4588125374
 21
9.6777033299
  0
LINE
  5
242
100
AcDbEntity
  8
0
100
AcDbLine
 62
7
  6
CONTINUOUS
 10
20.3322956821
 20
9.801391804
 11
21.8122936783
 21
9.801391804
  0
LINE
  5
243
100
AcDbEntity
  8
0
100
AcDbLine
 62
9
  6
CONTINUOUS
 10
20.3122946802
 20
9.8762249518
 11
21.8322946802
 21
9.8762249518
  0
LINE
  5
244
100
AcDbEntity
  8
0
100
AcDbLine
 62
7
  6
CONTINUOUS
 10
11.4339955451
 20
9.2931817577
 11
11.4044090192
 21
9.3342186468
  0
LINE
  5
245
100
AcDbEntity
  8
0
100
AcDbLine
 62
7
  6
CONTINUOUS
 10
11.7060735049
 20
7.8476704445
 11
11.7060735049
 21
7.9371131636
  0
LINE
  5
246
100
AcDbEntity
  8
0
100
AcDbLine
 62
7
  6
CONTINUOUS
 10
11.7418915796
 20
7.8476704445
 11
11.7418915796
 21
7.9371131636
  0
LINE
  5
247
100
AcDbEntity
  8
0
100
AcDbLine
 62
7
  6
CONTINUOUS
 10
11.7803700135
 20
7.8476704445
 11
11.7803700135
 21
7.9371131636
  0
LINE
  5
248
100
AcDbEntity
  8
0
100
AcDbLine
 62
7
  6
CONTINUOUS
 10
11.8211989836
 20
7.8476704445
 11
11.8211989836
 21
7.9371131636
  0
LINE
  5
249
100
AcDbEntity
  8
0
100
AcDbLine
 62
7
  6
CONTINUOUS
 10
11.8222946802
 20
8.148391804
 11
11.8222946802
 21
8.755391804
  0
LINE
  5
24A
100
AcDbEntity
  8
0
100
AcDbLine
 62
7
  6
CONTINUOUS
 10
11.8640497408
 20
7.8476704445
 11
11.8640497408
 21
7.9371131636
  0
LINE
  5
24B
100
AcDbEntity
  8
0
100
AcDbLine
 62
7
  6
CONTINUOUS
 10
11.908577257
 20
7.8476704445
 11
11.908577257
 21
7.9371131636
  0
LINE
  5
24C
100
AcDbEntity
  8
0
100
AcDbLine
 62
7
  6
CONTINUOUS
 10
11.9544230027
 20
7.8476704445
 11
11.9544230027
 21
7.9371131636
  0
LINE
  5
24D
100
AcDbEntity
  8
0
100
AcDbLine
 62
7
  6
CONTINUOUS
 10
12.0012178346
 20
7.8476704445
 11
12.0012178346
 21
7.9371131636
  0
LINE
  5
24E
100
AcDbEntity
  8
0
100
AcDbLine
 62
7
  6
CONTINUOUS
 10
12.0485849673
 20
7.8476704445
 11
12.0485849673
 21
7.9371131636
  0
LINE
  5
24F
100
AcDbEntity
  8
0
100
AcDbLine
 62
7
  6
CONTINUOUS
 10
12.0961430072
 20
7.8476704445
 11
12.0961430072
 21
7.9371131636
  0
LINE
  5
250
100
AcDbEntity
  8
0
100
AcDbLine
 62
7
  6
CONTINUOUS
 10
12.1435090237
 20
7.8476704445
 11
12.1435090237
 21
7.9371131636
  0
LINE
  5
251
100
AcDbEntity
  8
0
100
AcDbLine
 62
7
  6
CONTINUOUS
 10
12.1903016324
 20
7.8476704445
 11
12.1903016324
 21
7.9371131636
  0
LINE
  5
252
100
AcDbEntity
  8
0
100
AcDbLine
 62
7
  6
CONTINUOUS
 10
12.2361440657
 20
7.8476704445
 11
12.2361440657
 21
7.9371131636
  0
LINE
  5
253
100
AcDbEntity
  8
0
100
AcDbLine
 62
7
  6
CONTINUOUS
 10
12.2806672069
 20
7.8476704445
 11
12.2806672069
 21
7.9371131636
  0
LINE
  5
254
100
AcDbEntity
  8
0
100
AcDbLine
 62
7
  6
CONTINUOUS
 10
12.3222946802
 20
8.148391804
 11
12.3222946802
 21
8.755391804
  0
LINE
  5
255
100
AcDbEntity
  8
0
100
AcDbLine
 62
7
  6
CONTINUOUS
 10
12.3235125619
 20
7.8476704445
 11
12.3235125619
 21
7.9371131636
  0
LINE
  5
256
100
AcDbEntity
  8
0
100
AcDbLine
 62
7
  6
CONTINUOUS
 10
12.3643351459
 20
7.8476704445
 11
12.3643351459
 21
7.9371131636
  0
LINE
  5
257
100
AcDbEntity
  8
0
100
AcDbLine
 62
7
  6
CONTINUOUS
 10
12.6022946813
 20
9.4733918059
 11
12.6104356964
 21
9.4874924576
  0
LINE
  5
258
100
AcDbEntity
  8
0
100
AcDbLine
 62
7
  6
CONTINUOUS
 10
12.7105938154
 20
9.2931817577
 11
12.7401803413
 21
9.3342186468
  0
LINE
  5
259
100
AcDbEntity
  8
0
100
AcDbLine
 62
9
  6
CONTINUOUS
 10
21.8322946802
 20
10.4356525729
 11
20.3122946802
 21
10.4356525729
  0
LINE
  5
25A
100
AcDbEntity
  8
0
100
AcDbLine
 62
9
  6
CONTINUOUS
 10
20.2838259015
 20
10.5055330736
 11
21.860763459
 21
10.5055330736
  0
LINE
  5
25B
100
AcDbEntity
  8
0
100
AcDbLine
 62
7
  6
CONTINUOUS
 10
12.7105938154
 20
9.0536018503
 11
12.7401803413
 21
9.0125649613
  0
LINE
  5
25C
100
AcDbEntity
  8
0
100
AcDbLine
 62
7
  6
CONTINUOUS
 10
11.5422946792
 20
9.4733918058
 11
11.5341536641
 21
9.4874924576
  0
LINE
  5
25D
100
AcDbEntity
  8
0
100
AcDbLine
 62
7
  6
CONTINUOUS
 10
12.4028062612
 20
7.8476704445
 11
12.4028062612
 21
7.9371131636
  0
LINE
  5
25E
100
AcDbEntity
  8
0
100
AcDbLine
 62
7
  6
CONTINUOUS
 10
12.4386161439
 20
7.8476704445
 11
12.4386161439
 21
7.9371131636
  0
LINE
  5
25F
100
AcDbEntity
  8
0
100
AcDbLine
 62
7
  6
CONTINUOUS
 10
20.0069170761
 20
10.801391804
 11
20.2049922669
 21
10.801391804
  0
LINE
  5
260
100
AcDbEntity
  8
0
100
AcDbLine
 62
7
  6
CONTINUOUS
 10
20.4329256367
 20
10.801391804
 11
20.9111214488
 21
10.801391804
  0
LINE
  5
261
100
AcDbEntity
  8
0
100
AcDbLine
 62
7
  6
CONTINUOUS
 10
21.2334679117
 20
10.801391804
 11
21.7116637237
 21
10.801391804
  0
LINE
  5
262
100
AcDbEntity
  8
0
100
AcDbLine
 62
7
  6
CONTINUOUS
 10
21.9395970936
 20
10.801391804
 11
22.1376722844
 21
10.801391804
  0
LINE
  5
263
100
AcDbEntity
  8
0
100
AcDbLine
 62
9
  6
CONTINUOUS
 10
22.1376722844
 20
11.411391804
 11
21.9395970936
 21
11.411391804
  0
LINE
  5
264
100
AcDbEntity
  8
0
100
AcDbLine
 62
9
  6
CONTINUOUS
 10
21.7116637237
 20
11.411391804
 11
21.2334679117
 21
11.411391804
  0
LINE
  5
265
100
AcDbEntity
  8
0
100
AcDbLine
 62
9
  6
CONTINUOUS
 10
20.9111214488
 20
11.411391804
 11
20.4329256367
 21
11.411391804
  0
LINE
  5
266
100
AcDbEntity
  8
0
100
AcDbLine
 62
9
  6
CONTINUOUS
 10
20.2049922669
 20
11.411391804
 11
20.0069170761
 21
11.411391804
  0
LINE
  5
267
100
AcDbEntity
  8
0
100
AcDbLine
 62
7
  6
CONTINUOUS
 10
13.2236306675
 20
6.4675154031
 11
13.2547946802
 21
6.333391804
  0
LINE
  5
268
100
AcDbEntity
  8
0
100
AcDbLine
 62
7
  6
CONTINUOUS
 10
21.9997796386
 20
11.561391804
 11
20.1448097219
 21
11.561391804
  0
LINE
  5
269
100
AcDbEntity
  8
0
100
AcDbLine
 62
9
  6
CONTINUOUS
 10
20.1631582472
 20
11.621391804
 11
21.9814311133
 21
11.621391804
  0
LINE
  5
26A
100
AcDbEntity
  8
0
100
AcDbLine
 62
7
  6
CONTINUOUS
 10
21.860763459
 20
10.5055330736
 11
22.0622946802
 21
10.7118248749
  0
LINE
  5
26B
100
AcDbEntity
  8
0
100
AcDbLine
 62
7
  6
CONTINUOUS
 10
20.2838259015
 20
10.5055330736
 11
20.0822946802
 21
10.7118248749
  0
LINE
  5
26C
100
AcDbEntity
  8
0
100
AcDbLine
 62
7
  6
CONTINUOUS
 10
20.0069170761
 20
10.801391804
 11
20.0069170761
 21
11.411391804
  0
LINE
  5
26D
100
AcDbEntity
  8
0
100
AcDbLine
 62
7
  6
CONTINUOUS
 10
20.0597946802
 20
6.5823592717
 11
20.0597946802
 21
6.333391804
  0
LINE
  5
26E
100
AcDbEntity
  8
0
100
AcDbLine
 62
7
  6
CONTINUOUS
 10
20.4337665428
 20
10.7854668396
 11
20.4329256367
 21
10.801391804
  0
LINE
  5
26F
100
AcDbEntity
  8
0
100
AcDbLine
 62
7
  6
CONTINUOUS
 10
20.2049922669
 20
10.801391804
 11
20.2049922669
 21
11.411391804
  0
LINE
  5
270
100
AcDbEntity
  8
0
100
AcDbLine
 62
7
  6
CONTINUOUS
 10
20.3122946802
 20
10.4356525729
 11
20.3122946802
 21
9.8762249518
  0
LINE
  5
271
100
AcDbEntity
  8
0
100
AcDbLine
 62
7
  6
CONTINUOUS
 10
20.4329256367
 20
10.801391804
 11
20.4329256367
 21
11.411391804
  0
LINE
  5
272
100
AcDbEntity
  8
0
100
AcDbLine
 62
7
  6
CONTINUOUS
 10
20.9111214488
 20
10.801391804
 11
20.9111214488
 21
11.411391804
  0
LINE
  5
273
100
AcDbEntity
  8
0
100
AcDbLine
 62
7
  6
CONTINUOUS
 10
20.4967057474
 20
9.801391804
 11
20.4154240768
 21
7.6367325769
  0
LINE
  5
274
100
AcDbEntity
  8
0
100
AcDbLine
 62
7
  6
CONTINUOUS
 10
21.647883613
 20
9.801391804
 11
21.7291652836
 21
7.6367325769
  0
LINE
  5
275
100
AcDbEntity
  8
0
100
AcDbLine
 62
7
  6
CONTINUOUS
 10
21.2334679117
 20
10.801391804
 11
21.2334679117
 21
11.411391804
  0
LINE
  5
276
100
AcDbEntity
  8
0
100
AcDbLine
 62
7
  6
CONTINUOUS
 10
21.7116637237
 20
10.801391804
 11
21.7116637237
 21
11.411391804
  0
LINE
  5
277
100
AcDbEntity
  8
0
100
AcDbLine
 62
7
  6
CONTINUOUS
 10
21.8322946802
 20
10.4356525729
 11
21.8322946802
 21
9.8762249518
  0
LINE
  5
278
100
AcDbEntity
  8
0
100
AcDbLine
 62
7
  6
CONTINUOUS
 10
21.9395970936
 20
10.801391804
 11
21.9395970936
 21
11.411391804
  0
LINE
  5
279
100
AcDbEntity
  8
0
100
AcDbLine
 62
7
  6
CONTINUOUS
 10
22.0847946802
 20
6.5823592717
 11
22.0847946802
 21
6.333391804
  0
LINE
  5
27A
100
AcDbEntity
  8
0
100
AcDbLine
 62
7
  6
CONTINUOUS
 10
22.1376722844
 20
10.801391804
 11
22.1376722844
 21
11.411391804
  0
LINE
  5
27B
100
AcDbEntity
  8
0
100
AcDbLine
 62
7
  6
CONTINUOUS
 10
21.7116637237
 20
10.801391804
 11
21.7108228177
 21
10.785466592
  0
ARC
  5
27C
100
AcDbEntity
  8
0
100
AcDbCircle
 62
7
  6
CONTINUOUS
 10
0.1635150865
 20
6.1504967643
 40
0.9
100
AcDbArc
 50
130.6439171763
 51
168.2748731243
  0
ARC
  5
27D
100
AcDbEntity
  8
0
100
AcDbCircle
 62
7
  6
CONTINUOUS
 10
-0.0189257261
 20
6.1504967643
 40
0.9
100
AcDbArc
 50
11.7251268757
 51
49.3560828237
  0
ARC
  5
27E
100
AcDbEntity
  8
0
100
AcDbCircle
 62
7
  6
CONTINUOUS
 10
4.8782922527
 20
6.5850258926
 40
0.55
100
AcDbArc
 50
145.2667732285
 51
180.1702300279
  0
ARC
  5
27F
100
AcDbEntity
  8
0
100
AcDbCircle
 62
7
  6
CONTINUOUS
 10
3.2662971077
 20
6.5850258926
 40
0.55
100
AcDbArc
 50
359.8297699721
 51
34.7332267715
  0
ARC
  5
280
100
AcDbEntity
  8
0
100
AcDbCircle
 62
7
  6
CONTINUOUS
 10
4.0722946802
 20
6.783391804
 40
0.43
100
AcDbArc
 50
39.7571456882
 51
140.2428543118
  0
ARC
  5
281
100
AcDbEntity
  8
0
100
AcDbCircle
 62
7
  6
CONTINUOUS
 10
0.0097946802
 20
6.913391804
 40
0.4
100
AcDbArc
 50
155.7790568908
 51
180.0
  0
ARC
  5
282
100
AcDbEntity
  8
0
100
AcDbCircle
 62
7
  6
CONTINUOUS
 10
0.1347946802
 20
6.913391804
 40
0.4
100
AcDbArc
 50
0.0
 51
24.2209431092
  0
ARC
  5
283
100
AcDbEntity
  8
0
100
AcDbCircle
 62
7
  6
CONTINUOUS
 10
4.5518718926
 20
6.271391804
 40
0.187
100
AcDbArc
 50
19.3629299219
 51
90.0
  0
ARC
  5
284
100
AcDbEntity
  8
0
100
AcDbCircle
 62
7
  6
CONTINUOUS
 10
3.5927174679
 20
6.271391804
 40
0.187
100
AcDbArc
 50
90.0
 51
160.6370700781
  0
ARC
  5
285
100
AcDbEntity
  8
0
100
AcDbCircle
 62
7
  6
CONTINUOUS
 10
3.7799674679
 20
6.396391804
 40
0.187
100
AcDbArc
 50
90.0
 51
160.6370700781
  0
ARC
  5
286
100
AcDbEntity
  8
0
100
AcDbCircle
 62
7
  6
CONTINUOUS
 10
4.3646218926
 20
6.396391804
 40
0.187
100
AcDbArc
 50
19.3629299219
 51
90.0
  0
ARC
  5
287
100
AcDbEntity
  8
0
100
AcDbCircle
 62
7
  6
CONTINUOUS
 10
4.4644768692
 20
6.9783806122
 40
0.0825729886
100
AcDbArc
 50
0.0077658359
 51
7.8583347417
  0
ARC
  5
288
100
AcDbEntity
  8
0
100
AcDbCircle
 62
7
  6
CONTINUOUS
 10
4.4672946802
 20
6.978391804
 40
0.08
100
AcDbArc
 50
270.0
 51
323.7311477755
  0
ARC
  5
289
100
AcDbEntity
  8
0
100
AcDbCircle
 62
7
  6
CONTINUOUS
 10
4.4672946802
 20
6.978391804
 40
0.08
100
AcDbArc
 50
36.2688522245
 51
90.0
  0
ARC
  5
28A
100
AcDbEntity
  8
0
100
AcDbCircle
 62
7
  6
CONTINUOUS
 10
3.6772946802
 20
6.978391804
 40
0.08
100
AcDbArc
 50
90.0
 51
143.4916464415
  0
ARC
  5
28B
100
AcDbEntity
  8
0
100
AcDbCircle
 62
7
  6
CONTINUOUS
 10
3.6772946802
 20
6.978391804
 40
0.08
100
AcDbArc
 50
216.5083535585
 51
270.0
  0
ARC
  5
28C
100
AcDbEntity
  8
0
100
AcDbCircle
 62
7
  6
CONTINUOUS
 10
4.4676028698
 20
6.9791341898
 40
0.0793472152
100
AcDbArc
 50
18.3352494339
 51
25.943280214
  0
ARC
  5
28D
100
AcDbEntity
  8
0
100
AcDbCircle
 62
7
  6
CONTINUOUS
 10
4.4687351953
 20
6.9796523458
 40
0.078102198
100
AcDbArc
 50
25.9648412784
 51
27.3080162323
  0
ARC
  5
28E
100
AcDbEntity
  8
0
100
AcDbCircle
 62
7
  6
CONTINUOUS
 10
4.4689113919
 20
6.9770460459
 40
0.0779065978
100
AcDbArc
 50
332.6882080303
 51
334.0347450678
  0
ARC
  5
28F
100
AcDbEntity
  8
0
100
AcDbCircle
 62
7
  6
CONTINUOUS
 10
4.4694551701
 20
6.9767555568
 40
0.0772901531
100
AcDbArc
 50
323.7616396829
 51
332.6945855334
  0
ARC
  5
290
100
AcDbEntity
  8
0
100
AcDbCircle
 62
7
  6
CONTINUOUS
 10
4.4697816432
 20
6.9802306618
 40
0.0769070647
100
AcDbArc
 50
27.2828490168
 51
36.2603934597
  0
ARC
  5
291
100
AcDbEntity
  8
0
100
AcDbCircle
 62
7
  6
CONTINUOUS
 10
4.096974162
 20
6.9783345459
 40
0.076393506
100
AcDbArc
 50
179.9570566616
 51
218.2259814983
  0
ARC
  5
292
100
AcDbEntity
  8
0
100
AcDbCircle
 62
7
  6
CONTINUOUS
 10
4.0969513654
 20
6.978456515
 40
0.0763704055
100
AcDbArc
 50
141.7678282058
 51
180.0485473501
  0
ARC
  5
293
100
AcDbEntity
  8
0
100
AcDbCircle
 62
7
  6
CONTINUOUS
 10
-0.3458737046
 20
7.073391804
 40
0.01
100
AcDbArc
 50
90.0
 51
155.7790568908
  0
ARC
  5
294
100
AcDbEntity
  8
0
100
AcDbCircle
 62
7
  6
CONTINUOUS
 10
0.4904630651
 20
7.073391804
 40
0.01
100
AcDbArc
 50
24.2209431092
 51
90.0
  0
ARC
  5
295
100
AcDbEntity
  8
0
100
AcDbCircle
 62
7
  6
CONTINUOUS
 10
7.4813207067
 20
6.9762613027
 40
3.73829445
100
AcDbArc
 50
179.9673464079
 51
180.6927154295
  0
ARC
  5
296
100
AcDbEntity
  8
0
100
AcDbCircle
 62
7
  6
CONTINUOUS
 10
7.4810917213
 20
6.9805236244
 40
3.7380654654
100
AcDbArc
 50
179.307262353
 51
180.0326758095
  0
ARC
  5
297
100
AcDbEntity
  8
0
100
AcDbCircle
 62
7
  6
CONTINUOUS
 10
10.8390770389
 20
6.9748372168
 40
0.48
100
AcDbArc
 50
284.9831919528
 51
327.3918704587
  0
ARC
  5
298
100
AcDbEntity
  8
0
100
AcDbCircle
 62
7
  6
CONTINUOUS
 10
11.4118926807
 20
6.608391804
 40
0.2
100
AcDbArc
 50
90.0
 51
147.3918704587
  0
ARC
  5
299
100
AcDbEntity
  8
0
100
AcDbCircle
 62
7
  6
CONTINUOUS
 10
11.4072946802
 20
6.888391804
 40
0.08
100
AcDbArc
 50
91.0743588229
 51
270.0
  0
ARC
  5
29A
100
AcDbEntity
  8
0
100
AcDbCircle
 62
7
  6
CONTINUOUS
 10
10.9784277672
 20
6.4541622947
 40
0.059
100
AcDbArc
 50
104.9831919522
 51
166.9192612079
  0
ARC
  5
29B
100
AcDbEntity
  8
0
100
AcDbCircle
 62
7
  6
CONTINUOUS
 10
10.5852827418
 20
7.5860258269
 40
1.027
100
AcDbArc
 50
323.029050496
 51
13.8799876593
  0
ARC
  5
29C
100
AcDbEntity
  8
0
100
AcDbCircle
 62
7
  6
CONTINUOUS
 10
11.7822546762
 20
7.948391804
 40
0.2
100
AcDbArc
 50
90.0
 51
178.8540080016
  0
ARC
  5
29D
100
AcDbEntity
  8
0
100
AcDbCircle
 62
7
  6
CONTINUOUS
 10
11.7182105757
 20
7.8923940148
 40
0.132581731
100
AcDbArc
 50
180.0009554041
 51
182.8913240871
  0
ARC
  5
29E
100
AcDbEntity
  8
0
100
AcDbCircle
 62
7
  6
CONTINUOUS
 10
11.7179650983
 20
7.8923957911
 40
0.1323362536
100
AcDbArc
 50
177.1062650914
 51
180.0017262223
  0
ARC
  5
29F
100
AcDbEntity
  8
0
100
AcDbCircle
 62
7
  6
CONTINUOUS
 10
11.6705448622
 20
7.8923943951
 40
0.1059261731
100
AcDbArc
 50
180.0014015058
 51
183.6199827782
  0
ARC
  5
2A0
100
AcDbEntity
  8
0
100
AcDbCircle
 62
7
  6
CONTINUOUS
 10
11.6703870554
 20
7.8923942024
 40
0.1057683662
100
AcDbArc
 50
176.3776554983
 51
180.0012992071
  0
ARC
  5
2A1
100
AcDbEntity
  8
0
100
AcDbCircle
 62
7
  6
CONTINUOUS
 10
11.5847469484
 20
7.8923964362
 40
0.0620998409
100
AcDbArc
 50
173.816797576
 51
186.1851397428
  0
ARC
  5
2A2
100
AcDbEntity
  8
0
100
AcDbCircle
 62
7
  6
CONTINUOUS
 10
11.5824139784
 20
7.892565383
 40
0.06020922
100
AcDbArc
 50
234.8892407436
 51
242.1033161251
  0
ARC
  5
2A3
100
AcDbEntity
  8
0
100
AcDbCircle
 62
7
  6
CONTINUOUS
 10
11.5823585924
 20
7.8924966357
 40
0.0601211263
100
AcDbArc
 50
229.8761931969
 51
234.8947371393
  0
ARC
  5
2A4
100
AcDbEntity
  8
0
100
AcDbCircle
 62
7
  6
CONTINUOUS
 10
11.5822946802
 20
7.892391804
 40
0.06
100
AcDbArc
 50
242.1264454937
 51
270.0
  0
ARC
  5
2A5
100
AcDbEntity
  8
0
100
AcDbCircle
 62
7
  6
CONTINUOUS
 10
11.5822946802
 20
7.892391804
 40
0.06
100
AcDbArc
 50
90.0
 51
131.8425820978
  0
ARC
  5
2A6
100
AcDbEntity
  8
0
100
AcDbCircle
 62
7
  6
CONTINUOUS
 10
11.5819973073
 20
7.892060768
 40
0.0595550116
100
AcDbArc
 50
228.1905896651
 51
229.8717358
  0
ARC
  5
2A7
100
AcDbEntity
  8
0
100
AcDbCircle
 62
7
  6
CONTINUOUS
 10
11.5808595462
 20
7.8939432702
 40
0.0578791395
100
AcDbArc
 50
131.7667809254
 51
139.4696595162
  0
ARC
  5
2A8
100
AcDbEntity
  8
0
100
AcDbCircle
 62
7
  6
CONTINUOUS
 10
11.5807518281
 20
7.8907340254
 40
0.0577280947
100
AcDbArc
 50
220.2886919953
 51
228.2426758636
  0
ARC
  5
2A9
100
AcDbEntity
  8
0
100
AcDbCircle
 62
7
  6
CONTINUOUS
 10
11.6153179102
 20
7.8924051563
 40
0.0467436079
100
AcDbArc
 50
171.7606218437
 51
188.2386112632
  0
ARC
  5
2AA
100
AcDbEntity
  8
0
100
AcDbCircle
 62
7
  6
CONTINUOUS
 10
11.63592709
 20
7.8924063521
 40
0.0455291829
100
AcDbArc
 50
171.5377375071
 51
188.4614752812
  0
ARC
  5
2AB
100
AcDbEntity
  8
0
100
AcDbCircle
 62
7
  6
CONTINUOUS
 10
11.181340928
 20
9.1733913084
 40
0.275
100
AcDbArc
 50
35.7921389123
 51
324.2078712009
  0
ARC
  5
2AC
100
AcDbEntity
  8
0
100
AcDbCircle
 62
7
  6
CONTINUOUS
 10
11.1813773845
 20
9.173191843
 40
0.2747965561
100
AcDbArc
 50
275.87357732
 51
280.0224643248
  0
ARC
  5
2AD
100
AcDbEntity
  8
0
100
AcDbCircle
 62
7
  6
CONTINUOUS
 10
11.1815714423
 20
9.1737743532
 40
0.2745535304
100
AcDbArc
 50
60.1689662478
 51
64.5661212365
  0
ARC
  5
2AE
100
AcDbEntity
  8
0
100
AcDbCircle
 62
7
  6
CONTINUOUS
 10
11.182026149
 20
9.1742470439
 40
0.2739044698
100
AcDbArc
 50
47.982990075
 51
51.737711109
  0
ARC
  5
2AF
100
AcDbEntity
  8
0
100
AcDbCircle
 62
7
  6
CONTINUOUS
 10
11.3196765704
 20
9.1501607069
 40
0.1972255508
100
AcDbArc
 50
329.7329124825
 51
330.0653457207
  0
ARC
  5
2B0
100
AcDbEntity
  8
0
100
AcDbCircle
 62
7
  6
CONTINUOUS
 10
11.3780353811
 20
9.0829803353
 40
0.1055885312
100
AcDbArc
 50
267.8312473169
 51
269.9989942454
  0
ARC
  5
2B1
100
AcDbEntity
  8
0
100
AcDbCircle
 62
7
  6
CONTINUOUS
 10
11.3184105816
 20
9.1958933603
 40
0.1986866484
100
AcDbArc
 50
29.2094183966
 51
30.4295433987
  0
ARC
  5
2B2
100
AcDbEntity
  8
0
100
AcDbCircle
 62
7
  6
CONTINUOUS
 10
11.3780353207
 20
9.2638002463
 40
0.1055915578
100
AcDbArc
 50
90.0009729609
 51
92.145556837
  0
ARC
  5
2B3
100
AcDbEntity
  8
0
100
AcDbCircle
 62
7
  6
CONTINUOUS
 10
11.5023306503
 20
9.6307098782
 40
0.1
100
AcDbArc
 50
298.3426227077
 51
353.4072769727
  0
ARC
  5
2B4
100
AcDbEntity
  8
0
100
AcDbCircle
 62
7
  6
CONTINUOUS
 10
11.9222946802
 20
9.173391804
 40
0.77
100
AcDbArc
 50
341.3475770898
 51
348.6470275967
  0
ARC
  5
2B5
100
AcDbEntity
  8
0
100
AcDbCircle
 62
7
  6
CONTINUOUS
 10
11.9222946802
 20
9.173391804
 40
0.77
100
AcDbArc
 50
11.3629077153
 51
19.0663081681
  0
ARC
  5
2B6
100
AcDbEntity
  8
0
100
AcDbCircle
 62
7
  6
CONTINUOUS
 10
11.740092708
 20
9.1501327854
 40
0.2228653921
100
AcDbArc
 50
204.7365484107
 51
205.5950572833
  0
ARC
  5
2B7
100
AcDbEntity
  8
0
100
AcDbCircle
 62
7
  6
CONTINUOUS
 10
11.713474302
 20
9.1534686757
 40
0.1998948142
100
AcDbArc
 50
208.926780934
 51
209.7825901908
  0
ARC
  5
2B8
100
AcDbEntity
  8
0
100
AcDbCircle
 62
9
  6
CONTINUOUS
 10
11.704332402
 20
9.1503962388
 40
0.1901497117
100
AcDbArc
 50
209.2844183378
 51
209.5732101303
  0
ARC
  5
2B9
100
AcDbEntity
  8
0
100
AcDbCircle
 62
9
  6
CONTINUOUS
 10
11.7027938258
 20
9.1495213481
 40
0.1883797828
100
AcDbArc
 50
209.5727315786
 51
210.5340978212
  0
ARC
  5
2BA
100
AcDbEntity
  8
0
100
AcDbCircle
 62
7
  6
CONTINUOUS
 10
11.7042946802
 20
8.755391804
 40
0.118
100
AcDbArc
 50
0.0
 51
90.0
  0
ARC
  5
2BB
100
AcDbEntity
  8
0
100
AcDbCircle
 62
7
  6
CONTINUOUS
 10
11.6576127321
 20
9.0915406535
 40
0.1141488566
100
AcDbArc
 50
261.5061788185
 51
269.9797192309
  0
ARC
  5
2BC
100
AcDbEntity
  8
0
100
AcDbCircle
 62
7
  6
CONTINUOUS
 10
11.6521309065
 20
9.0800920267
 40
0.1118274021
100
AcDbArc
 50
282.9635730705
 51
287.6523910945
  0
ARC
  5
2BD
100
AcDbEntity
  8
0
100
AcDbCircle
 62
7
  6
CONTINUOUS
 10
11.6532851605
 20
9.0745679679
 40
0.1061852617
100
AcDbArc
 50
273.7930881619
 51
283.0252933857
  0
ARC
  5
2BE
100
AcDbEntity
  8
0
100
AcDbCircle
 62
7
  6
CONTINUOUS
 10
11.6767815567
 20
9.0742806909
 40
0.1059225399
100
AcDbArc
 50
257.5662335837
 51
258.9764227299
  0
ARC
  5
2BF
100
AcDbEntity
  8
0
100
AcDbCircle
 62
7
  6
CONTINUOUS
 10
11.6765028616
 20
9.0727548178
 40
0.1043715328
100
AcDbArc
 50
258.9664240787
 51
263.5873253539
  0
ARC
  5
2C0
100
AcDbEntity
  8
0
100
AcDbCircle
 62
7
  6
CONTINUOUS
 10
11.6534936829
 20
9.0719970937
 40
0.1036062316
100
AcDbArc
 50
272.9613505535
 51
273.7720773764
  0
ARC
  5
2C1
100
AcDbEntity
  8
0
100
AcDbCircle
 62
7
  6
CONTINUOUS
 10
11.6535387411
 20
9.0709636748
 40
0.1025718651
100
AcDbArc
 50
270.0003053903
 51
272.9660375365
  0
ARC
  5
2C2
100
AcDbEntity
  8
0
100
AcDbCircle
 62
9
  6
CONTINUOUS
 10
11.6574736894
 20
9.0766286333
 40
0.0992382227
100
AcDbArc
 50
270.9203071268
 51
280.711202312
  0
ARC
  5
2C3
100
AcDbEntity
  8
0
100
AcDbCircle
 62
9
  6
CONTINUOUS
 10
11.6575722947
 20
9.0753989339
 40
0.0980071298
100
AcDbArc
 50
270.0000190796
 51
270.8742157274
  0
ARC
  5
2C4
100
AcDbEntity
  8
0
100
AcDbCircle
 62
9
  6
CONTINUOUS
 10
11.6419027861
 20
9.0800596268
 40
0.0933457587
100
AcDbArc
 50
270.0000190807
 51
270.8742157283
  0
ARC
  5
2C5
100
AcDbEntity
  8
0
100
AcDbCircle
 62
7
  6
CONTINUOUS
 10
11.5675886393
 20
8.952391804
 40
0.079
100
AcDbArc
 50
198.6524229102
 51
270.0
  0
ARC
  5
2C6
100
AcDbEntity
  8
0
100
AcDbCircle
 62
7
  6
CONTINUOUS
 10
11.7376751354
 20
9.1977894453
 40
0.220193203
100
AcDbArc
 50
153.7290194154
 51
155.2673182503
  0
ARC
  5
2C7
100
AcDbEntity
  8
0
100
AcDbCircle
 62
7
  6
CONTINUOUS
 10
11.7120314771
 20
9.1941270829
 40
0.1982392853
100
AcDbArc
 50
149.4958163631
 51
151.1219787185
  0
ARC
  5
2C8
100
AcDbEntity
  8
0
100
AcDbCircle
 62
7
  6
CONTINUOUS
 10
11.7097400135
 20
9.1954703921
 40
0.195583113
100
AcDbArc
 50
149.2033307744
 51
149.4941274356
  0
ARC
  5
2C9
100
AcDbEntity
  8
0
100
AcDbCircle
 62
9
  6
CONTINUOUS
 10
11.7051263278
 20
9.1959340497
 40
0.1910639299
100
AcDbArc
 50
150.7101317219
 51
150.9685634509
  0
ARC
  5
2CA
100
AcDbEntity
  8
0
100
AcDbCircle
 62
9
  6
CONTINUOUS
 10
11.7014674809
 20
9.1980209285
 40
0.1868518878
100
AcDbArc
 50
148.5841009652
 51
150.7193529904
  0
ARC
  5
2CB
100
AcDbEntity
  8
0
100
AcDbCircle
 62
7
  6
CONTINUOUS
 10
11.6575986968
 20
9.255406798
 40
0.1139852955
100
AcDbArc
 50
90.8652338383
 51
99.2414436065
  0
ARC
  5
2CC
100
AcDbEntity
  8
0
100
AcDbCircle
 62
7
  6
CONTINUOUS
 10
11.6520255226
 20
9.2663193613
 40
0.1122138757
100
AcDbArc
 50
72.8375953657
 51
77.0341283801
  0
ARC
  5
2CD
100
AcDbEntity
  8
0
100
AcDbCircle
 62
7
  6
CONTINUOUS
 10
11.6531769076
 20
9.2714029876
 40
0.1070015267
100
AcDbArc
 50
77.024175539
 51
86.9796455514
  0
ARC
  5
2CE
100
AcDbEntity
  8
0
100
AcDbCircle
 62
7
  6
CONTINUOUS
 10
11.6768353898
 20
9.2722560039
 40
0.1061751998
100
AcDbArc
 50
101.9474385034
 51
102.4252144044
  0
ARC
  5
2CF
100
AcDbEntity
  8
0
100
AcDbCircle
 62
7
  6
CONTINUOUS
 10
11.6765845641
 20
9.2734936473
 40
0.1049124424
100
AcDbArc
 50
96.269892202
 51
101.9533463322
  0
ARC
  5
2D0
100
AcDbEntity
  8
0
100
AcDbCircle
 62
7
  6
CONTINUOUS
 10
11.6535287012
 20
9.2755307277
 40
0.1028610714
100
AcDbArc
 50
87.0541812843
 51
89.994103021
  0
ARC
  5
2D1
100
AcDbEntity
  8
0
100
AcDbCircle
 62
7
  6
CONTINUOUS
 10
11.6575723599
 20
9.2713846743
 40
0.0980071298
100
AcDbArc
 50
90.0000190795
 51
90.8742157275
  0
ARC
  5
2D2
100
AcDbEntity
  8
0
100
AcDbCircle
 62
9
  6
CONTINUOUS
 10
11.6419028483
 20
9.2667239813
 40
0.0933457587
100
AcDbArc
 50
90.0000190788
 51
90.8742157264
  0
ARC
  5
2D3
100
AcDbEntity
  8
0
100
AcDbCircle
 62
7
  6
CONTINUOUS
 10
11.569202136
 20
9.399115371
 40
0.079
100
AcDbArc
 50
109.9134773482
 51
160.9336918348
  0
ARC
  5
2D4
100
AcDbEntity
  8
0
100
AcDbCircle
 62
7
  6
CONTINUOUS
 10
11.7022946802
 20
9.6305105296
 40
0.05
100
AcDbArc
 50
109.2904540363
 51
176.6453337496
  0
ARC
  5
2D5
100
AcDbEntity
  8
0
100
AcDbCircle
 62
7
  6
CONTINUOUS
 10
11.5687946802
 20
9.5074924576
 40
0.04
100
AcDbArc
 50
118.3426227079
 51
210.0
  0
ARC
  5
2D6
100
AcDbEntity
  8
0
100
AcDbCircle
 62
7
  6
CONTINUOUS
 10
11.6175635836
 20
9.617391804
 40
0.016
100
AcDbArc
 50
90.0
 51
173.4072769728
  0
ARC
  5
2D7
100
AcDbEntity
  8
0
100
AcDbCircle
 62
7
  6
CONTINUOUS
 10
21.0722946802
 20
5.2959760049
 40
6.3904157991
100
AcDbArc
 50
81.821031102
 51
98.178968898
  0
ARC
  5
2D8
100
AcDbEntity
  8
0
100
AcDbCircle
 62
7
  6
CONTINUOUS
 10
20.7482746722
 20
6.7038598012
 40
1.3
100
AcDbArc
 50
357.7751307225
 51
37.4382101818
  0
ARC
  5
2D9
100
AcDbEntity
  8
0
100
AcDbCircle
 62
7
  6
CONTINUOUS
 10
21.3963146883
 20
6.7038598012
 40
1.3
100
AcDbArc
 50
142.5617898181
 51
182.2248692774
  0
ARC
  5
2DA
100
AcDbEntity
  8
0
100
AcDbCircle
 62
7
  6
CONTINUOUS
 10
13.5593066186
 20
7.5860258269
 40
1.027
100
AcDbArc
 50
166.1200123407
 51
216.970949504
  0
ARC
  5
2DB
100
AcDbEntity
  8
0
100
AcDbCircle
 62
7
  6
CONTINUOUS
 10
13.3055123216
 20
6.9748372168
 40
0.48
100
AcDbArc
 50
212.6081295413
 51
255.0168080472
  0
ARC
  5
2DC
100
AcDbEntity
  8
0
100
AcDbCircle
 62
7
  6
CONTINUOUS
 10
20.1656001354
 20
7.6461133178
 40
0.25
100
AcDbArc
 50
322.5617898181
 51
357.849587733
  0
ARC
  5
2DD
100
AcDbEntity
  8
0
100
AcDbCircle
 62
7
  6
CONTINUOUS
 10
21.978989225
 20
7.6461133178
 40
0.25
100
AcDbArc
 50
182.150412267
 51
217.4382101818
  0
ARC
  5
2DE
100
AcDbEntity
  8
0
100
AcDbCircle
 62
7
  6
CONTINUOUS
 10
12.3623346842
 20
7.948391804
 40
0.2
100
AcDbArc
 50
1.1459919984
 51
90.0
  0
ARC
  5
2DF
100
AcDbEntity
  8
0
100
AcDbCircle
 62
7
  6
CONTINUOUS
 10
12.7326966798
 20
6.608391804
 40
0.2
100
AcDbArc
 50
32.6081295413
 51
90.0
  0
ARC
  5
2E0
100
AcDbEntity
  8
0
100
AcDbCircle
 62
7
  6
CONTINUOUS
 10
12.4265448381
 20
7.8923895922
 40
0.1324827433
100
AcDbArc
 50
0.0009565769
 51
2.8934867104
  0
ARC
  5
2E1
100
AcDbEntity
  8
0
100
AcDbCircle
 62
7
  6
CONTINUOUS
 10
12.4267900012
 20
7.8923878213
 40
0.1322375802
100
AcDbArc
 50
357.1041020443
 51
0.0017256191
  0
ARC
  5
2E2
100
AcDbEntity
  8
0
100
AcDbCircle
 62
7
  6
CONTINUOUS
 10
12.4741607461
 20
7.8923892117
 40
0.105865299
100
AcDbArc
 50
0.0014029992
 51
3.6220677892
  0
ARC
  5
2E3
100
AcDbEntity
  8
0
100
AcDbCircle
 62
7
  6
CONTINUOUS
 10
12.4743183366
 20
7.8923894109
 40
0.1057077085
100
AcDbArc
 50
356.3755712114
 51
0.001297114
  0
ARC
  5
2E4
100
AcDbEntity
  8
0
100
AcDbCircle
 62
7
  6
CONTINUOUS
 10
20.1458196223
 20
6.5823592717
 40
0.0860249421
100
AcDbArc
 50
124.3384233779
 51
180.0
  0
ARC
  5
2E5
100
AcDbEntity
  8
0
100
AcDbCircle
 62
7
  6
CONTINUOUS
 10
21.9987697382
 20
6.5823592717
 40
0.0860249421
100
AcDbArc
 50
0.0
 51
55.6615766221
  0
ARC
  5
2E6
100
AcDbEntity
  8
0
100
AcDbCircle
 62
7
  6
CONTINUOUS
 10
12.7372946802
 20
6.888391804
 40
0.08
100
AcDbArc
 50
270.0
 51
88.9256411771
  0
ARC
  5
2E7
100
AcDbEntity
  8
0
100
AcDbCircle
 62
7
  6
CONTINUOUS
 10
12.5598489473
 20
7.8923871928
 40
0.0620950169
100
AcDbArc
 50
353.8169061686
 51
6.1849902597
  0
ARC
  5
2E8
100
AcDbEntity
  8
0
100
AcDbCircle
 62
7
  6
CONTINUOUS
 10
12.5622946802
 20
7.892391804
 40
0.06
100
AcDbArc
 50
48.1896851042
 51
90.0
  0
ARC
  5
2E9
100
AcDbEntity
  8
0
100
AcDbCircle
 62
7
  6
CONTINUOUS
 10
12.5622946802
 20
7.892391804
 40
0.06
100
AcDbArc
 50
270.0
 51
311.8103148958
  0
ARC
  5
2EA
100
AcDbEntity
  8
0
100
AcDbCircle
 62
7
  6
CONTINUOUS
 10
13.1661615933
 20
6.4541622947
 40
0.059
100
AcDbArc
 50
13.0807387921
 51
75.0168080478
  0
ARC
  5
2EB
100
AcDbEntity
  8
0
100
AcDbCircle
 62
7
  6
CONTINUOUS
 10
12.5636625514
 20
7.8939733487
 40
0.0579112621
100
AcDbArc
 50
38.8094147164
 51
40.2290966362
  0
ARC
  5
2EC
100
AcDbEntity
  8
0
100
AcDbCircle
 62
7
  6
CONTINUOUS
 10
12.5636774797
 20
7.8907979449
 40
0.0578919115
100
AcDbArc
 50
319.770666223
 51
321.1904636246
  0
ARC
  5
2ED
100
AcDbEntity
  8
0
100
AcDbCircle
 62
7
  6
CONTINUOUS
 10
12.5638385178
 20
7.8941245285
 40
0.0576792786
100
AcDbArc
 50
40.227334593
 51
48.1852736375
  0
ARC
  5
2EE
100
AcDbEntity
  8
0
100
AcDbCircle
 62
7
  6
CONTINUOUS
 10
12.5638712699
 20
7.8906272226
 40
0.0576336989
100
AcDbArc
 50
311.8115745203
 51
319.7758172602
  0
ARC
  5
2EF
100
AcDbEntity
  8
0
100
AcDbCircle
 62
7
  6
CONTINUOUS
 10
12.5293250615
 20
7.8923784558
 40
0.0467477927
100
AcDbArc
 50
351.761369602
 51
8.2378634129
  0
ARC
  5
2F0
100
AcDbEntity
  8
0
100
AcDbCircle
 62
7
  6
CONTINUOUS
 10
12.5087287241
 20
7.8923772591
 40
0.0455321147
100
AcDbArc
 50
351.5382903677
 51
8.4609223064
  0
ARC
  5
2F1
100
AcDbEntity
  8
0
100
AcDbCircle
 62
7
  6
CONTINUOUS
 10
12.0722946802
 20
8.5733918041
 40
1.17
100
AcDbArc
 50
70.7095459639
 51
109.2904540361
  0
ARC
  5
2F2
100
AcDbEntity
  8
0
100
AcDbCircle
 62
7
  6
CONTINUOUS
 10
12.4402946802
 20
8.755391804
 40
0.118
100
AcDbArc
 50
90.0
 51
180.0
  0
ARC
  5
2F3
100
AcDbEntity
  8
0
100
AcDbCircle
 62
7
  6
CONTINUOUS
 10
12.4678035494
 20
9.0742967809
 40
0.1059391153
100
AcDbArc
 50
281.0325299712
 51
282.42589366
  0
ARC
  5
2F4
100
AcDbEntity
  8
0
100
AcDbCircle
 62
7
  6
CONTINUOUS
 10
12.468051374
 20
9.0729892532
 40
0.1046083274
100
AcDbArc
 50
275.9170980558
 51
281.03634877
  0
ARC
  5
2F5
100
AcDbEntity
  8
0
100
AcDbCircle
 62
7
  6
CONTINUOUS
 10
12.5770007211
 20
8.952391804
 40
0.079
100
AcDbArc
 50
270.0
 51
341.3475770898
  0
ARC
  5
2F6
100
AcDbEntity
  8
0
100
AcDbCircle
 62
7
  6
CONTINUOUS
 10
12.2222946802
 20
9.173391804
 40
0.77
100
AcDbArc
 50
191.3524635407
 51
198.6524229102
  0
ARC
  5
2F7
100
AcDbEntity
  8
0
100
AcDbCircle
 62
7
  6
CONTINUOUS
 10
12.2222946802
 20
9.173391804
 40
0.77
100
AcDbArc
 50
160.9336918348
 51
168.636049145
  0
ARC
  5
2F8
100
AcDbEntity
  8
0
100
AcDbCircle
 62
7
  6
CONTINUOUS
 10
12.4032333178
 20
9.1507332606
 40
0.2242651181
100
AcDbArc
 50
335.2231256326
 51
335.5638463437
  0
ARC
  5
2F9
100
AcDbEntity
  8
0
100
AcDbCircle
 62
7
  6
CONTINUOUS
 10
12.4033534561
 20
9.1961057155
 40
0.2241328354
100
AcDbArc
 50
24.4672923869
 51
24.7992693317
  0
ARC
  5
2FA
100
AcDbEntity
  8
0
100
AcDbCircle
 62
7
  6
CONTINUOUS
 10
12.4068826252
 20
9.1977451649
 40
0.220241465
100
AcDbArc
 50
24.7971913707
 51
26.4731686971
  0
ARC
  5
2FB
100
AcDbEntity
  8
0
100
AcDbCircle
 62
7
  6
CONTINUOUS
 10
12.4076198541
 20
9.1486840951
 40
0.2194236021
100
AcDbArc
 50
333.6601211621
 51
335.2289221262
  0
ARC
  5
2FC
100
AcDbEntity
  8
0
100
AcDbCircle
 62
7
  6
CONTINUOUS
 10
12.4317970512
 20
9.1936988535
 40
0.1991120901
100
AcDbArc
 50
28.8620923882
 51
30.5694704972
  0
ARC
  5
2FD
100
AcDbEntity
  8
0
100
AcDbCircle
 62
7
  6
CONTINUOUS
 10
12.4324108667
 20
9.152733725
 40
0.1984050946
100
AcDbArc
 50
329.5700530576
 51
331.1164844533
  0
ARC
  5
2FE
100
AcDbEntity
  8
0
100
AcDbCircle
 62
7
  6
CONTINUOUS
 10
12.4350933184
 20
9.1511623844
 40
0.1952962935
100
AcDbArc
 50
328.9408465955
 51
329.5689577939
  0
ARC
  5
2FF
100
AcDbEntity
  8
0
100
AcDbCircle
 62
7
  6
CONTINUOUS
 10
12.4353969677
 20
9.1958033374
 40
0.1949422114
100
AcDbArc
 50
30.5750157187
 51
31.1487050275
  0
ARC
  5
300
100
AcDbEntity
  8
0
100
AcDbCircle
 62
9
  6
CONTINUOUS
 10
12.4400471928
 20
9.1962704426
 40
0.1903898683
100
AcDbArc
 50
29.2379024409
 51
29.4172899151
  0
ARC
  5
301
100
AcDbEntity
  8
0
100
AcDbCircle
 62
9
  6
CONTINUOUS
 10
12.4408953786
 20
9.1500367456
 40
0.1894170502
100
AcDbArc
 50
330.0177845119
 51
330.6994444601
  0
ARC
  5
302
100
AcDbEntity
  8
0
100
AcDbCircle
 62
9
  6
CONTINUOUS
 10
12.4412211782
 20
9.1969344225
 40
0.1890411252
100
AcDbArc
 50
29.416760245
 51
30.080302735
  0
ARC
  5
303
100
AcDbEntity
  8
0
100
AcDbCircle
 62
9
  6
CONTINUOUS
 10
12.443632952
 20
9.198334163
 40
0.1862525915
100
AcDbArc
 50
30.0795596007
 51
31.4769914367
  0
ARC
  5
304
100
AcDbEntity
  8
0
100
AcDbCircle
 62
9
  6
CONTINUOUS
 10
12.4438448247
 20
9.1483238341
 40
0.1860063023
100
AcDbArc
 50
328.6901217203
 51
330.0207910684
  0
ARC
  5
305
100
AcDbEntity
  8
0
100
AcDbCircle
 62
9
  6
CONTINUOUS
 10
12.4702977945
 20
9.1291364367
 40
0.1532833057
100
AcDbArc
 50
318.4624579167
 51
319.3474544134
  0
ARC
  5
306
100
AcDbEntity
  8
0
100
AcDbCircle
 62
9
  6
CONTINUOUS
 10
12.4707605045
 20
9.2180573935
 40
0.1526649399
100
AcDbArc
 50
41.1231496757
 51
41.6515557756
  0
ARC
  5
307
100
AcDbEntity
  8
0
100
AcDbCircle
 62
7
  6
CONTINUOUS
 10
12.4678078035
 20
9.272502916
 40
0.1059225411
100
AcDbArc
 50
77.5662291197
 51
78.9764227244
  0
ARC
  5
308
100
AcDbEntity
  8
0
100
AcDbCircle
 62
7
  6
CONTINUOUS
 10
12.4681013414
 20
9.2741229288
 40
0.1042762938
100
AcDbArc
 50
78.9645292634
 51
84.0075468696
  0
ARC
  5
309
100
AcDbEntity
  8
0
100
AcDbCircle
 62
9
  6
CONTINUOUS
 10
12.4870581652
 20
9.2705922366
 40
0.0987995646
100
AcDbArc
 50
90.023853278
 51
100.743624485
  0
ARC
  5
30A
100
AcDbEntity
  8
0
100
AcDbCircle
 62
7
  6
CONTINUOUS
 10
12.5753872244
 20
9.3991153711
 40
0.079
100
AcDbArc
 50
19.0663081681
 51
70.0865226334
  0
ARC
  5
30B
100
AcDbEntity
  8
0
100
AcDbCircle
 62
7
  6
CONTINUOUS
 10
12.4422946802
 20
9.6305105296
 40
0.05
100
AcDbArc
 50
3.3546662504
 51
70.7095459637
  0
ARC
  5
30C
100
AcDbEntity
  8
0
100
AcDbCircle
 62
7
  6
CONTINUOUS
 10
12.5757946802
 20
9.5074924576
 40
0.04
100
AcDbArc
 50
330.0
 51
61.6573772921
  0
ARC
  5
30D
100
AcDbEntity
  8
0
100
AcDbCircle
 62
7
  6
CONTINUOUS
 10
12.5270257769
 20
9.617391804
 40
0.016
100
AcDbArc
 50
6.5927230272
 51
90.0
  0
ARC
  5
30E
100
AcDbEntity
  8
0
100
AcDbCircle
 62
9
  6
CONTINUOUS
 10
12.625602904
 20
9.1733917925
 40
0.2771787999
100
AcDbArc
 50
179.9999976147
 51
180.4371261493
  0
ARC
  5
30F
100
AcDbEntity
  8
0
100
AcDbCircle
 62
7
  6
CONTINUOUS
 10
12.9632495059
 20
9.1733919903
 40
0.2749991657
100
AcDbArc
 50
215.7908334702
 51
144.2094460178
  0
ARC
  5
310
100
AcDbEntity
  8
0
100
AcDbCircle
 62
7
  6
CONTINUOUS
 10
12.9632119759
 20
9.173191843
 40
0.2747965561
100
AcDbArc
 50
259.9775356752
 51
264.12642268
  0
ARC
  5
311
100
AcDbEntity
  8
0
100
AcDbCircle
 62
7
  6
CONTINUOUS
 10
12.9631519669
 20
9.1736740937
 40
0.2747017973
100
AcDbArc
 50
107.3012527871
 51
115.4501982216
  0
ARC
  5
312
100
AcDbEntity
  8
0
100
AcDbCircle
 62
7
  6
CONTINUOUS
 10
12.9630179181
 20
9.1737743532
 40
0.2745535304
100
AcDbArc
 50
115.4338787634
 51
119.8310337523
  0
ARC
  5
313
100
AcDbEntity
  8
0
100
AcDbCircle
 62
7
  6
CONTINUOUS
 10
12.9625632114
 20
9.1742470439
 40
0.2739044698
100
AcDbArc
 50
128.262288891
 51
132.017009925
  0
ARC
  5
314
100
AcDbEntity
  8
0
100
AcDbCircle
 62
7
  6
CONTINUOUS
 10
12.6106760921
 20
9.1733923853
 40
0.2695901903
100
AcDbArc
 50
180.000123535
 51
180.5689640847
  0
ARC
  5
315
100
AcDbEntity
  8
0
100
AcDbCircle
 62
7
  6
CONTINUOUS
 10
12.8918163305
 20
9.1733917345
 40
0.2685397182
100
AcDbArc
 50
179.80203817
 51
180.1976970702
  0
ARC
  5
316
100
AcDbEntity
  8
0
100
AcDbCircle
 62
9
  6
CONTINUOUS
 10
12.6346810551
 20
9.173391793
 40
0.2639957463
100
AcDbArc
 50
179.9999976134
 51
180.4371261478
  0
ARC
  5
317
100
AcDbEntity
  8
0
100
AcDbCircle
 62
7
  6
CONTINUOUS
 10
12.8249208833
 20
9.1966263193
 40
0.1972308079
100
AcDbArc
 50
149.6562628885
 51
150.1407078461
  0
ARC
  5
318
100
AcDbEntity
  8
0
100
AcDbCircle
 62
7
  6
CONTINUOUS
 10
12.8247297887
 20
9.1500479114
 40
0.1970106485
100
AcDbArc
 50
209.9883297073
 51
210.3208413577
  0
ARC
  5
319
100
AcDbEntity
  8
0
100
AcDbCircle
 62
7
  6
CONTINUOUS
 10
12.6422587101
 20
9.6307098782
 40
0.1
100
AcDbArc
 50
186.5927230273
 51
241.6573772923
  0
ARC
  5
31A
100
AcDbEntity
  8
0
100
AcDbCircle
 62
7
  6
CONTINUOUS
 10
17.9262798558
 20
8.9738699949
 40
2.7692755741
100
AcDbArc
 50
38.8776446986
 51
41.2943631147
  0
ARC
  5
31B
100
AcDbEntity
  8
0
100
AcDbCircle
 62
7
  6
CONTINUOUS
 10
24.2588315654
 20
8.9397641635
 40
2.8222285817
100
AcDbArc
 50
138.7283123636
 51
141.0996773135
  0
ARC
  5
31C
100
AcDbEntity
  8
0
100
AcDbCircle
 62
7
  6
CONTINUOUS
 10
21.6822946802
 20
9.8762249518
 40
0.15
100
AcDbArc
 50
330.0735651336
 51
360.0
  0
ARC
  5
31D
100
AcDbEntity
  8
0
100
AcDbCircle
 62
7
  6
CONTINUOUS
 10
20.4622946802
 20
9.8762249518
 40
0.15
100
AcDbArc
 50
180.0
 51
209.9264348664
  0
ARC
  5
31E
100
AcDbEntity
  8
0
100
AcDbCircle
 62
7
  6
CONTINUOUS
 10
20.1447946802
 20
11.411391804
 40
0.15
100
AcDbArc
 50
90.0
 51
114.6243183522
  0
ARC
  5
31F
100
AcDbEntity
  8
0
100
AcDbCircle
 62
7
  6
CONTINUOUS
 10
21.9997946802
 20
11.411391804
 40
0.15
100
AcDbArc
 50
65.3756816478
 51
90.0
  0
ARC
  5
320
100
AcDbEntity
  8
0
100
AcDbCircle
 62
7
  6
CONTINUOUS
 10
21.9322946802
 20
10.4356525729
 40
0.1
100
AcDbArc
 50
135.6687919533
 51
180.0
  0
ARC
  5
321
100
AcDbEntity
  8
0
100
AcDbCircle
 62
7
  6
CONTINUOUS
 10
20.2122946802
 20
10.4356525729
 40
0.1
100
AcDbArc
 50
0.0
 51
44.3312080467
  0
ARC
  5
322
100
AcDbEntity
  8
0
100
AcDbCircle
 62
7
  6
CONTINUOUS
 10
20.1674480324
 20
11.5915451562
 40
0.0301533521
100
AcDbArc
 50
98.1789688981
 51
270.0
  0
ARC
  5
323
100
AcDbEntity
  8
0
100
AcDbCircle
 62
7
  6
CONTINUOUS
 10
21.9771413281
 20
11.5915451562
 40
0.0301533521
100
AcDbArc
 50
270.0
 51
81.8210311019
  0
SPLINE
  5
324
100
AcDbEntity
  8
0
100
AcDbSpline
 62
7
  6
CONTINUOUS
 70
0
 71
3
 72
11
 73
7
 74
0
 42
0.0000001
 43
0.0000001
 44
0.0000000001
 40
0.0
 40
0.0
 40
0.0
 40
0.0
 40
0.240438429
 40
0.4885999579
 40
0.7426766683
 40
1.0
 40
1.0
 40
1.0
 40
1.0
 10
4.5389539822
 20
7.0138470137
 30
0.0
 10
4.5402403999
 20
7.0112054192
 30
0.0
 10
4.542553959
 20
7.0056853462
 30
0.0
 10
4.5451070825
 20
6.9969568134
 30
0.0
 10
4.5466918322
 20
6.9877915477
 30
0.0
 10
4.5470498565
 20
6.9815363173
 30
0.0
 10
4.5470498565
 20
6.978391804
 30
0.0
  0
SPLINE
  5
325
100
AcDbEntity
  8
0
100
AcDbSpline
 62
7
  6
CONTINUOUS
 70
0
 71
3
 72
12
 73
8
 74
0
 42
0.0000001
 43
0.0000001
 44
0.0000000001
 40
0.0
 40
0.0
 40
0.0
 40
0.0
 40
0.2572581428
 40
0.3850081296
 40
0.5115238647
 40
0.7596348663
 40
1.0
 40
1.0
 40
1.0
 40
1.0
 10
4.5470498565
 20
6.978391804
 30
0.0
 10
4.5470498565
 20
6.975247763
 30
0.0
 10
4.5467793464
 20
6.9705366778
 30
0.0
 10
4.5458888887
 20
6.9643464698
 30
0.0
 10
4.5446672629
 20
6.9583263774
 30
0.0
 10
4.5425538532
 20
6.9510963999
 30
0.0
 10
4.5402402408
 20
6.9455775683
 30
0.0
 10
4.5389540756
 20
6.94293651
 30
0.0
  0
SPLINE
  5
326
100
AcDbEntity
  8
0
100
AcDbSpline
 62
7
  6
CONTINUOUS
 70
0
 71
3
 72
13
 73
9
 74
0
 42
0.0000001
 43
0.0000001
 44
0.0000000001
 40
0.0
 40
0.0
 40
0.0
 40
0.0
 40
0.1141609791
 40
0.2318713892
 40
0.3531003455
 40
0.4777078011
 40
0.7353279988
 40
1.0
 40
1.0
 40
1.0
 40
1.0
 10
3.6134085604
 20
6.931065807
 30
0.0
 10
3.6123182213
 20
6.9326349986
 30
0.0
 10
3.6102228401
 20
6.9359068148
 30
0.0
 10
3.6074138876
 20
6.9411127418
 30
0.0
 10
3.6049335368
 20
6.9466759378
 30
0.0
 10
3.6020919458
 20
6.9546165893
 30
0.0
 10
3.5996296929
 20
6.9652056822
 30
0.0
 10
3.5989620561
 20
6.973961758
 30
0.0
 10
3.5989620561
 20
6.978391804
 30
0.0
  0
SPLINE
  5
327
100
AcDbEntity
  8
0
100
AcDbSpline
 62
7
  6
CONTINUOUS
 70
0
 71
3
 72
14
 73
10
 74
0
 42
0.0000001
 43
0.0000001
 44
0.0000000001
 40
0.0
 40
0.0
 40
0.0
 40
0.0
 40
0.1328186581
 40
0.264846759
 40
0.3950140569
 40
0.5226330894
 40
0.6471722046
 40
0.768384313
 40
1.0
 40
1.0
 40
1.0
 40
1.0
 10
3.5989620561
 20
6.978391804
 30
0.0
 10
3.5989620561
 20
6.9806153923
 30
0.0
 10
3.5991332124
 20
6.98505114
 30
0.0
 10
3.59988979
 20
6.9916270446
 30
0.0
 10
3.6011331386
 20
6.9980402191
 30
0.0
 10
3.6028258295
 20
7.0042192877
 30
0.0
 10
3.6049347743
 20
7.0101105755
 30
0.0
 10
3.608190919
 20
7.0174144728
 30
0.0
 10
3.6111959399
 20
7.0225334473
 30
0.0
 10
3.6134085604
 20
7.0257178011
 30
0.0
  0
SPLINE
  5
328
100
AcDbEntity
  8
0
100
AcDbSpline
 62
7
  6
CONTINUOUS
 70
0
 71
3
 72
11
 73
7
 74
0
 42
0.0000001
 43
0.0000001
 44
0.0000000001
 40
0.0
 40
0.0
 40
0.0
 40
0.0
 40
0.2278014356
 40
0.4727107536
 40
0.7321139562
 40
1.0
 40
1.0
 40
1.0
 40
1.0
 10
3.6182825447
 20
6.931065807
 30
0.0
 10
3.6163175722
 20
6.9342770073
 30
0.0
 10
3.6127236123
 20
6.9412471429
 30
0.0
 10
3.6087055575
 20
6.9526984162
 30
0.0
 10
3.606144908
 20
6.9652389761
 30
0.0
 10
3.6055602279
 20
6.9739646629
 30
0.0
 10
3.6055602279
 20
6.978391804
 30
0.0
  0
SPLINE
  5
329
100
AcDbEntity
  8
0
100
AcDbSpline
 62
7
  6
CONTINUOUS
 70
0
 71
3
 72
13
 73
9
 74
0
 42
0.0000001
 43
0.0000001
 44
0.0000000001
 40
0.0
 40
0.0
 40
0.0
 40
0.0
 40
0.1344862654
 40
0.2679970179
 40
0.39928322
 40
0.5275067683
 40
0.7723099445
 40
1.0
 40
1.0
 40
1.0
 40
1.0
 10
3.6055602279
 20
6.978391804
 30
0.0
 10
3.6055602279
 20
6.9806150242
 30
0.0
 10
3.6057107301
 20
6.9850467545
 30
0.0
 10
3.6063761428
 20
6.9916185035
 30
0.0
 10
3.6074697682
 20
6.9980282889
 30
0.0
 10
3.6094251256
 20
7.0061380364
 30
0.0
 10
3.6127247763
 20
7.0155387266
 30
0.0
 10
3.6163179393
 20
7.0225072007
 30
0.0
 10
3.6182825447
 20
7.0257178011
 30
0.0
  0
SPLINE
  5
32A
100
AcDbEntity
  8
0
100
AcDbSpline
 62
7
  6
CONTINUOUS
 70
0
 71
3
 72
11
 73
7
 74
0
 42
0.0000001
 43
0.0000001
 44
0.0000000001
 40
0.0
 40
0.0
 40
0.0
 40
0.0
 40
0.2238418211
 40
0.4679577923
 40
0.7290472027
 40
1.0
 40
1.0
 40
1.0
 40
1.0
 10
3.6279697583
 20
6.931065807
 30
0.0
 10
3.6262770885
 20
6.9343053926
 30
0.0
 10
3.6231955866
 20
6.9413242616
 30
0.0
 10
3.6197791836
 20
6.9527570332
 30
0.0
 10
3.6176029236
 20
6.9652711321
 30
0.0
 10
3.6171065051
 20
6.9739673836
 30
0.0
 10
3.6171065051
 20
6.978391804
 30
0.0
  0
SPLINE
  5
32B
100
AcDbEntity
  8
0
100
AcDbSpline
 62
7
  6
CONTINUOUS
 70
0
 71
3
 72
13
 73
9
 74
0
 42
0.0000001
 43
0.0000001
 44
0.0000000001
 40
0.0
 40
0.0
 40
0.0
 40
0.0
 40
0.136098905
 40
0.2710444866
 40
0.4034145559
 40
0.5322226939
 40
0.7762507841
 40
1.0
 40
1.0
 40
1.0
 40
1.0
 10
3.6171065051
 20
6.978391804
 30
0.0
 10
3.6171065051
 20
6.9806146796
 30
0.0
 10
3.6172348314
 20
6.985042629
 30
0.0
 10
3.6178023223
 20
6.9916104889
 30
0.0
 10
3.6187350015
 20
6.998016685
 30
0.0
 10
3.620398797
 20
7.0061025583
 30
0.0
 10
3.6231965768
 20
7.0154614873
 30
0.0
 10
3.6262774079
 20
7.0224788267
 30
0.0
 10
3.6279697583
 20
7.0257178011
 30
0.0
  0
SPLINE
  5
32C
100
AcDbEntity
  8
0
100
AcDbSpline
 62
7
  6
CONTINUOUS
 70
0
 71
3
 72
11
 73
7
 74
0
 42
0.0000001
 43
0.0000001
 44
0.0000000001
 40
0.0
 40
0.0
 40
0.0
 40
0.0
 40
0.2201146912
 40
0.4635157186
 40
0.7261934584
 40
1.0
 40
1.0
 40
1.0
 40
1.0
 10
3.6423675017
 20
6.931065807
 30
0.0
 10
3.6409700178
 20
6.9343344686
 30
0.0
 10
3.6384394707
 20
6.9413984833
 30
0.0
 10
3.6356556926
 20
6.9528109309
 30
0.0
 10
3.633882638
 20
6.9652998617
 30
0.0
 10
3.6334784795
 20
6.9739698047
 30
0.0
 10
3.6334784795
 20
6.978391804
 30
0.0
  0
SPLINE
  5
32D
100
AcDbEntity
  8
0
100
AcDbSpline
 62
7
  6
CONTINUOUS
 70
0
 71
3
 72
13
 73
9
 74
0
 42
0.0000001
 43
0.0000001
 44
0.0000000001
 40
0.0
 40
0.0
 40
0.0
 40
0.0
 40
0.1375984853
 40
0.2738813168
 40
0.4072671284
 40
0.5366311288
 40
0.7799610641
 40
1.0
 40
1.0
 40
1.0
 40
1.0
 10
3.6334784795
 20
6.978391804
 30
0.0
 10
3.6334784795
 20
6.980614373
 30
0.0
 10
3.6335833505
 20
6.9850389547
 30
0.0
 10
3.6340472057
 20
6.991603305
 30
0.0
 10
3.6348095274
 20
6.9980061471
 30
0.0
 10
3.6361665484
 20
7.0060698354
 30
0.0
 10
3.6384402797
 20
7.015387165
 30
0.0
 10
3.6409702841
 20
7.0224497623
 30
0.0
 10
3.6423675017
 20
7.0257178011
 30
0.0
  0
SPLINE
  5
32E
100
AcDbEntity
  8
0
100
AcDbSpline
 62
7
  6
CONTINUOUS
 70
0
 71
3
 72
11
 73
7
 74
0
 42
0.0000001
 43
0.0000001
 44
0.0000000001
 40
0.0
 40
0.0
 40
0.0
 40
0.0
 40
0.2168461152
 40
0.4596455739
 40
0.7237167536
 40
1.0
 40
1.0
 40
1.0
 40
1.0
 10
3.6613231367
 20
6.931065807
 30
0.0
 10
3.66024179
 20
6.9343620746
 30
0.0
 10
3.6582945634
 20
6.9414647698
 30
0.0
 10
3.6561667745
 20
6.9528571696
 30
0.0
 10
3.6548113964
 20
6.9653238914
 30
0.0
 10
3.6545025828
 20
6.9739718233
 30
0.0
 10
3.6545025828
 20
6.978391804
 30
0.0
  0
SPLINE
  5
32F
100
AcDbEntity
  8
0
100
AcDbSpline
 62
7
  6
CONTINUOUS
 70
0
 71
3
 72
15
 73
11
 74
0
 42
0.0000001
 43
0.0000001
 44
0.0000000001
 40
0.0
 40
0.0
 40
0.0
 40
0.0
 40
0.1388850346
 40
0.2763160781
 40
0.4105753322
 40
0.54041787
 40
0.6648296344
 40
0.7831848244
 40
0.8950050739
 40
1.0
 40
1.0
 40
1.0
 40
1.0
 10
3.6545025828
 20
6.978391804
 30
0.0
 10
3.6545025828
 20
6.9806141176
 30
0.0
 10
3.654582969
 20
6.9850358828
 30
0.0
 10
3.6549385435
 20
6.9915972995
 30
0.0
 10
3.6555229769
 20
6.9979971287
 30
0.0
 10
3.6563186942
 20
7.0041641388
 30
0.0
 10
3.6573101074
 20
7.0100448443
 30
0.0
 10
3.658476267
 20
7.0155991407
 30
0.0
 10
3.659797759
 20
7.0207984672
 30
0.0
 10
3.6607994571
 20
7.0241214693
 30
0.0
 10
3.6613231367
 20
7.0257178011
 30
0.0
  0
SPLINE
  5
330
100
AcDbEntity
  8
0
100
AcDbSpline
 62
7
  6
CONTINUOUS
 70
0
 71
3
 72
11
 73
7
 74
0
 42
0.0000001
 43
0.0000001
 44
0.0000000001
 40
0.0
 40
0.0
 40
0.0
 40
0.0
 40
0.2142625587
 40
0.4566033352
 40
0.7217760615
 40
1.0
 40
1.0
 40
1.0
 40
1.0
 10
3.6846357043
 20
6.931065807
 30
0.0
 10
3.6838885024
 20
6.9343854392
 30
0.0
 10
3.68254976
 20
6.94151788
 30
0.0
 10
3.6810943877
 20
6.9528930395
 30
0.0
 10
3.6801671437
 20
6.9653421474
 30
0.0
 10
3.6799559271
 20
6.9739733532
 30
0.0
 10
3.6799559271
 20
6.978391804
 30
0.0
  0
SPLINE
  5
331
100
AcDbEntity
  8
0
100
AcDbSpline
 62
7
  6
CONTINUOUS
 70
0
 71
3
 72
11
 73
7
 74
0
 42
0.0000001
 43
0.0000001
 44
0.0000000001
 40
0.0
 40
0.0
 40
0.0
 40
0.0
 40
0.2782650678
 40
0.5434730572
 40
0.785778946
 40
1.0
 40
1.0
 40
1.0
 40
1.0
 10
3.6799559271
 20
6.978391804
 30
0.0
 10
3.6799559271
 20
6.9828109084
 30
0.0
 10
3.6801672346
 20
6.9914433263
 30
0.0
 10
3.6810945475
 20
7.0038930943
 30
0.0
 10
3.68255008
 20
7.015267576
 30
0.0
 10
3.683888647
 20
7.0223988117
 30
0.0
 10
3.6846357043
 20
7.0257178011
 30
0.0
  0
SPLINE
  5
332
100
AcDbEntity
  8
0
100
AcDbSpline
 62
7
  6
CONTINUOUS
 70
0
 71
3
 72
11
 73
7
 74
0
 42
0.0000001
 43
0.0000001
 44
0.0000000001
 40
0.0
 40
0.0
 40
0.0
 40
0.0
 40
0.2125631641
 40
0.4546103264
 40
0.7205076124
 40
1.0
 40
1.0
 40
1.0
 40
1.0
 10
3.7120580554
 20
6.931065807
 30
0.0
 10
3.7116586476
 20
6.9344016158
 30
0.0
 10
3.7109456575
 20
6.9415531252
 30
0.0
 10
3.710173099
 20
6.9529163101
 30
0.0
 10
3.7096807981
 20
6.9653538119
 30
0.0
 10
3.7095686677
 20
6.9739743293
 30
0.0
 10
3.7095686677
 20
6.978391804
 30
0.0
  0
SPLINE
  5
333
100
AcDbEntity
  8
0
100
AcDbSpline
 62
7
  6
CONTINUOUS
 70
0
 71
3
 72
11
 73
7
 74
0
 42
0.0000001
 43
0.0000001
 44
0.0000000001
 40
0.0
 40
0.0
 40
0.0
 40
0.0
 40
0.2795337006
 40
0.5454662572
 40
0.7874782037
 40
1.0
 40
1.0
 40
1.0
 40
1.0
 10
3.7095686677
 20
6.978391804
 30
0.0
 10
3.7095686677
 20
6.9828099318
 30
0.0
 10
3.7096808464
 20
6.9914316594
 30
0.0
 10
3.7101731834
 20
7.0038698153
 30
0.0
 10
3.7109458281
 20
7.0152323403
 30
0.0
 10
3.7116587253
 20
7.0223826414
 30
0.0
 10
3.7120580554
 20
7.0257178011
 30
0.0
  0
SPLINE
  5
334
100
AcDbEntity
  8
0
100
AcDbSpline
 62
7
  6
CONTINUOUS
 70
0
 71
3
 72
11
 73
7
 74
0
 42
0.0000001
 43
0.0000001
 44
0.0000000001
 40
0.0
 40
0.0
 40
0.0
 40
0.0
 40
0.2120960017
 40
0.4540635758
 40
0.7201600359
 40
1.0
 40
1.0
 40
1.0
 40
1.0
 10
4.4175428908
 20
7.0257178011
 30
0.0
 10
4.4177670539
 20
7.0223774268
 30
0.0
 10
4.418166788
 20
7.0152207542
 30
0.0
 10
4.4185995338
 20
7.0038609454
 30
0.0
 10
4.4188753098
 20
6.9914266365
 30
0.0
 10
4.4189381218
 20
6.9828090145
 30
0.0
 10
4.4189381218
 20
6.978391804
 30
0.0
  0
SPLINE
  5
335
100
AcDbEntity
  8
0
100
AcDbSpline
 62
7
  6
CONTINUOUS
 70
0
 71
3
 72
11
 73
7
 74
0
 42
0.0000001
 43
0.0000001
 44
0.0000000001
 40
0.0
 40
0.0
 40
0.0
 40
0.0
 40
0.2798813254
 40
0.5460130525
 40
0.7879453306
 40
1.0
 40
1.0
 40
1.0
 40
1.0
 10
4.4189381218
 20
6.978391804
 30
0.0
 10
4.4189381218
 20
6.9739739407
 30
0.0
 10
4.4188752827
 20
6.9653551092
 30
0.0
 10
4.4185994865
 20
6.9529201478
 30
0.0
 10
4.4181666924
 20
6.9415609941
 30
0.0
 10
4.4177670102
 20
6.9344055304
 30
0.0
 10
4.4175428908
 20
6.931065807
 30
0.0
  0
SPLINE
  5
336
100
AcDbEntity
  8
0
100
AcDbSpline
 62
7
  6
CONTINUOUS
 70
0
 71
3
 72
11
 73
7
 74
0
 42
0.0000001
 43
0.0000001
 44
0.0000000001
 40
0.0
 40
0.0
 40
0.0
 40
0.0
 40
0.2133013628
 40
0.4554752791
 40
0.7210578291
 40
1.0
 40
1.0
 40
1.0
 40
1.0
 10
4.4468923538
 20
7.0257178011
 30
0.0
 10
4.4474689772
 20
7.0223891012
 30
0.0
 10
4.4484999948
 20
7.0152458215
 30
0.0
 10
4.4496187378
 20
7.0038773751
 30
0.0
 10
4.4503315795
 20
6.99143483
 30
0.0
 10
4.4504939482
 20
6.9828096999
 30
0.0
 10
4.4504939482
 20
6.978391804
 30
0.0
  0
SPLINE
  5
337
100
AcDbEntity
  8
0
100
AcDbSpline
 62
7
  6
CONTINUOUS
 70
0
 71
3
 72
11
 73
7
 74
0
 42
0.0000001
 43
0.0000001
 44
0.0000000001
 40
0.0
 40
0.0
 40
0.0
 40
0.0
 40
0.278983402
 40
0.5446012132
 40
0.7867400659
 40
1.0
 40
1.0
 40
1.0
 40
1.0
 10
4.4504939482
 20
6.978391804
 30
0.0
 10
4.4504939482
 20
6.973973255
 30
0.0
 10
4.4503315095
 20
6.965346914
 30
0.0
 10
4.4496186151
 20
6.9529037122
 30
0.0
 10
4.4484997483
 20
6.9415359333
 30
0.0
 10
4.4474688652
 20
6.9343938606
 30
0.0
 10
4.4468923538
 20
6.931065807
 30
0.0
  0
SPLINE
  5
338
100
AcDbEntity
  8
0
100
AcDbSpline
 62
7
  6
CONTINUOUS
 70
0
 71
3
 72
11
 73
7
 74
0
 42
0.0000001
 43
0.0000001
 44
0.0000000001
 40
0.0
 40
0.0
 40
0.0
 40
0.0
 40
0.2154697079
 40
0.4580228912
 40
0.7226808152
 40
1.0
 40
1.0
 40
1.0
 40
1.0
 10
4.4722705033
 20
7.0257178011
 30
0.0
 10
4.4731886615
 20
7.0224092658
 30
0.0
 10
4.4748377139
 20
7.0152906222
 30
0.0
 10
4.4766347002
 20
7.0039072622
 30
0.0
 10
4.4777795184
 20
6.9914499198
 30
0.0
 10
4.4780402077
 20
6.982810966
 30
0.0
 10
4.4780402077
 20
6.978391804
 30
0.0
  0
SPLINE
  5
339
100
AcDbEntity
  8
0
100
AcDbSpline
 62
7
  6
CONTINUOUS
 70
0
 71
3
 72
12
 73
8
 74
0
 42
0.0000001
 43
0.0000001
 44
0.0000000001
 40
0.0
 40
0.0
 40
0.0
 40
0.0
 40
0.2773495409
 40
0.5420318414
 40
0.7845414236
 40
0.8958401898
 40
1.0
 40
1.0
 40
1.0
 40
1.0
 10
4.4780402077
 20
6.978391804
 30
0.0
 10
4.4780402077
 20
6.9739719852
 30
0.0
 10
4.4777794627
 20
6.9653316675
 30
0.0
 10
4.4766343775
 20
6.9528743128
 30
0.0
 10
4.475096547
 20
6.9431299756
 30
0.0
 10
4.4735628558
 20
6.9359933979
 30
0.0
 10
4.4727143659
 20
6.9326652425
 30
0.0
 10
4.4722705033
 20
6.931065807
 30
0.0
  0
SPLINE
  5
33A
100
AcDbEntity
  8
0
100
AcDbSpline
 62
7
  6
CONTINUOUS
 70
0
 71
3
 72
11
 73
7
 74
0
 42
0.0000001
 43
0.0000001
 44
0.0000000001
 40
0.0
 40
0.0
 40
0.0
 40
0.0
 40
0.2184269832
 40
0.4615144287
 40
0.7249116223
 40
1.0
 40
1.0
 40
1.0
 40
1.0
 10
4.4934082919
 20
7.0257178011
 30
0.0
 10
4.4946519394
 20
7.0224351456
 30
0.0
 10
4.4968977063
 20
7.0153510308
 30
0.0
 10
4.4993596261
 20
7.0039486821
 30
0.0
 10
4.5009277278
 20
6.9914712062
 30
0.0
 10
4.5012850797
 20
6.9828127493
 30
0.0
 10
4.5012850797
 20
6.978391804
 30
0.0
  0
SPLINE
  5
33B
100
AcDbEntity
  8
0
100
AcDbSpline
 62
7
  6
CONTINUOUS
 70
0
 71
3
 72
13
 73
9
 74
0
 42
0.0000001
 43
0.0000001
 44
0.0000000001
 40
0.0
 40
0.0
 40
0.0
 40
0.0
 40
0.1382717381
 40
0.2751558716
 40
0.4090001526
 40
0.5386175647
 40
0.7816414033
 40
1.0
 40
1.0
 40
1.0
 40
1.0
 10
4.5012850797
 20
6.978391804
 30
0.0
 10
4.5012850797
 20
6.9761693685
 30
0.0
 10
4.5011922022
 20
6.9717462541
 30
0.0
 10
4.5007813625
 20
6.9651834463
 30
0.0
 10
4.5001061879
 20
6.9587821131
 30
0.0
 10
4.4989054409
 20
6.9507283733
 30
0.0
 10
4.4968969895
 20
6.9414305788
 30
0.0
 10
4.4946517013
 20
6.9343478343
 30
0.0
 10
4.4934082919
 20
6.931065807
 30
0.0
  0
SPLINE
  5
33C
100
AcDbEntity
  8
0
100
AcDbSpline
 62
7
  6
CONTINUOUS
 70
0
 71
3
 72
11
 73
7
 74
0
 42
0.0000001
 43
0.0000001
 44
0.0000000001
 40
0.0
 40
0.0
 40
0.0
 40
0.0
 40
0.2219562517
 40
0.465706672
 40
0.7275995191
 40
1.0
 40
1.0
 40
1.0
 40
1.0
 10
4.5100816263
 20
7.0257178011
 30
0.0
 10
4.5116311115
 20
7.0224638089
 30
0.0
 10
4.5144446744
 20
7.0154219873
 30
0.0
 10
4.5175516884
 20
7.0039991519
 30
0.0
 10
4.519530674
 20
6.9914977603
 30
0.0
 10
4.5199819204
 20
6.9828149832
 30
0.0
 10
4.5199819204
 20
6.978391804
 30
0.0
  0
SPLINE
  5
33D
100
AcDbEntity
  8
0
100
AcDbSpline
 62
7
  6
CONTINUOUS
 70
0
 71
3
 72
13
 73
9
 74
0
 42
0.0000001
 43
0.0000001
 44
0.0000000001
 40
0.0
 40
0.0
 40
0.0
 40
0.0
 40
0.136859756
 40
0.2724834654
 40
0.4053679529
 40
0.5344566417
 40
0.7781277308
 40
1.0
 40
1.0
 40
1.0
 40
1.0
 10
4.5199819204
 20
6.978391804
 30
0.0
 10
4.5199819204
 20
6.9761690857
 30
0.0
 10
4.5198650455
 20
6.9717428625
 30
0.0
 10
4.5193481453
 20
6.9651767963
 30
0.0
 10
4.5184986281
 20
6.9587723006
 30
0.0
 10
4.5169848116
 20
6.9506976869
 30
0.0
 10
4.5144437732
 20
6.9413595325
 30
0.0
 10
4.5116308177
 20
6.9343191823
 30
0.0
 10
4.5100816263
 20
6.931065807
 30
0.0
  0
SPLINE
  5
33E
100
AcDbEntity
  8
0
100
AcDbSpline
 62
7
  6
CONTINUOUS
 70
0
 71
3
 72
12
 73
8
 74
0
 42
0.0000001
 43
0.0000001
 44
0.0000000001
 40
0.0
 40
0.0
 40
0.0
 40
0.0
 40
0.2257985801
 40
0.4702760623
 40
0.5988074639
 40
0.7306165939
 40
1.0
 40
1.0
 40
1.0
 40
1.0
 10
4.5221137434
 20
7.0257178011
 30
0.0
 10
4.5239470413
 20
7.0224927598
 30
0.0
 10
4.5272926454
 20
7.0154986631
 30
0.0
 10
4.530346706
 20
7.0061172296
 30
0.0
 10
4.5321610473
 20
6.9980192
 30
0.0
 10
4.5335220272
 20
6.9894190276
 30
0.0
 10
4.5339325854
 20
6.9828175696
 30
0.0
 10
4.5339325854
 20
6.978391804
 30
0.0
  0
SPLINE
  5
33F
100
AcDbEntity
  8
0
100
AcDbSpline
 62
7
  6
CONTINUOUS
 70
0
 71
3
 72
13
 73
9
 74
0
 42
0.0000001
 43
0.0000001
 44
0.0000000001
 40
0.0
 40
0.0
 40
0.0
 40
0.0
 40
0.135292417
 40
0.2695200097
 40
0.4013469283
 40
0.5298610037
 40
0.7742736468
 40
1.0
 40
1.0
 40
1.0
 40
1.0
 10
4.5339325854
 20
6.978391804
 30
0.0
 10
4.5339325854
 20
6.9761687582
 30
0.0
 10
4.5337928716
 20
6.971738939
 30
0.0
 10
4.5331750902
 20
6.9651691493
 30
0.0
 10
4.5321597496
 20
6.9587611554
 30
0.0
 10
4.5303464307
 20
6.9506633426
 30
0.0
 10
4.5272917073
 20
6.9412831423
 30
0.0
 10
4.5239466972
 20
6.9342902429
 30
0.0
 10
4.5221137434
 20
6.931065807
 30
0.0
  0
SPLINE
  5
340
100
AcDbEntity
  8
0
100
AcDbSpline
 62
7
  6
CONTINUOUS
 70
0
 71
3
 72
11
 73
7
 74
0
 42
0.0000001
 43
0.0000001
 44
0.0000000001
 40
0.0
 40
0.0
 40
0.0
 40
0.0
 40
0.2298252956
 40
0.4751535551
 40
0.7336955525
 40
1.0
 40
1.0
 40
1.0
 40
1.0
 10
4.5293770843
 20
7.0257178011
 30
0.0
 10
4.5314705759
 20
7.0225202057
 30
0.0
 10
4.5353073664
 20
7.0155751531
 30
0.0
 10
4.5396153238
 20
7.0041156847
 30
0.0
 10
4.5423617046
 20
6.9915617497
 30
0.0
 10
4.5429891763
 20
6.9828203985
 30
0.0
 10
4.5429891763
 20
6.978391804
 30
0.0
  0
SPLINE
  5
341
100
AcDbEntity
  8
0
100
AcDbSpline
 62
7
  6
CONTINUOUS
 70
0
 71
3
 72
13
 73
9
 74
0
 42
0.0000001
 43
0.0000001
 44
0.0000000001
 40
0.0
 40
0.0
 40
0.0
 40
0.0
 40
0.1336541243
 40
0.2664258233
 40
0.3971561927
 40
0.5250834117
 40
0.770296032
 40
1.0
 40
1.0
 40
1.0
 40
1.0
 10
4.5429891763
 20
6.978391804
 30
0.0
 10
4.5429891763
 20
6.9761683998
 30
0.0
 10
4.5428280248
 20
6.9717346516
 30
0.0
 10
4.5421156151
 20
6.9651608492
 30
0.0
 10
4.5409447616
 20
6.9587492218
 30
0.0
 10
4.5388488577
 20
6.9506271594
 30
0.0
 10
4.5353061178
 20
6.9412061261
 30
0.0
 10
4.5314701867
 20
6.9342628079
 30
0.0
 10
4.5293770843
 20
6.931065807
 30
0.0
  0
SPLINE
  5
342
100
AcDbEntity
  8
0
100
AcDbSpline
 62
7
  6
CONTINUOUS
 70
0
 71
3
 72
13
 73
9
 74
0
 42
0.0000001
 43
0.0000001
 44
0.0000000001
 40
0.0
 40
0.0
 40
0.0
 40
0.0
 40
0.1250561121
 40
0.250247555
 40
0.3753765418
 40
0.5004528516
 40
0.7502357163
 40
1.0
 40
1.0
 40
1.0
 40
1.0
 10
4.4390718032
 20
6.978391804
 30
0.0
 10
4.4390718032
 20
6.9806173935
 30
0.0
 10
4.4388146309
 20
6.9850749762
 30
0.0
 10
4.4376794594
 20
6.9916718351
 30
0.0
 10
4.4358152488
 20
6.9981017599
 30
0.0
 10
4.4324375133
 20
7.0063494558
 30
0.0
 10
4.4266608651
 20
7.015934618
 30
0.0
 10
4.4207402832
 20
7.0226299882
 30
0.0
 10
4.4175428908
 20
7.0257178011
 30
0.0
  0
SPLINE
  5
343
100
AcDbEntity
  8
0
100
AcDbSpline
 62
7
  6
CONTINUOUS
 70
0
 71
3
 72
15
 73
11
 74
0
 42
0.0000001
 43
0.0000001
 44
0.0000000001
 40
0.0
 40
0.0
 40
0.0
 40
0.0
 40
0.120415138
 40
0.2422928102
 40
0.3656298025
 40
0.4904013483
 40
0.6164805881
 40
0.7436534316
 40
0.8716197749
 40
1.0
 40
1.0
 40
1.0
 40
1.0
 10
3.6279697583
 20
7.0257178011
 30
0.0
 10
3.6265762829
 20
7.0241634737
 30
0.0
 10
3.6238948396
 20
7.0209234383
 30
0.0
 10
3.6202651991
 20
7.0157182373
 30
0.0
 10
3.6170585701
 20
7.0101536239
 30
0.0
 10
3.6143316183
 20
7.0042578374
 30
0.0
 10
3.6121396165
 20
6.9980716635
 30
0.0
 10
3.6105324592
 20
6.991650562
 30
0.0
 10
3.6095507304
 20
6.9850645244
 30
0.0
 10
3.6093302701
 20
6.9806173987
 30
0.0
 10
3.6093302701
 20
6.978391804
 30
0.0
  0
SPLINE
  5
344
100
AcDbEntity
  8
0
100
AcDbSpline
 62
7
  6
CONTINUOUS
 70
0
 71
3
 72
15
 73
11
 74
0
 42
0.0000001
 43
0.0000001
 44
0.0000000001
 40
0.0
 40
0.0
 40
0.0
 40
0.0
 40
0.1232686578
 40
0.2470916147
 40
0.37145386
 40
0.4963606888
 40
0.6217646204
 40
0.7475863604
 40
0.8737141268
 40
1.0
 40
1.0
 40
1.0
 40
1.0
 10
3.6613231367
 20
7.0257178011
 30
0.0
 10
3.6597987124
 20
7.0241692803
 30
0.0
 10
3.6568645296
 20
7.0209425061
 30
0.0
 10
3.6528772017
 20
7.0157386523
 30
0.0
 10
3.649353595
 20
7.0101743357
 30
0.0
 10
3.646356155
 20
7.0042774544
 30
0.0
 10
3.6439459422
 20
6.9980885355
 30
0.0
 10
3.6421782639
 20
6.9916629752
 30
0.0
 10
3.6410982277
 20
6.9850712227
 30
0.0
 10
3.6408555809
 20
6.9806179584
 30
0.0
 10
3.6408555809
 20
6.978391804
 30
0.0
  0
SPLINE
  5
345
100
AcDbEntity
  8
0
100
AcDbSpline
 62
7
  6
CONTINUOUS
 70
0
 71
3
 72
15
 73
11
 74
0
 42
0.0000001
 43
0.0000001
 44
0.0000000001
 40
0.0
 40
0.0
 40
0.0
 40
0.0
 40
0.1245303778
 40
0.2492204413
 40
0.3740456666
 40
0.4990203715
 40
0.6241287468
 40
0.7493493424
 40
0.8746540743
 40
1.0
 40
1.0
 40
1.0
 40
1.0
 10
4.4468923538
 20
6.931065807
 30
0.0
 10
4.4484741796
 20
6.9326119201
 30
0.0
 10
4.4515190397
 20
6.9358330507
 30
0.0
 10
4.4556635642
 20
6.9410361453
 30
0.0
 10
4.4593265452
 20
6.9466001378
 30
0.0
 10
4.4624430104
 20
6.9524973249
 30
0.0
 10
4.4649493408
 20
6.9586873439
 30
0.0
 10
4.4667878022
 20
6.9651148679
 30
0.0
 10
4.4679112292
 20
6.9717092469
 30
0.0
 10
4.4681636785
 20
6.9761653872
 30
0.0
 10
4.4681636785
 20
6.978391804
 30
0.0
  0
SPLINE
  5
346
100
AcDbEntity
  8
0
100
AcDbSpline
 62
7
  6
CONTINUOUS
 70
0
 71
3
 72
11
 73
7
 74
0
 42
0.0000001
 43
0.0000001
 44
0.0000000001
 40
0.0
 40
0.0
 40
0.0
 40
0.0
 40
0.2506099528
 40
0.5009371615
 40
0.7507347161
 40
1.0
 40
1.0
 40
1.0
 40
1.0
 10
4.4681636785
 20
6.978391804
 30
0.0
 10
4.4681636785
 20
6.9828376016
 30
0.0
 10
4.4671484853
 20
6.9917554339
 30
0.0
 10
4.4627514684
 20
7.0044290174
 30
0.0
 10
4.4559102138
 20
7.0159217498
 30
0.0
 10
4.4500546333
 20
7.0226269161
 30
0.0
 10
4.4468923538
 20
7.0257178011
 30
0.0
  0
SPLINE
  5
347
100
AcDbEntity
  8
0
100
AcDbSpline
 62
7
  6
CONTINUOUS
 70
0
 71
3
 72
13
 73
9
 74
0
 42
0.0000001
 43
0.0000001
 44
0.0000000001
 40
0.0
 40
0.0
 40
0.0
 40
0.0
 40
0.1262967247
 40
0.2525753868
 40
0.3784963072
 40
0.5039603547
 40
0.7530485647
 40
1.0
 40
1.0
 40
1.0
 40
1.0
 10
3.6408555809
 20
6.978391804
 30
0.0
 10
3.6408555809
 20
6.9761665646
 30
0.0
 10
3.6410997264
 20
6.9717127857
 30
0.0
 10
3.6421776775
 20
6.9651194571
 30
0.0
 10
3.6439482621
 20
6.9586920595
 30
0.0
 10
3.6471508146
 20
6.9504621864
 30
0.0
 10
3.6526218578
 20
6.9408957773
 30
0.0
 10
3.6582706841
 20
6.9341665096
 30
0.0
 10
3.6613231367
 20
6.931065807
 30
0.0
  0
SPLINE
  5
348
100
AcDbEntity
  8
0
100
AcDbSpline
 62
7
  6
CONTINUOUS
 70
0
 71
3
 72
11
 73
7
 74
0
 42
0.0000001
 43
0.0000001
 44
0.0000000001
 40
0.0
 40
0.0
 40
0.0
 40
0.0
 40
0.2563438963
 40
0.5096106147
 40
0.7577020819
 40
1.0
 40
1.0
 40
1.0
 40
1.0
 10
3.6093302701
 20
6.978391804
 30
0.0
 10
3.6093302701
 20
6.9739525036
 30
0.0
 10
3.6102079907
 20
6.9651028008
 30
0.0
 10
3.6140273215
 20
6.9524690662
 30
0.0
 10
3.619992837
 20
6.9409792723
 30
0.0
 10
3.6251687685
 20
6.9341901212
 30
0.0
 10
3.6279697583
 20
6.931065807
 30
0.0
  0
SPLINE
  5
349
100
AcDbEntity
  8
0
100
AcDbSpline
 62
7
  6
CONTINUOUS
 70
0
 71
3
 72
15
 73
11
 74
0
 42
0.0000001
 43
0.0000001
 44
0.0000000001
 40
0.0
 40
0.0
 40
0.0
 40
0.0
 40
0.1237717883
 40
0.2479400122
 40
0.3724861714
 40
0.4974194691
 40
0.62270531
 40
0.7482876029
 40
0.8740879146
 40
1.0
 40
1.0
 40
1.0
 40
1.0
 10
4.4722705033
 20
6.931065807
 30
0.0
 10
4.4738178402
 20
6.9326133565
 30
0.0
 10
4.4767962099
 20
6.9358378642
 30
0.0
 10
4.4808462595
 20
6.9410414265
 30
0.0
 10
4.484425472
 20
6.9466056277
 30
0.0
 10
4.4874703926
 20
6.9525026442
 30
0.0
 10
4.4899189405
 20
6.9586920106
 30
0.0
 10
4.4917148435
 20
6.9651183549
 30
0.0
 10
4.492812179
 20
6.9717111473
 30
0.0
 10
4.4930587316
 20
6.9761655462
 30
0.0
 10
4.4930587316
 20
6.978391804
 30
0.0
  0
SPLINE
  5
34A
100
AcDbEntity
  8
0
100
AcDbSpline
 62
7
  6
CONTINUOUS
 70
0
 71
3
 72
13
 73
9
 74
0
 42
0.0000001
 43
0.0000001
 44
0.0000000001
 40
0.0
 40
0.0
 40
0.0
 40
0.0
 40
0.1259237568
 40
0.2518753245
 40
0.3775575764
 40
0.5029042264
 40
0.7522001183
 40
1.0
 40
1.0
 40
1.0
 40
1.0
 10
4.4930587316
 20
6.978391804
 30
0.0
 10
4.4930587316
 20
6.9806171474
 30
0.0
 10
4.4928106565
 20
6.9850720559
 30
0.0
 10
4.4917154375
 20
6.991666439
 30
0.0
 10
4.4899165874
 20
6.9980946015
 30
0.0
 10
4.486661213
 20
7.0063298475
 30
0.0
 10
4.4810979902
 20
7.0159020586
 30
0.0
 10
4.4753668218
 20
7.0226210573
 30
0.0
 10
4.4722705033
 20
7.0257178011
 30
0.0
  0
SPLINE
  5
34B
100
AcDbEntity
  8
0
100
AcDbSpline
 62
7
  6
CONTINUOUS
 70
0
 71
3
 72
12
 73
8
 74
0
 42
0.0000001
 43
0.0000001
 44
0.0000000001
 40
0.0
 40
0.0
 40
0.0
 40
0.0
 40
0.2588323273
 40
0.387010873
 40
0.5136250412
 40
0.7609162366
 40
1.0
 40
1.0
 40
1.0
 40
1.0
 10
3.6008588988
 20
6.978391804
 30
0.0
 10
3.6008588988
 20
6.9739552185
 30
0.0
 10
3.6014746663
 20
6.9673003661
 30
0.0
 10
3.6034839157
 20
6.9587201369
 30
0.0
 10
3.6061899628
 20
6.9505392524
 30
0.0
 10
3.6107937604
 20
6.9410337197
 30
0.0
 10
3.6156503136
 20
6.9342067652
 30
0.0
 10
3.6182825447
 20
6.931065807
 30
0.0
  0
SPLINE
  5
34C
100
AcDbEntity
  8
0
100
AcDbSpline
 62
7
  6
CONTINUOUS
 70
0
 71
3
 72
15
 73
11
 74
0
 42
0.0000001
 43
0.0000001
 44
0.0000000001
 40
0.0
 40
0.0
 40
0.0
 40
0.0
 40
0.1241991032
 40
0.2486610936
 40
0.3733641895
 40
0.4983205897
 40
0.6235063766
 40
0.7488850236
 40
0.8744064503
 40
1.0
 40
1.0
 40
1.0
 40
1.0
 10
3.6846357043
 20
7.0257178011
 30
0.0
 10
3.6830689326
 20
7.0241710649
 30
0.0
 10
3.6800530918
 20
7.0209484654
 30
0.0
 10
3.6759498137
 20
7.0157451624
 30
0.0
 10
3.6723234065
 20
7.0101810737
 30
0.0
 10
3.6692381806
 20
7.0042839561
 30
0.0
 10
3.6667570832
 20
6.9980942188
 30
0.0
 10
3.6649372087
 20
6.9916672096
 30
0.0
 10
3.6638251789
 20
6.9850735261
 30
0.0
 10
3.6635753034
 20
6.9806181511
 30
0.0
 10
3.6635753034
 20
6.978391804
 30
0.0
  0
SPLINE
  5
34D
100
AcDbEntity
  8
0
100
AcDbSpline
 62
7
  6
CONTINUOUS
 70
0
 71
3
 72
15
 73
11
 74
0
 42
0.0000001
 43
0.0000001
 44
0.0000000001
 40
0.0
 40
0.0
 40
0.0
 40
0.0
 40
0.1226687181
 40
0.246080857
 40
0.3702250288
 40
0.4951013271
 40
0.6206464661
 40
0.7467532547
 40
0.8732701953
 40
1.0
 40
1.0
 40
1.0
 40
1.0
 10
4.4934082919
 20
6.931065807
 30
0.0
 10
4.4949053427
 20
6.932615506
 30
0.0
 10
4.4977867212
 20
6.9358450107
 30
0.0
 10
4.5016991641
 20
6.9410491918
 30
0.0
 10
4.5051563899
 20
6.9466136216
 30
0.0
 10
4.5080971607
 20
6.9525103187
 30
0.0
 10
4.510461632
 20
6.9586986892
 30
0.0
 10
4.5121956425
 20
6.9651233133
 30
0.0
 10
4.5132550503
 20
6.9717138385
 30
0.0
 10
4.5134930364
 20
6.9761657712
 30
0.0
 10
4.5134930364
 20
6.978391804
 30
0.0
  0
SPLINE
  5
34E
100
AcDbEntity
  8
0
100
AcDbSpline
 62
7
  6
CONTINUOUS
 70
0
 71
3
 72
11
 73
7
 74
0
 42
0.0000001
 43
0.0000001
 44
0.0000000001
 40
0.0
 40
0.0
 40
0.0
 40
0.0
 40
0.2532245049
 40
0.5048824348
 40
0.7538932825
 40
1.0
 40
1.0
 40
1.0
 40
1.0
 10
4.5134930364
 20
6.978391804
 30
0.0
 10
4.5134930364
 20
6.9828345675
 30
0.0
 10
4.512540459
 20
6.9917206985
 30
0.0
 10
4.5084052498
 20
7.0043766953
 30
0.0
 10
4.5019591996
 20
7.0158693549
 30
0.0
 10
4.496408289
 20
7.0226123002
 30
0.0
 10
4.4934082919
 20
7.0257178011
 30
0.0
  0
SPLINE
  5
34F
100
AcDbEntity
  8
0
100
AcDbSpline
 62
7
  6
CONTINUOUS
 70
0
 71
3
 72
11
 73
7
 74
0
 42
0.0000001
 43
0.0000001
 44
0.0000000001
 40
0.0
 40
0.0
 40
0.0
 40
0.0
 40
0.2510777109
 40
0.5016417961
 40
0.7512975565
 40
1.0
 40
1.0
 40
1.0
 40
1.0
 10
3.6635753034
 20
6.978391804
 30
0.0
 10
3.6635753034
 20
6.9739465584
 30
0.0
 10
3.6645792897
 20
6.9650344777
 30
0.0
 10
3.6689296069
 20
6.9523639644
 30
0.0
 10
3.6757005796
 20
6.940871093
 30
0.0
 10
3.6815022064
 20
6.9341592345
 30
0.0
 10
3.6846357043
 20
6.931065807
 30
0.0
  0
SPLINE
  5
350
100
AcDbEntity
  8
0
100
AcDbSpline
 62
7
  6
CONTINUOUS
 70
0
 71
3
 72
19
 73
15
 74
0
 42
0.0000001
 43
0.0000001
 44
0.0000000001
 40
0.0
 40
0.0
 40
0.0
 40
0.0
 40
0.0582377242
 40
0.1178647356
 40
0.178868984
 40
0.2412095132
 40
0.3691969749
 40
0.5000001126
 40
0.6308032215
 40
0.7587905929
 40
0.8211311005
 40
0.8821353145
 40
0.9417622811
 40
1.0
 40
1.0
 40
1.0
 40
1.0
 10
3.6134085604
 20
7.0257178011
 30
0.0
 10
3.6122037445
 20
7.0241544673
 30
0.0
 10
3.6098868787
 20
7.0208946875
 30
0.0
 10
3.6067693842
 20
7.0156887467
 30
0.0
 10
3.6040161008
 20
7.0101244446
 30
0.0
 10
3.6008688213
 20
7.002200913
 30
0.0
 10
3.5981304475
 20
6.9916104049
 30
0.0
 10
3.5970093582
 20
6.9783917935
 30
0.0
 10
3.5981304501
 20
6.9651731853
 30
0.0
 10
3.6008688255
 20
6.9545826826
 30
0.0
 10
3.6040161045
 20
6.9466591562
 30
0.0
 10
3.6067693862
 20
6.9410948571
 30
0.0
 10
3.6098868799
 20
6.9358889191
 30
0.0
 10
3.6122037446
 20
6.9326291406
 30
0.0
 10
3.6134085604
 20
6.931065807
 30
0.0
  0
SPLINE
  5
351
100
AcDbEntity
  8
0
100
AcDbSpline
 62
7
  6
CONTINUOUS
 70
0
 71
3
 72
15
 73
11
 74
0
 42
0.0000001
 43
0.0000001
 44
0.0000000001
 40
0.0
 40
0.0
 40
0.0
 40
0.0
 40
0.1212371176
 40
0.2436728695
 40
0.3673020783
 40
0.4921100247
 40
0.6179937991
 40
0.7447786743
 40
0.872218635
 40
1.0
 40
1.0
 40
1.0
 40
1.0
 10
4.5100816263
 20
6.931065807
 30
0.0
 10
4.5115130462
 20
6.9326184081
 30
0.0
 10
4.5142677592
 20
6.9358545521
 30
0.0
 10
4.518000895
 20
6.9410594208
 30
0.0
 10
4.5212992163
 20
6.9466240121
 30
0.0
 10
4.5241043823
 20
6.9525201704
 30
0.0
 10
4.5263594519
 20
6.9587071696
 30
0.0
 10
4.5280129802
 20
6.9651295566
 30
0.0
 10
4.5290230965
 20
6.9717172087
 30
0.0
 10
4.5292499577
 20
6.9761660528
 30
0.0
 10
4.5292499577
 20
6.978391804
 30
0.0
  0
SPLINE
  5
352
100
AcDbEntity
  8
0
100
AcDbSpline
 62
7
  6
CONTINUOUS
 70
0
 71
3
 72
11
 73
7
 74
0
 42
0.0000001
 43
0.0000001
 44
0.0000000001
 40
0.0
 40
0.0
 40
0.0
 40
0.0
 40
0.2552118686
 40
0.507892113
 40
0.7563147476
 40
1.0
 40
1.0
 40
1.0
 40
1.0
 10
4.5292499577
 20
6.978391804
 30
0.0
 10
4.5292499577
 20
6.982832342
 30
0.0
 10
4.52834502
 20
6.9916950922
 30
0.0
 10
4.5244104906
 20
7.0043370583
 30
0.0
 10
4.5182692744
 20
7.0158282501
 30
0.0
 10
4.5129556234
 20
7.0226004971
 30
0.0
 10
4.5100816263
 20
7.0257178011
 30
0.0
  0
SPLINE
  5
353
100
AcDbEntity
  8
0
100
AcDbSpline
 62
7
  6
CONTINUOUS
 70
0
 71
3
 72
15
 73
11
 74
0
 42
0.0000001
 43
0.0000001
 44
0.0000000001
 40
0.0
 40
0.0
 40
0.0
 40
0.0
 40
0.122000681
 40
0.2449565101
 40
0.3688594307
 40
0.4937030467
 40
0.6194059156
 40
0.7458294968
 40
0.8727781413
 40
1.0
 40
1.0
 40
1.0
 40
1.0
 10
3.6423675017
 20
7.0257178011
 30
0.0
 10
3.6409010147
 20
7.0241667641
 30
0.0
 10
3.6380786126
 20
7.020934183
 30
0.0
 10
3.6342497155
 20
7.0157296642
 30
0.0
 10
3.6308665363
 20
7.0101651399
 30
0.0
 10
3.627988964
 20
7.0042686768
 30
0.0
 10
3.6256754885
 20
6.9980809354
 30
0.0
 10
3.6239790006
 20
6.9916573548
 30
0.0
 10
3.622942578
 20
6.9850681799
 30
0.0
 10
3.6227097786
 20
6.980617704
 30
0.0
 10
3.6227097786
 20
6.978391804
 30
0.0
  0
SPLINE
  5
354
100
AcDbEntity
  8
0
100
AcDbSpline
 62
7
  6
CONTINUOUS
 70
0
 71
3
 72
14
 73
10
 74
0
 42
0.0000001
 43
0.0000001
 44
0.0000000001
 40
0.0
 40
0.0
 40
0.0
 40
0.0
 40
0.2494732072
 40
0.3744185755
 40
0.4994352959
 40
0.6245135591
 40
0.7496432005
 40
0.8748126902
 40
1.0
 40
1.0
 40
1.0
 40
1.0
 10
3.7120580554
 20
7.0257178011
 30
0.0
 10
3.7088735776
 20
7.0226282615
 30
0.0
 10
3.70444731
 20
7.017596473
 30
0.0
 10
3.699532564
 20
7.0101856311
 30
0.0
 10
3.6963921391
 20
7.0042879417
 30
0.0
 10
3.693866949
 20
6.9980978363
 30
0.0
 10
3.6920144685
 20
6.9916698926
 30
0.0
 10
3.6908824745
 20
6.9850749964
 30
0.0
 10
3.6906280821
 20
6.980618274
 30
0.0
 10
3.6906280821
 20
6.978391804
 30
0.0
  0
SPLINE
  5
355
100
AcDbEntity
  8
0
100
AcDbSpline
 62
7
  6
CONTINUOUS
 70
0
 71
3
 72
13
 73
9
 74
0
 42
0.0000001
 43
0.0000001
 44
0.0000000001
 40
0.0
 40
0.0
 40
0.0
 40
0.0
 40
0.2406666206
 40
0.4882853272
 40
0.6146381469
 40
0.7422970181
 40
0.8709017447
 40
1.0
 40
1.0
 40
1.0
 40
1.0
 10
4.5221137434
 20
6.931065807
 30
0.0
 10
4.5248333917
 20
6.9341986876
 30
0.0
 10
4.5298551401
 20
6.9410066316
 30
0.0
 10
4.5346349287
 20
6.9505275134
 30
0.0
 10
4.5374434784
 20
6.9587169394
 30
0.0
 10
4.5389991056
 20
6.9651369075
 30
0.0
 10
4.539949115
 20
6.9717210991
 30
0.0
 10
4.5401624479
 20
6.976166379
 30
0.0
 10
4.5401624479
 20
6.978391804
 30
0.0
  0
SPLINE
  5
356
100
AcDbEntity
  8
0
100
AcDbSpline
 62
7
  6
CONTINUOUS
 70
0
 71
3
 72
11
 73
7
 74
0
 42
0.0000001
 43
0.0000001
 44
0.0000000001
 40
0.0
 40
0.0
 40
0.0
 40
0.0
 40
0.2575941201
 40
0.5115120521
 40
0.7592411084
 40
1.0
 40
1.0
 40
1.0
 40
1.0
 10
4.5401624479
 20
6.978391804
 30
0.0
 10
4.5401624479
 20
6.9828297627
 30
0.0
 10
4.5393149107
 20
6.9916652812
 30
0.0
 10
4.5356237362
 20
7.0042897336
 30
0.0
 10
4.529854272
 20
7.0157774978
 30
0.0
 10
4.5248328982
 20
7.022585489
 30
0.0
 10
4.5221137434
 20
7.0257178011
 30
0.0
  0
SPLINE
  5
357
100
AcDbEntity
  8
0
100
AcDbSpline
 62
7
  6
CONTINUOUS
 70
0
 71
3
 72
12
 73
8
 74
0
 42
0.0000001
 43
0.0000001
 44
0.0000000001
 40
0.0
 40
0.0
 40
0.0
 40
0.0
 40
0.1252168131
 40
0.2505545155
 40
0.5006043546
 40
0.7504100496
 40
1.0
 40
1.0
 40
1.0
 40
1.0
 10
3.6906280821
 20
6.978391804
 30
0.0
 10
3.6906280821
 20
6.976166248
 30
0.0
 10
3.6908841994
 20
6.9717086057
 30
0.0
 10
3.6923882778
 20
6.9629239301
 30
0.0
 10
3.6960842857
 20
6.9523440773
 30
0.0
 10
3.702977935
 20
6.9408559195
 30
0.0
 10
3.7088741454
 20
6.9341547957
 30
0.0
 10
3.7120580554
 20
6.931065807
 30
0.0
  0
SPLINE
  5
358
100
AcDbEntity
  8
0
100
AcDbSpline
 62
7
  6
CONTINUOUS
 70
0
 71
3
 72
11
 73
7
 74
0
 42
0.0000001
 43
0.0000001
 44
0.0000000001
 40
0.0
 40
0.0
 40
0.0
 40
0.0
 40
0.2541543815
 40
0.5062894818
 40
0.7550240427
 40
1.0
 40
1.0
 40
1.0
 40
1.0
 10
3.6227097786
 20
6.978391804
 30
0.0
 10
3.6227097786
 20
6.9739500904
 30
0.0
 10
3.6236400841
 20
6.9650749755
 30
0.0
 10
3.6276816149
 20
6.9524254752
 30
0.0
 10
3.6339855683
 20
6.940933347
 30
0.0
 10
3.6394261397
 20
6.9341767527
 30
0.0
 10
3.6423675017
 20
6.931065807
 30
0.0
  0
SPLINE
  5
359
100
AcDbEntity
  8
0
100
AcDbSpline
 62
7
  6
CONTINUOUS
 70
0
 71
3
 72
11
 73
7
 74
0
 42
0.0000001
 43
0.0000001
 44
0.0000000001
 40
0.0
 40
0.0
 40
0.0
 40
0.0
 40
0.2374380257
 40
0.4844234619
 40
0.7397316688
 40
1.0
 40
1.0
 40
1.0
 40
1.0
 10
4.5293770843
 20
6.931065807
 30
0.0
 10
4.5319139606
 20
6.9342170347
 30
0.0
 10
4.5365902889
 20
6.9410676031
 30
0.0
 10
4.5419252695
 20
6.9525501057
 30
0.0
 10
4.545333762
 20
6.9651530422
 30
0.0
 10
4.5461148177
 20
6.9739573309
 30
0.0
 10
4.5461148177
 20
6.978391804
 30
0.0
  0
SPLINE
  5
35A
100
AcDbEntity
  8
0
100
AcDbSpline
 62
7
  6
CONTINUOUS
 70
0
 71
3
 72
12
 73
8
 74
0
 42
0.0000001
 43
0.0000001
 44
0.0000000001
 40
0.0
 40
0.0
 40
0.0
 40
0.0
 40
0.2602443931
 40
0.3889061198
 40
0.5157668546
 40
0.7626625685
 40
1.0
 40
1.0
 40
1.0
 40
1.0
 10
4.5461148177
 20
6.978391804
 30
0.0
 10
4.5461148177
 20
6.982826938
 30
0.0
 10
4.5455247754
 20
6.989474444
 30
0.0
 10
4.5435946823
 20
6.9980577706
 30
0.0
 10
4.5409993712
 20
7.0062276702
 30
0.0
 10
4.536588749
 20
7.0157185099
 30
0.0
 10
4.531913497
 20
7.0225671493
 30
0.0
 10
4.5293770843
 20
7.0257178011
 30
0.0
  0
SPLINE
  5
35B
100
AcDbEntity
  8
0
100
AcDbSpline
 62
7
  6
CONTINUOUS
 70
0
 71
3
 72
11
 73
7
 74
0
 42
0.0000001
 43
0.0000001
 44
0.0000000001
 40
0.0
 40
0.0
 40
0.0
 40
0.0
 40
0.2391888641
 40
0.4865735856
 40
0.741139637
 40
1.0
 40
1.0
 40
1.0
 40
1.0
 10
3.6182825447
 20
7.0257178011
 30
0.0
 10
3.6156498343
 20
7.022576271
 30
0.0
 10
3.6107921471
 20
7.015747319
 30
0.0
 10
3.6052302889
 20
7.0042612711
 30
0.0
 10
3.6016744198
 20
6.9916474414
 30
0.0
 10
3.6008588988
 20
6.9828277281
 30
0.0
 10
3.6008588988
 20
6.978391804
 30
0.0
  0
SPLINE
  5
35C
100
AcDbEntity
  8
0
100
AcDbSpline
 62
7
  6
CONTINUOUS
 70
0
 71
3
 72
14
 73
10
 74
0
 42
0.0000001
 43
0.0000001
 44
0.0000000001
 40
0.0
 40
0.0
 40
0.0
 40
0.0
 40
0.2498507116
 40
0.374879084
 40
0.4999086289
 40
0.6249348531
 40
0.749957686
 40
0.874980467
 40
1.0
 40
1.0
 40
1.0
 40
1.0
 10
3.7432994705
 20
7.0257178011
 30
0.0
 10
3.7400955895
 20
7.0226299525
 30
0.0
 10
3.7356407495
 20
7.017600069
 30
0.0
 10
3.7306917268
 20
7.010187247
 30
0.0
 10
3.7275302113
 20
7.00428952
 30
0.0
 10
3.7249879808
 20
6.9980992297
 30
0.0
 10
3.7231229442
 20
6.9916709393
 30
0.0
 10
3.7219832494
 20
6.9850755687
 30
0.0
 10
3.7217271157
 20
6.9806183219
 30
0.0
 10
3.7217271157
 20
6.978391804
 30
0.0
  0
SPLINE
  5
35D
100
AcDbEntity
  8
0
100
AcDbSpline
 62
7
  6
CONTINUOUS
 70
0
 71
3
 72
13
 73
9
 74
0
 42
0.0000001
 43
0.0000001
 44
0.0000000001
 40
0.0
 40
0.0
 40
0.0
 40
0.0
 40
0.1250049773
 40
0.2501516589
 40
0.3752481224
 40
0.5003086168
 40
0.7501203495
 40
1.0
 40
1.0
 40
1.0
 40
1.0
 10
3.7217271157
 20
6.978391804
 30
0.0
 10
3.7217271157
 20
6.9761661999
 30
0.0
 10
3.7219848232
 20
6.9717084575
 30
0.0
 10
3.7231223422
 20
6.965111452
 30
0.0
 10
3.7249903893
 20
6.9586814242
 30
0.0
 10
3.7283753162
 20
6.9504329967
 30
0.0
 10
3.7341645022
 20
6.9408470944
 30
0.0
 10
3.7400961604
 20
6.9341531054
 30
0.0
 10
3.7432994705
 20
6.931065807
 30
0.0
  0
SPLINE
  5
35E
100
AcDbEntity
  8
0
100
AcDbSpline
 62
7
  6
CONTINUOUS
 70
0
 71
3
 72
11
 73
7
 74
0
 42
0.0000001
 43
0.0000001
 44
0.0000000001
 40
0.0
 40
0.0
 40
0.0
 40
0.0
 40
0.2122991023
 40
0.4543012178
 40
0.7203110863
 40
1.0
 40
1.0
 40
1.0
 40
1.0
 10
3.7780287426
 20
6.931065807
 30
0.0
 10
3.7783413789
 20
6.93440419
 30
0.0
 10
3.7788991391
 20
6.9415586223
 30
0.0
 10
3.7795031944
 20
6.9529199032
 30
0.0
 10
3.7798881315
 20
6.9653556004
 30
0.0
 10
3.7799758069
 20
6.9739744789
 30
0.0
 10
3.7799758069
 20
6.978391804
 30
0.0
  0
SPLINE
  5
35F
100
AcDbEntity
  8
0
100
AcDbSpline
 62
7
  6
CONTINUOUS
 70
0
 71
3
 72
11
 73
7
 74
0
 42
0.0000001
 43
0.0000001
 44
0.0000000001
 40
0.0
 40
0.0
 40
0.0
 40
0.0
 40
0.2797302553
 40
0.5457753957
 40
0.7877422444
 40
1.0
 40
1.0
 40
1.0
 40
1.0
 10
3.7799758069
 20
6.978391804
 30
0.0
 10
3.7799758069
 20
6.9828097822
 30
0.0
 10
3.7798880937
 20
6.9914298705
 30
0.0
 10
3.7795031285
 20
7.0038662209
 30
0.0
 10
3.7788990056
 20
7.0152268446
 30
0.0
 10
3.778341318
 20
7.0223800682
 30
0.0
 10
3.7780287426
 20
7.0257178011
 30
0.0
  0
SPLINE
  5
360
100
AcDbEntity
  8
0
100
AcDbSpline
 62
7
  6
CONTINUOUS
 70
0
 71
3
 72
14
 73
10
 74
0
 42
0.0000001
 43
0.0000001
 44
0.0000000001
 40
0.0
 40
0.0
 40
0.0
 40
0.0
 40
0.2496218312
 40
0.3745998603
 40
0.4996216118
 40
0.6246793775
 40
0.7497669719
 40
0.8748787191
 40
1.0
 40
1.0
 40
1.0
 40
1.0
 10
3.7780287426
 20
7.0257178011
 30
0.0
 10
3.7748366234
 20
7.0226289287
 30
0.0
 10
3.7703991035
 20
7.0175978901
 30
0.0
 10
3.7654708629
 20
7.0101862674
 30
0.0
 10
3.7623221337
 20
7.0042885628
 30
0.0
 10
3.7597902343
 20
6.9980983843
 30
0.0
 10
3.7579328103
 20
6.9916703041
 30
0.0
 10
3.7567977845
 20
6.9850752213
 30
0.0
 10
3.7565427066
 20
6.9806182928
 30
0.0
 10
3.7565427066
 20
6.978391804
 30
0.0
  0
SPLINE
  5
361
100
AcDbEntity
  8
0
100
AcDbSpline
 62
7
  6
CONTINUOUS
 70
0
 71
3
 72
12
 73
8
 74
0
 42
0.0000001
 43
0.0000001
 44
0.0000000001
 40
0.0
 40
0.0
 40
0.0
 40
0.0
 40
0.1251510404
 40
0.2504311768
 40
0.5004175992
 40
0.7502608091
 40
1.0
 40
1.0
 40
1.0
 40
1.0
 10
3.7565427066
 20
6.978391804
 30
0.0
 10
3.7565427066
 20
6.9761662291
 30
0.0
 10
3.756799515
 20
6.9717083811
 30
0.0
 10
3.7583077152
 20
6.9629228734
 30
0.0
 10
3.7620143394
 20
6.952341555
 30
0.0
 10
3.7689266731
 20
6.9408534851
 30
0.0
 10
3.7748371924
 20
6.9341541288
 30
0.0
 10
3.7780287426
 20
6.931065807
 30
0.0
  0
SPLINE
  5
362
100
AcDbEntity
  8
0
100
AcDbSpline
 62
7
  6
CONTINUOUS
 70
0
 71
3
 72
11
 73
7
 74
0
 42
0.0000001
 43
0.0000001
 44
0.0000000001
 40
0.0
 40
0.0
 40
0.0
 40
0.0
 40
0.2137571492
 40
0.456009932
 40
0.7213981496
 40
1.0
 40
1.0
 40
1.0
 40
1.0
 10
3.8158776878
 20
6.931065807
 30
0.0
 10
3.8165406241
 20
6.9343901809
 30
0.0
 10
3.8177271309
 20
6.9415283377
 30
0.0
 10
3.8190157321
 20
6.952899987
 30
0.0
 10
3.8198367647
 20
6.9653456447
 30
0.0
 10
3.8200237811
 20
6.973973646
 30
0.0
 10
3.8200237811
 20
6.978391804
 30
0.0
  0
SPLINE
  5
363
100
AcDbEntity
  8
0
100
AcDbSpline
 62
7
  6
CONTINUOUS
 70
0
 71
3
 72
11
 73
7
 74
0
 42
0.0000001
 43
0.0000001
 44
0.0000000001
 40
0.0
 40
0.0
 40
0.0
 40
0.0
 40
0.2786430343
 40
0.5440665171
 40
0.7862843146
 40
1.0
 40
1.0
 40
1.0
 40
1.0
 10
3.8200237811
 20
6.978391804
 30
0.0
 10
3.8200237811
 20
6.9828106155
 30
0.0
 10
3.8198366842
 20
6.9914398283
 30
0.0
 10
3.8190155907
 20
7.0038861443
 30
0.0
 10
3.8177268472
 20
7.0152571212
 30
0.0
 10
3.8165404956
 20
7.0223940718
 30
0.0
 10
3.8158776878
 20
7.0257178011
 30
0.0
  0
SPLINE
  5
364
100
AcDbEntity
  8
0
100
AcDbSpline
 62
7
  6
CONTINUOUS
 70
0
 71
3
 72
15
 73
11
 74
0
 42
0.0000001
 43
0.0000001
 44
0.0000000001
 40
0.0
 40
0.0
 40
0.0
 40
0.0
 40
0.1243742621
 40
0.2489568085
 40
0.3737244289
 40
0.4986904645
 40
0.6238353037
 40
0.7491304011
 40
0.8745373055
 40
1.0
 40
1.0
 40
1.0
 40
1.0
 10
3.8158776878
 20
7.0257178011
 30
0.0
 10
3.8143029551
 20
7.0241713951
 30
0.0
 10
3.8112717676
 20
7.0209495735
 30
0.0
 10
3.8071466791
 20
7.0157463798
 30
0.0
 10
3.8035009327
 20
7.010182341
 30
0.0
 10
3.8003991887
 20
7.0042851857
 30
0.0
 10
3.7979047497
 20
6.9980952988
 30
0.0
 10
3.796075048
 20
6.9916680173
 30
0.0
 10
3.7949569929
 20
6.9850739666
 30
0.0
 10
3.7947057556
 20
6.9806181879
 30
0.0
 10
3.7947057556
 20
6.978391804
 30
0.0
  0
SPLINE
  5
365
100
AcDbEntity
  8
0
100
AcDbSpline
 62
7
  6
CONTINUOUS
 70
0
 71
3
 72
11
 73
7
 74
0
 42
0.0000001
 43
0.0000001
 44
0.0000000001
 40
0.0
 40
0.0
 40
0.0
 40
0.0
 40
0.2508305237
 40
0.5012693632
 40
0.7510000005
 40
1.0
 40
1.0
 40
1.0
 40
1.0
 10
3.7947057556
 20
6.978391804
 30
0.0
 10
3.7947057556
 20
6.9739462672
 30
0.0
 10
3.795715665
 20
6.9650311516
 30
0.0
 10
3.8000906666
 20
6.9523590117
 30
0.0
 10
3.8068988007
 20
6.9408662053
 30
0.0
 10
3.8127289676
 20
6.9341578871
 30
0.0
 10
3.8158776878
 20
6.931065807
 30
0.0
  0
SPLINE
  5
366
100
AcDbEntity
  8
0
100
AcDbSpline
 62
7
  6
CONTINUOUS
 70
0
 71
3
 72
11
 73
7
 74
0
 42
0.0000001
 43
0.0000001
 44
0.0000000001
 40
0.0
 40
0.0
 40
0.0
 40
0.0
 40
0.2161405024
 40
0.4588132137
 40
0.7231852394
 40
1.0
 40
1.0
 40
1.0
 40
1.0
 10
3.8564450488
 20
6.931065807
 30
0.0
 10
3.857445942
 20
6.9343683146
 30
0.0
 10
3.8592459169
 20
6.9414792154
 30
0.0
 10
3.8612100079
 20
6.9528670255
 30
0.0
 10
3.862461169
 20
6.965328941
 30
0.0
 10
3.8627462162
 20
6.9739722467
 30
0.0
 10
3.8627462162
 20
6.978391804
 30
0.0
  0
SPLINE
  5
367
100
AcDbEntity
  8
0
100
AcDbSpline
 62
7
  6
CONTINUOUS
 70
0
 71
3
 72
15
 73
11
 74
0
 42
0.0000001
 43
0.0000001
 44
0.0000000001
 40
0.0
 40
0.0
 40
0.0
 40
0.0
 40
0.1391659365
 40
0.2768484317
 40
0.4113005378
 40
0.5412514925
 40
0.665663732
 40
0.7838913507
 40
0.8954383394
 40
1.0
 40
1.0
 40
1.0
 40
1.0
 10
3.8627462162
 20
6.978391804
 30
0.0
 10
3.8627462162
 20
6.980614064
 30
0.0
 10
3.8626719678
 20
6.9850352402
 30
0.0
 10
3.8623435347
 20
6.991596028
 30
0.0
 10
3.8618037115
 20
6.9979952445
 30
0.0
 10
3.8610687396
 20
7.0041616385
 30
0.0
 10
3.8601530171
 20
7.0100417592
 30
0.0
 10
3.8590759084
 20
7.0155954663
 30
0.0
 10
3.8578553375
 20
7.0207942595
 30
0.0
 10
3.8569293287
 20
7.0241198903
 30
0.0
 10
3.8564450488
 20
7.0257178011
 30
0.0
  0
SPLINE
  5
368
100
AcDbEntity
  8
0
100
AcDbSpline
 62
7
  6
CONTINUOUS
 70
0
 71
3
 72
15
 73
11
 74
0
 42
0.0000001
 43
0.0000001
 44
0.0000000001
 40
0.0
 40
0.0
 40
0.0
 40
0.0
 40
0.1235287679
 40
0.2475301381
 40
0.3719873466
 40
0.4969077606
 40
0.6222506033
 40
0.7479485978
 40
0.8739071987
 40
1.0
 40
1.0
 40
1.0
 40
1.0
 10
3.8564450488
 20
7.0257178011
 30
0.0
 10
3.8549087747
 20
7.0241697843
 30
0.0
 10
3.8519517381
 20
7.0209441845
 30
0.0
 10
3.8479319764
 20
7.0157404795
 30
0.0
 10
3.8443796164
 20
7.0101762203
 30
0.0
 10
3.8413576257
 20
7.0042792668
 30
0.0
 10
3.8389275923
 20
6.9980901151
 30
0.0
 10
3.8371453216
 20
6.9916641494
 30
0.0
 10
3.8360563426
 20
6.9850718605
 30
0.0
 10
3.8358116756
 20
6.9806180117
 30
0.0
 10
3.8358116756
 20
6.978391804
 30
0.0
  0
SPLINE
  5
369
100
AcDbEntity
  8
0
100
AcDbSpline
 62
7
  6
CONTINUOUS
 70
0
 71
3
 72
13
 73
9
 74
0
 42
0.0000001
 43
0.0000001
 44
0.0000000001
 40
0.0
 40
0.0
 40
0.0
 40
0.0
 40
0.1261040805
 40
0.2522137679
 40
0.3780113476
 40
0.503414666
 40
0.7526100241
 40
1.0
 40
1.0
 40
1.0
 40
1.0
 10
3.8358116756
 20
6.978391804
 30
0.0
 10
3.8358116756
 20
6.976166511
 30
0.0
 10
3.8360578529
 20
6.9717121502
 30
0.0
 10
3.8371447317
 20
6.9651182778
 30
0.0
 10
3.8389299297
 20
6.9586904847
 30
0.0
 10
3.842159784
 20
6.9504578348
 30
0.0
 10
3.8476784746
 20
6.9408884108
 30
0.0
 10
3.8533699052
 20
6.9341644556
 30
0.0
 10
3.8564450488
 20
6.931065807
 30
0.0
  0
SPLINE
  5
36A
100
AcDbEntity
  8
0
100
AcDbSpline
 62
7
  6
CONTINUOUS
 70
0
 71
3
 72
11
 73
7
 74
0
 42
0.0000001
 43
0.0000001
 44
0.0000000001
 40
0.0
 40
0.0
 40
0.0
 40
0.0
 40
0.2192614429
 40
0.4625031423
 40
0.7255446002
 40
1.0
 40
1.0
 40
1.0
 40
1.0
 10
3.899300749
 20
6.931065807
 30
0.0
 10
3.9006225187
 20
6.9343414758
 30
0.0
 10
3.9030126891
 20
6.9414156838
 30
0.0
 10
3.9056374087
 20
6.9528230941
 30
0.0
 10
3.9073091697
 20
6.9653062373
 30
0.0
 10
3.9076901884
 20
6.9739703409
 30
0.0
 10
3.9076901884
 20
6.978391804
 30
0.0
  0
SPLINE
  5
36B
100
AcDbEntity
  8
0
100
AcDbSpline
 62
7
  6
CONTINUOUS
 70
0
 71
3
 72
13
 73
9
 74
0
 42
0.0000001
 43
0.0000001
 44
0.0000000001
 40
0.0
 40
0.0
 40
0.0
 40
0.0
 40
0.1379393071
 40
0.2745264658
 40
0.4081441821
 40
0.5376361694
 40
0.7808105662
 40
1.0
 40
1.0
 40
1.0
 40
1.0
 10
3.9076901884
 20
6.978391804
 30
0.0
 10
3.9076901884
 20
6.9806143052
 30
0.0
 10
3.9075912394
 20
6.9850381407
 30
0.0
 10
3.9071535593
 20
6.9916017076
 30
0.0
 10
3.9064342642
 20
6.9980037861
 30
0.0
 10
3.9051544516
 20
7.006062437
 30
0.0
 10
3.9030119255
 20
7.0153699431
 30
0.0
 10
3.9006222663
 20
7.0224427578
 30
0.0
 10
3.899300749
 20
7.0257178011
 30
0.0
  0
SPLINE
  5
36C
100
AcDbEntity
  8
0
100
AcDbSpline
 62
7
  6
CONTINUOUS
 70
0
 71
3
 72
15
 73
11
 74
0
 42
0.0000001
 43
0.0000001
 44
0.0000000001
 40
0.0
 40
0.0
 40
0.0
 40
0.0
 40
0.1223420823
 40
0.2455309586
 40
0.3695569634
 40
0.4944171092
 40
0.6200393058
 40
0.7463010705
 40
0.8730293086
 40
1.0
 40
1.0
 40
1.0
 40
1.0
 10
3.899300749
 20
7.0257178011
 30
0.0
 10
3.8978186303
 20
7.0241674514
 30
0.0
 10
3.8949660625
 20
7.0209364472
 30
0.0
 10
3.8910944453
 20
7.0157320974
 30
0.0
 10
3.8876734047
 20
7.0101676172
 30
0.0
 10
3.8847635199
 20
7.0042710307
 30
0.0
 10
3.882423973
 20
6.9980829654
 30
0.0
 10
3.8807083034
 20
6.9916588513
 30
0.0
 10
3.8796601319
 20
6.9850689885
 30
0.0
 10
3.8794246805
 20
6.9806177716
 30
0.0
 10
3.8794246805
 20
6.978391804
 30
0.0
  0
SPLINE
  5
36D
100
AcDbEntity
  8
0
100
AcDbSpline
 62
7
  6
CONTINUOUS
 70
0
 71
3
 72
11
 73
7
 74
0
 42
0.0000001
 43
0.0000001
 44
0.0000000001
 40
0.0
 40
0.0
 40
0.0
 40
0.0
 40
0.2536797146
 40
0.5055709795
 40
0.7544463432
 40
1.0
 40
1.0
 40
1.0
 40
1.0
 10
3.8794246805
 20
6.978391804
 30
0.0
 10
3.8794246805
 20
6.9739495564
 30
0.0
 10
3.8803663587
 20
6.9650688352
 30
0.0
 10
3.8844557526
 20
6.9524160034
 30
0.0
 10
3.8908323522
 20
6.9409235699
 30
0.0
 10
3.8963293894
 20
6.9341739565
 30
0.0
 10
3.899300749
 20
6.931065807
 30
0.0
  0
SPLINE
  5
36E
100
AcDbEntity
  8
0
100
AcDbSpline
 62
7
  6
CONTINUOUS
 70
0
 71
3
 72
11
 73
7
 74
0
 42
0.0000001
 43
0.0000001
 44
0.0000000001
 40
0.0
 40
0.0
 40
0.0
 40
0.0
 40
0.2228974186
 40
0.4668293131
 40
0.7283211002
 40
1.0
 40
1.0
 40
1.0
 40
1.0
 10
3.9439904519
 20
6.931065807
 30
0.0
 10
3.9456127574
 20
6.9343125329
 30
0.0
 10
3.9485624362
 20
6.9413429237
 30
0.0
 10
3.9518261979
 20
6.952770808
 30
0.0
 10
3.9539051053
 20
6.9652785495
 30
0.0
 10
3.9543792223
 20
6.9739680096
 30
0.0
 10
3.9543792223
 20
6.978391804
 30
0.0
  0
SPLINE
  5
36F
100
AcDbEntity
  8
0
100
AcDbSpline
 62
7
  6
CONTINUOUS
 70
0
 71
3
 72
13
 73
9
 74
0
 42
0.0000001
 43
0.0000001
 44
0.0000000001
 40
0.0
 40
0.0
 40
0.0
 40
0.0
 40
0.1364805511
 40
0.271766192
 40
0.4043940541
 40
0.5333425381
 40
0.7771908419
 40
1.0
 40
1.0
 40
1.0
 40
1.0
 10
3.9543792223
 20
6.978391804
 30
0.0
 10
3.9543792223
 20
6.9806146003
 30
0.0
 10
3.9542565414
 20
6.9850416794
 30
0.0
 10
3.953713989
 20
6.9916086363
 30
0.0
 10
3.9528223033
 20
6.99801398
 30
0.0
 10
3.9512324924
 20
7.0060942046
 30
0.0
 10
3.9485614898
 20
7.0154427986
 30
0.0
 10
3.9456124506
 20
7.0224716892
 30
0.0
 10
3.9439904519
 20
7.0257178011
 30
0.0
  0
SPLINE
  5
370
100
AcDbEntity
  8
0
100
AcDbSpline
 62
7
  6
CONTINUOUS
 70
0
 71
3
 72
15
 73
11
 74
0
 42
0.0000001
 43
0.0000001
 44
0.0000000001
 40
0.0
 40
0.0
 40
0.0
 40
0.0
 40
0.1208321015
 40
0.2429926367
 40
0.366477545
 40
0.4912672976
 40
0.6172472925
 40
0.7442234583
 40
0.8719231115
 40
1.0
 40
1.0
 40
1.0
 40
1.0
 10
3.9439904519
 20
7.0257178011
 30
0.0
 10
3.9425777007
 20
7.024164355
 30
0.0
 10
3.9398590331
 20
7.0209263008
 30
0.0
 10
3.9361768338
 20
7.0157212625
 30
0.0
 10
3.9329236426
 20
7.0101566538
 30
0.0
 10
3.9301569759
 20
7.004260673
 30
0.0
 10
3.927932953
 20
6.9980740772
 30
0.0
 10
3.9263022542
 20
6.9916523235
 30
0.0
 10
3.9253061152
 20
6.9850654701
 30
0.0
 10
3.925082405
 20
6.9806174777
 30
0.0
 10
3.925082405
 20
6.978391804
 30
0.0
  0
SPLINE
  5
371
100
AcDbEntity
  8
0
100
AcDbSpline
 62
7
  6
CONTINUOUS
 70
0
 71
3
 72
11
 73
7
 74
0
 42
0.0000001
 43
0.0000001
 44
0.0000000001
 40
0.0
 40
0.0
 40
0.0
 40
0.0
 40
0.2557704786
 40
0.5087397452
 40
0.7569986078
 40
1.0
 40
1.0
 40
1.0
 40
1.0
 10
3.925082405
 20
6.978391804
 30
0.0
 10
3.925082405
 20
6.9739518794
 30
0.0
 10
3.9259739239
 20
6.9650955921
 30
0.0
 10
3.9298516985
 20
6.9524576669
 30
0.0
 10
3.9359064163
 20
6.940967113
 30
0.0
 10
3.9411523591
 20
6.9341865434
 30
0.0
 10
3.9439904519
 20
6.931065807
 30
0.0
  0
SPLINE
  5
372
100
AcDbEntity
  8
0
100
AcDbSpline
 62
7
  6
CONTINUOUS
 70
0
 71
3
 72
11
 73
7
 74
0
 42
0.0000001
 43
0.0000001
 44
0.0000000001
 40
0.0
 40
0.0
 40
0.0
 40
0.0
 40
0.226820075
 40
0.4715295229
 40
0.7313504945
 40
1.0
 40
1.0
 40
1.0
 40
1.0
 10
3.9900403776
 20
6.931065807
 30
0.0
 10
3.9919407414
 20
6.9342838179
 30
0.0
 10
3.9954128251
 20
6.9412660828
 30
0.0
 10
3.9992865631
 20
6.9527130732
 30
0.0
 10
4.0017548934
 20
6.9652471079
 30
0.0
 10
4.002318342
 20
6.973965352
 30
0.0
 10
4.002318342
 20
6.978391804
 30
0.0
  0
SPLINE
  5
373
100
AcDbEntity
  8
0
100
AcDbSpline
 62
7
  6
CONTINUOUS
 70
0
 71
3
 72
13
 73
9
 74
0
 42
0.0000001
 43
0.0000001
 44
0.0000000001
 40
0.0
 40
0.0
 40
0.0
 40
0.0
 40
0.1348878391
 40
0.26875557
 40
0.4003108485
 40
0.5286786944
 40
0.7732865675
 40
1.0
 40
1.0
 40
1.0
 40
1.0
 10
4.002318342
 20
6.978391804
 30
0.0
 10
4.002318342
 20
6.9806149369
 30
0.0
 10
4.0021731488
 20
6.9850457098
 30
0.0
 10
4.0015311736
 20
6.9916164792
 30
0.0
 10
4.0004760669
 20
6.9980253731
 30
0.0
 10
3.9985906507
 20
7.0061291756
 30
0.0
 10
3.995411703
 20
7.0155197554
 30
0.0
 10
3.9919403855
 20
7.0225003928
 30
0.0
 10
3.9900403776
 20
7.0257178011
 30
0.0
  0
SPLINE
  5
374
100
AcDbEntity
  8
0
100
AcDbSpline
 62
7
  6
CONTINUOUS
 70
0
 71
3
 72
11
 73
7
 74
0
 42
0.0000001
 43
0.0000001
 44
0.0000000001
 40
0.0
 40
0.0
 40
0.0
 40
0.0
 40
0.2400025592
 40
0.4875751551
 40
0.7417965317
 40
1.0
 40
1.0
 40
1.0
 40
1.0
 10
3.9900403776
 20
7.0257178011
 30
0.0
 10
3.9873636807
 20
7.0225806658
 30
0.0
 10
3.9824228086
 20
7.0157617314
 30
0.0
 10
3.9767563068
 20
7.0042742588
 30
0.0
 10
3.9731323017
 20
6.9916554249
 30
0.0
 10
3.9723008067
 20
6.9828284158
 30
0.0
 10
3.9723008067
 20
6.978391804
 30
0.0
  0
SPLINE
  5
375
100
AcDbEntity
  8
0
100
AcDbSpline
 62
7
  6
CONTINUOUS
 70
0
 71
3
 72
12
 73
8
 74
0
 42
0.0000001
 43
0.0000001
 44
0.0000000001
 40
0.0
 40
0.0
 40
0.0
 40
0.0
 40
0.2581735487
 40
0.3861272706
 40
0.5126273548
 40
0.7601046526
 40
1.0
 40
1.0
 40
1.0
 40
1.0
 10
3.9723008067
 20
6.978391804
 30
0.0
 10
3.9723008067
 20
6.9739545305
 30
0.0
 10
3.9729284831
 20
6.9672962068
 30
0.0
 10
3.9749741885
 20
6.9587174568
 30
0.0
 10
3.9777313855
 20
6.9505314545
 30
0.0
 10
3.9824244568
 20
6.9410192763
 30
0.0
 10
3.9873641672
 20
6.9342023721
 30
0.0
 10
3.9900403776
 20
6.931065807
 30
0.0
  0
SPLINE
  5
376
100
AcDbEntity
  8
0
100
AcDbSpline
 62
7
  6
CONTINUOUS
 70
0
 71
3
 72
12
 73
8
 74
0
 42
0.0000001
 43
0.0000001
 44
0.0000000001
 40
0.0
 40
0.0
 40
0.0
 40
0.0
 40
0.2307782723
 40
0.3518318985
 40
0.4764427685
 40
0.7345191924
 40
1.0
 40
1.0
 40
1.0
 40
1.0
 10
4.0369623258
 20
6.931065807
 30
0.0
 10
4.0391168043
 20
6.9342569422
 30
0.0
 10
4.0420375121
 20
6.9393808476
 30
0.0
 10
4.0451985092
 20
6.9466797896
 30
0.0
 10
4.0479608804
 20
6.9546251462
 30
0.0
 10
4.0503515071
 20
6.9652140614
 30
0.0
 10
4.0509993188
 20
6.9739624811
 30
0.0
 10
4.0509993188
 20
6.978391804
 30
0.0
  0
SPLINE
  5
377
100
AcDbEntity
  8
0
100
AcDbSpline
 62
7
  6
CONTINUOUS
 70
0
 71
3
 72
13
 73
9
 74
0
 42
0.0000001
 43
0.0000001
 44
0.0000000001
 40
0.0
 40
0.0
 40
0.0
 40
0.0
 40
0.1332442794
 40
0.2656523197
 40
0.3961098068
 40
0.5238924122
 40
0.7693089893
 40
1.0
 40
1.0
 40
1.0
 40
1.0
 10
4.0509993188
 20
6.978391804
 30
0.0
 10
4.0509993188
 20
6.9806153007
 30
0.0
 10
4.0508330741
 20
6.98505006
 30
0.0
 10
4.050098191
 20
6.9916248856
 30
0.0
 10
4.0488904111
 20
6.9980374173
 30
0.0
 10
4.0467271515
 20
7.0061655418
 30
0.0
 10
4.0430676796
 20
7.0155962934
 30
0.0
 10
4.0391164047
 20
7.0225272578
 30
0.0
 10
4.0369623258
 20
7.0257178011
 30
0.0
  0
SPLINE
  5
378
100
AcDbEntity
  8
0
100
AcDbSpline
 62
7
  6
CONTINUOUS
 70
0
 71
3
 72
11
 73
7
 74
0
 42
0.0000001
 43
0.0000001
 44
0.0000000001
 40
0.0
 40
0.0
 40
0.0
 40
0.0
 40
0.2347062487
 40
0.4810822456
 40
0.7375496977
 40
1.0
 40
1.0
 40
1.0
 40
1.0
 10
4.0842588515
 20
6.931065807
 30
0.0
 10
4.0866423472
 20
6.934232855
 30
0.0
 10
4.0910281969
 20
6.9411172783
 30
0.0
 10
4.0960034742
 20
6.9525929391
 30
0.0
 10
4.0991792087
 20
6.9651785698
 30
0.0
 10
4.0999060593
 20
6.9739595186
 30
0.0
 10
4.0999060593
 20
6.978391804
 30
0.0
  0
SPLINE
  5
379
100
AcDbEntity
  8
0
100
AcDbSpline
 62
7
  6
CONTINUOUS
 70
0
 71
3
 72
13
 73
9
 74
0
 42
0.0000001
 43
0.0000001
 44
0.0000000001
 40
0.0
 40
0.0
 40
0.0
 40
0.0
 40
0.1316249512
 40
0.262598358
 40
0.3919833176
 40
0.519203108
 40
0.7654400542
 40
1.0
 40
1.0
 40
1.0
 40
1.0
 10
4.0999060593
 20
6.978391804
 30
0.0
 10
4.0999060593
 20
6.9806156762
 30
0.0
 10
4.0997204571
 20
6.985054545
 30
0.0
 10
4.0989002052
 20
6.9916334881
 30
0.0
 10
4.0975522042
 20
6.9980495694
 30
0.0
 10
4.0951322506
 20
7.0062016092
 30
0.0
 10
4.0910267473
 20
7.0156688383
 30
0.0
 10
4.086641909
 20
7.0225513353
 30
0.0
 10
4.0842588515
 20
7.0257178011
 30
0.0
  0
SPLINE
  5
37A
100
AcDbEntity
  8
0
100
AcDbSpline
 62
7
  6
CONTINUOUS
 70
0
 71
3
 72
11
 73
7
 74
0
 42
0.0000001
 43
0.0000001
 44
0.0000000001
 40
0.0
 40
0.0
 40
0.0
 40
0.0
 40
0.2327636271
 40
0.4787162931
 40
0.7360089522
 40
1.0
 40
1.0
 40
1.0
 40
1.0
 10
4.0842588515
 20
7.0257178011
 30
0.0
 10
4.0819879424
 20
7.0225389615
 30
0.0
 10
4.0778153434
 20
7.0156304107
 30
0.0
 10
4.0731012317
 20
7.0041605875
 30
0.0
 10
4.0700937891
 20
6.9915874735
 30
0.0
 10
4.0694061746
 20
6.9828225874
 30
0.0
 10
4.0694061746
 20
6.978391804
 30
0.0
  0
SPLINE
  5
37B
100
AcDbEntity
  8
0
100
AcDbSpline
 62
7
  6
CONTINUOUS
 70
0
 71
3
 72
13
 73
9
 74
0
 42
0.0000001
 43
0.0000001
 44
0.0000000001
 40
0.0
 40
0.0
 40
0.0
 40
0.0
 40
0.1324364404
 40
0.2641282694
 40
0.3940496174
 40
0.5215498984
 40
0.76737266
 40
1.0
 40
1.0
 40
1.0
 40
1.0
 10
4.0694061746
 20
6.978391804
 30
0.0
 10
4.0694061746
 20
6.9761681212
 30
0.0
 10
4.0695821542
 20
6.9717313338
 30
0.0
 10
4.0703601456
 20
6.9651544519
 30
0.0
 10
4.0716389263
 20
6.9587401409
 30
0.0
 10
4.0739319902
 20
6.9506000889
 30
0.0
 10
4.0778167125
 20
6.941150755
 30
0.0
 10
4.0819883624
 20
6.9342440587
 30
0.0
 10
4.0842588515
 20
6.931065807
 30
0.0
  0
SPLINE
  5
37C
100
AcDbEntity
  8
0
100
AcDbSpline
 62
7
  6
CONTINUOUS
 70
0
 71
3
 72
11
 73
7
 74
0
 42
0.0000001
 43
0.0000001
 44
0.0000000001
 40
0.0
 40
0.0
 40
0.0
 40
0.0
 40
0.238338303
 40
0.4855282037
 40
0.7404547107
 40
1.0
 40
1.0
 40
1.0
 40
1.0
 10
4.1314285386
 20
6.931065807
 30
0.0
 10
4.1340149063
 20
6.9342120065
 30
0.0
 10
4.1387849119
 20
6.94105145
 30
0.0
 10
4.1442368634
 20
6.9525358575
 30
0.0
 10
4.147721281
 20
6.9651444159
 30
0.0
 10
4.1485200767
 20
6.9739565897
 30
0.0
 10
4.1485200767
 20
6.978391804
 30
0.0
  0
SPLINE
  5
37D
100
AcDbEntity
  8
0
100
AcDbSpline
 62
7
  6
CONTINUOUS
 70
0
 71
3
 72
12
 73
8
 74
0
 42
0.0000001
 43
0.0000001
 44
0.0000000001
 40
0.0
 40
0.0
 40
0.0
 40
0.0
 40
0.2595192372
 40
0.3879326143
 40
0.5146663823
 40
0.7617646026
 40
1.0
 40
1.0
 40
1.0
 40
1.0
 10
4.1485200767
 20
6.978391804
 30
0.0
 10
4.1485200767
 20
6.9828276795
 30
0.0
 10
4.1479167882
 20
6.9894789424
 30
0.0
 10
4.145945864
 20
6.9980606908
 30
0.0
 10
4.1432934873
 20
7.006236234
 30
0.0
 10
4.1387833342
 20
7.0157346957
 30
0.0
 10
4.1340144345
 20
7.0225721755
 30
0.0
 10
4.1314285386
 20
7.0257178011
 30
0.0
  0
SPLINE
  5
37E
100
AcDbEntity
  8
0
100
AcDbSpline
 62
7
  6
CONTINUOUS
 70
0
 71
3
 72
11
 73
7
 74
0
 42
0.0000001
 43
0.0000001
 44
0.0000000001
 40
0.0
 40
0.0
 40
0.0
 40
0.0
 40
0.2287991803
 40
0.4739138968
 40
0.7328924693
 40
1.0
 40
1.0
 40
1.0
 40
1.0
 10
4.1314285386
 20
7.0257178011
 30
0.0
 10
4.1293994697
 20
7.0225133806
 30
0.0
 10
4.1256844612
 20
7.0155556011
 30
0.0
 10
4.1215222889
 20
7.00410018
 30
0.0
 10
4.1188693586
 20
6.9915530117
 30
0.0
 10
4.1182634298
 20
6.9828196562
 30
0.0
 10
4.1182634298
 20
6.978391804
 30
0.0
  0
SPLINE
  5
37F
100
AcDbEntity
  8
0
100
AcDbSpline
 62
7
  6
CONTINUOUS
 70
0
 71
3
 72
13
 73
9
 74
0
 42
0.0000001
 43
0.0000001
 44
0.0000000001
 40
0.0
 40
0.0
 40
0.0
 40
0.0
 40
0.1340766983
 40
0.267223585
 40
0.3982359176
 40
0.5263131634
 40
0.7713170742
 40
1.0
 40
1.0
 40
1.0
 40
1.0
 10
4.1182634298
 20
6.978391804
 30
0.0
 10
4.1182634298
 20
6.9761684938
 30
0.0
 10
4.1184192289
 20
6.9717357762
 30
0.0
 10
4.1191080187
 20
6.9651630206
 30
0.0
 10
4.1202400598
 20
6.9587523277
 30
0.0
 10
4.1222652755
 20
6.9506365181
 30
0.0
 10
4.125685667
 20
6.9412257128
 30
0.0
 10
4.1293998479
 20
6.9342696303
 30
0.0
 10
4.1314285386
 20
6.931065807
 30
0.0
  0
SPLINE
  5
380
100
AcDbEntity
  8
0
100
AcDbSpline
 62
7
  6
CONTINUOUS
 70
0
 71
3
 72
15
 73
11
 74
0
 42
0.0000001
 43
0.0000001
 44
0.0000000001
 40
0.0
 40
0.0
 40
0.0
 40
0.0
 40
0.1199740828
 40
0.2415530723
 40
0.3647343115
 40
0.4894871747
 40
0.6156715957
 40
0.743052196
 40
0.8712999073
 40
1.0
 40
1.0
 40
1.0
 40
1.0
 10
4.1779713155
 20
6.931065807
 30
0.0
 10
4.1793443325
 20
6.9326210794
 30
0.0
 10
4.1819862606
 20
6.9358632269
 30
0.0
 10
4.1855601576
 20
6.9410685864
 30
0.0
 10
4.1887174088
 20
6.94663319
 30
0.0
 10
4.191402251
 20
6.9525287585
 30
0.0
 10
4.1935603076
 20
6.9587144786
 30
0.0
 10
4.1951425135
 20
6.9651348905
 30
0.0
 10
4.196108972
 20
6.9717200721
 30
0.0
 10
4.1963259871
 20
6.9761662918
 30
0.0
 10
4.1963259871
 20
6.978391804
 30
0.0
  0
SPLINE
  5
381
100
AcDbEntity
  8
0
100
AcDbSpline
 62
7
  6
CONTINUOUS
 70
0
 71
3
 72
11
 73
7
 74
0
 42
0.0000001
 43
0.0000001
 44
0.0000000001
 40
0.0
 40
0.0
 40
0.0
 40
0.0
 40
0.2569486052
 40
0.5105298485
 40
0.7584455802
 40
1.0
 40
1.0
 40
1.0
 40
1.0
 10
4.1963259871
 20
6.978391804
 30
0.0
 10
4.1963259871
 20
6.9828304523
 30
0.0
 10
4.1954628487
 20
6.9916732653
 30
0.0
 10
4.1917053716
 20
7.0043025348
 30
0.0
 10
4.1858344036
 20
7.0157914108
 30
0.0
 10
4.1807328904
 20
7.0225896527
 30
0.0
 10
4.1779713155
 20
7.0257178011
 30
0.0
  0
SPLINE
  5
382
100
AcDbEntity
  8
0
100
AcDbSpline
 62
7
  6
CONTINUOUS
 70
0
 71
3
 72
11
 73
7
 74
0
 42
0.0000001
 43
0.0000001
 44
0.0000000001
 40
0.0
 40
0.0
 40
0.0
 40
0.0
 40
0.2248147663
 40
0.4691224499
 40
0.7297973954
 40
1.0
 40
1.0
 40
1.0
 40
1.0
 10
4.1779713155
 20
7.0257178011
 30
0.0
 10
4.1762086241
 20
7.022485418
 30
0.0
 10
4.1729956729
 20
7.0154784663
 30
0.0
 10
4.1694262157
 20
7.0040408492
 30
0.0
 10
4.1671522822
 20
6.9915202176
 30
0.0
 10
4.1666334681
 20
6.9828168784
 30
0.0
 10
4.1666334681
 20
6.978391804
 30
0.0
  0
SPLINE
  5
383
100
AcDbEntity
  8
0
100
AcDbSpline
 62
7
  6
CONTINUOUS
 70
0
 71
3
 72
13
 73
9
 74
0
 42
0.0000001
 43
0.0000001
 44
0.0000000001
 40
0.0
 40
0.0
 40
0.0
 40
0.0
 40
0.1357045279
 40
0.270298903
 40
0.4024030926
 40
0.5310670049
 40
0.775282369
 40
1.0
 40
1.0
 40
1.0
 40
1.0
 10
4.1666334681
 20
6.978391804
 30
0.0
 10
4.1666334681
 20
6.9761688457
 30
0.0
 10
4.1667674472
 20
6.9717399872
 30
0.0
 10
4.1673599042
 20
6.9651711874
 30
0.0
 10
4.1683336198
 20
6.9587641116
 30
0.0
 10
4.1700715873
 20
6.9506724002
 30
0.0
 10
4.1729967068
 20
6.9413029727
 30
0.0
 10
4.1762089559
 20
6.9342975818
 30
0.0
 10
4.1779713155
 20
6.931065807
 30
0.0
  0
SPLINE
  5
384
100
AcDbEntity
  8
0
100
AcDbSpline
 62
7
  6
CONTINUOUS
 70
0
 71
3
 72
15
 73
11
 74
0
 42
0.0000001
 43
0.0000001
 44
0.0000000001
 40
0.0
 40
0.0
 40
0.0
 40
0.0
 40
0.121634493
 40
0.2443407063
 40
0.3681120892
 40
0.4929383751
 40
0.6187279205
 40
0.7453248774
 40
0.872509428
 40
1.0
 40
1.0
 40
1.0
 40
1.0
 10
4.2233937569
 20
6.931065807
 30
0.0
 10
4.224843446
 20
6.9326175894
 30
0.0
 10
4.2276334265
 20
6.935851873
 30
0.0
 10
4.2314164387
 20
6.9410565645
 30
0.0
 10
4.2347589555
 20
6.9466211264
 30
0.0
 10
4.2376018293
 20
6.9525174483
 30
0.0
 10
4.2398873129
 20
6.9587048367
 30
0.0
 10
4.2415632098
 20
6.9651278449
 30
0.0
 10
4.2425870228
 20
6.9717162868
 30
0.0
 10
4.2428169743
 20
6.9761659758
 30
0.0
 10
4.2428169743
 20
6.978391804
 30
0.0
  0
SPLINE
  5
385
100
AcDbEntity
  8
0
100
AcDbSpline
 62
7
  6
CONTINUOUS
 70
0
 71
3
 72
11
 73
7
 74
0
 42
0.0000001
 43
0.0000001
 44
0.0000000001
 40
0.0
 40
0.0
 40
0.0
 40
0.0
 40
0.2546622404
 40
0.5070588208
 40
0.7556432709
 40
1.0
 40
1.0
 40
1.0
 40
1.0
 10
4.2428169743
 20
6.978391804
 30
0.0
 10
4.2428169743
 20
6.9828329507
 30
0.0
 10
4.2418988474
 20
6.9917021061
 30
0.0
 10
4.2379086363
 20
7.0043480072
 30
0.0
 10
4.2316826785
 20
7.0158397297
 30
0.0
 10
4.226302862
 20
7.0226038243
 30
0.0
 10
4.2233937569
 20
7.0257178011
 30
0.0
  0
SPLINE
  5
386
100
AcDbEntity
  8
0
100
AcDbSpline
 62
7
  6
CONTINUOUS
 70
0
 71
3
 72
11
 73
7
 74
0
 42
0.0000001
 43
0.0000001
 44
0.0000000001
 40
0.0
 40
0.0
 40
0.0
 40
0.0
 40
0.2210091118
 40
0.4645788933
 40
0.7268753995
 40
1.0
 40
1.0
 40
1.0
 40
1.0
 10
4.2233937569
 20
7.0257178011
 30
0.0
 10
4.2219207035
 20
7.0224563404
 30
0.0
 10
4.2192496454
 20
7.0154030737
 30
0.0
 10
4.2163058279
 20
7.0039854975
 30
0.0
 10
4.2144308307
 20
6.9914905091
 30
0.0
 10
4.2140033696
 20
6.9828143725
 30
0.0
 10
4.2140033696
 20
6.978391804
 30
0.0
  0
SPLINE
  5
387
100
AcDbEntity
  8
0
100
AcDbSpline
 62
7
  6
CONTINUOUS
 70
0
 71
3
 72
13
 73
9
 74
0
 42
0.0000001
 43
0.0000001
 44
0.0000000001
 40
0.0
 40
0.0
 40
0.0
 40
0.0
 40
0.1372402308
 40
0.2732033267
 40
0.4063457864
 40
0.5355759119
 40
0.7790706157
 40
1.0
 40
1.0
 40
1.0
 40
1.0
 10
4.2140033696
 20
6.978391804
 30
0.0
 10
4.2140033696
 20
6.976169163
 30
0.0
 10
4.2141141892
 20
6.9717437895
 30
0.0
 10
4.2146043328
 20
6.9651786102
 30
0.0
 10
4.2154098669
 20
6.958774966
 30
0.0
 10
4.2168445359
 20
6.9507059803
 30
0.0
 10
4.2192505
 20
6.9413784712
 30
0.0
 10
4.2219209835
 20
6.9343266478
 30
0.0
 10
4.2233937569
 20
6.931065807
 30
0.0
  0
SPLINE
  5
388
100
AcDbEntity
  8
0
100
AcDbSpline
 62
7
  6
CONTINUOUS
 70
0
 71
3
 72
15
 73
11
 74
0
 42
0.0000001
 43
0.0000001
 44
0.0000000001
 40
0.0
 40
0.0
 40
0.0
 40
0.0
 40
0.1229837791
 40
0.2466115406
 40
0.370870068
 40
0.4957622599
 40
0.6212331902
 40
0.7471903486
 40
0.873503087
 40
1.0
 40
1.0
 40
1.0
 40
1.0
 10
4.267214315
 20
6.931065807
 30
0.0
 10
4.2687257489
 20
6.9326148845
 30
0.0
 10
4.2716348749
 20
6.9358429515
 30
0.0
 10
4.2755866587
 20
6.9410469635
 30
0.0
 10
4.2790787565
 20
6.9466113372
 30
0.0
 10
4.2820492959
 20
6.9525081341
 30
0.0
 10
4.2844377937
 20
6.9586967946
 30
0.0
 10
4.2861894875
 20
6.9651219104
 30
0.0
 10
4.2872597295
 20
6.9717130784
 30
0.0
 10
4.2875001621
 20
6.9761657077
 30
0.0
 10
4.2875001621
 20
6.978391804
 30
0.0
  0
SPLINE
  5
389
100
AcDbEntity
  8
0
100
AcDbSpline
 62
7
  6
CONTINUOUS
 70
0
 71
3
 72
11
 73
7
 74
0
 42
0.0000001
 43
0.0000001
 44
0.0000000001
 40
0.0
 40
0.0
 40
0.0
 40
0.0
 40
0.2527844325
 40
0.5042172468
 40
0.7533594995
 40
1.0
 40
1.0
 40
1.0
 40
1.0
 10
4.2875001621
 20
6.978391804
 30
0.0
 10
4.2875001621
 20
6.9828350696
 30
0.0
 10
4.2865370479
 20
6.9917264609
 30
0.0
 10
4.2823576224
 20
7.0043854891
 30
0.0
 10
4.2758446259
 20
7.0158783067
 30
0.0
 10
4.2702418811
 20
7.0226148307
 30
0.0
 10
4.267214315
 20
7.0257178011
 30
0.0
  0
SPLINE
  5
38A
100
AcDbEntity
  8
0
100
AcDbSpline
 62
7
  6
CONTINUOUS
 70
0
 71
3
 72
11
 73
7
 74
0
 42
0.0000001
 43
0.0000001
 44
0.0000000001
 40
0.0
 40
0.0
 40
0.0
 40
0.0
 40
0.2176047386
 40
0.4605417025
 40
0.7242894443
 40
1.0
 40
1.0
 40
1.0
 40
1.0
 10
4.267214315
 20
7.0257178011
 30
0.0
 10
4.2660524083
 20
7.0224281281
 30
0.0
 10
4.2639572461
 20
7.0153343169
 30
0.0
 10
4.2616642795
 20
7.0039370846
 30
0.0
 10
4.2602037438
 20
6.9914651995
 30
0.0
 10
4.2598709403
 20
6.9828122449
 30
0.0
 10
4.2598709403
 20
6.978391804
 30
0.0
  0
SPLINE
  5
38B
100
AcDbEntity
  8
0
100
AcDbSpline
 62
7
  6
CONTINUOUS
 70
0
 71
3
 72
13
 73
9
 74
0
 42
0.0000001
 43
0.0000001
 44
0.0000000001
 40
0.0
 40
0.0
 40
0.0
 40
0.0
 40
0.1385984503
 40
0.2757745865
 40
0.4098418952
 40
0.5395831443
 40
0.7824601156
 40
1.0
 40
1.0
 40
1.0
 40
1.0
 10
4.2598709403
 20
6.978391804
 30
0.0
 10
4.2598709403
 20
6.9761694323
 30
0.0
 10
4.259957505
 20
6.9717470202
 30
0.0
 10
4.2603404359
 20
6.9651849534
 30
0.0
 10
4.2609697358
 20
6.9587843527
 30
0.0
 10
4.2620883817
 20
6.9507354373
 30
0.0
 10
4.2639579145
 20
6.9414473121
 30
0.0
 10
4.2660526312
 20
6.934354849
 30
0.0
 10
4.267214315
 20
6.931065807
 30
0.0
  0
SPLINE
  5
38C
100
AcDbEntity
  8
0
100
AcDbSpline
 62
7
  6
CONTINUOUS
 70
0
 71
3
 72
15
 73
11
 74
0
 42
0.0000001
 43
0.0000001
 44
0.0000000001
 40
0.0
 40
0.0
 40
0.0
 40
0.0
 40
0.1239997097
 40
0.2483245629
 40
0.3729543449
 40
0.4978998938
 40
0.6231323399
 40
0.748606044
 40
0.8742576924
 40
1.0
 40
1.0
 40
1.0
 40
1.0
 10
4.3089684241
 20
6.931065807
 30
0.0
 10
4.3105261297
 20
6.9326129214
 30
0.0
 10
4.3135244917
 20
6.9358364094
 30
0.0
 10
4.3176029363
 20
6.9410398347
 30
0.0
 10
4.3212073245
 20
6.9466039775
 30
0.0
 10
4.3242737449
 20
6.9525010495
 30
0.0
 10
4.3267396545
 20
6.9586906149
 30
0.0
 10
4.3285483431
 20
6.9651173139
 30
0.0
 10
4.329653516
 20
6.9717105806
 30
0.0
 10
4.3299018396
 20
6.9761654988
 30
0.0
 10
4.3299018396
 20
6.978391804
 30
0.0
  0
SPLINE
  5
38D
100
AcDbEntity
  8
0
100
AcDbSpline
 62
7
  6
CONTINUOUS
 70
0
 71
3
 72
11
 73
7
 74
0
 42
0.0000001
 43
0.0000001
 44
0.0000000001
 40
0.0
 40
0.0
 40
0.0
 40
0.0
 40
0.2513587269
 40
0.5020653806
 40
0.7516361673
 40
1.0
 40
1.0
 40
1.0
 40
1.0
 10
4.3299018396
 20
6.978391804
 30
0.0
 10
4.3299018396
 20
6.9828367201
 30
0.0
 10
4.3289045882
 20
6.9917453627
 30
0.0
 10
4.3245823509
 20
7.0044140153
 30
0.0
 10
4.3178536838
 20
7.0159069378
 30
0.0
 10
4.3120845814
 20
7.0226228313
 30
0.0
 10
4.3089684241
 20
7.0257178011
 30
0.0
  0
SPLINE
  5
38E
100
AcDbEntity
  8
0
100
AcDbSpline
 62
7
  6
CONTINUOUS
 70
0
 71
3
 72
11
 73
7
 74
0
 42
0.0000001
 43
0.0000001
 44
0.0000000001
 40
0.0
 40
0.0
 40
0.0
 40
0.0
 40
0.2148303135
 40
0.4572705722
 40
0.7222011493
 40
1.0
 40
1.0
 40
1.0
 40
1.0
 10
4.3089684241
 20
7.0257178011
 30
0.0
 10
4.3081365247
 20
7.0224034283
 30
0.0
 10
4.3066442978
 20
7.0152774532
 30
0.0
 10
4.3050202628
 20
7.0038984056
 30
0.0
 10
4.3039855858
 20
6.9914454236
 30
0.0
 10
4.3037499568
 20
6.9828105886
 30
0.0
 10
4.3037499568
 20
6.978391804
 30
0.0
  0
SPLINE
  5
38F
100
AcDbEntity
  8
0
100
AcDbSpline
 62
7
  6
CONTINUOUS
 70
0
 71
3
 72
11
 73
7
 74
0
 42
0.0000001
 43
0.0000001
 44
0.0000000001
 40
0.0
 40
0.0
 40
0.0
 40
0.0
 40
0.2778400574
 40
0.5428061874
 40
0.7852113123
 40
1.0
 40
1.0
 40
1.0
 40
1.0
 10
4.3037499568
 20
6.978391804
 30
0.0
 10
4.3037499568
 20
6.9739723636
 30
0.0
 10
4.3039856732
 20
6.9653363083
 30
0.0
 10
4.3050204406
 20
6.9528826636
 30
0.0
 10
4.306644656
 20
6.9415043024
 30
0.0
 10
4.3081366858
 20
6.934379538
 30
0.0
 10
4.3089684241
 20
6.931065807
 30
0.0
  0
SPLINE
  5
390
100
AcDbEntity
  8
0
100
AcDbSpline
 62
7
  6
CONTINUOUS
 70
0
 71
3
 72
14
 73
10
 74
0
 42
0.0000001
 43
0.0000001
 44
0.0000000001
 40
0.0
 40
0.0
 40
0.0
 40
0.0
 40
0.2492852487
 40
0.3741893453
 40
0.4991997366
 40
0.62430394
 40
0.74948675
 40
0.8747292329
 40
1.0
 40
1.0
 40
1.0
 40
1.0
 10
4.3482134263
 20
6.931065807
 30
0.0
 10
4.3513882357
 20
6.9341561929
 30
0.0
 10
4.3558002666
 20
6.9391889299
 30
0.0
 10
4.3606979465
 20
6.9465987821
 30
0.0
 10
4.3638278675
 20
6.9524964513
 30
0.0
 10
4.3663445716
 20
6.9586864637
 30
0.0
 10
4.3681907998
 20
6.9651142345
 30
0.0
 10
4.3693189603
 20
6.9717088952
 30
0.0
 10
4.3695724837
 20
6.9761653579
 30
0.0
 10
4.3695724837
 20
6.978391804
 30
0.0
  0
SPLINE
  5
391
100
AcDbEntity
  8
0
100
AcDbSpline
 62
7
  6
CONTINUOUS
 70
0
 71
3
 72
11
 73
7
 74
0
 42
0.0000001
 43
0.0000001
 44
0.0000000001
 40
0.0
 40
0.0
 40
0.0
 40
0.0
 40
0.2504150455
 40
0.5006437024
 40
0.7505004754
 40
1.0
 40
1.0
 40
1.0
 40
1.0
 10
4.3695724837
 20
6.978391804
 30
0.0
 10
4.3695724837
 20
6.9828378328
 30
0.0
 10
4.3685526175
 20
6.9917580719
 30
0.0
 10
4.3641361565
 20
7.0044329246
 30
0.0
 10
4.3572656663
 20
7.0159255801
 30
0.0
 10
4.3513876694
 20
7.0226279665
 30
0.0
 10
4.3482134263
 20
7.0257178011
 30
0.0
  0
SPLINE
  5
392
100
AcDbEntity
  8
0
100
AcDbSpline
 62
7
  6
CONTINUOUS
 70
0
 71
3
 72
11
 73
7
 74
0
 42
0.0000001
 43
0.0000001
 44
0.0000000001
 40
0.0
 40
0.0
 40
0.0
 40
0.0
 40
0.2128947765
 40
0.4549987293
 40
0.7207546315
 40
1.0
 40
1.0
 40
1.0
 40
1.0
 10
4.3482134263
 20
7.0257178011
 30
0.0
 10
4.347726414
 20
7.0223852015
 30
0.0
 10
4.3468563979
 20
7.0152373786
 30
0.0
 10
4.3459130949
 20
7.0038718188
 30
0.0
 10
4.3453120129
 20
6.9914320512
 30
0.0
 10
4.3451751034
 20
6.9828094674
 30
0.0
 10
4.3451751034
 20
6.978391804
 30
0.0
  0
SPLINE
  5
393
100
AcDbEntity
  8
0
100
AcDbSpline
 62
7
  6
CONTINUOUS
 70
0
 71
3
 72
11
 73
7
 74
0
 42
0.0000001
 43
0.0000001
 44
0.0000000001
 40
0.0
 40
0.0
 40
0.0
 40
0.0
 40
0.2792866435
 40
0.5450778088
 40
0.7871466195
 40
1.0
 40
1.0
 40
1.0
 40
1.0
 10
4.3451751034
 20
6.978391804
 30
0.0
 10
4.3451751034
 20
6.9739734876
 30
0.0
 10
4.345312072
 20
6.9653496934
 30
0.0
 10
4.3459131982
 20
6.9529092704
 30
0.0
 10
4.3468566059
 20
6.941544374
 30
0.0
 10
4.3477265087
 20
6.9343977587
 30
0.0
 10
4.3482134263
 20
6.931065807
 30
0.0
  0
SPLINE
  5
394
100
AcDbEntity
  8
0
100
AcDbSpline
 62
7
  6
CONTINUOUS
 70
0
 71
3
 72
14
 73
10
 74
0
 42
0.0000001
 43
0.0000001
 44
0.0000000001
 40
0.0
 40
0.0
 40
0.0
 40
0.0
 40
0.2498133395
 40
0.3748334879
 40
0.4998617565
 40
0.6248931288
 40
0.749926537
 40
0.874963848
 40
1.0
 40
1.0
 40
1.0
 40
1.0
 10
4.384533264
 20
6.931065807
 30
0.0
 10
4.387735225
 20
6.9341538224
 30
0.0
 10
4.3921872376
 20
6.9391838946
 30
0.0
 10
4.3971328669
 20
6.946596521
 30
0.0
 10
4.4002922948
 20
6.9524942444
 30
0.0
 10
4.4028328385
 20
6.9586845165
 30
0.0
 10
4.404696632
 20
6.9651127726
 30
0.0
 10
4.4058355652
 20
6.9717080961
 30
0.0
 10
4.4060915242
 20
6.976165291
 30
0.0
 10
4.4060915242
 20
6.978391804
 30
0.0
  0
SPLINE
  5
395
100
AcDbEntity
  8
0
100
AcDbSpline
 62
7
  6
CONTINUOUS
 70
0
 71
3
 72
13
 73
9
 74
0
 42
0.0000001
 43
0.0000001
 44
0.0000000001
 40
0.0
 40
0.0
 40
0.0
 40
0.0
 40
0.125021569
 40
0.2501827729
 40
0.3752897899
 40
0.500355417
 40
0.7501577786
 40
1.0
 40
1.0
 40
1.0
 40
1.0
 10
4.4060915242
 20
6.978391804
 30
0.0
 10
4.4060915242
 20
6.9806174034
 30
0.0
 10
4.405833991
 20
6.9850750939
 30
0.0
 10
4.4046972346
 20
6.9916720521
 30
0.0
 10
4.4028304321
 20
6.9981020465
 30
0.0
 10
4.3994478382
 20
7.0063502367
 30
0.0
 10
4.3936627194
 20
7.0159358988
 30
0.0
 10
4.3877346544
 20
7.0226303359
 30
0.0
 10
4.384533264
 20
7.0257178011
 30
0.0
  0
SPLINE
  5
396
100
AcDbEntity
  8
0
100
AcDbSpline
 62
7
  6
CONTINUOUS
 70
0
 71
3
 72
11
 73
7
 74
0
 42
0.0000001
 43
0.0000001
 44
0.0000000001
 40
0.0
 40
0.0
 40
0.0
 40
0.0
 40
0.2119564142
 40
0.4539003016
 40
0.7200562736
 40
1.0
 40
1.0
 40
1.0
 40
1.0
 10
4.384533264
 20
7.0257178011
 30
0.0
 10
4.3844005133
 20
7.0223760525
 30
0.0
 10
4.3841638644
 20
7.0152178441
 30
0.0
 10
4.3839077398
 20
7.003859051
 30
0.0
 10
4.3837445163
 20
6.9914256963
 30
0.0
 10
4.38370734
 20
6.9828089359
 30
0.0
 10
4.38370734
 20
6.978391804
 30
0.0
  0
SPLINE
  5
397
100
AcDbEntity
  8
0
100
AcDbSpline
 62
7
  6
CONTINUOUS
 70
0
 71
3
 72
11
 73
7
 74
0
 42
0.0000001
 43
0.0000001
 44
0.0000000001
 40
0.0
 40
0.0
 40
0.0
 40
0.0
 40
0.2799851029
 40
0.5461763425
 40
0.7880849069
 40
1.0
 40
1.0
 40
1.0
 40
1.0
 10
4.38370734
 20
6.978391804
 30
0.0
 10
4.38370734
 20
6.9739740193
 30
0.0
 10
4.3837445324
 20
6.9653560496
 30
0.0
 10
4.3839077677
 20
6.9529220428
 30
0.0
 10
4.384163921
 20
6.9415639035
 30
0.0
 10
4.3844005392
 20
6.9344069042
 30
0.0
 10
4.384533264
 20
6.931065807
 30
0.0
  0
SPLINE
  5
398
100
AcDbEntity
  8
0
100
AcDbSpline
 62
7
  6
CONTINUOUS
 70
0
 71
3
 72
14
 73
10
 74
0
 42
0.0000001
 43
0.0000001
 44
0.0000000001
 40
0.0
 40
0.0
 40
0.0
 40
0.0
 40
0.2497355181
 40
0.3747385462
 40
0.4997641619
 40
0.6248062568
 40
0.7498616852
 40
0.8749292484
 40
1.0
 40
1.0
 40
1.0
 40
1.0
 10
4.4175428908
 20
6.931065807
 30
0.0
 10
4.4207408531
 20
6.9341541703
 30
0.0
 10
4.4251869773
 20
6.9391846352
 30
0.0
 10
4.4301255405
 20
6.946596854
 30
0.0
 10
4.4332806211
 20
6.9524945699
 30
0.0
 10
4.4358176522
 20
6.958684804
 30
0.0
 10
4.4376788574
 20
6.9651129887
 30
0.0
 10
4.438816203
 20
6.9717082143
 30
0.0
 10
4.4390718032
 20
6.9761653009
 30
0.0
 10
4.4390718032
 20
6.978391804
 30
0.0
  0
SPLINE
  5
399
100
AcDbEntity
  8
0
100
AcDbSpline
 62
7
  6
CONTINUOUS
 70
0
 71
3
 72
19
 73
15
 74
0
 42
0.0000001
 43
0.0000001
 44
0.0000000001
 40
0.0
 40
0.0
 40
0.0
 40
0.0
 40
0.070244781
 40
0.1403048422
 40
0.2786544259
 40
0.3466227176
 40
0.4135296755
 40
0.5433917567
 40
0.6672139495
 40
0.7843913466
 40
0.8405304674
 40
0.8950786928
 40
0.9481669746
 40
1.0
 40
1.0
 40
1.0
 40
1.0
 10
12.341099194
 20
9.1707153188
 30
0.0
 10
12.3411569025
 20
9.1649029315
 30
0.0
 10
12.341647014
 20
9.1532930168
 30
0.0
 10
12.3440944358
 20
9.1303541604
 30
0.0
 10
12.3487309699
 20
9.1078777124
 30
0.0
 10
12.3555118608
 20
9.0862942464
 30
0.0
 10
12.363500479
 20
9.0658807724
 30
0.0
 10
12.3757396675
 20
9.0422296405
 30
0.0
 10
12.3938564367
 20
9.0173107298
 30
0.0
 10
12.4114984794
 20
8.9999826158
 30
0.0
 10
12.4266876314
 20
8.9887681702
 30
0.0
 10
12.438342104
 20
8.9818054016
 30
0.0
 10
12.4503285249
 20
8.9762314979
 30
0.0
 10
12.4585710689
 20
8.9734370057
 30
0.0
 10
12.4627054708
 20
8.9722953872
 30
0.0
  0
SPLINE
  5
39A
100
AcDbEntity
  8
0
100
AcDbSpline
 62
7
  6
CONTINUOUS
 70
0
 71
3
 72
9
 73
5
 74
0
 42
0.0000001
 43
0.0000001
 44
0.0000000001
 40
0.0
 40
0.0
 40
0.0
 40
0.0
 40
0.5041504718
 40
1.0
 40
1.0
 40
1.0
 40
1.0
 10
12.4627054708
 20
8.9722953872
 30
0.0
 10
12.4673508379
 20
8.9710126777
 30
0.0
 10
12.4767405536
 20
8.9690612964
 30
0.0
 10
12.4863102012
 20
8.968391804
 30
0.0
 10
12.4910500612
 20
8.968391804
 30
0.0
  0
SPLINE
  5
39B
100
AcDbEntity
  8
0
100
AcDbSpline
 62
7
  6
CONTINUOUS
 70
0
 71
3
 72
9
 73
5
 74
0
 42
0.0000001
 43
0.0000001
 44
0.0000000001
 40
0.0
 40
0.0
 40
0.0
 40
0.0
 40
0.4958110588
 40
1.0
 40
1.0
 40
1.0
 40
1.0
 10
12.4910500612
 20
9.378391804
 30
0.0
 10
12.4862810644
 20
9.378391804
 30
0.0
 10
12.4766517217
 20
9.3777139133
 30
0.0
 10
12.4672056304
 20
9.3757386557
 30
0.0
 10
12.4625330431
 20
9.3744404436
 30
0.0
  0
SPLINE
  5
39C
100
AcDbEntity
  8
0
100
AcDbSpline
 62
7
  6
CONTINUOUS
 70
0
 71
3
 72
18
 73
14
 74
0
 42
0.0000001
 43
0.0000001
 44
0.0000000001
 40
0.0
 40
0.0
 40
0.0
 40
0.0
 40
0.0517907543
 40
0.1048507457
 40
0.1593865029
 40
0.2155287275
 40
0.3327523501
 40
0.4566588347
 40
0.5866125421
 40
0.7214692341
 40
0.8598230464
 40
0.9298417722
 40
1.0
 40
1.0
 40
1.0
 40
1.0
 10
12.4625330431
 20
9.3744404436
 30
0.0
 10
12.4583626809
 20
9.3732817675
 30
0.0
 10
12.4500491178
 20
9.3704440356
 30
0.0
 10
12.4379655826
 20
9.3647823636
 30
0.0
 10
12.4262229558
 20
9.3577090846
 30
0.0
 10
12.4109279361
 20
9.3463157316
 30
0.0
 10
12.393190715
 20
9.3287155893
 30
0.0
 10
12.3750316841
 20
9.3034214477
 30
0.0
 10
12.3602426252
 20
9.2743643362
 30
0.0
 10
12.3493062913
 20
9.2423853694
 30
0.0
 10
12.3437298085
 20
9.2141542531
 30
0.0
 10
12.3414683988
 20
9.1909742605
 30
0.0
 10
12.3410859019
 20
9.1792551681
 30
0.0
 10
12.3410859019
 20
9.173391804
 30
0.0
  0
SPLINE
  5
39D
100
AcDbEntity
  8
0
100
AcDbSpline
 62
7
  6
CONTINUOUS
 70
0
 71
3
 72
21
 73
17
 74
0
 42
0.0000001
 43
0.0000001
 44
0.0000000001
 40
0.0
 40
0.0
 40
0.0
 40
0.0
 40
0.0699099084
 40
0.1397039744
 40
0.2777017183
 40
0.412297553
 40
0.4779408255
 40
0.5422423658
 40
0.605066044
 40
0.666318255
 40
0.725931482
 40
0.7838771876
 40
0.8401718172
 40
0.8948700838
 40
0.9480896583
 40
1.0
 40
1.0
 40
1.0
 40
1.0
 10
11.8035034586
 20
9.173391804
 30
0.0
 10
11.8035034586
 20
9.179161458
 30
0.0
 10
11.8031325507
 20
9.19069497
 30
0.0
 10
11.8009407091
 20
9.2135207142
 30
0.0
 10
11.7955358324
 20
9.2413424036
 30
0.0
 10
11.7866142107
 20
9.2678905856
 30
0.0
 10
11.7775183815
 20
9.2877554142
 30
0.0
 10
11.7698690659
 20
9.3017217163
 30
0.0
 10
11.7613917826
 20
9.314771792
 30
0.0
 10
11.7521610331
 20
9.326817496
 30
0.0
 10
11.7422482863
 20
9.3377730997
 30
0.0
 10
11.7317287418
 20
9.3475578205
 30
0.0
 10
11.72068962
 20
9.3561069777
 30
0.0
 10
11.7092105021
 20
9.363352917
 30
0.0
 10
11.6973830409
 20
9.3692426998
 30
0.0
 10
11.689231245
 20
9.3722728547
 30
0.0
 10
11.6851377241
 20
9.3735365987
 30
0.0
  0
SPLINE
  5
39E
100
AcDbEntity
  8
0
100
AcDbSpline
 62
7
  6
CONTINUOUS
 70
0
 71
3
 72
11
 73
7
 74
0
 42
0.0000001
 43
0.0000001
 44
0.0000000001
 40
0.0
 40
0.0
 40
0.0
 40
0.0
 40
0.2327151887
 40
0.4775444775
 40
0.7341544824
 40
1.0
 40
1.0
 40
1.0
 40
1.0
 10
11.5368678146
 20
7.9315560651
 30
0.0
 10
11.5350637303
 20
7.9294437498
 30
0.0
 10
11.5316751121
 20
7.9248312766
 30
0.0
 10
11.5275503636
 20
7.9170641821
 30
0.0
 10
11.5245017918
 20
7.9083913478
 30
0.0
 10
11.5233504823
 20
7.9022321409
 30
0.0
 10
11.5230085261
 20
7.8990772726
 30
0.0
  0
SPLINE
  5
39F
100
AcDbEntity
  8
0
100
AcDbSpline
 62
7
  6
CONTINUOUS
 70
0
 71
3
 72
11
 73
7
 74
0
 42
0.0000001
 43
0.0000001
 44
0.0000000001
 40
0.0
 40
0.0
 40
0.0
 40
0.0
 40
0.2656987655
 40
0.522258
 40
0.7671438203
 40
1.0
 40
1.0
 40
1.0
 40
1.0
 10
11.5230085943
 20
7.8857057056
 30
0.0
 10
11.5233481734
 20
7.8825730654
 30
0.0
 10
11.5244882723
 20
7.8764559998
 30
0.0
 10
11.5275024093
 20
7.8678366216
 30
0.0
 10
11.5315809725
 20
7.8601082548
 30
0.0
 10
11.5349319446
 20
7.8555117205
 30
0.0
 10
11.5367170703
 20
7.8534047738
 30
0.0
  0
SPLINE
  5
3A0
100
AcDbEntity
  8
0
100
AcDbSpline
 62
7
  6
CONTINUOUS
 70
0
 71
3
 72
11
 73
7
 74
0
 42
0.0000001
 43
0.0000001
 44
0.0000000001
 40
0.0
 40
0.0
 40
0.0
 40
0.0
 40
0.233723081
 40
0.4789624907
 40
0.7352027596
 40
1.0
 40
1.0
 40
1.0
 40
1.0
 10
12.6087888059
 20
7.8545151436
 30
0.0
 10
12.6104559827
 20
7.8565879604
 30
0.0
 10
12.6135832487
 20
7.8610773063
 30
0.0
 10
12.6173793613
 20
7.868564519
 30
0.0
 10
12.6201862591
 20
7.8768526235
 30
0.0
 10
12.6212578369
 20
7.882710787
 30
0.0
 10
12.6215825905
 20
7.8857069887
 30
0.0
  0
SPLINE
  5
3A1
100
AcDbEntity
  8
0
100
AcDbSpline
 62
7
  6
CONTINUOUS
 70
0
 71
3
 72
11
 73
7
 74
0
 42
0.0000001
 43
0.0000001
 44
0.0000000001
 40
0.0
 40
0.0
 40
0.0
 40
0.0
 40
0.2647969761
 40
0.5210370291
 40
0.7662765222
 40
1.0
 40
1.0
 40
1.0
 40
1.0
 10
12.6215825229
 20
7.8990772425
 30
0.0
 10
12.6212577488
 20
7.9020733513
 30
0.0
 10
12.6201861565
 20
7.9079313301
 30
0.0
 10
12.6173793109
 20
7.9162191786
 30
0.0
 10
12.6135833104
 20
7.9237061777
 30
0.0
 10
12.6104561518
 20
7.928195411
 30
0.0
 10
12.6087890333
 20
7.9302681818
 30
0.0
  0
SPLINE
  5
3A2
100
AcDbEntity
  8
0
100
AcDbSpline
 62
7
  6
CONTINUOUS
 70
0
 71
3
 72
17
 73
13
 74
0
 42
0.0000001
 43
0.0000001
 44
0.0000000001
 40
0.0
 40
0.0
 40
0.0
 40
0.0
 40
0.0585304244
 40
0.1171132324
 40
0.1758709412
 40
0.2349167476
 40
0.3542321486
 40
0.4760501837
 40
0.6010824991
 40
0.7299009524
 40
0.8628372234
 40
1.0
 40
1.0
 40
1.0
 40
1.0
 10
12.7716809831
 20
9.3692673218
 30
0.0
 10
12.7688553557
 20
9.3694046194
 30
0.0
 10
12.7631878358
 20
9.3694517916
 30
0.0
 10
12.7547010137
 20
9.3688387397
 30
0.0
 10
12.7462641847
 20
9.3675507004
 30
0.0
 10
12.735095312
 20
9.3649368212
 30
0.0
 10
12.7213949513
 20
9.359978602
 30
0.0
 10
12.7057671547
 20
9.351548132
 30
0.0
 10
12.6910892041
 20
9.3407674669
 30
0.0
 10
12.6775272452
 20
9.32783098
 30
0.0
 10
12.6652292236
 20
9.3129288615
 30
0.0
 10
12.6580578678
 20
9.3019859872
 30
0.0
 10
12.6547086913
 20
9.2962646718
 30
0.0
  0
SPLINE
  5
3A3
100
AcDbEntity
  8
0
100
AcDbSpline
 62
7
  6
CONTINUOUS
 70
0
 71
3
 72
12
 73
8
 74
0
 42
0.0000001
 43
0.0000001
 44
0.0000000001
 40
0.0
 40
0.0
 40
0.0
 40
0.0
 40
0.239625722
 40
0.4877498647
 40
0.7422251976
 40
0.8709832332
 40
1.0
 40
1.0
 40
1.0
 40
1.0
 10
12.6538723273
 20
9.2948219562
 30
0.0
 10
12.648876624
 20
9.2861199867
 30
0.0
 10
12.640037374
 20
9.2676170842
 30
0.0
 10
12.6305158997
 20
9.2379474753
 30
0.0
 10
12.6256615859
 20
9.2118835969
 30
0.0
 10
12.6236595788
 20
9.1905179534
 30
0.0
 10
12.6232968795
 20
9.1797219336
 30
0.0
 10
12.6232782151
 20
9.1743195604
 30
0.0
  0
SPLINE
  5
3A4
100
AcDbEntity
  8
0
100
AcDbSpline
 62
7
  6
CONTINUOUS
 70
0
 71
3
 72
12
 73
8
 74
0
 42
0.0000001
 43
0.0000001
 44
0.0000000001
 40
0.0
 40
0.0
 40
0.0
 40
0.0
 40
0.1290486575
 40
0.2578348841
 40
0.5123390243
 40
0.7604471057
 40
1.0
 40
1.0
 40
1.0
 40
1.0
 10
12.6232782108
 20
9.1724652859
 30
0.0
 10
12.6232969207
 20
9.1670424891
 30
0.0
 10
12.623662166
 20
9.1562057855
 30
0.0
 10
12.6256787792
 20
9.1347615549
 30
0.0
 10
12.6305685628
 20
9.1086066507
 30
0.0
 10
12.6401591526
 20
9.0788456042
 30
0.0
 10
12.6490620571
 20
9.0602961035
 30
0.0
 10
12.6540935017
 20
9.0515773412
 30
0.0
  0
SPLINE
  5
3A5
100
AcDbEntity
  8
0
100
AcDbSpline
 62
7
  6
CONTINUOUS
 70
0
 71
3
 72
17
 73
13
 74
0
 42
0.0000001
 43
0.0000001
 44
0.0000000001
 40
0.0
 40
0.0
 40
0.0
 40
0.0
 40
0.1371254048
 40
0.270052342
 40
0.3988846746
 40
0.5239469849
 40
0.645797606
 40
0.7057689893
 40
0.7652205812
 40
0.8829307613
 40
0.9414969627
 40
1.0
 40
1.0
 40
1.0
 40
1.0
 10
12.6546678384
 20
9.0505887304
 30
0.0
 10
12.6579947234
 20
9.0449002369
 30
0.0
 10
12.6651157786
 20
9.0340166769
 30
0.0
 10
12.677320107
 20
9.0191830476
 30
0.0
 10
12.6907752476
 20
9.0062873256
 30
0.0
 10
12.7053333069
 20
8.9955175754
 30
0.0
 10
12.7183297892
 20
8.9884319164
 30
0.0
 10
12.7290671808
 20
8.9840294857
 30
0.0
 10
12.7399145665
 20
8.9805086344
 30
0.0
 10
12.7510748921
 20
8.9782648498
 30
0.0
 10
12.7623304378
 20
8.9773638529
 30
0.0
 10
12.7679640633
 20
8.9773639351
 30
0.0
 10
12.7707733326
 20
8.9774763851
 30
0.0
  0
SPLINE
  5
3A6
100
AcDbEntity
  8
0
100
AcDbSpline
 62
7
  6
CONTINUOUS
 70
0
 71
3
 72
22
 73
18
 74
0
 42
0.0000001
 43
0.0000001
 44
0.0000000001
 40
0.0
 40
0.0
 40
0.0
 40
0.0
 40
0.0592768115
 40
0.124541841
 40
0.1944749461
 40
0.2678693077
 40
0.3435912773
 40
0.4205076485
 40
0.4975051756
 40
0.5735067782
 40
0.6474019523
 40
0.7180160962
 40
0.7841389346
 40
0.844536054
 40
0.8978489627
 40
0.9425821954
 40
1.0
 40
1.0
 40
1.0
 40
1.0
 10
12.6518388523
 20
9.057847067
 30
0.0
 10
12.6508345614
 20
9.0582342919
 30
0.0
 10
12.6486985597
 20
9.0589816286
 30
0.0
 10
12.6453019011
 20
9.0599544537
 30
0.0
 10
12.6416013496
 20
9.0607741472
 30
0.0
 10
12.637668394
 20
9.0613847049
 30
0.0
 10
12.6335803682
 20
9.0617750554
 30
0.0
 10
12.6294110418
 20
9.0619289284
 30
0.0
 10
12.6252345594
 20
9.0618310363
 30
0.0
 10
12.6211277724
 20
9.0614694133
 30
0.0
 10
12.617164829
 20
9.0608813867
 30
0.0
 10
12.6134183933
 20
9.0601013129
 30
0.0
 10
12.6099607644
 20
9.0591655762
 30
0.0
 10
12.6068689799
 20
9.0581084786
 30
0.0
 10
12.6042052842
 20
9.0570158865
 30
0.0
 10
12.6016582938
 20
9.0557985154
 30
0.0
 10
12.6000421117
 20
9.0548749141
 30
0.0
 10
12.5991867461
 20
9.0542787887
 30
0.0
  0
SPLINE
  5
3A7
100
AcDbEntity
  8
0
100
AcDbSpline
 62
7
  6
CONTINUOUS
 70
0
 71
3
 72
33
 73
29
 74
0
 42
0.0000001
 43
0.0000001
 44
0.0000000001
 40
0.0
 40
0.0
 40
0.0
 40
0.0
 40
0.0007329358
 40
0.0011164936
 40
0.0025911944
 40
0.0051332764
 40
0.0087171123
 40
0.0133079691
 40
0.018869519
 40
0.0253659449
 40
0.0410226031
 40
0.0600039738
 40
0.0820472516
 40
0.1069029078
 40
0.1343350979
 40
0.1641117832
 40
0.1960020763
 40
0.2297789952
 40
0.3021037875
 40
0.3794185946
 40
0.4602079958
 40
0.5429965835
 40
0.6263215917
 40
0.7087688699
 40
0.7889082289
 40
0.865217408
 40
0.9361213696
 40
1.0
 40
1.0
 40
1.0
 40
1.0
 10
12.5987740471
 20
9.2927923947
 30
0.0
 10
12.5987635732
 20
9.2928009262
 30
0.0
 10
12.5987280506
 20
9.2928291805
 30
0.0
 10
12.5987820615
 20
9.2927844967
 30
0.0
 10
12.5988335068
 20
9.2927471418
 30
0.0
 10
12.5989545828
 20
9.2926575493
 30
0.0
 10
12.5991129506
 20
9.2925475194
 30
0.0
 10
12.5993241436
 20
9.2924046049
 30
0.0
 10
12.5995805878
 20
9.2922372432
 30
0.0
 10
12.6000126291
 20
9.2919641594
 30
0.0
 10
12.6006628783
 20
9.2915744076
 30
0.0
 10
12.6015749958
 20
9.2910645719
 30
0.0
 10
12.6026535744
 20
9.2905064004
 30
0.0
 10
12.6038913925
 20
9.2899185617
 30
0.0
 10
12.6052807739
 20
9.2893199179
 30
0.0
 10
12.6068102715
 20
9.2887212488
 30
0.0
 10
12.6084685921
 20
9.2881333066
 30
0.0
 10
12.6108920481
 20
9.2873605064
 30
0.0
 10
12.6141618011
 20
9.286491181
 30
0.0
 10
12.6183353599
 20
9.2856864164
 30
0.0
 10
12.6227448935
 20
9.2851411919
 30
0.0
 10
12.6272905777
 20
9.2848709155
 30
0.0
 10
12.6318753563
 20
9.2848956343
 30
0.0
 10
12.6363984196
 20
9.2852390569
 30
0.0
 10
12.6407602452
 20
9.2858623547
 30
0.0
 10
12.6448654201
 20
9.2867169819
 30
0.0
 10
12.648617604
 20
9.2877570539
 30
0.0
 10
12.6509603404
 20
9.2885903658
 30
0.0
 10
12.6520553927
 20
9.2890228338
 30
0.0
  0
SPLINE
  5
3A8
100
AcDbEntity
  8
0
100
AcDbSpline
 62
7
  6
CONTINUOUS
 70
0
 71
3
 72
15
 73
11
 74
0
 42
0.0000001
 43
0.0000001
 44
0.0000000001
 40
0.0
 40
0.0
 40
0.0
 40
0.0
 40
0.1337281524
 40
0.2642909066
 40
0.3918798841
 40
0.5168126581
 40
0.6395857292
 40
0.7606335584
 40
0.8805211035
 40
1.0
 40
1.0
 40
1.0
 40
1.0
 10
12.6022339101
 20
9.2966393451
 30
0.0
 10
12.5989492497
 20
9.3020738405
 30
0.0
 10
12.5919249543
 20
9.312504544
 30
0.0
 10
12.579937141
 20
9.3267836408
 30
0.0
 10
12.5667052273
 20
9.3393275857
 30
0.0
 10
12.5523419612
 20
9.3499562198
 30
0.0
 10
12.5369821557
 20
9.3584717422
 30
0.0
 10
12.5208190568
 20
9.3647205196
 30
0.0
 10
12.5040744162
 20
9.3685318661
 30
0.0
 10
12.4926904323
 20
9.369391804
 30
0.0
 10
12.4870170332
 20
9.369391804
 30
0.0
  0
SPLINE
  5
3A9
100
AcDbEntity
  8
0
100
AcDbSpline
 62
7
  6
CONTINUOUS
 70
0
 71
3
 72
15
 73
11
 74
0
 42
0.0000001
 43
0.0000001
 44
0.0000000001
 40
0.0
 40
0.0
 40
0.0
 40
0.0
 40
0.1194589323
 40
0.2393238818
 40
0.3603590683
 40
0.4831273597
 40
0.6080628532
 40
0.7356633943
 40
0.8662458324
 40
1.0
 40
1.0
 40
1.0
 40
1.0
 10
12.4870170332
 20
8.977391804
 30
0.0
 10
12.4927015704
 20
8.977391804
 30
0.0
 10
12.504107874
 20
8.9782549075
 30
0.0
 10
12.5208841244
 20
8.9820814174
 30
0.0
 10
12.5370756775
 20
8.9883541844
 30
0.0
 10
12.5524599324
 20
8.9969016712
 30
0.0
 10
12.5668422908
 20
9.0075694832
 30
0.0
 10
12.5800875512
 20
9.0201582929
 30
0.0
 10
12.5920825253
 20
9.0344868869
 30
0.0
 10
12.5991071897
 20
9.0449523142
 30
0.0
 10
12.6023909798
 20
9.050404582
 30
0.0
  0
SPLINE
  5
3AA
100
AcDbEntity
  8
0
100
AcDbSpline
 62
7
  6
CONTINUOUS
 70
0
 71
3
 72
15
 73
11
 74
0
 42
0.0000001
 43
0.0000001
 44
0.0000000001
 40
0.0
 40
0.0
 40
0.0
 40
0.0
 40
0.1168444441
 40
0.2345476547
 40
0.3540158933
 40
0.476051058
 40
0.6012659936
 40
0.730170651
 40
0.8630546942
 40
1.0
 40
1.0
 40
1.0
 40
1.0
 10
11.3780335276
 20
8.977391804
 30
0.0
 10
11.3834913118
 20
8.977391804
 30
0.0
 10
11.3944649862
 20
8.9782473862
 30
0.0
 10
11.4106222626
 20
8.9820378585
 30
0.0
 10
11.4262637963
 20
8.9882717235
 30
0.0
 10
11.441179262
 20
8.9968015138
 30
0.0
 10
11.4551840317
 20
9.0074903736
 30
0.0
 10
11.468136377
 20
9.0201609133
 30
0.0
 10
11.4799045067
 20
9.034643017
 30
0.0
 10
11.4867932147
 20
9.0452280813
 30
0.0
 10
11.4900173645
 20
9.050752801
 30
0.0
  0
SPLINE
  5
3AB
100
AcDbEntity
  8
0
100
AcDbSpline
 62
7
  6
CONTINUOUS
 70
0
 71
3
 72
13
 73
9
 74
0
 42
0.0000001
 43
0.0000001
 44
0.0000000001
 40
0.0
 40
0.0
 40
0.0
 40
0.0
 40
0.2433700184
 40
0.3706003804
 40
0.4995078847
 40
0.6284838685
 40
0.7559149514
 40
1.0
 40
1.0
 40
1.0
 40
1.0
 10
11.4905912642
 20
9.0517427953
 30
0.0
 10
11.5007431773
 20
9.0693727191
 30
0.0
 10
11.5121525556
 20
9.098713689
 30
0.0
 10
11.5198636766
 20
9.1398041376
 30
0.0
 10
11.5219544588
 20
9.1720142784
 30
0.0
 10
11.5201900424
 20
9.2042602929
 30
0.0
 10
11.5128952954
 20
9.2455106794
 30
0.0
 10
11.5017900251
 20
9.2750440573
 30
0.0
 10
11.4918326073
 20
9.2928530697
 30
0.0
  0
SPLINE
  5
3AC
100
AcDbEntity
  8
0
100
AcDbSpline
 62
7
  6
CONTINUOUS
 70
0
 71
3
 72
15
 73
11
 74
0
 42
0.0000001
 43
0.0000001
 44
0.0000000001
 40
0.0
 40
0.0
 40
0.0
 40
0.0
 40
0.1368892641
 40
0.2697293927
 40
0.398607576
 40
0.5238153005
 40
0.6458619358
 40
0.7653601005
 40
0.8831077912
 40
1.0
 40
1.0
 40
1.0
 40
1.0
 10
11.4897286664
 20
9.296523863
 30
0.0
 10
11.4865030623
 20
9.302014538
 30
0.0
 10
11.4796152996
 20
9.3125331656
 30
0.0
 10
11.4678609934
 20
9.3269207739
 30
0.0
 10
11.454933877
 20
9.3395061326
 30
0.0
 10
11.4409646201
 20
9.3501211539
 30
0.0
 10
11.4260938745
 20
9.3585908216
 30
0.0
 10
11.4105043036
 20
9.3647797299
 30
0.0
 10
11.3944044899
 20
9.3685424605
 30
0.0
 10
11.3834713184
 20
9.369391804
 30
0.0
 10
11.3780335276
 20
9.369391804
 30
0.0
  0
SPLINE
  5
3AD
100
AcDbEntity
  8
0
100
AcDbSpline
 62
7
  6
CONTINUOUS
 70
0
 71
3
 72
11
 73
7
 74
0
 42
0.0000001
 43
0.0000001
 44
0.0000000001
 40
0.0
 40
0.0
 40
0.0
 40
0.0
 40
0.2154196695
 40
0.4594738498
 40
0.7234396947
 40
1.0
 40
1.0
 40
1.0
 40
1.0
 10
11.4924626919
 20
9.289054973
 30
0.0
 10
11.4940370499
 20
9.2884333937
 30
0.0
 10
11.497459671
 20
9.2872653531
 30
0.0
 10
11.5030008865
 20
9.2859600438
 30
0.0
 10
11.5091131869
 20
9.2850996588
 30
0.0
 10
11.5133627787
 20
9.284891804
 30
0.0
 10
11.5155358003
 20
9.284891804
 30
0.0
  0
SPLINE
  5
3AE
100
AcDbEntity
  8
0
100
AcDbSpline
 62
7
  6
CONTINUOUS
 70
0
 71
3
 72
11
 73
7
 74
0
 42
0.0000001
 43
0.0000001
 44
0.0000000001
 40
0.0
 40
0.0
 40
0.0
 40
0.0
 40
0.2771564082
 40
0.5412394911
 40
0.7849428555
 40
1.0
 40
1.0
 40
1.0
 40
1.0
 10
11.5155358003
 20
9.061891804
 30
0.0
 10
11.5133572643
 20
9.061891804
 30
0.0
 10
11.5091003398
 20
9.0616822402
 30
0.0
 10
11.5029837934
 20
9.0608163334
 30
0.0
 10
11.4974438662
 20
9.0595166901
 30
0.0
 10
11.4940261087
 20
9.058346547
 30
0.0
 10
11.4924549881
 20
9.0577227781
 30
0.0
  0
SPLINE
  5
3AF
100
AcDbEntity
  8
0
100
AcDbSpline
 62
7
  6
CONTINUOUS
 70
0
 71
3
 72
31
 73
27
 74
0
 42
0.0000001
 43
0.0000001
 44
0.0000000001
 40
0.0
 40
0.0
 40
0.0
 40
0.0
 40
0.0270027532
 40
0.0489106767
 40
0.0658662152
 40
0.0780017759
 40
0.0854392362
 40
0.0882937768
 40
0.089854918
 40
0.0956091544
 40
0.0999919609
 40
0.1053435789
 40
0.1188507435
 40
0.1359310336
 40
0.1563930265
 40
0.1800545148
 40
0.2067415807
 40
0.2684172858
 40
0.3398269887
 40
0.4194031189
 40
0.5056514482
 40
0.5972857932
 40
0.6933849296
 40
0.7930898373
 40
0.8955622738
 40
1.0
 40
1.0
 40
1.0
 40
1.0
 10
11.5436628447
 20
9.0561228342
 30
0.0
 10
11.5438742958
 20
9.0558913066
 30
0.0
 10
11.5442603215
 20
9.0554777724
 30
0.0
 10
11.5448033518
 20
9.0549274685
 30
0.0
 10
11.5452133881
 20
9.054529037
 30
0.0
 10
11.5455629435
 20
9.0542134896
 30
0.0
 10
11.545692441
 20
9.0540947103
 30
0.0
 10
11.5458839426
 20
9.0539380524
 30
0.0
 10
11.545747522
 20
9.0540366263
 30
0.0
 10
11.5456620282
 20
9.0540993044
 30
0.0
 10
11.5455080058
 20
9.0542078245
 30
0.0
 10
11.5452887085
 20
9.0543591438
 30
0.0
 10
11.5449392053
 20
9.0545913283
 30
0.0
 10
11.5444384552
 20
9.0549068941
 30
0.0
 10
11.5438273076
 20
9.0552704619
 30
0.0
 10
11.5431094304
 20
9.0556714022
 30
0.0
 10
11.5419553426
 20
9.0562720469
 30
0.0
 10
11.5402735446
 20
9.0570575053
 30
0.0
 10
11.5379870321
 20
9.05799261
 30
0.0
 10
11.535388191
 20
9.0589097198
 30
0.0
 10
11.5325199643
 20
9.0597581014
 30
0.0
 10
11.5294224992
 20
9.0604911002
 30
0.0
 10
11.5261378518
 20
9.0610918269
 30
0.0
 10
11.5227022025
 20
9.0615424253
 30
0.0
 10
11.5191516337
 20
9.0618259897
 30
0.0
 10
11.5167485266
 20
9.061891804
 30
0.0
 10
11.5155358003
 20
9.061891804
 30
0.0
  0
SPLINE
  5
3B0
100
AcDbEntity
  8
0
100
AcDbSpline
 62
7
  6
CONTINUOUS
 70
0
 71
3
 72
25
 73
21
 74
0
 42
0.0000001
 43
0.0000001
 44
0.0000000001
 40
0.0
 40
0.0
 40
0.0
 40
0.0
 40
0.1947010698
 40
0.3809097898
 40
0.5540095399
 40
0.6341558133
 40
0.7089907889
 40
0.777486277
 40
0.838553414
 40
0.8910593942
 40
0.9137407653
 40
0.9338466788
 40
0.9512559303
 40
0.9658558383
 40
0.9775272682
 40
0.9861449571
 40
0.9915780164
 40
0.9936906551
 40
0.9950421162
 40
1.0
 40
1.0
 40
1.0
 40
1.0
 10
11.5155358003
 20
9.284891804
 30
0.0
 10
11.5176094882
 20
9.284891804
 30
0.0
 10
11.5216687534
 20
9.2850821162
 30
0.0
 10
11.5275225823
 20
9.2858722297
 30
0.0
 10
11.5320977407
 20
9.2868924018
 30
0.0
 10
11.5354457789
 20
9.2878967782
 30
0.0
 10
11.5376920203
 20
9.2886863774
 30
0.0
 10
11.5397136934
 20
9.2894955905
 30
0.0
 10
11.5414831184
 20
9.290290106
 30
0.0
 10
11.5427818128
 20
9.2909391018
 30
0.0
 10
11.5436728379
 20
9.2914248259
 30
0.0
 10
11.5442280789
 20
9.2917465566
 30
0.0
 10
11.5446997992
 20
9.2920362344
 30
0.0
 10
11.5450935908
 20
9.2922923157
 30
0.0
 10
11.5453912763
 20
9.2924942232
 30
0.0
 10
11.5456362326
 20
9.2926712975
 30
0.0
 10
11.545733209
 20
9.2927404807
 30
0.0
 10
11.5458642014
 20
9.2928430034
 30
0.0
 10
11.5457649715
 20
9.2927554056
 30
0.0
 10
11.545729968
 20
9.2927247719
 30
0.0
 10
11.545690606
 20
9.2926895731
 30
0.0
  0
SPLINE
  5
3B1
100
AcDbEntity
  8
0
100
AcDbSpline
 62
7
  6
CONTINUOUS
 70
0
 71
3
 72
14
 73
10
 74
0
 42
0.0000001
 43
0.0000001
 44
0.0000000001
 40
0.0
 40
0.0
 40
0.0
 40
0.0
 40
0.1190253035
 40
0.2390336734
 40
0.3604770399
 40
0.4836631638
 40
0.6089757722
 40
0.7367295646
 40
1.0
 40
1.0
 40
1.0
 40
1.0
 10
11.639293209
 20
9.3679126054
 30
0.0
 10
11.6343861595
 20
9.3671160234
 30
0.0
 10
11.6246237873
 20
9.3648752997
 30
0.0
 10
11.6104602195
 20
9.3596620136
 30
0.0
 10
11.5968739586
 20
9.3527005545
 30
0.0
 10
11.5840050247
 20
9.3440903603
 30
0.0
 10
11.5719555532
 20
9.3339539976
 30
0.0
 10
11.5569481951
 20
9.3184282206
 30
0.0
 10
11.5473659926
 20
9.3050529316
 30
0.0
 10
11.5417361413
 20
9.2956075632
 30
0.0
  0
SPLINE
  5
3B2
100
AcDbEntity
  8
0
100
AcDbSpline
 62
7
  6
CONTINUOUS
 70
0
 71
3
 72
14
 73
10
 74
0
 42
0.0000001
 43
0.0000001
 44
0.0000000001
 40
0.0
 40
0.0
 40
0.0
 40
0.0
 40
0.2638286209
 40
0.3916941631
 40
0.5170098229
 40
0.6400958748
 40
0.7613701768
 40
0.8811746398
 40
1.0
 40
1.0
 40
1.0
 40
1.0
 10
11.5399823098
 20
9.0541788706
 30
0.0
 10
11.5456718086
 20
9.0442378374
 30
0.0
 10
11.5554365503
 20
9.0301522622
 30
0.0
 10
11.5708767556
 20
9.0138184739
 30
0.0
 10
11.5833218457
 20
9.0031836708
 30
0.0
 10
11.5966548742
 20
8.9941850989
 30
0.0
 10
11.6107641883
 20
8.9869621296
 30
0.0
 10
11.6254938783
 20
8.9816266141
 30
0.0
 10
11.635650359
 20
8.9794051146
 30
0.0
 10
11.6407526316
 20
8.9786438047
 30
0.0
  0
SPLINE
  5
3B3
100
AcDbEntity
  8
0
100
AcDbSpline
 62
7
  6
CONTINUOUS
 70
0
 71
3
 72
21
 73
17
 74
0
 42
0.0000001
 43
0.0000001
 44
0.0000000001
 40
0.0
 40
0.0
 40
0.0
 40
0.0
 40
0.0519539107
 40
0.1052230143
 40
0.1599715009
 40
0.2163123636
 40
0.274297195
 40
0.3339401855
 40
0.3952109459
 40
0.4580415895
 40
0.522338055
 40
0.5879642636
 40
0.7224970222
 40
0.8604051186
 40
0.9301462557
 40
1.0
 40
1.0
 40
1.0
 40
1.0
 10
11.6860415999
 20
8.9735301539
 30
0.0
 10
11.6901123558
 20
8.9748238218
 30
0.0
 10
11.6982160131
 20
8.9779084875
 30
0.0
 10
11.7099673345
 20
8.9838629287
 30
0.0
 10
11.7213677967
 20
8.9911577208
 30
0.0
 10
11.7323273517
 20
8.9997399219
 30
0.0
 10
11.7427675824
 20
9.0095426413
 30
0.0
 10
11.7526026155
 20
9.0205016725
 30
0.0
 10
11.7617588572
 20
9.0325368052
 30
0.0
 10
11.7701654894
 20
9.0455636111
 30
0.0
 10
11.7777496411
 20
9.0594945797
 30
0.0
 10
11.7867659637
 20
9.0792960821
 30
0.0
 10
11.7956079216
 20
9.10574239
 30
0.0
 10
11.8009639306
 20
9.1334452057
 30
0.0
 10
11.803135894
 20
9.1561683434
 30
0.0
 10
11.8035034586
 20
9.1676488019
 30
0.0
 10
11.8035034586
 20
9.173391804
 30
0.0
  0
SPLINE
  5
3B4
100
AcDbEntity
  8
0
100
AcDbSpline
 62
7
  6
CONTINUOUS
 70
0
 71
3
 72
12
 73
8
 74
0
 42
0.0000001
 43
0.0000001
 44
0.0000000001
 40
0.0
 40
0.0
 40
0.0
 40
0.0
 40
0.2208447286
 40
0.3389655099
 40
0.4624862417
 40
0.7244028449
 40
1.0
 40
1.0
 40
1.0
 40
1.0
 10
11.5444325709
 20
7.9371131636
 30
0.0
 10
11.5418476545
 20
7.9345619345
 30
0.0
 10
11.5382640373
 20
7.9302322183
 30
0.0
 10
11.5343040809
 20
7.9237287957
 30
0.0
 10
11.5307081149
 20
7.9162546175
 30
0.0
 10
11.5275042877
 20
7.9057884903
 30
0.0
 10
11.5266256524
 20
7.8969241114
 30
0.0
 10
11.5266256524
 20
7.892391804
 30
0.0
  0
SPLINE
  5
3B5
100
AcDbEntity
  8
0
100
AcDbSpline
 62
7
  6
CONTINUOUS
 70
0
 71
3
 72
12
 73
8
 74
0
 42
0.0000001
 43
0.0000001
 44
0.0000000001
 40
0.0
 40
0.0
 40
0.0
 40
0.0
 40
0.2755971975
 40
0.5375137788
 40
0.6610345038
 40
0.779155278
 40
1.0
 40
1.0
 40
1.0
 40
1.0
 10
11.5266256524
 20
7.892391804
 30
0.0
 10
11.5266256524
 20
7.887859496
 30
0.0
 10
11.5275042879
 20
7.8789951168
 30
0.0
 10
11.5307081154
 20
7.8685289895
 30
0.0
 10
11.5343040813
 20
7.8610548118
 30
0.0
 10
11.5382640375
 20
7.8545513895
 30
0.0
 10
11.5418476546
 20
7.8502216735
 30
0.0
 10
11.5444325709
 20
7.8476704445
 30
0.0
  0
SPLINE
  5
3B6
100
AcDbEntity
  8
0
100
AcDbSpline
 62
7
  6
CONTINUOUS
 70
0
 71
3
 72
11
 73
7
 74
0
 42
0.0000001
 43
0.0000001
 44
0.0000000001
 40
0.0
 40
0.0
 40
0.0
 40
0.0
 40
0.2151245655
 40
0.4550721088
 40
0.7194893425
 40
1.0
 40
1.0
 40
1.0
 40
1.0
 10
11.5508207309
 20
7.9371131636
 30
0.0
 10
11.5484974979
 20
7.9345326943
 30
0.0
 10
11.5441268769
 20
7.9285650996
 30
0.0
 10
11.5390998298
 20
7.9180268786
 30
0.0
 10
11.5357716581
 20
7.9057355279
 30
0.0
 10
11.5349978416
 20
7.8969193741
 30
0.0
 10
11.5349978416
 20
7.892391804
 30
0.0
  0
SPLINE
  5
3B7
100
AcDbEntity
  8
0
100
AcDbSpline
 62
7
  6
CONTINUOUS
 70
0
 71
3
 72
11
 73
7
 74
0
 42
0.0000001
 43
0.0000001
 44
0.0000000001
 40
0.0
 40
0.0
 40
0.0
 40
0.0
 40
0.2805107006
 40
0.5449279117
 40
0.784875441
 40
1.0
 40
1.0
 40
1.0
 40
1.0
 10
11.5349978416
 20
7.892391804
 30
0.0
 10
11.5349978416
 20
7.8878642333
 30
0.0
 10
11.5357716583
 20
7.8790480791
 30
0.0
 10
11.5390998303
 20
7.8667567284
 30
0.0
 10
11.5441268772
 20
7.8562185081
 30
0.0
 10
11.548497498
 20
7.8502509137
 30
0.0
 10
11.5508207309
 20
7.8476704445
 30
0.0
  0
SPLINE
  5
3B8
100
AcDbEntity
  8
0
100
AcDbSpline
 62
7
  6
CONTINUOUS
 70
0
 71
3
 72
11
 73
7
 74
0
 42
0.0000001
 43
0.0000001
 44
0.0000000001
 40
0.0
 40
0.0
 40
0.0
 40
0.0
 40
0.2092071225
 40
0.4477331939
 40
0.7146371084
 40
1.0
 40
1.0
 40
1.0
 40
1.0
 10
11.5614077256
 20
7.9371131636
 30
0.0
 10
11.559367976
 20
7.9344986857
 30
0.0
 10
11.5555542226
 20
7.92845995
 30
0.0
 10
11.5512243999
 20
7.9179390211
 30
0.0
 10
11.5483608096
 20
7.9056842753
 30
0.0
 10
11.5476962692
 20
7.896914942
 30
0.0
 10
11.5476962692
 20
7.892391804
 30
0.0
  0
SPLINE
  5
3B9
100
AcDbEntity
  8
0
100
AcDbSpline
 62
7
  6
CONTINUOUS
 70
0
 71
3
 72
11
 73
7
 74
0
 42
0.0000001
 43
0.0000001
 44
0.0000000001
 40
0.0
 40
0.0
 40
0.0
 40
0.0
 40
0.2853629353
 40
0.5522668267
 40
0.7907928839
 40
1.0
 40
1.0
 40
1.0
 40
1.0
 10
11.5476962692
 20
7.892391804
 30
0.0
 10
11.5476962692
 20
7.8878686654
 30
0.0
 10
11.5483608097
 20
7.8790993317
 30
0.0
 10
11.5512244003
 20
7.866844586
 30
0.0
 10
11.5555542228
 20
7.8563236577
 30
0.0
 10
11.5593679761
 20
7.8502849223
 30
0.0
 10
11.5614077256
 20
7.8476704445
 30
0.0
  0
SPLINE
  5
3BA
100
AcDbEntity
  8
0
100
AcDbSpline
 62
7
  6
CONTINUOUS
 70
0
 71
3
 72
11
 73
7
 74
0
 42
0.0000001
 43
0.0000001
 44
0.0000000001
 40
0.0
 40
0.0
 40
0.0
 40
0.0
 40
0.2063260921
 40
0.4429035114
 40
0.709589371
 40
1.0
 40
1.0
 40
1.0
 40
1.0
 10
11.57610831
 20
7.9371131636
 30
0.0
 10
11.5746004318
 20
7.9348066699
 30
0.0
 10
11.571769844
 20
7.9295840317
 30
0.0
 10
11.5684286785
 20
7.9206885577
 30
0.0
 10
11.5659565568
 20
7.9103549728
 30
0.0
 10
11.5650753287
 20
7.9029475196
 30
0.0
 10
11.5648299969
 20
7.8990766192
 30
0.0
  0
SPLINE
  5
3BB
100
AcDbEntity
  8
0
100
AcDbSpline
 62
7
  6
CONTINUOUS
 70
0
 71
3
 72
11
 73
7
 74
0
 42
0.0000001
 43
0.0000001
 44
0.0000000001
 40
0.0
 40
0.0
 40
0.0
 40
0.0
 40
0.2904105718
 40
0.5570961812
 40
0.7936735799
 40
1.0
 40
1.0
 40
1.0
 40
1.0
 10
11.5648300364
 20
7.8857063656
 30
0.0
 10
11.5650753874
 20
7.8818355277
 30
0.0
 10
11.5659566402
 20
7.8744281989
 30
0.0
 10
11.5684287638
 20
7.8640947896
 30
0.0
 10
11.5717699015
 20
7.8551994628
 30
0.0
 10
11.5746004529
 20
7.8499769059
 30
0.0
 10
11.57610831
 20
7.8476704445
 30
0.0
  0
SPLINE
  5
3BC
100
AcDbEntity
  8
0
100
AcDbSpline
 62
7
  6
CONTINUOUS
 70
0
 71
3
 72
11
 73
7
 74
0
 42
0.0000001
 43
0.0000001
 44
0.0000000001
 40
0.0
 40
0.0
 40
0.0
 40
0.0
 40
0.2010433712
 40
0.4363128639
 40
0.7050882537
 40
1.0
 40
1.0
 40
1.0
 40
1.0
 10
11.5948041171
 20
7.9371131636
 30
0.0
 10
11.593583629
 20
7.9347753692
 30
0.0
 10
11.591311034
 20
7.929502365
 30
0.0
 10
11.5886566297
 20
7.9206249955
 30
0.0
 10
11.5866920122
 20
7.9103136164
 30
0.0
 10
11.5859931337
 20
7.9029402126
 30
0.0
 10
11.5857975889
 20
7.8990766192
 30
0.0
  0
SPLINE
  5
3BD
100
AcDbEntity
  8
0
100
AcDbSpline
 62
7
  6
CONTINUOUS
 70
0
 71
3
 72
11
 73
7
 74
0
 42
0.0000001
 43
0.0000001
 44
0.0000000001
 40
0.0
 40
0.0
 40
0.0
 40
0.0
 40
0.2949117033
 40
0.5636868251
 40
0.7989562858
 40
1.0
 40
1.0
 40
1.0
 40
1.0
 10
11.5857976204
 20
7.8857063656
 30
0.0
 10
11.5859931806
 20
7.8818428349
 30
0.0
 10
11.5866920786
 20
7.8744695552
 30
0.0
 10
11.5886566979
 20
7.8641583506
 30
0.0
 10
11.5913110805
 20
7.8552811275
 30
0.0
 10
11.5935836462
 20
7.8500082058
 30
0.0
 10
11.5948041171
 20
7.8476704445
 30
0.0
  0
SPLINE
  5
3BE
100
AcDbEntity
  8
0
100
AcDbSpline
 62
7
  6
CONTINUOUS
 70
0
 71
3
 72
13
 73
9
 74
0
 42
0.0000001
 43
0.0000001
 44
0.0000000001
 40
0.0
 40
0.0
 40
0.0
 40
0.0
 40
0.0915781685
 40
0.1934363085
 40
0.3058061229
 40
0.4286062027
 40
0.7021414009
 40
1.0
 40
1.0
 40
1.0
 40
1.0
 10
11.6173446109
 20
7.9371131636
 30
0.0
 10
11.6168447444
 20
7.9358187742
 30
0.0
 10
11.6158815361
 20
7.9330484239
 30
0.0
 10
11.614609866
 20
7.9285907801
 30
0.0
 10
11.6134603549
 20
7.9236131814
 30
0.0
 10
11.6120771967
 20
7.9160282041
 30
0.0
 10
11.6108801651
 20
7.9055657443
 30
0.0
 10
11.610557565
 20
7.8969048378
 30
0.0
 10
11.610557565
 20
7.892391804
 30
0.0
  0
SPLINE
  5
3BF
100
AcDbEntity
  8
0
100
AcDbSpline
 62
7
  6
CONTINUOUS
 70
0
 71
3
 72
13
 73
9
 74
0
 42
0.0000001
 43
0.0000001
 44
0.0000000001
 40
0.0
 40
0.0
 40
0.0
 40
0.0
 40
0.2978586446
 40
0.571393818
 40
0.6941938906
 40
0.8065636977
 40
0.9084218319
 40
1.0
 40
1.0
 40
1.0
 40
1.0
 10
11.610557565
 20
7.892391804
 30
0.0
 10
11.610557565
 20
7.8878787696
 30
0.0
 10
11.6108801651
 20
7.8792178627
 30
0.0
 10
11.6120771969
 20
7.8687554028
 30
0.0
 10
11.613460355
 20
7.8611704261
 30
0.0
 10
11.6146098661
 20
7.8561928277
 30
0.0
 10
11.6158815361
 20
7.8517351841
 30
0.0
 10
11.6168447444
 20
7.8489648339
 30
0.0
 10
11.6173446109
 20
7.8476704445
 30
0.0
  0
SPLINE
  5
3C0
100
AcDbEntity
  8
0
100
AcDbSpline
 62
7
  6
CONTINUOUS
 70
0
 71
3
 72
11
 73
7
 74
0
 42
0.0000001
 43
0.0000001
 44
0.0000000001
 40
0.0
 40
0.0
 40
0.0
 40
0.0
 40
0.1898853934
 40
0.4243572356
 40
0.6994085288
 40
1.0
 40
1.0
 40
1.0
 40
1.0
 10
11.6435482985
 20
7.9371131636
 30
0.0
 10
11.6428644903
 20
7.9343467375
 30
0.0
 10
11.6416371194
 20
7.9280898442
 30
0.0
 10
11.6402970577
 20
7.9176741228
 30
0.0
 10
11.6394096433
 20
7.9055433246
 30
0.0
 10
11.6392041271
 20
7.8969028995
 30
0.0
 10
11.6392041271
 20
7.892391804
 30
0.0
  0
SPLINE
  5
3C1
100
AcDbEntity
  8
0
100
AcDbSpline
 62
7
  6
CONTINUOUS
 70
0
 71
3
 72
11
 73
7
 74
0
 42
0.0000001
 43
0.0000001
 44
0.0000000001
 40
0.0
 40
0.0
 40
0.0
 40
0.0
 40
0.3005915169
 40
0.5756427851
 40
0.8101146127
 40
1.0
 40
1.0
 40
1.0
 40
1.0
 10
11.6392041271
 20
7.892391804
 30
0.0
 10
11.6392041271
 20
7.8878807079
 30
0.0
 10
11.6394096434
 20
7.8792402825
 30
0.0
 10
11.6402970578
 20
7.8671094843
 30
0.0
 10
11.6416371195
 20
7.8566937634
 30
0.0
 10
11.6428644904
 20
7.8504368705
 30
0.0
 10
11.6435482985
 20
7.8476704445
 30
0.0
  0
SPLINE
  5
3C2
100
AcDbEntity
  8
0
100
AcDbSpline
 62
7
  6
CONTINUOUS
 70
0
 71
3
 72
11
 73
7
 74
0
 42
0.0000001
 43
0.0000001
 44
0.0000000001
 40
0.0
 40
0.0
 40
0.0
 40
0.0
 40
0.1878236631
 40
0.421916258
 40
0.6978374889
 40
1.0
 40
1.0
 40
1.0
 40
1.0
 10
11.6732041915
 20
7.9371131636
 30
0.0
 10
11.6729081553
 20
7.9343254313
 30
0.0
 10
11.6723805411
 20
7.9280486621
 30
0.0
 10
11.6718063455
 20
7.9176477982
 30
0.0
 10
11.6714259828
 20
7.9055304069
 30
0.0
 10
11.6713378739
 20
7.8969018022
 30
0.0
 10
11.6713378739
 20
7.892391804
 30
0.0
  0
SPLINE
  5
3C3
100
AcDbEntity
  8
0
100
AcDbSpline
 62
7
  6
CONTINUOUS
 70
0
 71
3
 72
11
 73
7
 74
0
 42
0.0000001
 43
0.0000001
 44
0.0000000001
 40
0.0
 40
0.0
 40
0.0
 40
0.0
 40
0.3021625572
 40
0.5780837628
 40
0.812176343
 40
1.0
 40
1.0
 40
1.0
 40
1.0
 10
11.6713378739
 20
7.892391804
 30
0.0
 10
11.6713378739
 20
7.8878818052
 30
0.0
 10
11.6714259828
 20
7.8792532001
 30
0.0
 10
11.6718063455
 20
7.8671358088
 30
0.0
 10
11.6723805411
 20
7.8567349456
 30
0.0
 10
11.6729081553
 20
7.8504581767
 30
0.0
 10
11.6732041915
 20
7.8476704445
 30
0.0
  0
SPLINE
  5
3C4
100
AcDbEntity
  8
0
100
AcDbSpline
 62
7
  6
CONTINUOUS
 70
0
 71
3
 72
11
 73
7
 74
0
 42
0.0000001
 43
0.0000001
 44
0.0000000001
 40
0.0
 40
0.0
 40
0.0
 40
0.0
 40
0.1878273543
 40
0.421920619
 40
0.6978402925
 40
1.0
 40
1.0
 40
1.0
 40
1.0
 10
12.4714764578
 20
7.8476704445
 30
0.0
 10
12.4717736413
 20
7.8504581375
 30
0.0
 10
12.472303307
 20
7.8567348721
 30
0.0
 10
12.4728797385
 20
7.8671357631
 30
0.0
 10
12.4732615821
 20
7.8792531784
 30
0.0
 10
12.473350034
 20
7.8878818039
 30
0.0
 10
12.473350034
 20
7.892391804
 30
0.0
  0
SPLINE
  5
3C5
100
AcDbEntity
  8
0
100
AcDbSpline
 62
7
  6
CONTINUOUS
 70
0
 71
3
 72
11
 73
7
 74
0
 42
0.0000001
 43
0.0000001
 44
0.0000000001
 40
0.0
 40
0.0
 40
0.0
 40
0.0
 40
0.3021597535
 40
0.5780794018
 40
0.8121726518
 40
1.0
 40
1.0
 40
1.0
 40
1.0
 10
12.473350034
 20
7.892391804
 30
0.0
 10
12.473350034
 20
7.8969018048
 30
0.0
 10
12.4732615821
 20
7.9055304307
 30
0.0
 10
12.4728797384
 20
7.9176478461
 30
0.0
 10
12.472303307
 20
7.9280487364
 30
0.0
 10
12.4717736413
 20
7.9343254707
 30
0.0
 10
12.4714764578
 20
7.9371131636
 30
0.0
  0
SPLINE
  5
3C6
100
AcDbEntity
  8
0
100
AcDbSpline
 62
7
  6
CONTINUOUS
 70
0
 71
3
 72
11
 73
7
 74
0
 42
0.0000001
 43
0.0000001
 44
0.0000000001
 40
0.0
 40
0.0
 40
0.0
 40
0.0
 40
0.1898936406
 40
0.42436702
 40
0.6994148319
 40
1.0
 40
1.0
 40
1.0
 40
1.0
 10
12.5011226164
 20
7.8476704445
 30
0.0
 10
12.5018075351
 20
7.8504367878
 30
0.0
 10
12.5030369324
 20
7.8566935994
 30
0.0
 10
12.5043792248
 20
7.8671093793
 30
0.0
 10
12.5052681153
 20
7.879240231
 30
0.0
 10
12.5054739729
 20
7.8878807041
 30
0.0
 10
12.5054739729
 20
7.892391804
 30
0.0
  0
SPLINE
  5
3C7
100
AcDbEntity
  8
0
100
AcDbSpline
 62
7
  6
CONTINUOUS
 70
0
 71
3
 72
11
 73
7
 74
0
 42
0.0000001
 43
0.0000001
 44
0.0000000001
 40
0.0
 40
0.0
 40
0.0
 40
0.0
 40
0.3005852137
 40
0.5756330007
 40
0.8101063655
 40
1.0
 40
1.0
 40
1.0
 40
1.0
 10
12.5054739729
 20
7.892391804
 30
0.0
 10
12.5054739729
 20
7.8969029047
 30
0.0
 10
12.5052681153
 20
7.9055433781
 30
0.0
 10
12.5043792247
 20
7.9176742299
 30
0.0
 10
12.5030369324
 20
7.9280900091
 30
0.0
 10
12.5018075351
 20
7.9343468203
 30
0.0
 10
12.5011226164
 20
7.9371131636
 30
0.0
  0
SPLINE
  5
3C8
100
AcDbEntity
  8
0
100
AcDbSpline
 62
7
  6
CONTINUOUS
 70
0
 71
3
 72
13
 73
9
 74
0
 42
0.0000001
 43
0.0000001
 44
0.0000000001
 40
0.0
 40
0.0
 40
0.0
 40
0.0
 40
0.0915855588
 40
0.1934484175
 40
0.3058205199
 40
0.428620717
 40
0.7021507704
 40
1.0
 40
1.0
 40
1.0
 40
1.0
 10
12.5273159128
 20
7.8476704445
 30
0.0
 10
12.5278162882
 20
7.8489648064
 30
0.0
 10
12.5287804861
 20
7.8517351129
 30
0.0
 10
12.5300534847
 20
7.8561927672
 30
0.0
 10
12.5312041958
 20
7.8611703763
 30
0.0
 10
12.5325887873
 20
7.868755313
 30
0.0
 10
12.5337870736
 20
7.8792177842
 30
0.0
 10
12.5341100131
 20
7.8878787634
 30
0.0
 10
12.5341100131
 20
7.892391804
 30
0.0
  0
SPLINE
  5
3C9
100
AcDbEntity
  8
0
100
AcDbSpline
 62
7
  6
CONTINUOUS
 70
0
 71
3
 72
13
 73
9
 74
0
 42
0.0000001
 43
0.0000001
 44
0.0000000001
 40
0.0
 40
0.0
 40
0.0
 40
0.0
 40
0.297849275
 40
0.5713793037
 40
0.6941794935
 40
0.8065515887
 40
0.9084144416
 40
1.0
 40
1.0
 40
1.0
 40
1.0
 10
12.5341100131
 20
7.892391804
 30
0.0
 10
12.5341100131
 20
7.8969048453
 30
0.0
 10
12.5337870736
 20
7.9055658249
 30
0.0
 10
12.5325887871
 20
7.9160282963
 30
0.0
 10
12.5312041957
 20
7.9236132323
 30
0.0
 10
12.5300534847
 20
7.9285908412
 30
0.0
 10
12.5287804861
 20
7.9330484953
 30
0.0
 10
12.5278162882
 20
7.9358188017
 30
0.0
 10
12.5273159128
 20
7.9371131636
 30
0.0
  0
SPLINE
  5
3CA
100
AcDbEntity
  8
0
100
AcDbSpline
 62
7
  6
CONTINUOUS
 70
0
 71
3
 72
11
 73
7
 74
0
 42
0.0000001
 43
0.0000001
 44
0.0000000001
 40
0.0
 40
0.0
 40
0.0
 40
0.0
 40
0.2010579295
 40
0.4363309314
 40
0.70510055
 40
1.0
 40
1.0
 40
1.0
 40
1.0
 10
12.5498454424
 20
7.8476704445
 30
0.0
 10
12.5510667959
 20
7.850008147
 30
0.0
 10
12.5533410603
 20
7.8552810144
 30
0.0
 10
12.5559974905
 20
7.86415844
 30
0.0
 10
12.5579636045
 20
7.8744698817
 30
0.0
 10
12.5586630188
 20
7.8818433761
 30
0.0
 10
12.558858711
 20
7.8857069887
 30
0.0
  0
SPLINE
  5
3CB
100
AcDbEntity
  8
0
100
AcDbSpline
 62
7
  6
CONTINUOUS
 70
0
 71
3
 72
11
 73
7
 74
0
 42
0.0000001
 43
0.0000001
 44
0.0000000001
 40
0.0
 40
0.0
 40
0.0
 40
0.0
 40
0.2948994069
 40
0.5636687577
 40
0.7989417276
 40
1.0
 40
1.0
 40
1.0
 40
1.0
 10
12.5588586794
 20
7.8990772425
 30
0.0
 10
12.558662972
 20
7.9029407925
 30
0.0
 10
12.557963538
 20
7.9103141628
 30
0.0
 10
12.5559974223
 20
7.92062543
 30
0.0
 10
12.5533410139
 20
7.9295027092
 30
0.0
 10
12.5510667787
 20
7.9347754941
 30
0.0
 10
12.5498454424
 20
7.9371131636
 30
0.0
  0
SPLINE
  5
3CC
100
AcDbEntity
  8
0
100
AcDbSpline
 62
7
  6
CONTINUOUS
 70
0
 71
3
 72
11
 73
7
 74
0
 42
0.0000001
 43
0.0000001
 44
0.0000000001
 40
0.0
 40
0.0
 40
0.0
 40
0.0
 40
0.2063421773
 40
0.4429236847
 40
0.709603197
 40
1.0
 40
1.0
 40
1.0
 40
1.0
 10
12.5685298007
 20
7.8476704445
 30
0.0
 10
12.5700384896
 20
7.8499768488
 30
0.0
 10
12.57287066
 20
7.8551993319
 30
0.0
 10
12.576213802
 20
7.8640948539
 30
0.0
 10
12.5786873854
 20
7.8744285047
 30
0.0
 10
12.5795691408
 20
7.8818360652
 30
0.0
 10
12.5798146155
 20
7.8857069887
 30
0.0
  0
SPLINE
  5
3CD
100
AcDbEntity
  8
0
100
AcDbSpline
 62
7
  6
CONTINUOUS
 70
0
 71
3
 72
11
 73
7
 74
0
 42
0.0000001
 43
0.0000001
 44
0.0000000001
 40
0.0
 40
0.0
 40
0.0
 40
0.0
 40
0.2903967458
 40
0.5570760079
 40
0.7936574948
 40
1.0
 40
1.0
 40
1.0
 40
1.0
 10
12.579814576
 20
7.8990772425
 30
0.0
 10
12.5795690821
 20
7.9029481036
 30
0.0
 10
12.578687302
 20
7.9103555397
 30
0.0
 10
12.5762137166
 20
7.920689015
 30
0.0
 10
12.5728706024
 20
7.9295843898
 30
0.0
 10
12.5700384685
 20
7.9348067916
 30
0.0
 10
12.5685298007
 20
7.9371131636
 30
0.0
  0
SPLINE
  5
3CE
100
AcDbEntity
  8
0
100
AcDbSpline
 62
7
  6
CONTINUOUS
 70
0
 71
3
 72
11
 73
7
 74
0
 42
0.0000001
 43
0.0000001
 44
0.0000000001
 40
0.0
 40
0.0
 40
0.0
 40
0.0
 40
0.2092243534
 40
0.447754442
 40
0.7146511065
 40
1.0
 40
1.0
 40
1.0
 40
1.0
 10
12.5832185437
 20
7.8476704445
 30
0.0
 10
12.5852591519
 20
7.8502848166
 30
0.0
 10
12.5890745916
 20
7.8563233455
 30
0.0
 10
12.5934064931
 20
7.8668443357
 30
0.0
 10
12.5962714634
 20
7.8790991896
 30
0.0
 10
12.5969363273
 20
7.8878686537
 30
0.0
 10
12.5969363273
 20
7.892391804
 30
0.0
  0
SPLINE
  5
3CF
100
AcDbEntity
  8
0
100
AcDbSpline
 62
7
  6
CONTINUOUS
 70
0
 71
3
 72
11
 73
7
 74
0
 42
0.0000001
 43
0.0000001
 44
0.0000000001
 40
0.0
 40
0.0
 40
0.0
 40
0.0
 40
0.2853489372
 40
0.5522455785
 40
0.790775653
 40
1.0
 40
1.0
 40
1.0
 40
1.0
 10
12.5969363273
 20
7.892391804
 30
0.0
 10
12.5969363273
 20
7.8969149551
 30
0.0
 10
12.5962714633
 20
7.9056844196
 30
0.0
 10
12.5934064927
 20
7.9179392735
 30
0.0
 10
12.5890745914
 20
7.9284602629
 30
0.0
 10
12.5852591518
 20
7.9344987916
 30
0.0
 10
12.5832185437
 20
7.9371131636
 30
0.0
  0
SPLINE
  5
3D0
100
AcDbEntity
  8
0
100
AcDbSpline
 62
7
  6
CONTINUOUS
 70
0
 71
3
 72
11
 73
7
 74
0
 42
0.0000001
 43
0.0000001
 44
0.0000000001
 40
0.0
 40
0.0
 40
0.0
 40
0.0
 40
0.2151417337
 40
0.4550935231
 40
0.7195035525
 40
1.0
 40
1.0
 40
1.0
 40
1.0
 10
12.5937933997
 20
7.8476704445
 30
0.0
 10
12.5961174276
 20
7.8502508215
 30
0.0
 10
12.6004896088
 20
7.85621821
 30
0.0
 10
12.6055186396
 20
7.8667564701
 30
0.0
 10
12.6088481387
 20
7.8790479253
 30
0.0
 10
12.6096222689
 20
7.8878642206
 30
0.0
 10
12.6096222689
 20
7.892391804
 30
0.0
  0
SPLINE
  5
3D1
100
AcDbEntity
  8
0
100
AcDbSpline
 62
7
  6
CONTINUOUS
 70
0
 71
3
 72
11
 73
7
 74
0
 42
0.0000001
 43
0.0000001
 44
0.0000000001
 40
0.0
 40
0.0
 40
0.0
 40
0.0
 40
0.2804964906
 40
0.5449064975
 40
0.7848582728
 40
1.0
 40
1.0
 40
1.0
 40
1.0
 10
12.6096222689
 20
7.892391804
 30
0.0
 10
12.6096222689
 20
7.8969193882
 30
0.0
 10
12.6088481386
 20
7.9057356839
 30
0.0
 10
12.6055186392
 20
7.918027139
 30
0.0
 10
12.6004896086
 20
7.9285653985
 30
0.0
 10
12.5961174275
 20
7.9345327867
 30
0.0
 10
12.5937933997
 20
7.9371131636
 30
0.0
  0
SPLINE
  5
3D2
100
AcDbEntity
  8
0
100
AcDbSpline
 62
7
  6
CONTINUOUS
 70
0
 71
3
 72
12
 73
8
 74
0
 42
0.0000001
 43
0.0000001
 44
0.0000000001
 40
0.0
 40
0.0
 40
0.0
 40
0.0
 40
0.2208611884
 40
0.3389856807
 40
0.4625070857
 40
0.7244167692
 40
1.0
 40
1.0
 40
1.0
 40
1.0
 10
12.6001692216
 20
7.8476704445
 30
0.0
 10
12.6027548693
 20
7.8502215952
 30
0.0
 10
12.6063395872
 20
7.8545512332
 30
0.0
 10
12.6103008511
 20
7.8610547444
 30
0.0
 10
12.6138979192
 20
7.8685288442
 30
0.0
 10
12.617102789
 20
7.8789949567
 30
0.0
 10
12.6179817246
 20
7.8878594826
 30
0.0
 10
12.6179817246
 20
7.892391804
 30
0.0
  0
SPLINE
  5
3D3
100
AcDbEntity
  8
0
100
AcDbSpline
 62
7
  6
CONTINUOUS
 70
0
 71
3
 72
12
 73
8
 74
0
 42
0.0000001
 43
0.0000001
 44
0.0000000001
 40
0.0
 40
0.0
 40
0.0
 40
0.0
 40
0.2755832732
 40
0.5374929348
 40
0.661014333
 40
0.7791388182
 40
1.0
 40
1.0
 40
1.0
 40
1.0
 10
12.6179817246
 20
7.892391804
 30
0.0
 10
12.6179817246
 20
7.8969241262
 30
0.0
 10
12.6171027888
 20
7.9057886524
 30
0.0
 10
12.6138979187
 20
7.9162547651
 30
0.0
 10
12.6103008508
 20
7.9237288643
 30
0.0
 10
12.606339587
 20
7.9302323752
 30
0.0
 10
12.6027548693
 20
7.9345620129
 30
0.0
 10
12.6001692216
 20
7.9371131636
 30
0.0
  0
SPLINE
  5
3D4
100
AcDbEntity
  8
0
100
AcDbSpline
 62
7
  6
CONTINUOUS
 70
0
 71
3
 72
15
 73
11
 74
0
 42
0.0000001
 43
0.0000001
 44
0.0000000001
 40
0.0
 40
0.0
 40
0.0
 40
0.0
 40
0.1419831511
 40
0.2782169223
 40
0.4087132947
 40
0.5338319986
 40
0.6542949443
 40
0.7711991085
 40
0.8859690243
 40
1.0
 40
1.0
 40
1.0
 40
1.0
 10
12.6040302784
 20
9.2959241125
 30
0.0
 10
12.6009203003
 20
9.3021671642
 30
0.0
 10
12.5942300596
 20
9.3141172304
 30
0.0
 10
12.58257245
 20
9.3305139906
 30
0.0
 10
12.5696147277
 20
9.3448159264
 30
0.0
 10
12.5554951628
 20
9.3568179793
 30
0.0
 10
12.540380347
 20
9.3663530411
 30
0.0
 10
12.5244468885
 20
9.3732732022
 30
0.0
 10
12.5079134978
 20
9.3774595318
 30
0.0
 10
12.4966517245
 20
9.378391804
 30
0.0
 10
12.4910500612
 20
9.378391804
 30
0.0
  0
SPLINE
  5
3D5
100
AcDbEntity
  8
0
100
AcDbSpline
 62
7
  6
CONTINUOUS
 70
0
 71
3
 72
39
 73
35
 74
0
 42
0.0000001
 43
0.0000001
 44
0.0000000001
 40
0.0
 40
0.0
 40
0.0
 40
0.0
 40
0.0312508055
 40
0.0625118713
 40
0.0937644996
 40
0.1250157748
 40
0.1875138429
 40
0.2500114427
 40
0.2812608201
 40
0.3125096149
 40
0.3437584714
 40
0.3750071655
 40
0.4375037338
 40
0.500000181
 40
0.5624964739
 40
0.6249923184
 40
0.656241168
 40
0.6874902443
 40
0.71873927
 40
0.7499882689
 40
0.7812372443
 40
0.8124858296
 40
0.843733297
 40
0.8749781481
 40
0.8906050288
 40
0.9062323118
 40
0.9218591872
 40
0.9374853988
 40
0.9531098365
 40
0.968729605
 40
0.9765471797
 40
0.9843645835
 40
0.9921840309
 40
1.0
 40
1.0
 40
1.0
 40
1.0
 10
11.8548901011
 20
6.9454688002
 30
0.0
 10
11.8602197515
 20
6.9470469771
 30
0.0
 10
11.8709821823
 20
6.9498676148
 30
0.0
 10
11.8873123214
 20
6.953276902
 30
0.0
 10
11.9037633106
 20
6.9560382734
 30
0.0
 10
11.9258018957
 20
6.9589977058
 30
0.0
 10
11.9534801085
 20
6.961607045
 30
0.0
 10
11.9812271045
 20
6.9632234745
 30
0.0
 10
12.003442476
 20
6.9640991051
 30
0.0
 10
12.0201100197
 20
6.9645819078
 30
0.0
 10
12.0367811156
 20
6.9649098972
 30
0.0
 10
12.0590117213
 20
6.9651730337
 30
0.0
 10
12.0868025176
 20
6.9651963795
 30
0.0
 10
12.1201484959
 20
6.9647515744
 30
0.0
 10
12.1534822629
 20
6.9637296904
 30
0.0
 10
12.1812353281
 20
6.9622202212
 30
0.0
 10
12.2033972423
 20
6.9604416017
 30
0.0
 10
12.2199880612
 20
6.9587612602
 30
0.0
 10
12.2365317652
 20
6.9566618127
 30
0.0
 10
12.25300404
 20
6.9540538227
 30
0.0
 10
12.2693674019
 20
6.9508247273
 30
0.0
 10
12.2855636894
 20
6.9468292085
 30
0.0
 10
12.3014955332
 20
6.9418747182
 30
0.0
 10
12.3144239651
 20
6.936724305
 30
0.0
 10
12.3243962483
 20
6.9317992956
 30
0.0
 10
12.3316279386
 20
6.9276342782
 30
0.0
 10
12.3385177753
 20
6.9229198482
 30
0.0
 10
12.3449268114
 20
6.9175608867
 30
0.0
 10
12.3506402133
 20
6.9114563038
 30
0.0
 10
12.3545521297
 20
6.9056627438
 30
0.0
 10
12.3569285957
 20
6.9006261571
 30
0.0
 10
12.3582692733
 20
6.8966647727
 30
0.0
 10
12.3591043076
 20
6.8925665111
 30
0.0
 10
12.3592945505
 20
6.8897819854
 30
0.0
 10
12.3592945505
 20
6.888391804
 30
0.0
  0
SPLINE
  5
3D6
100
AcDbEntity
  8
0
100
AcDbSpline
 62
7
  6
CONTINUOUS
 70
0
 71
3
 72
17
 73
13
 74
0
 42
0.0000001
 43
0.0000001
 44
0.0000000001
 40
0.0
 40
0.0
 40
0.0
 40
0.0
 40
0.0624970707
 40
0.1250016424
 40
0.1875205153
 40
0.2500463999
 40
0.3749588547
 40
0.4999381402
 40
0.6249447037
 40
0.7499598297
 40
0.8749817824
 40
1.0
 40
1.0
 40
1.0
 40
1.0
 10
11.7852950431
 20
6.888391804
 30
0.0
 10
11.7852950431
 20
6.8903852083
 30
0.0
 10
11.7856872847
 20
6.8943825206
 30
0.0
 10
11.7873796699
 20
6.9001505088
 30
0.0
 10
11.7900020911
 20
6.905554106
 30
0.0
 10
11.7944711759
 20
6.9121815232
 30
0.0
 10
11.8014494094
 20
6.9193974795
 30
0.0
 10
11.8110632083
 20
6.9265616932
 30
0.0
 10
11.8214386322
 20
6.9325548218
 30
0.0
 10
11.8322945743
 20
6.9376070671
 30
0.0
 10
11.843469782
 20
6.9418964547
 30
0.0
 10
11.851066629
 20
6.9443366218
 30
0.0
 10
11.8548901011
 20
6.9454688002
 30
0.0
  0
SPLINE
  5
3D7
100
AcDbEntity
  8
0
100
AcDbSpline
 62
7
  6
CONTINUOUS
 70
0
 71
3
 72
26
 73
22
 74
0
 42
0.0000001
 43
0.0000001
 44
0.0000000001
 40
0.0
 40
0.0
 40
0.0
 40
0.0
 40
0.111018395
 40
0.1664917466
 40
0.2219664257
 40
0.2774626809
 40
0.3330102235
 40
0.3886612813
 40
0.4445097501
 40
0.5007232359
 40
0.5575977347
 40
0.615654792
 40
0.6758237838
 40
0.7398060629
 40
0.7741903172
 40
0.8109556973
 40
0.8510086269
 40
0.8955155507
 40
0.9198119959
 40
0.9455150849
 40
1.0
 40
1.0
 40
1.0
 40
1.0
 10
12.6327148036
 20
6.9640321212
 30
0.0
 10
12.6407132114
 20
6.9645897108
 30
0.0
 10
12.6527345964
 20
6.9650674363
 30
0.0
 10
12.668764866
 20
6.9652031497
 30
0.0
 10
12.6807857347
 20
6.9650582442
 30
0.0
 10
12.6928059882
 20
6.9646526587
 30
0.0
 10
12.7048252743
 20
6.9639396157
 30
0.0
 10
12.716841912
 20
6.9628401518
 30
0.0
 10
12.7288526827
 20
6.9612417141
 30
0.0
 10
12.7408511924
 20
6.9589893791
 30
0.0
 10
12.7528248709
 20
6.9558730072
 30
0.0
 10
12.7647502804
 20
6.9516002545
 30
0.0
 10
12.7765760186
 20
6.9457490542
 30
0.0
 10
12.786017576
 20
6.939164599
 30
0.0
 10
12.7931698038
 20
6.9325022431
 30
0.0
 10
12.7984270993
 20
6.9264064084
 30
0.0
 10
12.8032923977
 20
6.9190891042
 30
0.0
 10
12.8066800383
 20
6.911957548
 30
0.0
 10
12.808855062
 20
6.9054799955
 30
0.0
 10
12.8106274319
 20
6.8981380949
 30
0.0
 10
12.8111872346
 20
6.8923267396
 30
0.0
 10
12.8111872346
 20
6.888391804
 30
0.0
  0
SPLINE
  5
3D8
100
AcDbEntity
  8
0
100
AcDbSpline
 62
7
  6
CONTINUOUS
 70
0
 71
3
 72
21
 73
17
 74
0
 42
0.0000001
 43
0.0000001
 44
0.0000000001
 40
0.0
 40
0.0
 40
0.0
 40
0.0
 40
0.0517881741
 40
0.1014929566
 40
0.1480096277
 40
0.1911812384
 40
0.2689060507
 40
0.3382761616
 40
0.3707609512
 40
0.4021223338
 40
0.4622273473
 40
0.5755984814
 40
0.6841149301
 40
0.7903117931
 40
0.8954092538
 40
1.0
 40
1.0
 40
1.0
 40
1.0
 10
12.5241873863
 20
6.888391804
 30
0.0
 10
12.5241873863
 20
6.8909237216
 30
0.0
 10
12.5244939601
 20
6.8958912612
 30
0.0
 10
12.5258096745
 20
6.903022943
 30
0.0
 10
12.5278046485
 20
6.9095543303
 30
0.0
 10
12.5310104804
 20
6.9170981675
 30
0.0
 10
12.5358400344
 20
6.9251107106
 30
0.0
 10
12.5415586014
 20
6.9318163636
 30
0.0
 10
12.5462851695
 20
6.9363027151
 30
0.0
 10
12.5509366874
 20
6.9401924585
 30
0.0
 10
12.5591593666
 20
6.9459431831
 30
0.0
 10
12.5715534162
 20
6.9521471157
 30
0.0
 10
12.5868123768
 20
6.9572062556
 30
0.0
 10
12.6021019532
 20
6.960572535
 30
0.0
 10
12.6173987477
 20
6.962764864
 30
0.0
 10
12.6276137548
 20
6.9636765139
 30
0.0
 10
12.6327148036
 20
6.9640321212
 30
0.0
  0
SPLINE
  5
3D9
100
AcDbEntity
  8
0
100
AcDbSpline
 62
7
  6
CONTINUOUS
 70
0
 71
3
 72
13
 73
9
 74
0
 42
0.0000001
 43
0.0000001
 44
0.0000000001
 40
0.0
 40
0.0
 40
0.0
 40
0.0
 40
0.1312486208
 40
0.2595907095
 40
0.5103155653
 40
0.6337778913
 40
0.7564091731
 40
1.0
 40
1.0
 40
1.0
 40
1.0
 10
11.3701782843
 20
6.830176495
 30
0.0
 10
11.3722443302
 20
6.8290216523
 30
0.0
 10
11.3764182006
 20
6.8268905108
 30
0.0
 10
11.3848870786
 20
6.8232761396
 30
0.0
 10
11.3935178961
 20
6.8204497446
 30
0.0
 10
11.4022035506
 20
6.8182463237
 30
0.0
 10
11.410841961
 20
6.8164037236
 30
0.0
 10
11.4173678707
 20
6.8153564194
 30
0.0
 10
11.4217213619
 20
6.8147697413
 30
0.0
  0
SPLINE
  5
3DA
100
AcDbEntity
  8
0
100
AcDbSpline
 62
7
  6
CONTINUOUS
 70
0
 71
3
 72
28
 73
24
 74
0
 42
0.0000001
 43
0.0000001
 44
0.0000000001
 40
0.0
 40
0.0
 40
0.0
 40
0.0
 40
0.0563100863
 40
0.1124683842
 40
0.1685546422
 40
0.2246115995
 40
0.2806647999
 40
0.336738073
 40
0.3928667319
 40
0.4491157004
 40
0.5056091283
 40
0.5625820033
 40
0.6204742443
 40
0.6801115312
 40
0.7430785565
 40
0.7767461838
 40
0.8126631375
 40
0.8517909216
 40
0.8954605379
 40
0.9194840213
 40
0.9450884759
 40
0.9721068228
 40
1.0
 40
1.0
 40
1.0
 40
1.0
 10
11.4217213619
 20
6.8147697413
 30
0.0
 10
11.4261296451
 20
6.8141756794
 30
0.0
 10
11.434965436
 20
6.8132141231
 30
0.0
 10
11.4482505396
 20
6.8122936747
 30
0.0
 10
11.4615366089
 20
6.811770813
 30
0.0
 10
11.4748227355
 20
6.8115743081
 30
0.0
 10
11.4881088566
 20
6.811677045
 30
0.0
 10
11.5013948456
 20
6.8120914513
 30
0.0
 10
11.5146802751
 20
6.8128776881
 30
0.0
 10
11.5279636732
 20
6.814141275
 30
0.0
 10
11.5412414828
 20
6.8160403976
 30
0.0
 10
11.5545054539
 20
6.8187987902
 30
0.0
 10
11.5677389774
 20
6.8227338383
 30
0.0
 10
11.5809021697
 20
6.8283058189
 30
0.0
 10
11.5914901413
 20
6.8347823159
 30
0.0
 10
11.5995599006
 20
6.8414814557
 30
0.0
 10
11.605523142
 20
6.8476907035
 30
0.0
 10
11.6111007941
 20
6.8552658699
 30
0.0
 10
11.6150367374
 20
6.8627766525
 30
0.0
 10
11.6175991666
 20
6.869695939
 30
0.0
 10
11.6191588652
 20
6.8755567043
 30
0.0
 10
11.6201687509
 20
6.8818471261
 30
0.0
 10
11.620402287
 20
6.8861884242
 30
0.0
 10
11.620402287
 20
6.8883918041
 30
0.0
  0
SPLINE
  5
3DB
100
AcDbEntity
  8
0
100
AcDbSpline
 62
7
  6
CONTINUOUS
 70
0
 71
3
 72
21
 73
17
 74
0
 42
0.0000001
 43
0.0000001
 44
0.0000000001
 40
0.0
 40
0.0
 40
0.0
 40
0.0
 40
0.0517779432
 40
0.1014778414
 40
0.1479956039
 40
0.1911724689
 40
0.2689129471
 40
0.3382985574
 40
0.3707899568
 40
0.4021570232
 40
0.4622705699
 40
0.5756484276
 40
0.6841608714
 40
0.790346447
 40
0.8954279772
 40
1.0
 40
1.0
 40
1.0
 40
1.0
 10
11.620402287
 20
6.8883918041
 30
0.0
 10
11.620402287
 20
6.8909205383
 30
0.0
 10
11.6200959315
 20
6.8958820228
 30
0.0
 10
11.6187836463
 20
6.9030057626
 30
0.0
 10
11.6167929381
 20
6.9095309431
 30
0.0
 10
11.6135935089
 20
6.9170691987
 30
0.0
 10
11.6087726733
 20
6.9250774212
 30
0.0
 10
11.6030634508
 20
6.9317811518
 30
0.0
 10
11.5983440967
 20
6.936267038
 30
0.0
 10
11.5936995713
 20
6.9401567052
 30
0.0
 10
11.5854891071
 20
6.9459081055
 30
0.0
 10
11.5731124056
 20
6.9521151468
 30
0.0
 10
11.5578735347
 20
6.9571795559
 30
0.0
 10
11.5426036992
 20
6.9605514052
 30
0.0
 10
11.5273264605
 20
6.9627491044
 30
0.0
 10
11.5171243492
 20
6.9636640712
 30
0.0
 10
11.5120297614
 20
6.9640212704
 30
0.0
  0
SPLINE
  5
3DC
100
AcDbEntity
  8
0
100
AcDbSpline
 62
7
  6
CONTINUOUS
 70
0
 71
3
 72
26
 73
22
 74
0
 42
0.0000001
 43
0.0000001
 44
0.0000000001
 40
0.0
 40
0.0
 40
0.0
 40
0.0
 40
0.1110294692
 40
0.1665078876
 40
0.2219874418
 40
0.2774883698
 40
0.3330402913
 40
0.3886952679
 40
0.4445469392
 40
0.5007625462
 40
0.5576375905
 40
0.6156929769
 40
0.6758572941
 40
0.7398310614
 40
0.7742094702
 40
0.8109680726
 40
0.8510138087
 40
0.8955145334
 40
0.9198091292
 40
0.9455117941
 40
1.0
 40
1.0
 40
1.0
 40
1.0
 10
11.5120297614
 20
6.9640212704
 30
0.0
 10
11.5040250395
 20
6.9645825091
 30
0.0
 10
11.4919939569
 20
6.9650640359
 30
0.0
 10
11.4759507004
 20
6.9652034321
 30
0.0
 10
11.4639201189
 20
6.9650609129
 30
0.0
 10
11.451890149
 20
6.9646576064
 30
0.0
 10
11.4398611346
 20
6.9639468991
 30
0.0
 10
11.4278347475
 20
6.9628499139
 30
0.0
 10
11.4158141906
 20
6.9612541133
 30
0.0
 10
11.4038058346
 20
6.9590045193
 30
0.0
 10
11.391822216
 20
6.9558908689
 30
0.0
 10
11.3798867171
 20
6.9516206194
 30
0.0
 10
11.3680506597
 20
6.9457713841
 30
0.0
 10
11.3586002723
 20
6.9391875493
 30
0.0
 10
11.3514409965
 20
6.9325247038
 30
0.0
 10
11.3461782743
 20
6.926427803
 30
0.0
 10
11.3413075274
 20
6.9191082817
 30
0.0
 10
11.3379157222
 20
6.9119736164
 30
0.0
 10
11.3357377934
 20
6.9054925058
 30
0.0
 10
11.3339627665
 20
6.8981455817
 30
0.0
 10
11.3334022712
 20
6.8923298008
 30
0.0
 10
11.3334022712
 20
6.888391804
 30
0.0
  0
SPLINE
  5
3DD
100
AcDbEntity
  8
0
100
AcDbSpline
 62
7
  6
CONTINUOUS
 70
0
 71
3
 72
15
 73
11
 74
0
 42
0.0000001
 43
0.0000001
 44
0.0000000001
 40
0.0
 40
0.0
 40
0.0
 40
0.0
 40
0.169347877
 40
0.2489443653
 40
0.3239777162
 40
0.4610253334
 40
0.5841352515
 40
0.6971240653
 40
0.8028718954
 40
1.0
 40
1.0
 40
1.0
 40
1.0
 10
11.3334022712
 20
6.888391804
 30
0.0
 10
11.3334022712
 20
6.8843126185
 30
0.0
 10
11.3340033854
 20
6.8782937357
 30
0.0
 10
11.3359010754
 20
6.8707163518
 30
0.0
 10
11.338214683
 20
6.8640735582
 30
0.0
 10
11.3417996175
 20
6.8567986968
 30
0.0
 10
11.346922283
 20
6.8493809243
 30
0.0
 10
11.3524357652
 20
6.8432380769
 30
0.0
 10
11.359919054
 20
6.8365573027
 30
0.0
 10
11.3660334935
 20
6.8324932787
 30
0.0
 10
11.3701782843
 20
6.830176495
 30
0.0
  0
SPLINE
  5
3DE
100
AcDbEntity
  8
0
100
AcDbSpline
 62
7
  6
CONTINUOUS
 70
0
 71
3
 72
38
 73
34
 74
0
 42
0.0000001
 43
0.0000001
 44
0.0000000001
 40
0.0
 40
0.0
 40
0.0
 40
0.0
 40
0.0312506822
 40
0.062511669
 40
0.0937646934
 40
0.1250160355
 40
0.1875140487
 40
0.2500121427
 40
0.2812615767
 40
0.3125104589
 40
0.3750075076
 40
0.4375041805
 40
0.5000007609
 40
0.5624971708
 40
0.6249930852
 40
0.6562420544
 40
0.6874911539
 40
0.7187401916
 40
0.7499892613
 40
0.781238294
 40
0.8124868965
 40
0.8437343437
 40
0.8749790708
 40
0.890606009
 40
0.906233216
 40
0.9218599876
 40
0.9374860968
 40
0.9531104321
 40
0.9687300889
 40
0.9765475904
 40
0.9843648475
 40
0.9921841141
 40
1.0
 40
1.0
 40
1.0
 40
1.0
 10
11.8588468187
 20
6.830176495
 30
0.0
 10
11.8641587638
 20
6.8286919053
 30
0.0
 10
11.8748732193
 20
6.8260342004
 30
0.0
 10
11.8911105893
 20
6.8228168412
 30
0.0
 10
11.9074555962
 20
6.8202064674
 30
0.0
 10
11.929342077
 20
6.8174080225
 30
0.0
 10
11.9568169221
 20
6.8149383323
 30
0.0
 10
11.984354033
 20
6.8134103997
 30
0.0
 10
12.0063999163
 20
6.8125879082
 30
0.0
 10
12.0284527435
 20
6.8119862454
 30
0.0
 10
12.0560269018
 20
6.8115997533
 30
0.0
 10
12.089118426
 20
6.8116029471
 30
0.0
 10
12.1222068576
 20
6.8120783383
 30
0.0
 10
12.1552823683
 20
6.8131310687
 30
0.0
 10
12.1828192888
 20
6.8146690594
 30
0.0
 10
12.2048072965
 20
6.8164711227
 30
0.0
 10
12.2212670132
 20
6.8181695815
 30
0.0
 10
12.2376788047
 20
6.8202867902
 30
0.0
 10
12.2540181969
 20
6.8229115443
 30
0.0
 10
12.2702474681
 20
6.82615573
 30
0.0
 10
12.2863081988
 20
6.8301635496
 30
0.0
 10
12.3021028129
 20
6.8351259175
 30
0.0
 10
12.3149152346
 20
6.8402775858
 30
0.0
 10
12.3247939588
 20
6.8451981556
 30
0.0
 10
12.3319550773
 20
6.8493566375
 30
0.0
 10
12.3387743591
 20
6.8540600088
 30
0.0
 10
12.3451135896
 20
6.8594018423
 30
0.0
 10
12.3507596468
 20
6.865480948
 30
0.0
 10
12.3546206467
 20
6.8712434028
 30
0.0
 10
12.356963865
 20
6.8762479746
 30
0.0
 10
12.3582848968
 20
6.8801817334
 30
0.0
 10
12.3591072727
 20
6.8842494119
 30
0.0
 10
12.3592945505
 20
6.8870123609
 30
0.0
 10
12.3592945505
 20
6.888391804
 30
0.0
  0
SPLINE
  5
3DF
100
AcDbEntity
  8
0
100
AcDbSpline
 62
7
  6
CONTINUOUS
 70
0
 71
3
 72
17
 73
13
 74
0
 42
0.0000001
 43
0.0000001
 44
0.0000000001
 40
0.0
 40
0.0
 40
0.0
 40
0.0
 40
0.0624940745
 40
0.124996575
 40
0.1875159453
 40
0.2500425669
 40
0.3749545904
 40
0.4999352941
 40
0.6249429866
 40
0.749958851
 40
0.8749813926
 40
1.0
 40
1.0
 40
1.0
 40
1.0
 10
11.7852950431
 20
6.888391804
 30
0.0
 10
11.7852950431
 20
6.8863128191
 30
0.0
 10
11.7857221889
 20
6.8821429914
 30
0.0
 10
11.7875584449
 20
6.8761462305
 30
0.0
 10
11.7903879113
 20
6.8705557885
 30
0.0
 10
11.7951830517
 20
6.8637349336
 30
0.0
 10
11.8026182628
 20
6.8563630588
 30
0.0
 10
11.8127950321
 20
6.8490974434
 30
0.0
 10
11.8237342829
 20
6.8430561028
 30
0.0
 10
11.8351495918
 20
6.8379915538
 30
0.0
 10
11.8468787658
 20
6.8337151706
 30
0.0
 10
11.8548413286
 20
6.8312959548
 30
0.0
 10
11.8588468187
 20
6.830176495
 30
0.0
  0
SPLINE
  5
3E0
100
AcDbEntity
  8
0
100
AcDbSpline
 62
7
  6
CONTINUOUS
 70
0
 71
3
 72
9
 73
5
 74
0
 42
0.0000001
 43
0.0000001
 44
0.0000000001
 40
0.0
 40
0.0
 40
0.0
 40
0.0
 40
0.4946118089
 40
1.0
 40
1.0
 40
1.0
 40
1.0
 10
12.4906140868
 20
9.3759411012
 30
0.0
 10
12.4952091645
 20
9.3749280337
 30
0.0
 10
12.5043719659
 20
9.3722574795
 30
0.0
 10
12.5131159206
 20
9.3684407752
 30
0.0
 10
12.5174000792
 20
9.3662584968
 30
0.0
  0
SPLINE
  5
3E1
100
AcDbEntity
  8
0
100
AcDbSpline
 62
7
  6
CONTINUOUS
 70
0
 71
3
 72
31
 73
27
 74
0
 42
0.0000001
 43
0.0000001
 44
0.0000000001
 40
0.0
 40
0.0
 40
0.0
 40
0.0
 40
0.0308313946
 40
0.0608598693
 40
0.0903408813
 40
0.1194545884
 40
0.1770201028
 40
0.2341432018
 40
0.2626268748
 40
0.291081893
 40
0.3479451769
 40
0.4047899232
 40
0.4616535011
 40
0.518590222
 40
0.5757158753
 40
0.6332890072
 40
0.6918771966
 40
0.7527244353
 40
0.7848133154
 40
0.8187670517
 40
0.8555928995
 40
0.8968874838
 40
0.9199292413
 40
0.9449076228
 40
0.9718057414
 40
1.0
 40
1.0
 40
1.0
 40
1.0
 10
12.5609632145
 20
6.830176495
 30
0.0
 10
12.5635742679
 20
6.8287170135
 30
0.0
 10
12.5688687403
 20
6.8260809363
 30
0.0
 10
12.5770216424
 20
6.8228424577
 30
0.0
 10
12.5852166621
 20
6.8202208101
 30
0.0
 10
12.596139283
 20
6.8174242126
 30
0.0
 10
12.6098870067
 20
6.8149459751
 30
0.0
 10
12.6236994648
 20
6.8134117786
 30
0.0
 10
12.6347357074
 20
6.812588163
 30
0.0
 10
12.6457610401
 20
6.8119864691
 30
0.0
 10
12.6595508148
 20
6.8115997457
 30
0.0
 10
12.6761016399
 20
6.8116029429
 30
0.0
 10
12.6926534161
 20
6.812078754
 30
0.0
 10
12.7092075897
 20
6.8131329305
 30
0.0
 10
12.7257648985
 20
6.8149853072
 30
0.0
 10
12.7423253262
 20
6.8179927301
 30
0.0
 10
12.7588754956
 20
6.8227040189
 30
0.0
 10
12.7723863614
 20
6.8286924835
 30
0.0
 10
12.7828128362
 20
6.835279811
 30
0.0
 10
12.7905848831
 20
6.8415855605
 30
0.0
 10
12.7980089424
 20
6.8495861054
 30
0.0
 10
12.8034047568
 20
6.8578590871
 30
0.0
 10
12.8070253123
 20
6.8657472144
 30
0.0
 10
12.8093078171
 20
6.872666413
 30
0.0
 10
12.8108296209
 20
6.880304361
 30
0.0
 10
12.8111872346
 20
6.8856563913
 30
0.0
 10
12.8111872346
 20
6.888391804
 30
0.0
  0
SPLINE
  5
3E2
100
AcDbEntity
  8
0
100
AcDbSpline
 62
7
  6
CONTINUOUS
 70
0
 71
3
 72
15
 73
11
 74
0
 42
0.0000001
 43
0.0000001
 44
0.0000000001
 40
0.0
 40
0.0
 40
0.0
 40
0.0
 40
0.1693485096
 40
0.2489448559
 40
0.3239780659
 40
0.4610255233
 40
0.5841353507
 40
0.6971241154
 40
0.8028719185
 40
1.0
 40
1.0
 40
1.0
 40
1.0
 10
12.5241873863
 20
6.888391804
 30
0.0
 10
12.5241873863
 20
6.8843126044
 30
0.0
 10
12.5247882876
 20
6.8782936896
 30
0.0
 10
12.5266860275
 20
6.870716305
 30
0.0
 10
12.5289996223
 20
6.8640735225
 30
0.0
 10
12.5325845633
 20
6.8567986755
 30
0.0
 10
12.5377072234
 20
6.849380912
 30
0.0
 10
12.5432207027
 20
6.8432380702
 30
0.0
 10
12.5507039881
 20
6.8365572997
 30
0.0
 10
12.5568184252
 20
6.8324932778
 30
0.0
 10
12.5609632145
 20
6.830176495
 30
0.0
  0
SPLINE
  5
3E3
100
AcDbEntity
  8
0
100
AcDbSpline
 62
9
  6
CONTINUOUS
 70
0
 71
3
 72
14
 73
10
 74
0
 42
0.0000001
 43
0.0000001
 44
0.0000000001
 40
0.0
 40
0.0
 40
0.0
 40
0.0
 40
0.1152711
 40
0.2341475274
 40
0.3563199506
 40
0.4813745322
 40
0.7380947636
 40
0.8688171871
 40
1.0
 40
1.0
 40
1.0
 40
1.0
 10
12.740180969
 20
9.0125658664
 30
0.0
 10
12.7363528793
 20
9.0178756324
 30
0.0
 10
12.7290878009
 20
9.0290381095
 30
0.0
 10
12.7195831336
 20
9.0469270308
 30
0.0
 10
12.7113756275
 20
9.0660543631
 30
0.0
 10
12.7021976296
 20
9.0931839298
 30
0.0
 10
12.696051207
 20
9.1217602031
 30
0.0
 10
12.6929525065
 20
9.1510632822
 30
0.0
 10
12.6924270924
 20
9.1659424057
 30
0.0
 10
12.6924270924
 20
9.173391804
 30
0.0
  0
SPLINE
  5
3E4
100
AcDbEntity
  8
0
100
AcDbSpline
 62
9
  6
CONTINUOUS
 70
0
 71
3
 72
12
 73
8
 74
0
 42
0.0000001
 43
0.0000001
 44
0.0000000001
 40
0.0
 40
0.0
 40
0.0
 40
0.0
 40
0.2340222494
 40
0.4811437329
 40
0.7380060526
 40
0.8687891491
 40
1.0
 40
1.0
 40
1.0
 40
1.0
 10
12.7105942152
 20
9.2931811811
 30
0.0
 10
12.7048071383
 20
9.2851559735
 30
0.0
 10
12.6944972218
 20
9.2674722916
 30
0.0
 10
12.6833902974
 20
9.2381897856
 30
0.0
 10
12.6777253708
 20
9.2118484346
 30
0.0
 10
12.6754171721
 20
9.190020543
 30
0.0
 10
12.6750253781
 20
9.178939225
 30
0.0
 10
12.6750253781
 20
9.173391804
 30
0.0
  0
SPLINE
  5
3E5
100
AcDbEntity
  8
0
100
AcDbSpline
 62
7
  6
CONTINUOUS
 70
0
 71
3
 72
9
 73
5
 74
0
 42
0.0000001
 43
0.0000001
 44
0.0000000001
 40
0.0
 40
0.0
 40
0.0
 40
0.0
 40
0.5053683627
 40
1.0
 40
1.0
 40
1.0
 40
1.0
 10
12.51731508
 20
8.980481849
 30
0.0
 10
12.5130414015
 20
8.9783090914
 30
0.0
 10
12.5043196252
 20
8.9745086825
 30
0.0
 10
12.495181704
 20
8.9718489157
 30
0.0
 10
12.4905991778
 20
8.9708392752
 30
0.0
  0
SPLINE
  5
3E6
100
AcDbEntity
  8
0
100
AcDbSpline
 62
7
  6
CONTINUOUS
 70
0
 71
3
 72
11
 73
7
 74
0
 42
0.0000001
 43
0.0000001
 44
0.0000000001
 40
0.0
 40
0.0
 40
0.0
 40
0.0
 40
0.2314194308
 40
0.4757126832
 40
0.7333307057
 40
1.0
 40
1.0
 40
1.0
 40
1.0
 10
11.5444325709
 20
7.8476704445
 30
0.0
 10
11.5413903077
 20
7.8501767497
 30
0.0
 10
11.5356205564
 20
7.8559530808
 30
0.0
 10
11.5287534028
 20
7.8665000896
 30
0.0
 10
11.5241738435
 20
7.878882834
 30
0.0
 10
11.5230994427
 20
7.8878497132
 30
0.0
 10
11.5230994427
 20
7.892391804
 30
0.0
  0
SPLINE
  5
3E7
100
AcDbEntity
  8
0
100
AcDbSpline
 62
7
  6
CONTINUOUS
 70
0
 71
3
 72
11
 73
7
 74
0
 42
0.0000001
 43
0.0000001
 44
0.0000000001
 40
0.0
 40
0.0
 40
0.0
 40
0.0
 40
0.2666693355
 40
0.5242873372
 40
0.768580576
 40
1.0
 40
1.0
 40
1.0
 40
1.0
 10
11.5230994427
 20
7.892391804
 30
0.0
 10
11.5230994427
 20
7.8969338956
 30
0.0
 10
11.5241738437
 20
7.9059007751
 30
0.0
 10
11.5287534035
 20
7.9182835195
 30
0.0
 10
11.5356205568
 20
7.9288305277
 30
0.0
 10
11.5413903078
 20
7.9346068584
 30
0.0
 10
11.5444325709
 20
7.9371131636
 30
0.0
  0
SPLINE
  5
3E8
100
AcDbEntity
  8
0
100
AcDbSpline
 62
9
  6
CONTINUOUS
 70
0
 71
3
 72
22
 73
18
 74
0
 42
0.0000001
 43
0.0000001
 44
0.0000000001
 40
0.0
 40
0.0
 40
0.0
 40
0.0
 40
0.0515218352
 40
0.1035257963
 40
0.1564640586
 40
0.2107301729
 40
0.2666411893
 40
0.3244304775
 40
0.3842353654
 40
0.4461165358
 40
0.5100452695
 40
0.5759308895
 40
0.6436053887
 40
0.7128498258
 40
0.8549719929
 40
0.9273461955
 40
1.0
 40
1.0
 40
1.0
 40
1.0
 10
12.4870170332
 20
8.9773918155
 30
0.0
 10
12.4825091858
 20
8.97739195
 30
0.0
 10
12.4734393448
 20
8.9780225678
 30
0.0
 10
12.4600005363
 20
8.9808327054
 30
0.0
 10
12.4468291138
 20
8.9854884306
 30
0.0
 10
12.434053873
 20
8.9919314351
 30
0.0
 10
12.4217960407
 20
9.0000989357
 30
0.0
 10
12.4101713399
 20
9.0099087994
 30
0.0
 10
12.3992829243
 20
9.0212614793
 30
0.0
 10
12.3892375186
 20
9.0340532533
 30
0.0
 10
12.380119115
 20
9.0481567525
 30
0.0
 10
12.3720213458
 20
9.0634436266
 30
0.0
 10
12.3650101079
 20
9.0797651422
 30
0.0
 10
12.3571386008
 20
9.1028956175
 30
0.0
 10
12.3518029401
 20
9.1272479747
 30
0.0
 10
12.3490172085
 20
9.152229881
 30
0.0
 10
12.3484806683
 20
9.1649205542
 30
0.0
 10
12.3484321708
 20
9.1712771354
 30
0.0
  0
SPLINE
  5
3E9
100
AcDbEntity
  8
0
100
AcDbSpline
 62
7
  6
CONTINUOUS
 70
0
 71
3
 72
13
 73
9
 74
0
 42
0.0000001
 43
0.0000001
 44
0.0000000001
 40
0.0
 40
0.0
 40
0.0
 40
0.0
 40
0.2356842843
 40
0.4810426206
 40
0.6078425533
 40
0.7370119128
 40
0.8680047936
 40
1.0
 40
1.0
 40
1.0
 40
1.0
 10
11.5508207309
 20
7.8476704445
 30
0.0
 10
11.5475846124
 20
7.850160183
 30
0.0
 10
11.5414441862
 20
7.8558843382
 30
0.0
 10
11.535356988
 20
7.8645896686
 30
0.0
 10
11.5316662101
 20
7.8724711515
 30
0.0
 10
11.5295706322
 20
7.8788577211
 30
0.0
 10
11.5282714216
 20
7.8855436251
 30
0.0
 10
11.5279772442
 20
7.8901050905
 30
0.0
 10
11.5279772442
 20
7.892391804
 30
0.0
  0
SPLINE
  5
3EA
100
AcDbEntity
  8
0
100
AcDbSpline
 62
7
  6
CONTINUOUS
 70
0
 71
3
 72
13
 73
9
 74
0
 42
0.0000001
 43
0.0000001
 44
0.0000000001
 40
0.0
 40
0.0
 40
0.0
 40
0.0
 40
0.1319952277
 40
0.262988128
 40
0.392157474
 40
0.5189573999
 40
0.7643157227
 40
1.0
 40
1.0
 40
1.0
 40
1.0
 10
11.5279772442
 20
7.892391804
 30
0.0
 10
11.5279772442
 20
7.8946785179
 30
0.0
 10
11.5282714216
 20
7.8992399841
 30
0.0
 10
11.5295706325
 20
7.9059258885
 30
0.0
 10
11.5316662107
 20
7.912312458
 30
0.0
 10
11.5353569885
 20
7.9201939403
 30
0.0
 10
11.5414441865
 20
7.9288992702
 30
0.0
 10
11.5475846125
 20
7.9346234251
 30
0.0
 10
11.5508207309
 20
7.9371131636
 30
0.0
  0
SPLINE
  5
3EB
100
AcDbEntity
  8
0
100
AcDbSpline
 62
7
  6
CONTINUOUS
 70
0
 71
3
 72
9
 73
5
 74
0
 42
0.0000001
 43
0.0000001
 44
0.0000000001
 40
0.0
 40
0.0
 40
0.0
 40
0.0
 40
0.5027296926
 40
1.0
 40
1.0
 40
1.0
 40
1.0
 10
12.4391848076
 20
8.9817585192
 30
0.0
 10
12.4439145481
 20
8.9803229631
 30
0.0
 10
12.4535399503
 20
8.9781348558
 30
0.0
 10
12.4633853545
 20
8.9773923674
 30
0.0
 10
12.4682744777
 20
8.9773924361
 30
0.0
  0
SPLINE
  5
3EC
100
AcDbEntity
  8
0
100
AcDbSpline
 62
7
  6
CONTINUOUS
 70
0
 71
3
 72
13
 73
9
 74
0
 42
0.0000001
 43
0.0000001
 44
0.0000000001
 40
0.0
 40
0.0
 40
0.0
 40
0.0
 40
0.2395801831
 40
0.4860961987
 40
0.6124135368
 40
0.7404678668
 40
0.869863856
 40
1.0
 40
1.0
 40
1.0
 40
1.0
 10
11.5614077256
 20
7.8476704445
 30
0.0
 10
11.5580020247
 20
7.8501468578
 30
0.0
 10
11.5515391601
 20
7.8558281095
 30
0.0
 10
11.5450670901
 20
7.8645513282
 30
0.0
 10
11.5411472479
 20
7.8724559997
 30
0.0
 10
11.5389268587
 20
7.8788458305
 30
0.0
 10
11.5375497799
 20
7.885536952
 30
0.0
 10
11.537237813
 20
7.8901045268
 30
0.0
 10
11.537237813
 20
7.892391804
 30
0.0
  0
SPLINE
  5
3ED
100
AcDbEntity
  8
0
100
AcDbSpline
 62
7
  6
CONTINUOUS
 70
0
 71
3
 72
13
 73
9
 74
0
 42
0.0000001
 43
0.0000001
 44
0.0000000001
 40
0.0
 40
0.0
 40
0.0
 40
0.0
 40
0.130136165
 40
0.2595321736
 40
0.3875864903
 40
0.5139038217
 40
0.7604198239
 40
1.0
 40
1.0
 40
1.0
 40
1.0
 10
11.537237813
 20
7.892391804
 30
0.0
 10
11.537237813
 20
7.8946790817
 30
0.0
 10
11.53754978
 20
7.8992466571
 30
0.0
 10
11.5389268591
 20
7.9059377791
 30
0.0
 10
11.5411472485
 20
7.9123276098
 30
0.0
 10
11.5450670906
 20
7.9202322807
 30
0.0
 10
11.5515391604
 20
7.9289554989
 30
0.0
 10
11.5580020248
 20
7.9346367503
 30
0.0
 10
11.5614077256
 20
7.9371131636
 30
0.0
  0
SPLINE
  5
3EE
100
AcDbEntity
  8
0
100
AcDbSpline
 62
7
  6
CONTINUOUS
 70
0
 71
3
 72
9
 73
5
 74
0
 42
0.0000001
 43
0.0000001
 44
0.0000000001
 40
0.0
 40
0.0
 40
0.0
 40
0.0
 40
0.4973639087
 40
1.0
 40
1.0
 40
1.0
 40
1.0
 10
12.4682744777
 20
9.369391172
 30
0.0
 10
12.4634706423
 20
9.3693911046
 30
0.0
 10
12.453799274
 20
9.3686746519
 30
0.0
 10
12.4443365154
 20
9.3665620809
 30
0.0
 10
12.4396840484
 20
9.3651752792
 30
0.0
  0
SPLINE
  5
3EF
100
AcDbEntity
  8
0
100
AcDbSpline
 62
7
  6
CONTINUOUS
 70
0
 71
3
 72
13
 73
9
 74
0
 42
0.0000001
 43
0.0000001
 44
0.0000000001
 40
0.0
 40
0.0
 40
0.0
 40
0.0
 40
0.2428690888
 40
0.4903902061
 40
0.616308104
 40
0.7434189053
 40
0.8714535967
 40
1.0
 40
1.0
 40
1.0
 40
1.0
 10
11.57610831
 20
7.8476704445
 30
0.0
 10
11.5725582789
 20
7.8501363347
 30
0.0
 10
11.56582267
 20
7.8557822647
 30
0.0
 10
11.5590213419
 20
7.8645186333
 30
0.0
 10
11.55490481
 20
7.8724427931
 30
0.0
 10
11.552577643
 20
7.8788352936
 30
0.0
 10
11.5511338254
 20
7.8855309724
 30
0.0
 10
11.5508065843
 20
7.8901040207
 30
0.0
 10
11.5508065843
 20
7.892391804
 30
0.0
  0
SPLINE
  5
3F0
100
AcDbEntity
  8
0
100
AcDbSpline
 62
7
  6
CONTINUOUS
 70
0
 71
3
 72
13
 73
9
 74
0
 42
0.0000001
 43
0.0000001
 44
0.0000000001
 40
0.0
 40
0.0
 40
0.0
 40
0.0
 40
0.1285464241
 40
0.2565811348
 40
0.383691923
 40
0.5096098143
 40
0.7571309182
 40
1.0
 40
1.0
 40
1.0
 40
1.0
 10
11.5508065843
 20
7.892391804
 30
0.0
 10
11.5508065843
 20
7.8946795877
 30
0.0
 10
11.5511338255
 20
7.8992526368
 30
0.0
 10
11.5525776434
 20
7.905948316
 30
0.0
 10
11.5549048106
 20
7.9123408164
 30
0.0
 10
11.5590213425
 20
7.9202649756
 30
0.0
 10
11.5658226704
 20
7.9290013437
 30
0.0
 10
11.572558279
 20
7.9346472735
 30
0.0
 10
11.57610831
 20
7.9371131636
 30
0.0
  0
SPLINE
  5
3F1
100
AcDbEntity
  8
0
100
AcDbSpline
 62
7
  6
CONTINUOUS
 70
0
 71
3
 72
13
 73
9
 74
0
 42
0.0000001
 43
0.0000001
 44
0.0000000001
 40
0.0
 40
0.0
 40
0.0
 40
0.0
 40
0.245972462
 40
0.4944038453
 40
0.6198400856
 40
0.7459798249
 40
0.8727454094
 40
1.0
 40
1.0
 40
1.0
 40
1.0
 10
11.5948041171
 20
7.8476704445
 30
0.0
 10
11.5915845564
 20
7.849827658
 30
0.0
 10
11.5854396843
 20
7.854680882
 30
0.0
 10
11.5789516984
 20
7.8620704539
 30
0.0
 10
11.5747362983
 20
7.8687421321
 30
0.0
 10
11.5721305569
 20
7.874118826
 30
0.0
 10
11.5701718409
 20
7.879794
 30
0.0
 10
11.5693438072
 20
7.8837226739
 30
0.0
 10
11.5690567014
 20
7.8857069887
 30
0.0
  0
SPLINE
  5
3F2
100
AcDbEntity
  8
0
100
AcDbSpline
 62
7
  6
CONTINUOUS
 70
0
 71
3
 72
13
 73
9
 74
0
 42
0.0000001
 43
0.0000001
 44
0.0000000001
 40
0.0
 40
0.0
 40
0.0
 40
0.0
 40
0.127254604
 40
0.2540201644
 40
0.3801598791
 40
0.5055961049
 40
0.7540274911
 40
1.0
 40
1.0
 40
1.0
 40
1.0
 10
11.5690567916
 20
7.8990772425
 30
0.0
 10
11.5693439201
 20
7.9010615274
 30
0.0
 10
11.5701719916
 20
7.9049901383
 30
0.0
 10
11.5721307399
 20
7.9106652156
 30
0.0
 10
11.5747364908
 20
7.9160418152
 30
0.0
 10
11.5789518769
 20
7.9227133771
 30
0.0
 10
11.5854398034
 20
7.9301028252
 30
0.0
 10
11.5915845985
 20
7.9349559783
 30
0.0
 10
11.5948041171
 20
7.9371131636
 30
0.0
  0
SPLINE
  5
3F3
100
AcDbEntity
  8
0
100
AcDbSpline
 62
7
  6
CONTINUOUS
 70
0
 71
3
 72
13
 73
9
 74
0
 42
0.0000001
 43
0.0000001
 44
0.0000000001
 40
0.0
 40
0.0
 40
0.0
 40
0.0
 40
0.2478148054
 40
0.4968920085
 40
0.6221540846
 40
0.7477919564
 40
0.8737638376
 40
1.0
 40
1.0
 40
1.0
 40
1.0
 10
11.6173446109
 20
7.8476704445
 30
0.0
 10
11.6140439798
 20
7.8498231424
 30
0.0
 10
11.6077460265
 20
7.8546612108
 30
0.0
 10
11.6010696922
 20
7.8620552934
 30
0.0
 10
11.5967321843
 20
7.8687353346
 30
0.0
 10
11.5940540503
 20
7.8741124314
 30
0.0
 10
11.5920405202
 20
7.8797888246
 30
0.0
 10
11.5911886218
 20
7.8837214763
 30
0.0
 10
11.5908934912
 20
7.8857069887
 30
0.0
  0
SPLINE
  5
3F4
100
AcDbEntity
  8
0
100
AcDbSpline
 62
7
  6
CONTINUOUS
 70
0
 71
3
 72
13
 73
9
 74
0
 42
0.0000001
 43
0.0000001
 44
0.0000000001
 40
0.0
 40
0.0
 40
0.0
 40
0.0
 40
0.1262361785
 40
0.2522080435
 40
0.3778458986
 40
0.5031079654
 40
0.7521851686
 40
1.0
 40
1.0
 40
1.0
 40
1.0
 10
11.5908935838
 20
7.8990772425
 30
0.0
 10
11.5911887378
 20
7.901062725
 30
0.0
 10
11.5920406751
 20
7.9049953137
 30
0.0
 10
11.5940542383
 20
7.9106716102
 30
0.0
 10
11.596732382
 20
7.9160486125
 30
0.0
 10
11.6010698753
 20
7.922728537
 30
0.0
 10
11.6077461483
 20
7.9301224958
 30
0.0
 10
11.6140440229
 20
7.9349604938
 30
0.0
 10
11.6173446109
 20
7.9371131636
 30
0.0
  0
SPLINE
  5
3F5
100
AcDbEntity
  8
0
100
AcDbSpline
 62
7
  6
CONTINUOUS
 70
0
 71
3
 72
13
 73
9
 74
0
 42
0.0000001
 43
0.0000001
 44
0.0000000001
 40
0.0
 40
0.0
 40
0.0
 40
0.0
 40
0.2489859113
 40
0.498443752
 40
0.6236391647
 40
0.7489905583
 40
0.8744610396
 40
1.0
 40
1.0
 40
1.0
 40
1.0
 10
11.6435482985
 20
7.8476704445
 30
0.0
 10
11.6397254032
 20
7.8501183535
 30
0.0
 10
11.6324781508
 20
7.8557009134
 30
0.0
 10
11.625051534
 20
7.8644571313
 30
0.0
 10
11.620559374
 20
7.8724171952
 30
0.0
 10
11.6180291839
 20
7.8788143995
 30
0.0
 10
11.6164581228
 20
7.885518925
 30
0.0
 10
11.6161016791
 20
7.8901029985
 30
0.0
 10
11.6161016791
 20
7.892391804
 30
0.0
  0
SPLINE
  5
3F6
100
AcDbEntity
  8
0
100
AcDbSpline
 62
7
  6
CONTINUOUS
 70
0
 71
3
 72
13
 73
9
 74
0
 42
0.0000001
 43
0.0000001
 44
0.0000000001
 40
0.0
 40
0.0
 40
0.0
 40
0.0
 40
0.1255389806
 40
0.2510094809
 40
0.376360862
 40
0.5015562683
 40
0.7510140959
 40
1.0
 40
1.0
 40
1.0
 40
1.0
 10
11.6161016791
 20
7.892391804
 30
0.0
 10
11.6161016791
 20
7.89468061
 30
0.0
 10
11.6164581229
 20
7.8992646842
 30
0.0
 10
11.6180291843
 20
7.9059692101
 30
0.0
 10
11.6205593747
 20
7.9123664143
 30
0.0
 10
11.6250515346
 20
7.9203264776
 30
0.0
 10
11.6324781512
 20
7.929082695
 30
0.0
 10
11.6397254033
 20
7.9346652547
 30
0.0
 10
11.6435482985
 20
7.9371131636
 30
0.0
  0
SPLINE
  5
3F7
100
AcDbEntity
  8
0
100
AcDbSpline
 62
9
  6
CONTINUOUS
 70
0
 71
3
 72
19
 73
15
 74
0
 42
0.0000001
 43
0.0000001
 44
0.0000000001
 40
0.0
 40
0.0
 40
0.0
 40
0.0
 40
0.1152557201
 40
0.1751134716
 40
0.2362666957
 40
0.2985632012
 40
0.3618227809
 40
0.4903666163
 40
0.6202360299
 40
0.6851277714
 40
0.7496676168
 40
0.8136333405
 40
0.8768170684
 40
1.0
 40
1.0
 40
1.0
 40
1.0
 10
11.4044084005
 20
9.3342177547
 30
0.0
 10
11.410951608
 20
9.3251418259
 30
0.0
 10
11.4197823352
 20
9.3105166
 30
0.0
 10
11.4294937746
 20
9.2897268148
 30
0.0
 10
11.4359139371
 20
9.2731143117
 30
0.0
 10
11.4413206659
 20
9.2558011327
 30
0.0
 10
11.4471688473
 20
9.2318227612
 30
0.0
 10
11.4517243476
 20
9.2008468947
 30
0.0
 10
11.4525742385
 20
9.1693948536
 30
0.0
 10
11.4510118254
 20
9.1442586803
 30
0.0
 10
11.4487304552
 20
9.1256118427
 30
0.0
 10
11.445346963
 20
9.1073002748
 30
0.0
 10
11.4394599442
 20
9.0837130519
 30
0.0
 10
11.4334146512
 20
9.0665873164
 30
0.0
 10
11.4286564351
 20
9.0556165344
 30
0.0
  0
SPLINE
  5
3F8
100
AcDbEntity
  8
0
100
AcDbSpline
 62
9
  6
CONTINUOUS
 70
0
 71
3
 72
9
 73
5
 74
0
 42
0.0000001
 43
0.0000001
 44
0.0000000001
 40
0.0
 40
0.0
 40
0.0
 40
0.0
 40
0.5092515093
 40
1.0
 40
1.0
 40
1.0
 40
1.0
 10
11.4286564351
 20
9.0556165344
 30
0.0
 10
11.4253142455
 20
9.0479106144
 30
0.0
 10
11.4180040987
 20
9.0330891706
 30
0.0
 10
11.4091420086
 20
9.0191317296
 30
0.0
 10
11.4044084005
 20
9.0125658534
 30
0.0
  0
SPLINE
  5
3F9
100
AcDbEntity
  8
0
100
AcDbSpline
 62
7
  6
CONTINUOUS
 70
0
 71
3
 72
13
 73
9
 74
0
 42
0.0000001
 43
0.0000001
 44
0.0000000001
 40
0.0
 40
0.0
 40
0.0
 40
0.0
 40
0.2497685569
 40
0.4994805072
 40
0.6245854685
 40
0.7497113769
 40
0.8748507066
 40
1.0
 40
1.0
 40
1.0
 40
1.0
 10
11.6732041915
 20
7.8476704445
 30
0.0
 10
11.6693458589
 20
7.8501161906
 30
0.0
 10
11.6620325191
 20
7.855690868
 30
0.0
 10
11.6545245187
 20
7.8644492045
 30
0.0
 10
11.6499832533
 20
7.8724138211
 30
0.0
 10
11.6474266009
 20
7.878811598
 30
0.0
 10
11.6458389176
 20
7.8855172899
 30
0.0
 10
11.6454786516
 20
7.8901028595
 30
0.0
 10
11.6454786516
 20
7.892391804
 30
0.0
  0
SPLINE
  5
3FA
100
AcDbEntity
  8
0
100
AcDbSpline
 62
7
  6
CONTINUOUS
 70
0
 71
3
 72
13
 73
9
 74
0
 42
0.0000001
 43
0.0000001
 44
0.0000000001
 40
0.0
 40
0.0
 40
0.0
 40
0.0
 40
0.1251493137
 40
0.2502886624
 40
0.3754145582
 40
0.5005195132
 40
0.7502314503
 40
1.0
 40
1.0
 40
1.0
 40
1.0
 10
11.6454786516
 20
7.892391804
 30
0.0
 10
11.6454786516
 20
7.894680749
 30
0.0
 10
11.6458389177
 20
7.8992663193
 30
0.0
 10
11.6474266014
 20
7.9059720116
 30
0.0
 10
11.649983254
 20
7.9123697884
 30
0.0
 10
11.6545245193
 20
7.9203344043
 30
0.0
 10
11.6620325195
 20
7.9290927404
 30
0.0
 10
11.669345859
 20
7.9346674175
 30
0.0
 10
11.6732041915
 20
7.9371131636
 30
0.0
  0
SPLINE
  5
3FB
100
AcDbEntity
  8
0
100
AcDbSpline
 62
9
  6
CONTINUOUS
 70
0
 71
3
 72
19
 73
15
 74
0
 42
0.0000001
 43
0.0000001
 44
0.0000000001
 40
0.0
 40
0.0
 40
0.0
 40
0.0
 40
0.11698168
 40
0.1780818911
 40
0.2406319889
 40
0.3043924956
 40
0.3690903796
 40
0.5
 40
0.6309096204
 40
0.6956075044
 40
0.7593680111
 40
0.8219181089
 40
0.88301832
 40
1.0
 40
1.0
 40
1.0
 40
1.0
 10
11.4339953079
 20
9.0536021923
 30
0.0
 10
11.4397806219
 20
9.0616281289
 30
0.0
 10
11.4474231977
 20
9.07472585
 30
0.0
 10
11.4554480914
 20
9.0934409824
 30
0.0
 10
11.4605349772
 20
9.1084716316
 30
0.0
 10
11.4645398179
 20
9.1241372832
 30
0.0
 10
11.4684066336
 20
9.1457465606
 30
0.0
 10
11.4703367355
 20
9.173391804
 30
0.0
 10
11.4684066336
 20
9.2010370475
 30
0.0
 10
11.4645398179
 20
9.2226463249
 30
0.0
 10
11.4605349772
 20
9.2383119765
 30
0.0
 10
11.4554480914
 20
9.2533426257
 30
0.0
 10
11.4474231977
 20
9.2720577581
 30
0.0
 10
11.4397806219
 20
9.2851554792
 30
0.0
 10
11.4339953079
 20
9.2931814158
 30
0.0
  0
SPLINE
  5
3FC
100
AcDbEntity
  8
0
100
AcDbSpline
 62
7
  6
CONTINUOUS
 70
0
 71
3
 72
13
 73
9
 74
0
 42
0.0000001
 43
0.0000001
 44
0.0000000001
 40
0.0
 40
0.0
 40
0.0
 40
0.0
 40
0.2499244116
 40
0.4996871353
 40
0.6247741396
 40
0.7498551365
 40
0.8749284379
 40
1.0
 40
1.0
 40
1.0
 40
1.0
 10
11.7060735049
 20
7.8476704445
 30
0.0
 10
11.7022080991
 20
7.8501157635
 30
0.0
 10
11.6948815781
 20
7.8556888774
 30
0.0
 10
11.6873573306
 20
7.8644476246
 30
0.0
 10
11.682806256
 20
7.8724131465
 30
0.0
 10
11.6802443195
 20
7.8788110365
 30
0.0
 10
11.678653316
 20
7.8855169616
 30
0.0
 10
11.678292286
 20
7.8901028316
 30
0.0
 10
11.678292286
 20
7.892391804
 30
0.0
  0
SPLINE
  5
3FD
100
AcDbEntity
  8
0
100
AcDbSpline
 62
7
  6
CONTINUOUS
 70
0
 71
3
 72
13
 73
9
 74
0
 42
0.0000001
 43
0.0000001
 44
0.0000000001
 40
0.0
 40
0.0
 40
0.0
 40
0.0
 40
0.1250715824
 40
0.2501449028
 40
0.3752258871
 40
0.5003128851
 40
0.7500755956
 40
1.0
 40
1.0
 40
1.0
 40
1.0
 10
11.678292286
 20
7.892391804
 30
0.0
 10
11.678292286
 20
7.8946807769
 30
0.0
 10
11.6786533161
 20
7.8992666476
 30
0.0
 10
11.6802443199
 20
7.9059725731
 30
0.0
 10
11.6828062567
 20
7.912370463
 30
0.0
 10
11.6873573313
 20
7.9203359843
 30
0.0
 10
11.6948815785
 20
7.929094731
 30
0.0
 10
11.7022080992
 20
7.9346678447
 30
0.0
 10
11.7060735049
 20
7.9371131636
 30
0.0
  0
SPLINE
  5
3FE
100
AcDbEntity
  8
0
100
AcDbSpline
 62
7
  6
CONTINUOUS
 70
0
 71
3
 72
10
 73
6
 74
0
 42
0.0000001
 43
0.0000001
 44
0.0000000001
 40
0.0
 40
0.0
 40
0.0
 40
0.0
 40
0.1874028641
 40
0.4214200982
 40
1.0
 40
1.0
 40
1.0
 40
1.0
 10
11.7060735049
 20
7.9371131636
 30
0.0
 10
11.7061730516
 20
7.9343209177
 30
0.0
 10
11.7063502851
 20
7.9280402214
 30
0.0
 10
11.7066257812
 20
7.9131334838
 30
0.0
 10
11.706700068
 20
7.9010179461
 30
0.0
 10
11.706700068
 20
7.892391804
 30
0.0
  0
SPLINE
  5
3FF
100
AcDbEntity
  8
0
100
AcDbSpline
 62
7
  6
CONTINUOUS
 70
0
 71
3
 72
10
 73
6
 74
0
 42
0.0000001
 43
0.0000001
 44
0.0000000001
 40
0.0
 40
0.0
 40
0.0
 40
0.0
 40
0.5785799225
 40
0.812597142
 40
1.0
 40
1.0
 40
1.0
 40
1.0
 10
11.706700068
 20
7.892391804
 30
0.0
 10
11.706700068
 20
7.8837656617
 30
0.0
 10
11.7066257812
 20
7.8716501239
 30
0.0
 10
11.7063502851
 20
7.8567433863
 30
0.0
 10
11.7061730516
 20
7.8504626903
 30
0.0
 10
11.7060735049
 20
7.8476704445
 30
0.0
  0
SPLINE
  5
400
100
AcDbEntity
  8
0
100
AcDbSpline
 62
7
  6
CONTINUOUS
 70
0
 71
3
 72
13
 73
9
 74
0
 42
0.0000001
 43
0.0000001
 44
0.0000000001
 40
0.0
 40
0.0
 40
0.0
 40
0.0
 40
0.249453734
 40
0.4990632959
 40
0.624204586
 40
0.7494212058
 40
0.8746938267
 40
1.0
 40
1.0
 40
1.0
 40
1.0
 10
11.7418915796
 20
7.8476704445
 30
0.0
 10
11.7380475179
 20
7.8501170571
 30
0.0
 10
11.7307607828
 20
7.855694899
 30
0.0
 10
11.7232855598
 20
7.8644523945
 30
0.0
 10
11.7187640779
 20
7.8724151811
 30
0.0
 10
11.7162180846
 20
7.8788127285
 30
0.0
 10
11.7146370977
 20
7.8855179503
 30
0.0
 10
11.7142783721
 20
7.8901029157
 30
0.0
 10
11.7142783721
 20
7.892391804
 30
0.0
  0
SPLINE
  5
401
100
AcDbEntity
  8
0
100
AcDbSpline
 62
7
  6
CONTINUOUS
 70
0
 71
3
 72
13
 73
9
 74
0
 42
0.0000001
 43
0.0000001
 44
0.0000000001
 40
0.0
 40
0.0
 40
0.0
 40
0.0
 40
0.1253061936
 40
0.2505788335
 40
0.3757954407
 40
0.5009367246
 40
0.7505462732
 40
1.0
 40
1.0
 40
1.0
 40
1.0
 10
11.7142783721
 20
7.892391804
 30
0.0
 10
11.7142783721
 20
7.8946806928
 30
0.0
 10
11.7146370978
 20
7.8992656589
 30
0.0
 10
11.7162180851
 20
7.9059708811
 30
0.0
 10
11.7187640786
 20
7.9123684284
 30
0.0
 10
11.7232855604
 20
7.9203312143
 30
0.0
 10
11.7307607832
 20
7.9290887094
 30
0.0
 10
11.7380475181
 20
7.9346665511
 30
0.0
 10
11.7418915796
 20
7.9371131636
 30
0.0
  0
SPLINE
  5
402
100
AcDbEntity
  8
0
100
AcDbSpline
 62
7
  6
CONTINUOUS
 70
0
 71
3
 72
11
 73
7
 74
0
 42
0.0000001
 43
0.0000001
 44
0.0000000001
 40
0.0
 40
0.0
 40
0.0
 40
0.0
 40
0.1886638748
 40
0.4229097768
 40
0.6984765017
 40
1.0
 40
1.0
 40
1.0
 40
1.0
 10
11.7418915796
 20
7.9371131636
 30
0.0
 10
11.7423840216
 20
7.934334266
 30
0.0
 10
11.7432642874
 20
7.9280654646
 30
0.0
 10
11.7442234973
 20
7.9176584848
 30
0.0
 10
11.7448588248
 20
7.9055356251
 30
0.0
 10
11.7450059784
 20
7.8969022455
 30
0.0
 10
11.7450059784
 20
7.892391804
 30
0.0
  0
SPLINE
  5
403
100
AcDbEntity
  8
0
100
AcDbSpline
 62
7
  6
CONTINUOUS
 70
0
 71
3
 72
11
 73
7
 74
0
 42
0.0000001
 43
0.0000001
 44
0.0000000001
 40
0.0
 40
0.0
 40
0.0
 40
0.0
 40
0.3015235442
 40
0.5770902439
 40
0.8113361313
 40
1.0
 40
1.0
 40
1.0
 40
1.0
 10
11.7450059784
 20
7.892391804
 30
0.0
 10
11.7450059784
 20
7.8878813619
 30
0.0
 10
11.7448588248
 20
7.879247982
 30
0.0
 10
11.7442234972
 20
7.8671251222
 30
0.0
 10
11.7432642874
 20
7.856718143
 30
0.0
 10
11.7423840215
 20
7.850449342
 30
0.0
 10
11.7418915796
 20
7.8476704445
 30
0.0
  0
SPLINE
  5
404
100
AcDbEntity
  8
0
100
AcDbSpline
 62
7
  6
CONTINUOUS
 70
0
 71
3
 72
13
 73
9
 74
0
 42
0.0000001
 43
0.0000001
 44
0.0000000001
 40
0.0
 40
0.0
 40
0.0
 40
0.0
 40
0.2483557896
 40
0.4976100802
 40
0.6228786518
 40
0.7484115323
 40
0.8741481233
 40
1.0
 40
1.0
 40
1.0
 40
1.0
 10
11.7803700135
 20
7.8476704445
 30
0.0
 10
11.7765755535
 20
7.8501201166
 30
0.0
 10
11.7693813881
 20
7.8557090606
 30
0.0
 10
11.7620200528
 20
7.8644635044
 30
0.0
 10
11.7575672455
 20
7.8724198952
 30
0.0
 10
11.7550582746
 20
7.8788166333
 30
0.0
 10
11.7535005353
 20
7.8855202252
 30
0.0
 10
11.7531471551
 20
7.890103109
 30
0.0
 10
11.7531471551
 20
7.892391804
 30
0.0
  0
SPLINE
  5
405
100
AcDbEntity
  8
0
100
AcDbSpline
 62
7
  6
CONTINUOUS
 70
0
 71
3
 72
13
 73
9
 74
0
 42
0.0000001
 43
0.0000001
 44
0.0000000001
 40
0.0
 40
0.0
 40
0.0
 40
0.0
 40
0.1258518971
 40
0.2515885071
 40
0.377121375
 40
0.5023899402
 40
0.7516442176
 40
1.0
 40
1.0
 40
1.0
 40
1.0
 10
11.7531471551
 20
7.892391804
 30
0.0
 10
11.7531471551
 20
7.8946804994
 30
0.0
 10
11.7535005354
 20
7.8992633839
 30
0.0
 10
11.755058275
 20
7.9059669763
 30
0.0
 10
11.7575672462
 20
7.9123637143
 30
0.0
 10
11.7620200534
 20
7.9203201045
 30
0.0
 10
11.7693813885
 20
7.9290745478
 30
0.0
 10
11.7765755536
 20
7.9346634915
 30
0.0
 10
11.7803700135
 20
7.9371131636
 30
0.0
  0
SPLINE
  5
406
100
AcDbEntity
  8
0
100
AcDbSpline
 62
7
  6
CONTINUOUS
 70
0
 71
3
 72
12
 73
8
 74
0
 42
0.0000001
 43
0.0000001
 44
0.0000000001
 40
0.0
 40
0.0
 40
0.0
 40
0.0
 40
0.0904100463
 40
0.1915270419
 40
0.4262864654
 40
0.7006487303
 40
1.0
 40
1.0
 40
1.0
 40
1.0
 10
11.7803700135
 20
7.9371131636
 30
0.0
 10
11.7807821942
 20
7.9358142912
 30
0.0
 10
11.7815753014
 20
7.9330369661
 30
0.0
 10
11.7830408386
 20
7.9267792085
 30
0.0
 10
11.7845411828
 20
7.9176937671
 30
0.0
 10
11.7856830032
 20
7.9055539183
 30
0.0
 10
11.7859471713
 20
7.8969037716
 30
0.0
 10
11.7859471713
 20
7.892391804
 30
0.0
  0
SPLINE
  5
407
100
AcDbEntity
  8
0
100
AcDbSpline
 62
7
  6
CONTINUOUS
 70
0
 71
3
 72
12
 73
8
 74
0
 42
0.0000001
 43
0.0000001
 44
0.0000000001
 40
0.0
 40
0.0
 40
0.0
 40
0.0
 40
0.2993513153
 40
0.5737135554
 40
0.8084729643
 40
0.9095899541
 40
1.0
 40
1.0
 40
1.0
 40
1.0
 10
11.7859471713
 20
7.892391804
 30
0.0
 10
11.7859471713
 20
7.8878798358
 30
0.0
 10
11.7856830031
 20
7.8792296888
 30
0.0
 10
11.7845411826
 20
7.8670898399
 30
0.0
 10
11.7830408385
 20
7.8580043992
 30
0.0
 10
11.7815753014
 20
7.8517466419
 30
0.0
 10
11.7807821942
 20
7.8489693169
 30
0.0
 10
11.7803700135
 20
7.8476704445
 30
0.0
  0
SPLINE
  5
408
100
AcDbEntity
  8
0
100
AcDbSpline
 62
7
  6
CONTINUOUS
 70
0
 71
3
 72
13
 73
9
 74
0
 42
0.0000001
 43
0.0000001
 44
0.0000000001
 40
0.0
 40
0.0
 40
0.0
 40
0.0
 40
0.2466294128
 40
0.4953307744
 40
0.6208012959
 40
0.7468311379
 40
0.873294493
 40
1.0
 40
1.0
 40
1.0
 40
1.0
 10
11.8211989836
 20
7.8476704445
 30
0.0
 10
11.8174820158
 20
7.8501250491
 30
0.0
 10
11.81043279
 20
7.8557316553
 30
0.0
 10
11.8032492429
 20
7.8644809232
 30
0.0
 10
11.7989034447
 20
7.8724272181
 30
0.0
 10
11.7964522311
 20
7.8788226559
 30
0.0
 10
11.7949307257
 20
7.8855237162
 30
0.0
 10
11.7945856689
 20
7.8901034055
 30
0.0
 10
11.7945856689
 20
7.892391804
 30
0.0
  0
SPLINE
  5
409
100
AcDbEntity
  8
0
100
AcDbSpline
 62
7
  6
CONTINUOUS
 70
0
 71
3
 72
13
 73
9
 74
0
 42
0.0000001
 43
0.0000001
 44
0.0000000001
 40
0.0
 40
0.0
 40
0.0
 40
0.0
 40
0.1267055275
 40
0.2531689017
 40
0.379198731
 40
0.504669246
 40
0.7533705943
 40
1.0
 40
1.0
 40
1.0
 40
1.0
 10
11.7945856689
 20
7.892391804
 30
0.0
 10
11.7945856689
 20
7.894680203
 30
0.0
 10
11.7949307257
 20
7.899259893
 30
0.0
 10
11.7964522316
 20
7.9059609537
 30
0.0
 10
11.7989034454
 20
7.9123563914
 30
0.0
 10
11.8032492436
 20
7.9203026857
 30
0.0
 10
11.8104327904
 20
7.9290519531
 30
0.0
 10
11.8174820159
 20
7.9346585591
 30
0.0
 10
11.8211989836
 20
7.9371131636
 30
0.0
  0
SPLINE
  5
40A
100
AcDbEntity
  8
0
100
AcDbSpline
 62
7
  6
CONTINUOUS
 70
0
 71
3
 72
11
 73
7
 74
0
 42
0.0000001
 43
0.0000001
 44
0.0000000001
 40
0.0
 40
0.0
 40
0.0
 40
0.0
 40
0.1955903873
 40
0.4311653886
 40
0.7038091369
 40
1.0
 40
1.0
 40
1.0
 40
1.0
 10
11.8211989836
 20
7.9371131636
 30
0.0
 10
11.8224333681
 20
7.9343997054
 30
0.0
 10
11.8246854063
 20
7.9282025981
 30
0.0
 10
11.8271696804
 20
7.9177488361
 30
0.0
 10
11.8288133727
 20
7.9055810979
 30
0.0
 10
11.829193994
 20
7.8969061102
 30
0.0
 10
11.829193994
 20
7.892391804
 30
0.0
  0
SPLINE
  5
40B
100
AcDbEntity
  8
0
100
AcDbSpline
 62
7
  6
CONTINUOUS
 70
0
 71
3
 72
11
 73
7
 74
0
 42
0.0000001
 43
0.0000001
 44
0.0000000001
 40
0.0
 40
0.0
 40
0.0
 40
0.0
 40
0.2961909083
 40
0.568834632
 40
0.8044096189
 40
1.0
 40
1.0
 40
1.0
 40
1.0
 10
11.829193994
 20
7.892391804
 30
0.0
 10
11.829193994
 20
7.8878774972
 30
0.0
 10
11.8288133727
 20
7.8792025092
 30
0.0
 10
11.8271696802
 20
7.8670347709
 30
0.0
 10
11.8246854061
 20
7.8565810096
 30
0.0
 10
11.822433368
 20
7.8503839027
 30
0.0
 10
11.8211989836
 20
7.8476704445
 30
0.0
  0
SPLINE
  5
40C
100
AcDbEntity
  8
0
100
AcDbSpline
 62
7
  6
CONTINUOUS
 70
0
 71
3
 72
13
 73
9
 74
0
 42
0.0000001
 43
0.0000001
 44
0.0000000001
 40
0.0
 40
0.0
 40
0.0
 40
0.0
 40
0.2442743766
 40
0.492232694
 40
0.6179822166
 40
0.744689304
 40
0.8721386318
 40
1.0
 40
1.0
 40
1.0
 40
1.0
 10
11.8640497408
 20
7.8476704445
 30
0.0
 10
11.8604375939
 20
7.8501320274
 30
0.0
 10
11.8535850647
 20
7.8557631266
 30
0.0
 10
11.8466416625
 20
7.8645045794
 30
0.0
 10
11.8424400326
 20
7.8724370323
 30
0.0
 10
11.8400667726
 20
7.8788306462
 30
0.0
 10
11.8385941083
 20
7.8855283148
 30
0.0
 10
11.8382602566
 20
7.8901037955
 30
0.0
 10
11.8382602566
 20
7.892391804
 30
0.0
  0
SPLINE
  5
40D
100
AcDbEntity
  8
0
100
AcDbSpline
 62
7
  6
CONTINUOUS
 70
0
 71
3
 72
13
 73
9
 74
0
 42
0.0000001
 43
0.0000001
 44
0.0000000001
 40
0.0
 40
0.0
 40
0.0
 40
0.0
 40
0.1278613889
 40
0.2553107359
 40
0.3820178104
 40
0.5077673264
 40
0.7557256305
 40
1.0
 40
1.0
 40
1.0
 40
1.0
 10
11.8382602566
 20
7.892391804
 30
0.0
 10
11.8382602566
 20
7.8946798129
 30
0.0
 10
11.8385941084
 20
7.8992552944
 30
0.0
 10
11.840066773
 20
7.9059529634
 30
0.0
 10
11.8424400333
 20
7.9123465772
 30
0.0
 10
11.8466416631
 20
7.9202790295
 30
0.0
 10
11.853585065
 20
7.9290204818
 30
0.0
 10
11.860437594
 20
7.9346515808
 30
0.0
 10
11.8640497408
 20
7.9371131636
 30
0.0
  0
SPLINE
  5
40E
100
AcDbEntity
  8
0
100
AcDbSpline
 62
7
  6
CONTINUOUS
 70
0
 71
3
 72
11
 73
7
 74
0
 42
0.0000001
 43
0.0000001
 44
0.0000000001
 40
0.0
 40
0.0
 40
0.0
 40
0.0
 40
0.2006455419
 40
0.4372639004
 40
0.7077749519
 40
1.0
 40
1.0
 40
1.0
 40
1.0
 10
11.8640497408
 20
7.9371131636
 30
0.0
 10
11.8656235295
 20
7.9344403958
 30
0.0
 10
11.8685269248
 20
7.9283003798
 30
0.0
 10
11.8717627254
 20
7.9178174633
 30
0.0
 10
11.8739025097
 20
7.9056171636
 30
0.0
 10
11.8743982291
 20
7.8969091849
 30
0.0
 10
11.8743982291
 20
7.892391804
 30
0.0
  0
SPLINE
  5
40F
100
AcDbEntity
  8
0
100
AcDbSpline
 62
7
  6
CONTINUOUS
 70
0
 71
3
 72
11
 73
7
 74
0
 42
0.0000001
 43
0.0000001
 44
0.0000000001
 40
0.0
 40
0.0
 40
0.0
 40
0.0
 40
0.2922250928
 40
0.5627361202
 40
0.7993544644
 40
1.0
 40
1.0
 40
1.0
 40
1.0
 10
11.8743982291
 20
7.892391804
 30
0.0
 10
11.8743982291
 20
7.8878744225
 30
0.0
 10
11.8739025096
 20
7.8791664435
 30
0.0
 10
11.8717627251
 20
7.8669661437
 30
0.0
 10
11.8685269247
 20
7.8564832279
 30
0.0
 10
11.8656235295
 20
7.8503432122
 30
0.0
 10
11.8640497408
 20
7.8476704445
 30
0.0
  0
SPLINE
  5
410
100
AcDbEntity
  8
0
100
AcDbSpline
 62
7
  6
CONTINUOUS
 70
0
 71
3
 72
13
 73
9
 74
0
 42
0.0000001
 43
0.0000001
 44
0.0000000001
 40
0.0
 40
0.0
 40
0.0
 40
0.0
 40
0.2412937135
 40
0.4883302206
 40
0.6144385194
 40
0.7420015064
 40
0.8706897692
 40
1.0
 40
1.0
 40
1.0
 40
1.0
 10
11.908577257
 20
7.8476704445
 30
0.0
 10
11.9050965257
 20
7.850141296
 30
0.0
 10
11.8984916847
 20
7.8558040395
 30
0.0
 10
11.8918486139
 20
7.8645343295
 30
0.0
 10
11.8878267096
 20
7.872449167
 30
0.0
 10
11.8855508702
 20
7.8788403993
 30
0.0
 10
11.8841391488
 20
7.8855338778
 30
0.0
 10
11.8838192559
 20
7.8901042667
 30
0.0
 10
11.8838192559
 20
7.892391804
 30
0.0
  0
SPLINE
  5
411
100
AcDbEntity
  8
0
100
AcDbSpline
 62
7
  6
CONTINUOUS
 70
0
 71
3
 72
13
 73
9
 74
0
 42
0.0000001
 43
0.0000001
 44
0.0000000001
 40
0.0
 40
0.0
 40
0.0
 40
0.0
 40
0.1293102517
 40
0.2579985336
 40
0.3855615076
 40
0.5116697998
 40
0.7587062935
 40
1.0
 40
1.0
 40
1.0
 40
1.0
 10
11.8838192559
 20
7.892391804
 30
0.0
 10
11.8838192559
 20
7.8946793417
 30
0.0
 10
11.8841391489
 20
7.8992497314
 30
0.0
 10
11.8855508706
 20
7.9059432103
 30
0.0
 10
11.8878267103
 20
7.9123344425
 30
0.0
 10
11.8918486145
 20
7.9202492794
 30
0.0
 10
11.898491685
 20
7.9289795689
 30
0.0
 10
11.9050965258
 20
7.9346423121
 30
0.0
 10
11.908577257
 20
7.9371131636
 30
0.0
  0
SPLINE
  5
412
100
AcDbEntity
  8
0
100
AcDbSpline
 62
7
  6
CONTINUOUS
 70
0
 71
3
 72
11
 73
7
 74
0
 42
0.0000001
 43
0.0000001
 44
0.0000000001
 40
0.0
 40
0.0
 40
0.0
 40
0.0
 40
0.2062865346
 40
0.4441420009
 40
0.7122754277
 40
1.0
 40
1.0
 40
1.0
 40
1.0
 10
11.908577257
 20
7.9371131636
 30
0.0
 10
11.9104677623
 20
7.9344801262
 30
0.0
 10
11.9139887041
 20
7.9284064549
 30
0.0
 10
11.9179605716
 20
7.9178968041
 30
0.0
 10
11.920586863
 20
7.9056604864
 30
0.0
 10
11.9211958996
 20
7.8969128955
 30
0.0
 10
11.9211958996
 20
7.892391804
 30
0.0
  0
SPLINE
  5
413
100
AcDbEntity
  8
0
100
AcDbSpline
 62
7
  6
CONTINUOUS
 70
0
 71
3
 72
11
 73
7
 74
0
 42
0.0000001
 43
0.0000001
 44
0.0000000001
 40
0.0
 40
0.0
 40
0.0
 40
0.0
 40
0.2877246163
 40
0.5558580198
 40
0.7937134718
 40
1.0
 40
1.0
 40
1.0
 40
1.0
 10
11.9211958996
 20
7.892391804
 30
0.0
 10
11.9211958996
 20
7.8878707119
 30
0.0
 10
11.9205868629
 20
7.8791231207
 30
0.0
 10
11.9179605712
 20
7.866886803
 30
0.0
 10
11.9139887039
 20
7.8563771528
 30
0.0
 10
11.9104677623
 20
7.8503034818
 30
0.0
 10
11.908577257
 20
7.8476704445
 30
0.0
  0
SPLINE
  5
414
100
AcDbEntity
  8
0
100
AcDbSpline
 62
7
  6
CONTINUOUS
 70
0
 71
3
 72
13
 73
9
 74
0
 42
0.0000001
 43
0.0000001
 44
0.0000000001
 40
0.0
 40
0.0
 40
0.0
 40
0.0
 40
0.2376972067
 40
0.4836492249
 40
0.6101985599
 40
0.7387921857
 40
0.8689621005
 40
1.0
 40
1.0
 40
1.0
 40
1.0
 10
11.9544230027
 20
7.8476704445
 30
0.0
 10
11.9510994097
 20
7.8501531768
 30
0.0
 10
11.9447923919
 20
7.855855025
 30
0.0
 10
11.9385069758
 20
7.8645699142
 30
0.0
 10
11.934698331
 20
7.8724633889
 30
0.0
 10
11.9325384661
 20
7.8788516555
 30
0.0
 10
11.9311991659
 20
7.8855402308
 30
0.0
 10
11.9308958338
 20
7.8901048039
 30
0.0
 10
11.9308958338
 20
7.892391804
 30
0.0
  0
SPLINE
  5
415
100
AcDbEntity
  8
0
100
AcDbSpline
 62
7
  6
CONTINUOUS
 70
0
 71
3
 72
13
 73
9
 74
0
 42
0.0000001
 43
0.0000001
 44
0.0000000001
 40
0.0
 40
0.0
 40
0.0
 40
0.0
 40
0.1310379207
 40
0.2612078549
 40
0.3898014673
 40
0.5163507955
 40
0.7623028003
 40
1.0
 40
1.0
 40
1.0
 40
1.0
 10
11.9308958338
 20
7.892391804
 30
0.0
 10
11.9308958338
 20
7.8946788045
 30
0.0
 10
11.9311991659
 20
7.8992433783
 30
0.0
 10
11.9325384665
 20
7.9059319541
 30
0.0
 10
11.9346983316
 20
7.9123202206
 30
0.0
 10
11.9385069764
 20
7.9202136947
 30
0.0
 10
11.9447923923
 20
7.9289285834
 30
0.0
 10
11.9510994097
 20
7.9346304314
 30
0.0
 10
11.9544230027
 20
7.9371131636
 30
0.0
  0
SPLINE
  5
416
100
AcDbEntity
  8
0
100
AcDbSpline
 62
7
  6
CONTINUOUS
 70
0
 71
3
 72
11
 73
7
 74
0
 42
0.0000001
 43
0.0000001
 44
0.0000000001
 40
0.0
 40
0.0
 40
0.0
 40
0.0
 40
0.2121830631
 40
0.4514135189
 40
0.7170660183
 40
1.0
 40
1.0
 40
1.0
 40
1.0
 10
11.9544230027
 20
7.9371131636
 30
0.0
 10
11.9566079154
 20
7.934516354
 30
0.0
 10
11.9607068643
 20
7.9285133867
 30
0.0
 10
11.9653910692
 20
7.9179828227
 30
0.0
 10
11.9684903325
 20
7.9057095242
 30
0.0
 10
11.9692101941
 20
7.8969171214
 30
0.0
 10
11.9692101941
 20
7.892391804
 30
0.0
  0
SPLINE
  5
417
100
AcDbEntity
  8
0
100
AcDbSpline
 62
7
  6
CONTINUOUS
 70
0
 71
3
 72
11
 73
7
 74
0
 42
0.0000001
 43
0.0000001
 44
0.0000000001
 40
0.0
 40
0.0
 40
0.0
 40
0.0
 40
0.2829340251
 40
0.5485865017
 40
0.7878169433
 40
1.0
 40
1.0
 40
1.0
 40
1.0
 10
11.9692101941
 20
7.892391804
 30
0.0
 10
11.9692101941
 20
7.887866486
 30
0.0
 10
11.9684903324
 20
7.8790740829
 30
0.0
 10
11.9653910688
 20
7.8668007844
 30
0.0
 10
11.9607068641
 20
7.8562702211
 30
0.0
 10
11.9566079153
 20
7.850267254
 30
0.0
 10
11.9544230027
 20
7.8476704445
 30
0.0
  0
SPLINE
  5
418
100
AcDbEntity
  8
0
100
AcDbSpline
 62
7
  6
CONTINUOUS
 70
0
 71
3
 72
13
 73
9
 74
0
 42
0.0000001
 43
0.0000001
 44
0.0000000001
 40
0.0
 40
0.0
 40
0.0
 40
0.0
 40
0.2335063294
 40
0.4782330802
 40
0.6053071007
 40
0.7350984351
 40
0.8669766883
 40
1.0
 40
1.0
 40
1.0
 40
1.0
 10
12.0012178346
 20
7.8476704445
 30
0.0
 10
11.9980761423
 20
7.8501680712
 30
0.0
 10
11.9921161971
 20
7.8559166852
 30
0.0
 10
11.9862421141
 20
7.8646109024
 30
0.0
 10
11.9826778341
 20
7.8724793934
 30
0.0
 10
11.9806514092
 20
7.8788641018
 30
0.0
 10
11.9793952826
 20
7.8855471739
 30
0.0
 10
11.9791109347
 20
7.8901053899
 30
0.0
 10
11.9791109347
 20
7.892391804
 30
0.0
  0
SPLINE
  5
419
100
AcDbEntity
  8
0
100
AcDbSpline
 62
7
  6
CONTINUOUS
 70
0
 71
3
 72
13
 73
9
 74
0
 42
0.0000001
 43
0.0000001
 44
0.0000000001
 40
0.0
 40
0.0
 40
0.0
 40
0.0
 40
0.1330233332
 40
0.264901606
 40
0.3946929267
 40
0.5217669402
 40
0.7664936775
 40
1.0
 40
1.0
 40
1.0
 40
1.0
 10
11.9791109347
 20
7.892391804
 30
0.0
 10
11.9791109347
 20
7.8946782186
 30
0.0
 10
11.9793952826
 20
7.8992364352
 30
0.0
 10
11.9806514096
 20
7.9059195078
 30
0.0
 10
11.9826778347
 20
7.9123042161
 30
0.0
 10
11.9862421146
 20
7.9201727065
 30
0.0
 10
11.9921161974
 20
7.9288669233
 30
0.0
 10
11.9980761424
 20
7.934615537
 30
0.0
 10
12.0012178346
 20
7.9371131636
 30
0.0
  0
SPLINE
  5
41A
100
AcDbEntity
  8
0
100
AcDbSpline
 62
7
  6
CONTINUOUS
 70
0
 71
3
 72
11
 73
7
 74
0
 42
0.0000001
 43
0.0000001
 44
0.0000000001
 40
0.0
 40
0.0
 40
0.0
 40
0.0
 40
0.2180605148
 40
0.4587444194
 40
0.7219306612
 40
1.0
 40
1.0
 40
1.0
 40
1.0
 10
12.0012178346
 20
7.9371131636
 30
0.0
 10
12.0036752699
 20
7.9345479861
 30
0.0
 10
12.008309049
 20
7.9286155865
 30
0.0
 10
12.0136729992
 20
7.9180715851
 30
0.0
 10
12.0172271743
 20
7.905762569
 30
0.0
 10
12.0180545114
 20
7.8969217255
 30
0.0
 10
12.0180545114
 20
7.892391804
 30
0.0
  0
SPLINE
  5
41B
100
AcDbEntity
  8
0
100
AcDbSpline
 62
7
  6
CONTINUOUS
 70
0
 71
3
 72
11
 73
7
 74
0
 42
0.0000001
 43
0.0000001
 44
0.0000000001
 40
0.0
 40
0.0
 40
0.0
 40
0.0
 40
0.2780693815
 40
0.5412556011
 40
0.7819394918
 40
1.0
 40
1.0
 40
1.0
 40
1.0
 10
12.0180545114
 20
7.892391804
 30
0.0
 10
12.0180545114
 20
7.8878618819
 30
0.0
 10
12.0172271742
 20
7.879021038
 30
0.0
 10
12.0136729987
 20
7.866712022
 30
0.0
 10
12.0083090488
 20
7.8561680212
 30
0.0
 10
12.0036752698
 20
7.8502356219
 30
0.0
 10
12.0012178346
 20
7.8476704445
 30
0.0
  0
SPLINE
  5
41C
100
AcDbEntity
  8
0
100
AcDbSpline
 62
7
  6
CONTINUOUS
 70
0
 71
3
 72
11
 73
7
 74
0
 42
0.0000001
 43
0.0000001
 44
0.0000000001
 40
0.0
 40
0.0
 40
0.0
 40
0.0
 40
0.2289545253
 40
0.4725500069
 40
0.7311905935
 40
1.0
 40
1.0
 40
1.0
 40
1.0
 10
12.0485849673
 20
7.8476704445
 30
0.0
 10
12.0456489607
 20
7.850186453
 30
0.0
 10
12.0400839427
 20
7.8559908877
 30
0.0
 10
12.0334929374
 20
7.8665401691
 30
0.0
 10
12.0291041412
 20
7.8789103434
 30
0.0
 10
12.0280763381
 20
7.8878521567
 30
0.0
 10
12.0280763381
 20
7.892391804
 30
0.0
  0
SPLINE
  5
41D
100
AcDbEntity
  8
0
100
AcDbSpline
 62
7
  6
CONTINUOUS
 70
0
 71
3
 72
11
 73
7
 74
0
 42
0.0000001
 43
0.0000001
 44
0.0000000001
 40
0.0
 40
0.0
 40
0.0
 40
0.0
 40
0.268809448
 40
0.5274500135
 40
0.7710454815
 40
1.0
 40
1.0
 40
1.0
 40
1.0
 10
12.0280763381
 20
7.892391804
 30
0.0
 10
12.0280763381
 20
7.8969314521
 30
0.0
 10
12.0291041414
 20
7.9058732657
 30
0.0
 10
12.033492938
 20
7.91824344
 30
0.0
 10
12.040083943
 20
7.9287927208
 30
0.0
 10
12.0456489608
 20
7.9345971552
 30
0.0
 10
12.0485849673
 20
7.9371131636
 30
0.0
  0
SPLINE
  5
41E
100
AcDbEntity
  8
0
100
AcDbSpline
 62
7
  6
CONTINUOUS
 70
0
 71
3
 72
11
 73
7
 74
0
 42
0.0000001
 43
0.0000001
 44
0.0000000001
 40
0.0
 40
0.0
 40
0.0
 40
0.0
 40
0.223707052
 40
0.4658649056
 40
0.7266902074
 40
1.0
 40
1.0
 40
1.0
 40
1.0
 10
12.0485849673
 20
7.9371131636
 30
0.0
 10
12.0512931003
 20
7.934574842
 30
0.0
 10
12.0564164047
 20
7.9287094293
 30
0.0
 10
12.0624190123
 20
7.9181595348
 30
0.0
 10
12.0664051079
 20
7.9058178155
 30
0.0
 10
12.0673355629
 20
7.8969265588
 30
0.0
 10
12.0673355629
 20
7.892391804
 30
0.0
  0
SPLINE
  5
41F
100
AcDbEntity
  8
0
100
AcDbSpline
 62
7
  6
CONTINUOUS
 70
0
 71
3
 72
11
 73
7
 74
0
 42
0.0000001
 43
0.0000001
 44
0.0000000001
 40
0.0
 40
0.0
 40
0.0
 40
0.0
 40
0.2733098347
 40
0.5341351148
 40
0.7762929546
 40
1.0
 40
1.0
 40
1.0
 40
1.0
 10
12.0673355629
 20
7.892391804
 30
0.0
 10
12.0673355629
 20
7.8878570486
 30
0.0
 10
12.0664051077
 20
7.8789657916
 30
0.0
 10
12.0624190117
 20
7.8666240723
 30
0.0
 10
12.0564164044
 20
7.8560741784
 30
0.0
 10
12.0512931002
 20
7.850208766
 30
0.0
 10
12.0485849673
 20
7.8476704445
 30
0.0
  0
SPLINE
  5
420
100
AcDbEntity
  8
0
100
AcDbSpline
 62
7
  6
CONTINUOUS
 70
0
 71
3
 72
11
 73
7
 74
0
 42
0.0000001
 43
0.0000001
 44
0.0000000001
 40
0.0
 40
0.0
 40
0.0
 40
0.0
 40
0.2236910806
 40
0.4658446582
 40
0.7266766242
 40
1.0
 40
1.0
 40
1.0
 40
1.0
 10
12.0961430072
 20
7.8476704445
 30
0.0
 10
12.0934355733
 20
7.8502088377
 30
0.0
 10
12.0883136294
 20
7.8560744381
 30
0.0
 10
12.0823128172
 20
7.8666243256
 30
0.0
 10
12.078327943
 20
7.8789659552
 30
0.0
 10
12.0773977813
 20
7.8878570635
 30
0.0
 10
12.0773977813
 20
7.892391804
 30
0.0
  0
SPLINE
  5
421
100
AcDbEntity
  8
0
100
AcDbSpline
 62
7
  6
CONTINUOUS
 70
0
 71
3
 72
11
 73
7
 74
0
 42
0.0000001
 43
0.0000001
 44
0.0000000001
 40
0.0
 40
0.0
 40
0.0
 40
0.0
 40
0.2733234179
 40
0.5341553623
 40
0.7763089261
 40
1.0
 40
1.0
 40
1.0
 40
1.0
 10
12.0773977813
 20
7.892391804
 30
0.0
 10
12.0773977813
 20
7.8969265453
 30
0.0
 10
12.0783279431
 20
7.905817654
 30
0.0
 10
12.0823128177
 20
7.9181592835
 30
0.0
 10
12.0883136297
 20
7.9287091704
 30
0.0
 10
12.0934355734
 20
7.9345747705
 30
0.0
 10
12.0961430072
 20
7.9371131636
 30
0.0
  0
SPLINE
  5
422
100
AcDbEntity
  8
0
100
AcDbSpline
 62
7
  6
CONTINUOUS
 70
0
 71
3
 72
11
 73
7
 74
0
 42
0.0000001
 43
0.0000001
 44
0.0000000001
 40
0.0
 40
0.0
 40
0.0
 40
0.0
 40
0.2289692021
 40
0.4725687961
 40
0.7312032867
 40
1.0
 40
1.0
 40
1.0
 40
1.0
 10
12.0961430072
 20
7.9371131636
 30
0.0
 10
12.0990796472
 20
7.9345972143
 30
0.0
 10
12.1046458885
 20
7.928792948
 30
0.0
 10
12.1112385376
 20
7.9182436764
 30
0.0
 10
12.1156284658
 20
7.9058734256
 30
0.0
 10
12.1166565445
 20
7.8969314656
 30
0.0
 10
12.1166565445
 20
7.892391804
 30
0.0
  0
SPLINE
  5
423
100
AcDbEntity
  8
0
100
AcDbSpline
 62
7
  6
CONTINUOUS
 70
0
 71
3
 72
11
 73
7
 74
0
 42
0.0000001
 43
0.0000001
 44
0.0000000001
 40
0.0
 40
0.0
 40
0.0
 40
0.0
 40
0.2687967548
 40
0.5274312243
 40
0.7710308046
 40
1.0
 40
1.0
 40
1.0
 40
1.0
 10
12.1166565445
 20
7.892391804
 30
0.0
 10
12.1166565445
 20
7.8878521418
 30
0.0
 10
12.1156284656
 20
7.8789101814
 30
0.0
 10
12.111238537
 20
7.8665399307
 30
0.0
 10
12.1046458882
 20
7.8559906597
 30
0.0
 10
12.0990796471
 20
7.8501863937
 30
0.0
 10
12.0961430072
 20
7.8476704445
 30
0.0
  0
SPLINE
  5
424
100
AcDbEntity
  8
0
100
AcDbSpline
 62
7
  6
CONTINUOUS
 70
0
 71
3
 72
11
 73
7
 74
0
 42
0.0000001
 43
0.0000001
 44
0.0000000001
 40
0.0
 40
0.0
 40
0.0
 40
0.0
 40
0.2180436204
 40
0.458723229
 40
0.7219165481
 40
1.0
 40
1.0
 40
1.0
 40
1.0
 10
12.1435090237
 20
7.8476704445
 30
0.0
 10
12.1410523516
 20
7.8502357073
 30
0.0
 10
12.1364200672
 20
7.8561683088
 30
0.0
 10
12.1310580438
 20
7.8667122823
 30
0.0
 10
12.1275051645
 20
7.8790211979
 30
0.0
 10
12.126678135
 20
7.8878618964
 30
0.0
 10
12.126678135
 20
7.892391804
 30
0.0
  0
SPLINE
  5
425
100
AcDbEntity
  8
0
100
AcDbSpline
 62
7
  6
CONTINUOUS
 70
0
 71
3
 72
11
 73
7
 74
0
 42
0.0000001
 43
0.0000001
 44
0.0000000001
 40
0.0
 40
0.0
 40
0.0
 40
0.0
 40
0.2780834946
 40
0.5412767915
 40
0.7819563862
 40
1.0
 40
1.0
 40
1.0
 40
1.0
 10
12.126678135
 20
7.892391804
 30
0.0
 10
12.126678135
 20
7.8969217124
 30
0.0
 10
12.1275051646
 20
7.9057624113
 30
0.0
 10
12.1310580442
 20
7.9180713268
 30
0.0
 10
12.1364200675
 20
7.9286152996
 30
0.0
 10
12.1410523517
 20
7.9345479009
 30
0.0
 10
12.1435090237
 20
7.9371131636
 30
0.0
  0
SPLINE
  5
426
100
AcDbEntity
  8
0
100
AcDbSpline
 62
7
  6
CONTINUOUS
 70
0
 71
3
 72
13
 73
9
 74
0
 42
0.0000001
 43
0.0000001
 44
0.0000000001
 40
0.0
 40
0.0
 40
0.0
 40
0.0
 40
0.2335193838
 40
0.4782498868
 40
0.6053222555
 40
0.7351098649
 40
0.866982827
 40
1.0
 40
1.0
 40
1.0
 40
1.0
 10
12.1435090237
 20
7.9371131636
 30
0.0
 10
12.1466512816
 20
7.9346155851
 30
0.0
 10
12.1526123098
 20
7.9288671188
 30
0.0
 10
12.1584876664
 20
7.9201728325
 30
0.0
 10
12.1620527017
 20
7.9123042636
 30
0.0
 10
12.16407954
 20
7.9059195439
 30
0.0
 10
12.1653359241
 20
7.899236455
 30
0.0
 10
12.1656203306
 20
7.89467822
 30
0.0
 10
12.1656203306
 20
7.892391804
 30
0.0
  0
SPLINE
  5
427
100
AcDbEntity
  8
0
100
AcDbSpline
 62
7
  6
CONTINUOUS
 70
0
 71
3
 72
13
 73
9
 74
0
 42
0.0000001
 43
0.0000001
 44
0.0000000001
 40
0.0
 40
0.0
 40
0.0
 40
0.0
 40
0.1330171945
 40
0.2648901762
 40
0.3946777719
 40
0.5217501337
 40
0.7664806231
 40
1.0
 40
1.0
 40
1.0
 40
1.0
 10
12.1656203306
 20
7.892391804
 30
0.0
 10
12.1656203306
 20
7.8901053878
 30
0.0
 10
12.1653359241
 20
7.885547152
 30
0.0
 10
12.1640795396
 20
7.8788640626
 30
0.0
 10
12.1620527011
 20
7.8724793431
 30
0.0
 10
12.1584876659
 20
7.8646107748
 30
0.0
 10
12.1526123095
 20
7.855916489
 30
0.0
 10
12.1466512815
 20
7.8501680229
 30
0.0
 10
12.1435090237
 20
7.8476704445
 30
0.0
  0
SPLINE
  5
428
100
AcDbEntity
  8
0
100
AcDbSpline
 62
7
  6
CONTINUOUS
 70
0
 71
3
 72
11
 73
7
 74
0
 42
0.0000001
 43
0.0000001
 44
0.0000000001
 40
0.0
 40
0.0
 40
0.0
 40
0.0
 40
0.2121657749
 40
0.4513920773
 40
0.717051842
 40
1.0
 40
1.0
 40
1.0
 40
1.0
 10
12.1903016324
 20
7.8476704445
 30
0.0
 10
12.1881175464
 20
7.8502673533
 30
0.0
 10
12.1840202219
 20
7.8562705287
 30
0.0
 10
12.1793380514
 20
7.8668010421
 30
0.0
 10
12.1762401437
 20
7.8790742336
 30
0.0
 10
12.1755206008
 20
7.8878664996
 30
0.0
 10
12.1755206008
 20
7.892391804
 30
0.0
  0
SPLINE
  5
429
100
AcDbEntity
  8
0
100
AcDbSpline
 62
7
  6
CONTINUOUS
 70
0
 71
3
 72
11
 73
7
 74
0
 42
0.0000001
 43
0.0000001
 44
0.0000000001
 40
0.0
 40
0.0
 40
0.0
 40
0.0
 40
0.2829482014
 40
0.5486079432
 40
0.7878342316
 40
1.0
 40
1.0
 40
1.0
 40
1.0
 10
12.1755206008
 20
7.892391804
 30
0.0
 10
12.1755206008
 20
7.8969171092
 30
0.0
 10
12.1762401438
 20
7.9057093755
 30
0.0
 10
12.1793380519
 20
7.917982567
 30
0.0
 10
12.1840202221
 20
7.9285130798
 30
0.0
 10
12.1881175465
 20
7.9345162549
 30
0.0
 10
12.1903016324
 20
7.9371131636
 30
0.0
  0
SPLINE
  5
42A
100
AcDbEntity
  8
0
100
AcDbSpline
 62
7
  6
CONTINUOUS
 70
0
 71
3
 72
13
 73
9
 74
0
 42
0.0000001
 43
0.0000001
 44
0.0000000001
 40
0.0
 40
0.0
 40
0.0
 40
0.0
 40
0.2377085746
 40
0.4836639728
 40
0.6102119001
 40
0.7388022721
 40
0.8689675264
 40
1.0
 40
1.0
 40
1.0
 40
1.0
 10
12.1903016324
 20
7.9371131636
 30
0.0
 10
12.1936257202
 20
7.9346304701
 30
0.0
 10
12.1999336786
 20
7.9289287471
 30
0.0
 10
12.2062202179
 20
7.9202138058
 30
0.0
 10
12.2100295312
 20
7.9123202634
 30
0.0
 10
12.2121897603
 20
7.9059319873
 30
0.0
 10
12.2135292878
 20
7.8992433967
 30
0.0
 10
12.2138326718
 20
7.8946788058
 30
0.0
 10
12.2138326718
 20
7.892391804
 30
0.0
  0
SPLINE
  5
42B
100
AcDbEntity
  8
0
100
AcDbSpline
 62
7
  6
CONTINUOUS
 70
0
 71
3
 72
13
 73
9
 74
0
 42
0.0000001
 43
0.0000001
 44
0.0000000001
 40
0.0
 40
0.0
 40
0.0
 40
0.0
 40
0.1310324949
 40
0.2611977686
 40
0.3897881272
 40
0.5163360477
 40
0.7622914324
 40
1.0
 40
1.0
 40
1.0
 40
1.0
 10
12.2138326718
 20
7.892391804
 30
0.0
 10
12.2138326718
 20
7.8901048019
 30
0.0
 10
12.2135292877
 20
7.8855402103
 30
0.0
 10
12.2121897599
 20
7.8788516192
 30
0.0
 10
12.2100295306
 20
7.8724633433
 30
0.0
 10
12.2062202173
 20
7.8645698015
 30
0.0
 10
12.1999336783
 20
7.8558548607
 30
0.0
 10
12.1936257201
 20
7.8501531379
 30
0.0
 10
12.1903016324
 20
7.8476704445
 30
0.0
  0
SPLINE
  5
42C
100
AcDbEntity
  8
0
100
AcDbSpline
 62
7
  6
CONTINUOUS
 70
0
 71
3
 72
11
 73
7
 74
0
 42
0.0000001
 43
0.0000001
 44
0.0000000001
 40
0.0
 40
0.0
 40
0.0
 40
0.0
 40
0.2062695618
 40
0.4441211906
 40
0.7122617653
 40
1.0
 40
1.0
 40
1.0
 40
1.0
 10
12.2361440657
 20
7.8476704445
 30
0.0
 10
12.2342544514
 20
7.8503035935
 30
0.0
 10
12.2307352554
 20
7.856377467
 30
0.0
 10
12.2267655046
 20
7.8668870471
 30
0.0
 10
12.2241406142
 20
7.8791232571
 30
0.0
 10
12.2235319059
 20
7.8878707242
 30
0.0
 10
12.2235319059
 20
7.892391804
 30
0.0
  0
SPLINE
  5
42D
100
AcDbEntity
  8
0
100
AcDbSpline
 62
7
  6
CONTINUOUS
 70
0
 71
3
 72
11
 73
7
 74
0
 42
0.0000001
 43
0.0000001
 44
0.0000000001
 40
0.0
 40
0.0
 40
0.0
 40
0.0
 40
0.2877382785
 40
0.55587883
 40
0.7937304446
 40
1.0
 40
1.0
 40
1.0
 40
1.0
 10
12.2235319059
 20
7.892391804
 30
0.0
 10
12.2235319059
 20
7.8969128846
 30
0.0
 10
12.2241406143
 20
7.9056603521
 30
0.0
 10
12.226765505
 20
7.9178965621
 30
0.0
 10
12.2307352556
 20
7.9284061414
 30
0.0
 10
12.2342544514
 20
7.9344800147
 30
0.0
 10
12.2361440657
 20
7.9371131636
 30
0.0
  0
SPLINE
  5
42E
100
AcDbEntity
  8
0
100
AcDbSpline
 62
7
  6
CONTINUOUS
 70
0
 71
3
 72
13
 73
9
 74
0
 42
0.0000001
 43
0.0000001
 44
0.0000000001
 40
0.0
 40
0.0
 40
0.0
 40
0.0
 40
0.2413033095
 40
0.4883427509
 40
0.6144498848
 40
0.742010119
 40
0.8706944091
 40
1.0
 40
1.0
 40
1.0
 40
1.0
 10
12.2361440657
 20
7.9371131636
 30
0.0
 10
12.2396252182
 20
7.9346423427
 30
0.0
 10
12.2462308549
 20
7.9289797023
 30
0.0
 10
12.2528748866
 20
7.920249374
 30
0.0
 10
12.2568973648
 20
7.9123344796
 30
0.0
 10
12.259173516
 20
7.9059432394
 30
0.0
 10
12.2605854313
 20
7.8992497476
 30
0.0
 10
12.2609053709
 20
7.8946793429
 30
0.0
 10
12.2609053709
 20
7.892391804
 30
0.0
  0
SPLINE
  5
42F
100
AcDbEntity
  8
0
100
AcDbSpline
 62
7
  6
CONTINUOUS
 70
0
 71
3
 72
13
 73
9
 74
0
 42
0.0000001
 43
0.0000001
 44
0.0000000001
 40
0.0
 40
0.0
 40
0.0
 40
0.0
 40
0.1293056118
 40
0.2579899211
 40
0.3855501422
 40
0.5116572696
 40
0.7586966976
 40
1.0
 40
1.0
 40
1.0
 40
1.0
 10
12.2609053709
 20
7.892391804
 30
0.0
 10
12.2609053709
 20
7.8901042649
 30
0.0
 10
12.2605854312
 20
7.8855338594
 30
0.0
 10
12.2591735156
 20
7.8788403671
 30
0.0
 10
12.2568973641
 20
7.8724491271
 30
0.0
 10
12.252874886
 20
7.8645342333
 30
0.0
 10
12.2462308545
 20
7.8558039055
 30
0.0
 10
12.2396252181
 20
7.8501412653
 30
0.0
 10
12.2361440657
 20
7.8476704445
 30
0.0
  0
SPLINE
  5
430
100
AcDbEntity
  8
0
100
AcDbSpline
 62
7
  6
CONTINUOUS
 70
0
 71
3
 72
11
 73
7
 74
0
 42
0.0000001
 43
0.0000001
 44
0.0000000001
 40
0.0
 40
0.0
 40
0.0
 40
0.0
 40
0.2006297748
 40
0.4372447831
 40
0.7077624843
 40
1.0
 40
1.0
 40
1.0
 40
1.0
 10
12.2806672069
 20
7.8476704445
 30
0.0
 10
12.279094375
 20
7.8503433312
 30
0.0
 10
12.2761928336
 20
7.8564835295
 30
0.0
 10
12.2729592062
 20
7.8669663625
 30
0.0
 10
12.2708208566
 20
7.8791665609
 30
0.0
 10
12.2703254706
 20
7.8878744331
 30
0.0
 10
12.2703254706
 20
7.892391804
 30
0.0
  0
SPLINE
  5
431
100
AcDbEntity
  8
0
100
AcDbSpline
 62
7
  6
CONTINUOUS
 70
0
 71
3
 72
11
 73
7
 74
0
 42
0.0000001
 43
0.0000001
 44
0.0000000001
 40
0.0
 40
0.0
 40
0.0
 40
0.0
 40
0.2922375604
 40
0.5627552375
 40
0.7993702315
 40
1.0
 40
1.0
 40
1.0
 40
1.0
 10
12.2703254706
 20
7.892391804
 30
0.0
 10
12.2703254706
 20
7.8969091756
 30
0.0
 10
12.2708208567
 20
7.9056170482
 30
0.0
 10
12.2729592065
 20
7.9178172467
 30
0.0
 10
12.2761928338
 20
7.928300079
 30
0.0
 10
12.2790943751
 20
7.934440277
 30
0.0
 10
12.2806672069
 20
7.9371131636
 30
0.0
  0
SPLINE
  5
432
100
AcDbEntity
  8
0
100
AcDbSpline
 62
7
  6
CONTINUOUS
 70
0
 71
3
 72
13
 73
9
 74
0
 42
0.0000001
 43
0.0000001
 44
0.0000000001
 40
0.0
 40
0.0
 40
0.0
 40
0.0
 40
0.2442821577
 40
0.4922429087
 40
0.6179915029
 40
0.7446963541
 40
0.8721424345
 40
1.0
 40
1.0
 40
1.0
 40
1.0
 10
12.2806672069
 20
7.9371131636
 30
0.0
 10
12.2842796986
 20
7.9346516042
 30
0.0
 10
12.2911328761
 20
7.9290205867
 30
0.0
 10
12.2980770674
 20
7.9202791067
 30
0.0
 10
12.3022791703
 20
7.9123466079
 30
0.0
 10
12.3046526863
 20
7.9059529879
 30
0.0
 10
12.306125511
 20
7.8992553082
 30
0.0
 10
12.3064593994
 20
7.8946798138
 30
0.0
 10
12.3064593994
 20
7.892391804
 30
0.0
  0
SPLINE
  5
433
100
AcDbEntity
  8
0
100
AcDbSpline
 62
7
  6
CONTINUOUS
 70
0
 71
3
 72
13
 73
9
 74
0
 42
0.0000001
 43
0.0000001
 44
0.0000000001
 40
0.0
 40
0.0
 40
0.0
 40
0.0
 40
0.1278575862
 40
0.2553036858
 40
0.3820085241
 40
0.5077571117
 40
0.7557178494
 40
1.0
 40
1.0
 40
1.0
 40
1.0
 10
12.3064593994
 20
7.892391804
 30
0.0
 10
12.3064593994
 20
7.8901037939
 30
0.0
 10
12.3061255109
 20
7.8855282988
 30
0.0
 10
12.3046526859
 20
7.8788306187
 30
0.0
 10
12.3022791696
 20
7.8724369988
 30
0.0
 10
12.2980770668
 20
7.8645045006
 30
0.0
 10
12.2911328757
 20
7.8557630211
 30
0.0
 10
12.2842796985
 20
7.8501320038
 30
0.0
 10
12.2806672069
 20
7.8476704445
 30
0.0
  0
SPLINE
  5
434
100
AcDbEntity
  8
0
100
AcDbSpline
 62
7
  6
CONTINUOUS
 70
0
 71
3
 72
11
 73
7
 74
0
 42
0.0000001
 43
0.0000001
 44
0.0000000001
 40
0.0
 40
0.0
 40
0.0
 40
0.0
 40
0.195576851
 40
0.4311491415
 40
0.7037986019
 40
1.0
 40
1.0
 40
1.0
 40
1.0
 10
12.3235125619
 20
7.8476704445
 30
0.0
 10
12.3222792003
 20
7.850384019
 30
0.0
 10
12.320029104
 20
7.8565812749
 30
0.0
 10
12.3175470374
 20
7.8670349526
 30
0.0
 10
12.3159048026
 20
7.8792026035
 30
0.0
 10
12.315524519
 20
7.8878775058
 30
0.0
 10
12.315524519
 20
7.892391804
 30
0.0
  0
SPLINE
  5
435
100
AcDbEntity
  8
0
100
AcDbSpline
 62
7
  6
CONTINUOUS
 70
0
 71
3
 72
11
 73
7
 74
0
 42
0.0000001
 43
0.0000001
 44
0.0000000001
 40
0.0
 40
0.0
 40
0.0
 40
0.0
 40
0.2962014433
 40
0.5688508792
 40
0.8044231553
 40
1.0
 40
1.0
 40
1.0
 40
1.0
 10
12.315524519
 20
7.892391804
 30
0.0
 10
12.315524519
 20
7.8969061029
 30
0.0
 10
12.3159048027
 20
7.9055810056
 30
0.0
 10
12.3175470376
 20
7.9177486565
 30
0.0
 10
12.3200291042
 20
7.9282023336
 30
0.0
 10
12.3222792003
 20
7.9343995892
 30
0.0
 10
12.3235125619
 20
7.9371131636
 30
0.0
  0
SPLINE
  5
436
100
AcDbEntity
  8
0
100
AcDbSpline
 62
7
  6
CONTINUOUS
 70
0
 71
3
 72
13
 73
9
 74
0
 42
0.0000001
 43
0.0000001
 44
0.0000000001
 40
0.0
 40
0.0
 40
0.0
 40
0.0
 40
0.2466353624
 40
0.4953386177
 40
0.6208084393
 40
0.7468365694
 40
0.8732974257
 40
1.0
 40
1.0
 40
1.0
 40
1.0
 10
12.3235125619
 20
7.9371131636
 30
0.0
 10
12.3272297957
 20
7.9346585762
 30
0.0
 10
12.3342795198
 20
7.9290520314
 30
0.0
 10
12.341463677
 20
7.9203027448
 30
0.0
 10
12.345809842
 20
7.9123564151
 30
0.0
 10
12.3482612537
 20
7.9059609727
 30
0.0
 10
12.3497828834
 20
7.8992599037
 30
0.0
 10
12.3501279687
 20
7.8946802036
 30
0.0
 10
12.3501279687
 20
7.892391804
 30
0.0
  0
SPLINE
  5
437
100
AcDbEntity
  8
0
100
AcDbSpline
 62
7
  6
CONTINUOUS
 70
0
 71
3
 72
13
 73
9
 74
0
 42
0.0000001
 43
0.0000001
 44
0.0000000001
 40
0.0
 40
0.0
 40
0.0
 40
0.0
 40
0.1267025949
 40
0.2531634702
 40
0.3791915875
 40
0.5046614028
 40
0.7533646447
 40
1.0
 40
1.0
 40
1.0
 40
1.0
 10
12.3501279687
 20
7.892391804
 30
0.0
 10
12.3501279687
 20
7.8901034041
 30
0.0
 10
12.3497828833
 20
7.8855237033
 30
0.0
 10
12.3482612533
 20
7.8788226338
 30
0.0
 10
12.3458098413
 20
7.8724271916
 30
0.0
 10
12.3414636763
 20
7.8644808625
 30
0.0
 10
12.3342795194
 20
7.8557315764
 30
0.0
 10
12.3272297956
 20
7.8501250318
 30
0.0
 10
12.3235125619
 20
7.8476704445
 30
0.0
  0
SPLINE
  5
438
100
AcDbEntity
  8
0
100
AcDbSpline
 62
7
  6
CONTINUOUS
 70
0
 71
3
 72
12
 73
8
 74
0
 42
0.0000001
 43
0.0000001
 44
0.0000000001
 40
0.0
 40
0.0
 40
0.0
 40
0.0
 40
0.0904037124
 40
0.1915166891
 40
0.4262741921
 40
0.7006408174
 40
1.0
 40
1.0
 40
1.0
 40
1.0
 10
12.3643351459
 20
7.8476704445
 30
0.0
 10
12.363923484
 20
7.8489693417
 30
0.0
 10
12.3631313821
 20
7.8517467047
 30
0.0
 10
12.3616677082
 20
7.8580045212
 30
0.0
 10
12.3601692921
 20
7.8670899722
 30
0.0
 10
12.3590289424
 20
7.8792297571
 30
0.0
 10
12.3587651151
 20
7.8878798422
 30
0.0
 10
12.3587651151
 20
7.892391804
 30
0.0
  0
SPLINE
  5
439
100
AcDbEntity
  8
0
100
AcDbSpline
 62
7
  6
CONTINUOUS
 70
0
 71
3
 72
12
 73
8
 74
0
 42
0.0000001
 43
0.0000001
 44
0.0000000001
 40
0.0
 40
0.0
 40
0.0
 40
0.0
 40
0.2993592282
 40
0.5737258286
 40
0.808483317
 40
0.909596288
 40
1.0
 40
1.0
 40
1.0
 40
1.0
 10
12.3587651151
 20
7.892391804
 30
0.0
 10
12.3587651151
 20
7.8969037666
 30
0.0
 10
12.3590289424
 20
7.905553852
 30
0.0
 10
12.3601692923
 20
7.9176936369
 30
0.0
 10
12.3616677083
 20
7.9267790873
 30
0.0
 10
12.3631313822
 20
7.9330369035
 30
0.0
 10
12.363923484
 20
7.9358142664
 30
0.0
 10
12.3643351459
 20
7.9371131636
 30
0.0
  0
SPLINE
  5
43A
100
AcDbEntity
  8
0
100
AcDbSpline
 62
7
  6
CONTINUOUS
 70
0
 71
3
 72
13
 73
9
 74
0
 42
0.0000001
 43
0.0000001
 44
0.0000000001
 40
0.0
 40
0.0
 40
0.0
 40
0.0
 40
0.2483599051
 40
0.4976155222
 40
0.622883615
 40
0.7484153103
 40
0.8741501647
 40
1.0
 40
1.0
 40
1.0
 40
1.0
 10
12.3643351459
 20
7.9371131636
 30
0.0
 10
12.3681297912
 20
7.934663503
 30
0.0
 10
12.3753243031
 20
7.9290746008
 30
0.0
 10
12.382686064
 20
7.9203201453
 30
0.0
 10
12.3871391279
 20
7.9123637305
 30
0.0
 10
12.3896482371
 20
7.9059669893
 30
0.0
 10
12.3912060633
 20
7.8992633913
 30
0.0
 10
12.3915594634
 20
7.8946804998
 30
0.0
 10
12.3915594634
 20
7.892391804
 30
0.0
  0
SPLINE
  5
43B
100
AcDbEntity
  8
0
100
AcDbSpline
 62
7
  6
CONTINUOUS
 70
0
 71
3
 72
13
 73
9
 74
0
 42
0.0000001
 43
0.0000001
 44
0.0000000001
 40
0.0
 40
0.0
 40
0.0
 40
0.0
 40
0.1258498557
 40
0.2515847292
 40
0.3771164118
 40
0.5023844983
 40
0.7516401021
 40
1.0
 40
1.0
 40
1.0
 40
1.0
 10
12.3915594634
 20
7.892391804
 30
0.0
 10
12.3915594634
 20
7.8901031079
 30
0.0
 10
12.3912060632
 20
7.8855202157
 30
0.0
 10
12.3896482366
 20
7.8788166173
 30
0.0
 10
12.3871391271
 20
7.8724198762
 30
0.0
 10
12.3826860634
 20
7.864463462
 30
0.0
 10
12.3753243027
 20
7.8557090069
 30
0.0
 10
12.3681297911
 20
7.850120105
 30
0.0
 10
12.3643351459
 20
7.8476704445
 30
0.0
  0
SPLINE
  5
43C
100
AcDbEntity
  8
0
100
AcDbSpline
 62
7
  6
CONTINUOUS
 70
0
 71
3
 72
11
 73
7
 74
0
 42
0.0000001
 43
0.0000001
 44
0.0000000001
 40
0.0
 40
0.0
 40
0.0
 40
0.0
 40
0.1886578318
 40
0.4229026252
 40
0.6984718999
 40
1.0
 40
1.0
 40
1.0
 40
1.0
 10
12.4028062612
 20
7.8476704445
 30
0.0
 10
12.4023149512
 20
7.8504494048
 30
0.0
 10
12.4014367272
 20
7.8567182642
 30
0.0
 10
12.4004797513
 20
7.8671252003
 30
0.0
 10
12.3998459028
 20
7.8792480208
 30
0.0
 10
12.3996990916
 20
7.8878813658
 30
0.0
 10
12.3996990916
 20
7.892391804
 30
0.0
  0
SPLINE
  5
43D
100
AcDbEntity
  8
0
100
AcDbSpline
 62
7
  6
CONTINUOUS
 70
0
 71
3
 72
11
 73
7
 74
0
 42
0.0000001
 43
0.0000001
 44
0.0000000001
 40
0.0
 40
0.0
 40
0.0
 40
0.0
 40
0.3015281461
 40
0.5770973956
 40
0.8113421743
 40
1.0
 40
1.0
 40
1.0
 40
1.0
 10
12.3996990916
 20
7.892391804
 30
0.0
 10
12.3996990916
 20
7.896902243
 30
0.0
 10
12.3998459028
 20
7.9055355883
 30
0.0
 10
12.4004797513
 20
7.9176584088
 30
0.0
 10
12.4014367272
 20
7.9280653443
 30
0.0
 10
12.4023149513
 20
7.9343342034
 30
0.0
 10
12.4028062612
 20
7.9371131636
 30
0.0
  0
SPLINE
  5
43E
100
AcDbEntity
  8
0
100
AcDbSpline
 62
7
  6
CONTINUOUS
 70
0
 71
3
 72
13
 73
9
 74
0
 42
0.0000001
 43
0.0000001
 44
0.0000000001
 40
0.0
 40
0.0
 40
0.0
 40
0.0
 40
0.2494560183
 40
0.4990663222
 40
0.6242073485
 40
0.7494233102
 40
0.8746949643
 40
1.0
 40
1.0
 40
1.0
 40
1.0
 10
12.4028062612
 20
7.9371131636
 30
0.0
 10
12.4066504263
 20
7.9346665573
 30
0.0
 10
12.4139373544
 20
7.9290887384
 30
0.0
 10
12.4214128151
 20
7.9203312367
 30
0.0
 10
12.4259344404
 20
7.9123684369
 30
0.0
 10
12.4284805109
 20
7.9059708878
 30
0.0
 10
12.4300615464
 20
7.8992656626
 30
0.0
 10
12.4304202831
 20
7.8946806928
 30
0.0
 10
12.4304202831
 20
7.892391804
 30
0.0
  0
SPLINE
  5
43F
100
AcDbEntity
  8
0
100
AcDbSpline
 62
7
  6
CONTINUOUS
 70
0
 71
3
 72
13
 73
9
 74
0
 42
0.0000001
 43
0.0000001
 44
0.0000000001
 40
0.0
 40
0.0
 40
0.0
 40
0.0
 40
0.125305056
 40
0.2505767291
 40
0.3757926782
 40
0.5009336982
 40
0.7505439889
 40
1.0
 40
1.0
 40
1.0
 40
1.0
 10
12.4304202831
 20
7.892391804
 30
0.0
 10
12.4304202831
 20
7.8901029149
 30
0.0
 10
12.4300615463
 20
7.8855179444
 30
0.0
 10
12.4284805105
 20
7.8788127188
 30
0.0
 10
12.4259344396
 20
7.8724151698
 30
0.0
 10
12.4214128144
 20
7.8644523706
 30
0.0
 10
12.413937354
 20
7.8556948694
 30
0.0
 10
12.4066504262
 20
7.8501170507
 30
0.0
 10
12.4028062612
 20
7.8476704445
 30
0.0
  0
SPLINE
  5
440
100
AcDbEntity
  8
0
100
AcDbSpline
 62
7
  6
CONTINUOUS
 70
0
 71
3
 72
10
 73
6
 74
0
 42
0.0000001
 43
0.0000001
 44
0.0000000001
 40
0.0
 40
0.0
 40
0.0
 40
0.0
 40
0.1874016077
 40
0.4214185973
 40
1.0
 40
1.0
 40
1.0
 40
1.0
 10
12.4386161439
 20
7.8476704445
 30
0.0
 10
12.4385177523
 20
7.8504627038
 30
0.0
 10
12.4383425761
 20
7.8567434115
 30
0.0
 10
12.4380702781
 20
7.8716501579
 30
0.0
 10
12.437996854
 20
7.8837656669
 30
0.0
 10
12.437996854
 20
7.892391804
 30
0.0
  0
SPLINE
  5
441
100
AcDbEntity
  8
0
100
AcDbSpline
 62
7
  6
CONTINUOUS
 70
0
 71
3
 72
10
 73
6
 74
0
 42
0.0000001
 43
0.0000001
 44
0.0000000001
 40
0.0
 40
0.0
 40
0.0
 40
0.0
 40
0.5785814234
 40
0.8125983984
 40
1.0
 40
1.0
 40
1.0
 40
1.0
 10
12.437996854
 20
7.892391804
 30
0.0
 10
12.437996854
 20
7.9010179415
 30
0.0
 10
12.4380702781
 20
7.9131334506
 30
0.0
 10
12.4383425761
 20
7.928040197
 30
0.0
 10
12.4385177523
 20
7.9343209044
 30
0.0
 10
12.4386161439
 20
7.9371131636
 30
0.0
  0
SPLINE
  5
442
100
AcDbEntity
  8
0
100
AcDbSpline
 62
7
  6
CONTINUOUS
 70
0
 71
3
 72
13
 73
9
 74
0
 42
0.0000001
 43
0.0000001
 44
0.0000000001
 40
0.0
 40
0.0
 40
0.0
 40
0.0
 40
0.2499248679
 40
0.4996877404
 40
0.6247746921
 40
0.7498555575
 40
0.8749286655
 40
1.0
 40
1.0
 40
1.0
 40
1.0
 10
12.4386161439
 20
7.9371131636
 30
0.0
 10
12.4424815705
 20
7.9346678459
 30
0.0
 10
12.44980813
 20
7.9290947365
 30
0.0
 10
12.4573324251
 20
7.9203359881
 30
0.0
 10
12.4618835286
 20
7.9123704635
 30
0.0
 10
12.4644454805
 20
7.9059725732
 30
0.0
 10
12.4660364937
 20
7.8992666474
 30
0.0
 10
12.4663975259
 20
7.8946807766
 30
0.0
 10
12.4663975259
 20
7.892391804
 30
0.0
  0
SPLINE
  5
443
100
AcDbEntity
  8
0
100
AcDbSpline
 62
7
  6
CONTINUOUS
 70
0
 71
3
 72
13
 73
9
 74
0
 42
0.0000001
 43
0.0000001
 44
0.0000000001
 40
0.0
 40
0.0
 40
0.0
 40
0.0
 40
0.1250713548
 40
0.2501444818
 40
0.3752253346
 40
0.5003122801
 40
0.7500751393
 40
1.0
 40
1.0
 40
1.0
 40
1.0
 10
12.4663975259
 20
7.892391804
 30
0.0
 10
12.4663975259
 20
7.8901028311
 30
0.0
 10
12.4660364937
 20
7.8855169596
 30
0.0
 10
12.4644454801
 20
7.8788110333
 30
0.0
 10
12.4618835278
 20
7.8724131432
 30
0.0
 10
12.4573324245
 20
7.8644476192
 30
0.0
 10
12.4498081296
 20
7.8556888712
 30
0.0
 10
12.4424815703
 20
7.8501157621
 30
0.0
 10
12.4386161439
 20
7.8476704445
 30
0.0
  0
SPLINE
  5
444
100
AcDbEntity
  8
0
100
AcDbSpline
 62
7
  6
CONTINUOUS
 70
0
 71
3
 72
13
 73
9
 74
0
 42
0.0000001
 43
0.0000001
 44
0.0000000001
 40
0.0
 40
0.0
 40
0.0
 40
0.0
 40
0.249767186
 40
0.49947869
 40
0.6245838093
 40
0.7497101127
 40
0.874850023
 40
1.0
 40
1.0
 40
1.0
 40
1.0
 10
12.4714764578
 20
7.9371131636
 30
0.0
 10
12.4753347283
 20
7.9346674137
 30
0.0
 10
12.4826479521
 20
7.9290927225
 30
0.0
 10
12.4901558098
 20
7.9203343897
 30
0.0
 10
12.4946969889
 20
7.912369781
 30
0.0
 10
12.4972535948
 20
7.9059720052
 30
0.0
 10
12.4988412489
 20
7.8992663153
 30
0.0
 10
12.4992015082
 20
7.8946807483
 30
0.0
 10
12.4992015082
 20
7.892391804
 30
0.0
  0
SPLINE
  5
445
100
AcDbEntity
  8
0
100
AcDbSpline
 62
7
  6
CONTINUOUS
 70
0
 71
3
 72
13
 73
9
 74
0
 42
0.0000001
 43
0.0000001
 44
0.0000000001
 40
0.0
 40
0.0
 40
0.0
 40
0.0
 40
0.1251499973
 40
0.2502899266
 40
0.3754162175
 40
0.5005213305
 40
0.7502328212
 40
1.0
 40
1.0
 40
1.0
 40
1.0
 10
12.4992015082
 20
7.892391804
 30
0.0
 10
12.4992015082
 20
7.8901028594
 30
0.0
 10
12.4988412488
 20
7.8855172917
 30
0.0
 10
12.4972535943
 20
7.8788116014
 30
0.0
 10
12.4946969882
 20
7.8724138257
 30
0.0
 10
12.4901558091
 20
7.8644492177
 30
0.0
 10
12.4826479517
 20
7.8556908852
 30
0.0
 10
12.4753347282
 20
7.8501161943
 30
0.0
 10
12.4714764578
 20
7.8476704445
 30
0.0
  0
SPLINE
  5
446
100
AcDbEntity
  8
0
100
AcDbSpline
 62
7
  6
CONTINUOUS
 70
0
 71
3
 72
13
 73
9
 74
0
 42
0.0000001
 43
0.0000001
 44
0.0000000001
 40
0.0
 40
0.0
 40
0.0
 40
0.0
 40
0.248982711
 40
0.4984395156
 40
0.6236352992
 40
0.7489876147
 40
0.8744594486
 40
1.0
 40
1.0
 40
1.0
 40
1.0
 10
12.5011226164
 20
7.9371131636
 30
0.0
 10
12.504945367
 20
7.9346652457
 30
0.0
 10
12.5121923496
 20
7.9290826534
 30
0.0
 10
12.5196186344
 20
7.9203264444
 30
0.0
 10
12.524110594
 20
7.9123663991
 30
0.0
 10
12.5266406764
 20
7.9059691971
 30
0.0
 10
12.5282116686
 20
7.8992646763
 30
0.0
 10
12.5285680991
 20
7.894680609
 30
0.0
 10
12.5285680991
 20
7.892391804
 30
0.0
  0
SPLINE
  5
447
100
AcDbEntity
  8
0
100
AcDbSpline
 62
7
  6
CONTINUOUS
 70
0
 71
3
 72
13
 73
9
 74
0
 42
0.0000001
 43
0.0000001
 44
0.0000000001
 40
0.0
 40
0.0
 40
0.0
 40
0.0
 40
0.1255405716
 40
0.2510124245
 40
0.3763647276
 40
0.5015605049
 40
0.7510172962
 40
1.0
 40
1.0
 40
1.0
 40
1.0
 10
12.5285680991
 20
7.892391804
 30
0.0
 10
12.5285680991
 20
7.8901029987
 30
0.0
 10
12.5282116685
 20
7.8855189307
 30
0.0
 10
12.526640676
 20
7.8788144095
 30
0.0
 10
12.5241105933
 20
7.8724172076
 30
0.0
 10
12.5196186337
 20
7.8644571629
 30
0.0
 10
12.5121923492
 20
7.8557009543
 30
0.0
 10
12.5049453669
 20
7.8501183623
 30
0.0
 10
12.5011226164
 20
7.8476704445
 30
0.0
  0
SPLINE
  5
448
100
AcDbEntity
  8
0
100
AcDbSpline
 62
7
  6
CONTINUOUS
 70
0
 71
3
 72
13
 73
9
 74
0
 42
0.0000001
 43
0.0000001
 44
0.0000000001
 40
0.0
 40
0.0
 40
0.0
 40
0.0
 40
0.247810267
 40
0.4968858692
 40
0.6221483705
 40
0.7477874783
 40
0.8737613194
 40
1.0
 40
1.0
 40
1.0
 40
1.0
 10
12.5273159128
 20
7.9371131636
 30
0.0
 10
12.5306163429
 20
7.9349604547
 30
0.0
 10
12.5369139172
 20
7.9301223493
 30
0.0
 10
12.5435897844
 20
7.9227282772
 30
0.0
 10
12.5479269892
 20
7.9160482566
 30
0.0
 10
12.5506049436
 20
7.9106711607
 30
0.0
 10
12.5526183377
 20
7.9049947704
 30
0.0
 10
12.5534701767
 20
7.9010621286
 30
0.0
 10
12.5537652875
 20
7.8990766192
 30
0.0
  0
SPLINE
  5
449
100
AcDbEntity
  8
0
100
AcDbSpline
 62
7
  6
CONTINUOUS
 70
0
 71
3
 72
13
 73
9
 74
0
 42
0.0000001
 43
0.0000001
 44
0.0000000001
 40
0.0
 40
0.0
 40
0.0
 40
0.0
 40
0.1262386967
 40
0.2522125215
 40
0.3778516127
 40
0.5031141047
 40
0.752189707
 40
1.0
 40
1.0
 40
1.0
 40
1.0
 10
12.5537651948
 20
7.8857063656
 30
0.0
 10
12.5534700607
 20
7.8837208861
 30
0.0
 10
12.5526181828
 20
7.8797883074
 30
0.0
 10
12.5506047556
 20
7.8741120138
 30
0.0
 10
12.5479267914
 20
7.8687350125
 30
0.0
 10
12.5435896012
 20
7.8620551085
 30
0.0
 10
12.5369137954
 20
7.8546611603
 30
0.0
 10
12.5306162998
 20
7.8498231252
 30
0.0
 10
12.5273159128
 20
7.8476704445
 30
0.0
  0
SPLINE
  5
44A
100
AcDbEntity
  8
0
100
AcDbSpline
 62
7
  6
CONTINUOUS
 70
0
 71
3
 72
15
 73
11
 74
0
 42
0.0000001
 43
0.0000001
 44
0.0000000001
 40
0.0
 40
0.0
 40
0.0
 40
0.0
 40
0.113984325
 40
0.228627965
 40
0.3454854964
 40
0.4659367723
 40
0.5910737976
 40
0.7216161194
 40
0.8579259371
 40
1.0
 40
1.0
 40
1.0
 40
1.0
 10
11.6535392878
 20
9.3783917985
 30
0.0
 10
11.6479114242
 20
9.378391915
 30
0.0
 10
11.6366006357
 20
9.3774517903
 30
0.0
 10
11.6199977568
 20
9.3732277061
 30
0.0
 10
11.604004349
 20
9.3662460131
 30
0.0
 10
11.5888330346
 20
9.3566328083
 30
0.0
 10
11.5746754775
 20
9.3445253849
 30
0.0
 10
11.5616872826
 20
9.3301092172
 30
0.0
 10
11.5500196073
 20
9.3135808957
 30
0.0
 10
11.5433306317
 20
9.3015408118
 30
0.0
 10
11.5402255289
 20
9.2952507173
 30
0.0
  0
SPLINE
  5
44B
100
AcDbEntity
  8
0
100
AcDbSpline
 62
7
  6
CONTINUOUS
 70
0
 71
3
 72
13
 73
9
 74
0
 42
0.0000001
 43
0.0000001
 44
0.0000000001
 40
0.0
 40
0.0
 40
0.0
 40
0.0
 40
0.245966246
 40
0.4943954641
 40
0.6198322971
 40
0.7459737301
 40
0.8727419862
 40
1.0
 40
1.0
 40
1.0
 40
1.0
 10
12.5498454424
 20
7.9371131636
 30
0.0
 10
12.5530647313
 20
7.9349559346
 30
0.0
 10
12.5592090895
 20
7.9301026591
 30
0.0
 10
12.5656964441
 20
7.9227131031
 30
0.0
 10
12.5699114354
 20
7.9160414532
 30
0.0
 10
12.5725169342
 20
7.9106647606
 30
0.0
 10
12.5744754666
 20
7.9049895908
 30
0.0
 10
12.5753034205
 20
7.9010609301
 30
0.0
 10
12.5755904993
 20
7.8990766192
 30
0.0
  0
SPLINE
  5
44C
100
AcDbEntity
  8
0
100
AcDbSpline
 62
7
  6
CONTINUOUS
 70
0
 71
3
 72
13
 73
9
 74
0
 42
0.0000001
 43
0.0000001
 44
0.0000000001
 40
0.0
 40
0.0
 40
0.0
 40
0.0
 40
0.1272580272
 40
0.2540262592
 40
0.3801676675
 40
0.505604486
 40
0.754033707
 40
1.0
 40
1.0
 40
1.0
 40
1.0
 10
12.5755904092
 20
7.8857063656
 30
0.0
 10
12.5753033076
 20
7.8837220847
 30
0.0
 10
12.5744753159
 20
7.879793487
 30
0.0
 10
12.5725167512
 20
7.8741184138
 30
0.0
 10
12.5699112429
 20
7.8687418157
 30
0.0
 10
12.5656962657
 20
7.8620702821
 30
0.0
 10
12.5592089704
 20
7.8546808499
 30
0.0
 10
12.5530646891
 20
7.8498276453
 30
0.0
 10
12.5498454424
 20
7.8476704445
 30
0.0
  0
SPLINE
  5
44D
100
AcDbEntity
  8
0
100
AcDbSpline
 62
7
  6
CONTINUOUS
 70
0
 71
3
 72
9
 73
5
 74
0
 42
0.0000001
 43
0.0000001
 44
0.0000000001
 40
0.0
 40
0.0
 40
0.0
 40
0.0
 40
0.4946174971
 40
1.0
 40
1.0
 40
1.0
 40
1.0
 10
11.6539752817
 20
8.9708425051
 30
0.0
 10
11.6493839765
 20
8.9718547406
 30
0.0
 10
11.6402287031
 20
8.974522552
 30
0.0
 10
11.6314914749
 20
8.9783347107
 30
0.0
 10
11.6272105016
 20
8.9805143047
 30
0.0
  0
SPLINE
  5
44E
100
AcDbEntity
  8
0
100
AcDbSpline
 62
7
  6
CONTINUOUS
 70
0
 71
3
 72
13
 73
9
 74
0
 42
0.0000001
 43
0.0000001
 44
0.0000000001
 40
0.0
 40
0.0
 40
0.0
 40
0.0
 40
0.2428603961
 40
0.4903788234
 40
0.6162977672
 40
0.7434110647
 40
0.8714493701
 40
1.0
 40
1.0
 40
1.0
 40
1.0
 10
12.5685298007
 20
7.9371131636
 30
0.0
 10
12.5720794484
 20
7.9346472464
 30
0.0
 10
12.578814335
 20
7.9290012241
 30
0.0
 10
12.5856147869
 20
7.9202648881
 30
0.0
 10
12.5897307945
 20
7.9123407796
 30
0.0
 10
12.5920576773
 20
7.905948286
 30
0.0
 10
12.5935013171
 20
7.8992526194
 30
0.0
 10
12.5938285175
 20
7.894679586
 30
0.0
 10
12.5938285175
 20
7.892391804
 30
0.0
  0
SPLINE
  5
44F
100
AcDbEntity
  8
0
100
AcDbSpline
 62
7
  6
CONTINUOUS
 70
0
 71
3
 72
13
 73
9
 74
0
 42
0.0000001
 43
0.0000001
 44
0.0000000001
 40
0.0
 40
0.0
 40
0.0
 40
0.0
 40
0.1285506507
 40
0.2565889754
 40
0.3837022599
 40
0.509621197
 40
0.757139611
 40
1.0
 40
1.0
 40
1.0
 40
1.0
 10
12.5938285175
 20
7.892391804
 30
0.0
 10
12.5938285175
 20
7.8901040217
 30
0.0
 10
12.593501317
 20
7.8855309876
 30
0.0
 10
12.5920576769
 20
7.8788353206
 30
0.0
 10
12.5897307939
 20
7.8724428271
 30
0.0
 10
12.5856147863
 20
7.8645187192
 30
0.0
 10
12.5788143346
 20
7.8557823836
 30
0.0
 10
12.5720794483
 20
7.8501363616
 30
0.0
 10
12.5685298007
 20
7.8476704445
 30
0.0
  0
SPLINE
  5
450
100
AcDbEntity
  8
0
100
AcDbSpline
 62
7
  6
CONTINUOUS
 70
0
 71
3
 72
13
 73
9
 74
0
 42
0.0000001
 43
0.0000001
 44
0.0000000001
 40
0.0
 40
0.0
 40
0.0
 40
0.0
 40
0.2395696928
 40
0.4860825432
 40
0.6124011672
 40
0.7404585035
 40
0.8698588154
 40
1.0
 40
1.0
 40
1.0
 40
1.0
 10
12.5832185437
 20
7.9371131636
 30
0.0
 10
12.5866237861
 20
7.9346367157
 30
0.0
 10
12.5930857822
 20
7.92895535
 30
0.0
 10
12.5995568088
 20
7.9202321761
 30
0.0
 10
12.6034760288
 20
7.9123275668
 30
0.0
 10
12.6056960796
 20
7.9059377448
 30
0.0
 10
12.6070729471
 20
7.8992466375
 30
0.0
 10
12.6073848657
 20
7.8946790797
 30
0.0
 10
12.6073848657
 20
7.892391804
 30
0.0
  0
SPLINE
  5
451
100
AcDbEntity
  8
0
100
AcDbSpline
 62
7
  6
CONTINUOUS
 70
0
 71
3
 72
13
 73
9
 74
0
 42
0.0000001
 43
0.0000001
 44
0.0000000001
 40
0.0
 40
0.0
 40
0.0
 40
0.0
 40
0.1301412057
 40
0.2595415369
 40
0.38759886
 40
0.5139174773
 40
0.7604303142
 40
1.0
 40
1.0
 40
1.0
 40
1.0
 10
12.6073848657
 20
7.892391804
 30
0.0
 10
12.6073848657
 20
7.890104528
 30
0.0
 10
12.6070729471
 20
7.8855369695
 30
0.0
 10
12.6056960793
 20
7.8788458618
 30
0.0
 10
12.6034760282
 20
7.8724560398
 30
0.0
 10
12.5995568082
 20
7.8645514312
 30
0.0
 10
12.5930857818
 20
7.8558282578
 30
0.0
 10
12.586623786
 20
7.8501468923
 30
0.0
 10
12.5832185437
 20
7.8476704445
 30
0.0
  0
SPLINE
  5
452
100
AcDbEntity
  8
0
100
AcDbSpline
 62
9
  6
CONTINUOUS
 70
0
 71
3
 72
11
 73
7
 74
0
 42
0.0000001
 43
0.0000001
 44
0.0000000001
 40
0.0
 40
0.0
 40
0.0
 40
0.0
 40
0.1280018461
 40
0.2558763052
 40
0.6344744841
 40
1.0
 40
1.0
 40
1.0
 40
1.0
 10
12.6924270924
 20
9.173391804
 30
0.0
 10
12.6924270924
 20
9.1785473998
 30
0.0
 10
12.6926792354
 20
9.1888556624
 30
0.0
 10
12.694543247
 20
9.2143487425
 30
0.0
 10
12.7005008831
 20
9.2491005475
 30
0.0
 10
12.710075224
 20
9.2776599463
 30
0.0
 10
12.7159332756
 20
9.2911667593
 30
0.0
  0
SPLINE
  5
453
100
AcDbEntity
  8
0
100
AcDbSpline
 62
9
  6
CONTINUOUS
 70
0
 71
3
 72
9
 73
5
 74
0
 42
0.0000001
 43
0.0000001
 44
0.0000000001
 40
0.0
 40
0.0
 40
0.0
 40
0.0
 40
0.5092586152
 40
1.0
 40
1.0
 40
1.0
 40
1.0
 10
12.7159332756
 20
9.2911667593
 30
0.0
 10
12.7192754793
 20
9.2988728232
 30
0.0
 10
12.7265851327
 20
9.313694556
 30
0.0
 10
12.735447367
 20
9.3276519814
 30
0.0
 10
12.740180969
 20
9.3342177417
 30
0.0
  0
SPLINE
  5
454
100
AcDbEntity
  8
0
100
AcDbSpline
 62
7
  6
CONTINUOUS
 70
0
 71
3
 72
13
 73
9
 74
0
 42
0.0000001
 43
0.0000001
 44
0.0000000001
 40
0.0
 40
0.0
 40
0.0
 40
0.0
 40
0.2356720581
 40
0.4810268177
 40
0.6078282806
 40
0.7370011345
 40
0.867999
 40
1.0
 40
1.0
 40
1.0
 40
1.0
 10
12.5937933997
 20
7.9371131636
 30
0.0
 10
12.5970289876
 20
7.9346233817
 30
0.0
 10
12.6031684016
 20
7.9288990901
 30
0.0
 10
12.6092543997
 20
7.9201938199
 30
0.0
 10
12.6129444646
 20
7.9123124099
 30
0.0
 10
12.6150396533
 20
7.9059258506
 30
0.0
 10
12.6163386212
 20
7.8992399627
 30
0.0
 10
12.6166327431
 20
7.8946785159
 30
0.0
 10
12.6166327431
 20
7.892391804
 30
0.0
  0
SPLINE
  5
455
100
AcDbEntity
  8
0
100
AcDbSpline
 62
7
  6
CONTINUOUS
 70
0
 71
3
 72
13
 73
9
 74
0
 42
0.0000001
 43
0.0000001
 44
0.0000000001
 40
0.0
 40
0.0
 40
0.0
 40
0.0
 40
0.1320010213
 40
0.2629989064
 40
0.3921717467
 40
0.5189732027
 40
0.7643279488
 40
1.0
 40
1.0
 40
1.0
 40
1.0
 10
12.6166327431
 20
7.892391804
 30
0.0
 10
12.6166327431
 20
7.8901050919
 30
0.0
 10
12.6163386212
 20
7.8855436443
 30
0.0
 10
12.6150396529
 20
7.878857756
 30
0.0
 10
12.612944464
 20
7.8724711968
 30
0.0
 10
12.6092543992
 20
7.8645897874
 30
0.0
 10
12.6031684012
 20
7.8558845176
 30
0.0
 10
12.5970289875
 20
7.8501602263
 30
0.0
 10
12.5937933997
 20
7.8476704445
 30
0.0
  0
SPLINE
  5
456
100
AcDbEntity
  8
0
100
AcDbSpline
 62
7
  6
CONTINUOUS
 70
0
 71
3
 72
15
 73
11
 74
0
 42
0.0000001
 43
0.0000001
 44
0.0000000001
 40
0.0
 40
0.0
 40
0.0
 40
0.0
 40
0.1139771145
 40
0.2287007258
 40
0.3455717596
 40
0.4660212098
 40
0.5911489436
 40
0.7216756606
 40
0.8579576062
 40
1.0
 40
1.0
 40
1.0
 40
1.0
 10
12.4910500612
 20
8.968391804
 30
0.0
 10
12.4966688713
 20
8.968391804
 30
0.0
 10
12.5079656341
 20
8.9693299519
 30
0.0
 10
12.5245483126
 20
8.9735421114
 30
0.0
 10
12.5405257191
 20
8.9805046495
 30
0.0
 10
12.5556773001
 20
8.9900968487
 30
0.0
 10
12.5698250977
 20
9.0021690789
 30
0.0
 10
12.58280147
 20
9.0165521527
 30
0.0
 10
12.5944671101
 20
9.033038867
 30
0.0
 10
12.6011552825
 20
9.0450516762
 30
0.0
 10
12.6042624213
 20
9.0513269283
 30
0.0
  0
SPLINE
  5
457
100
AcDbEntity
  8
0
100
AcDbSpline
 62
7
  6
CONTINUOUS
 70
0
 71
3
 72
11
 73
7
 74
0
 42
0.0000001
 43
0.0000001
 44
0.0000000001
 40
0.0
 40
0.0
 40
0.0
 40
0.0
 40
0.2314054994
 40
0.4756947678
 40
0.7333185626
 40
1.0
 40
1.0
 40
1.0
 40
1.0
 10
12.6001692216
 20
7.9371131636
 30
0.0
 10
12.6032108849
 20
7.9346068048
 30
0.0
 10
12.6089794825
 20
7.928830316
 30
0.0
 10
12.6158450745
 20
7.9182832908
 30
0.0
 10
12.6204235517
 20
7.9059006159
 30
0.0
 10
12.6214976873
 20
7.8969338808
 30
0.0
 10
12.6214976873
 20
7.892391804
 30
0.0
  0
SPLINE
  5
458
100
AcDbEntity
  8
0
100
AcDbSpline
 62
7
  6
CONTINUOUS
 70
0
 71
3
 72
11
 73
7
 74
0
 42
0.0000001
 43
0.0000001
 44
0.0000000001
 40
0.0
 40
0.0
 40
0.0
 40
0.0
 40
0.2666814786
 40
0.5243052526
 40
0.7685945075
 40
1.0
 40
1.0
 40
1.0
 40
1.0
 10
12.6214976873
 20
7.892391804
 30
0.0
 10
12.6214976873
 20
7.8878497266
 30
0.0
 10
12.6204235515
 20
7.8788829912
 30
0.0
 10
12.6158450739
 20
7.8665003163
 30
0.0
 10
12.6089794822
 20
7.8559532917
 30
0.0
 10
12.6032108848
 20
7.8501768032
 30
0.0
 10
12.6001692216
 20
7.8476704445
 30
0.0
  0
SPLINE
  5
459
100
AcDbEntity
  8
0
100
AcDbSpline
 62
9
  6
CONTINUOUS
 70
0
 71
3
 72
12
 73
8
 74
0
 42
0.0000001
 43
0.0000001
 44
0.0000000001
 40
0.0
 40
0.0
 40
0.0
 40
0.0
 40
0.1312108509
 40
0.2619939474
 40
0.5188562671
 40
0.7659777506
 40
1.0
 40
1.0
 40
1.0
 40
1.0
 10
12.6750253781
 20
9.173391804
 30
0.0
 10
12.6750253781
 20
9.1678443831
 30
0.0
 10
12.6754171721
 20
9.1567630651
 30
0.0
 10
12.6777253708
 20
9.1349351735
 30
0.0
 10
12.6833902974
 20
9.1085938225
 30
0.0
 10
12.6944972218
 20
9.0793113165
 30
0.0
 10
12.7048071383
 20
9.0616276346
 30
0.0
 10
12.7105942152
 20
9.0536024269
 30
0.0
  0
SPLINE
  5
45A
100
AcDbEntity
  8
0
100
AcDbSpline
 62
9
  6
CONTINUOUS
 70
0
 71
3
 72
18
 73
14
 74
0
 42
0.0000001
 43
0.0000001
 44
0.0000000001
 40
0.0
 40
0.0
 40
0.0
 40
0.0
 40
0.1391220699
 40
0.2766774871
 40
0.4109115349
 40
0.4764163381
 40
0.5406338588
 40
0.6646555103
 40
0.7824407533
 40
0.8390066573
 40
0.8940523465
 40
0.9476690867
 40
1.0
 40
1.0
 40
1.0
 40
1.0
 10
12.6479547455
 20
9.173391804
 30
0.0
 10
12.6479547455
 20
9.164021491
 30
0.0
 10
12.6489807237
 20
9.1453695942
 30
0.0
 10
12.6535533145
 20
9.1180191133
 30
0.0
 10
12.6598660647
 20
9.0961341593
 30
0.0
 10
12.6663546626
 20
9.0795710039
 30
0.0
 10
12.6735875478
 20
9.0640757785
 30
0.0
 10
12.6841299247
 20
9.0462855106
 30
0.0
 10
12.6968302893
 20
9.0305980416
 30
0.0
 10
12.7079719113
 20
9.0198704245
 30
0.0
 10
12.7166318003
 20
9.0128569653
 30
0.0
 10
12.7256562398
 20
9.0068186694
 30
0.0
 10
12.7319509848
 20
9.0034288543
 30
0.0
 10
12.7351345813
 20
9.001916276
 30
0.0
  0
SPLINE
  5
45B
100
AcDbEntity
  8
0
100
AcDbSpline
 62
9
  6
CONTINUOUS
 70
0
 71
3
 72
9
 73
5
 74
0
 42
0.0000001
 43
0.0000001
 44
0.0000000001
 40
0.0
 40
0.0
 40
0.0
 40
0.0
 40
0.5044174607
 40
1.0
 40
1.0
 40
1.0
 40
1.0
 10
12.7351345813
 20
9.001916276
 30
0.0
 10
12.7383216326
 20
9.0004020561
 30
0.0
 10
12.7447964341
 20
8.9977172643
 30
0.0
 10
12.7515224362
 20
8.9957393329
 30
0.0
 10
12.7548972631
 20
8.9949466227
 30
0.0
  0
SPLINE
  5
45C
100
AcDbEntity
  8
0
100
AcDbSpline
 62
9
  6
CONTINUOUS
 70
0
 71
3
 72
9
 73
5
 74
0
 42
0.0000001
 43
0.0000001
 44
0.0000000001
 40
0.0
 40
0.0
 40
0.0
 40
0.0
 40
0.4955138956
 40
1.0
 40
1.0
 40
1.0
 40
1.0
 10
12.7554694868
 20
9.3519695737
 30
0.0
 10
12.7520089802
 20
9.3511795175
 30
0.0
 10
12.7451108047
 20
9.3491867828
 30
0.0
 10
12.7384740269
 20
9.346450669
 30
0.0
 10
12.7352086566
 20
9.3449024281
 30
0.0
  0
SPLINE
  5
45D
100
AcDbEntity
  8
0
100
AcDbSpline
 62
9
  6
CONTINUOUS
 70
0
 71
3
 72
18
 73
14
 74
0
 42
0.0000001
 43
0.0000001
 44
0.0000000001
 40
0.0
 40
0.0
 40
0.0
 40
0.0
 40
0.0523245919
 40
0.1059350589
 40
0.160974461
 40
0.2175345874
 40
0.335312512
 40
0.4593327287
 40
0.5235514365
 40
0.5890584545
 40
0.7233009361
 40
0.8608679142
 40
1.0
 40
1.0
 40
1.0
 40
1.0
 10
12.7352086566
 20
9.3449024281
 30
0.0
 10
12.7320229521
 20
9.3433919599
 30
0.0
 10
12.7257237953
 20
9.3400059681
 30
0.0
 10
12.7166929285
 20
9.3339716291
 30
0.0
 10
12.7080262537
 20
9.3269613364
 30
0.0
 10
12.6968753914
 20
9.3162361322
 30
0.0
 10
12.6841640078
 20
9.300548154
 30
0.0
 10
12.6736122109
 20
9.282754247
 30
0.0
 10
12.6663724913
 20
9.2672544212
 30
0.0
 10
12.6598775626
 20
9.2506851444
 30
0.0
 10
12.6535587501
 20
9.2287907133
 30
0.0
 10
12.6489817443
 20
9.2014274938
 30
0.0
 10
12.6479547455
 20
9.1827665819
 30
0.0
 10
12.6479547455
 20
9.173391804
 30
0.0
  0
SPLINE
  5
45E
100
AcDbEntity
  8
0
100
AcDbSpline
 62
7
  6
CONTINUOUS
 70
0
 71
3
 72
19
 73
15
 74
0
 42
0.0000001
 43
0.0000001
 44
0.0000000001
 40
0.0
 40
0.0
 40
0.0
 40
0.0
 40
0.0718730938
 40
0.1435414497
 40
0.2846267458
 40
0.421021165
 40
0.5510142657
 40
0.6132819619
 40
0.6736025061
 40
0.7883562098
 40
0.8431687805
 40
0.8965039915
 40
0.9486592631
 40
1.0
 40
1.0
 40
1.0
 40
1.0
 10
12.6421584771
 20
9.173391804
 30
0.0
 10
12.6421584771
 20
9.1792269898
 30
0.0
 10
12.6425427687
 20
9.1908848943
 30
0.0
 10
12.6448122695
 20
9.2138934911
 30
0.0
 10
12.6503941129
 20
9.2417828092
 30
0.0
 10
12.6613674578
 20
9.2731064007
 30
0.0
 10
12.6739387066
 20
9.2967852598
 30
0.0
 10
12.6858168272
 20
9.3135333007
 30
0.0
 10
12.698344246
 20
9.3281972064
 30
0.0
 10
12.712473872
 20
9.3406328157
 30
0.0
 10
12.7278872333
 20
9.3501783212
 30
0.0
 10
12.7397005607
 20
9.3557162878
 30
0.0
 10
12.751833784
 20
9.3596796948
 30
0.0
 10
12.7601153584
 20
9.3612559013
 30
0.0
 10
12.7642522071
 20
9.3617663185
 30
0.0
  0
SPLINE
  5
45F
100
AcDbEntity
  8
0
100
AcDbSpline
 62
7
  6
CONTINUOUS
 70
0
 71
3
 72
20
 73
16
 74
0
 42
0.0000001
 43
0.0000001
 44
0.0000000001
 40
0.0
 40
0.0
 40
0.0
 40
0.0
 40
0.0513329583
 40
0.1035009544
 40
0.156861799
 40
0.2117071827
 40
0.2682644899
 40
0.326675842
 40
0.3870187494
 40
0.4492978411
 40
0.5792782247
 40
0.7156078883
 40
0.8565897564
 40
0.9281944057
 40
1.0
 40
1.0
 40
1.0
 40
1.0
 10
12.7634183493
 20
8.9851239356
 30
0.0
 10
12.7593003504
 20
8.9856686723
 30
0.0
 10
12.7510594489
 20
8.9873089672
 30
0.0
 10
12.7389948093
 20
8.9913532583
 30
0.0
 10
12.7272538057
 20
8.9969537428
 30
0.0
 10
12.7159373723
 20
9.0040562742
 30
0.0
 10
12.7051445601
 20
9.0126028412
 30
0.0
 10
12.6949589794
 20
9.0225100916
 30
0.0
 10
12.6854708513
 20
9.0336997214
 30
0.0
 10
12.6736847294
 20
9.0504280804
 30
0.0
 10
12.6612117215
 20
9.0740531078
 30
0.0
 10
12.6503264975
 20
9.1052745678
 30
0.0
 10
12.6447902302
 20
9.133057603
 30
0.0
 10
12.6425395648
 20
9.1559723958
 30
0.0
 10
12.6421584771
 20
9.1675812826
 30
0.0
 10
12.6421584771
 20
9.173391804
 30
0.0
  0
SPLINE
  5
460
100
AcDbEntity
  8
0
100
AcDbSpline
 62
7
  6
CONTINUOUS
 70
0
 71
3
 72
9
 73
5
 74
0
 42
0.0000001
 43
0.0000001
 44
0.0000000001
 40
0.0
 40
0.0
 40
0.0
 40
0.0
 40
0.5053772473
 40
1.0
 40
1.0
 40
1.0
 40
1.0
 10
11.6272411256
 20
9.3662848966
 30
0.0
 10
11.6315197856
 20
9.3684618443
 30
0.0
 10
11.6402520793
 20
9.3722693488
 30
0.0
 10
11.6494017678
 20
9.3749333954
 30
0.0
 10
11.6539901907
 20
9.3759443347
 30
0.0
  0
SPLINE
  5
461
100
AcDbEntity
  8
0
100
AcDbSpline
 62
7
  6
CONTINUOUS
 70
0
 71
3
 72
9
 73
5
 74
0
 42
0.0000001
 43
0.0000001
 44
0.0000000001
 40
0.0
 40
0.0
 40
0.0
 40
0.0
 40
0.4973589406
 40
1.0
 40
1.0
 40
1.0
 40
1.0
 10
11.6763148828
 20
8.977391804
 30
0.0
 10
11.6807823286
 20
8.977391804
 30
0.0
 10
11.6897748413
 20
8.9780133305
 30
0.0
 10
11.6985994462
 20
8.9798429234
 30
0.0
 10
11.7029508757
 20
8.9810467953
 30
0.0
  0
SPLINE
  5
462
100
AcDbEntity
  8
0
100
AcDbSpline
 62
7
  6
CONTINUOUS
 70
0
 71
3
 72
9
 73
5
 74
0
 42
0.0000001
 43
0.0000001
 44
0.0000000001
 40
0.0
 40
0.0
 40
0.0
 40
0.0
 40
0.5026492103
 40
1.0
 40
1.0
 40
1.0
 40
1.0
 10
11.7029776117
 20
9.36572936
 30
0.0
 10
11.6986219619
 20
9.3669356483
 30
0.0
 10
11.6897886171
 20
9.3687689747
 30
0.0
 10
11.6807868453
 20
9.369391804
 30
0.0
 10
11.6763148828
 20
9.369391804
 30
0.0
  0
SPLINE
  5
463
100
AcDbEntity
  8
0
100
AcDbSpline
 62
9
  6
CONTINUOUS
 70
0
 71
3
 72
36
 73
32
 74
0
 42
0.0000001
 43
0.0000001
 44
0.0000000001
 40
0.0
 40
0.0
 40
0.0
 40
0.0
 40
0.0255110721
 40
0.0512802478
 40
0.0774778237
 40
0.1042794885
 40
0.1318453594
 40
0.1602962073
 40
0.1897009395
 40
0.2200946215
 40
0.2514737327
 40
0.2838040357
 40
0.3170226428
 40
0.3510382188
 40
0.3857426086
 40
0.4210066088
 40
0.4566900478
 40
0.4926427609
 40
0.5646853465
 40
0.6359118871
 40
0.7051328552
 40
0.7386925988
 40
0.7713990288
 40
0.8031762985
 40
0.8339794011
 40
0.8637899309
 40
0.8926282751
 40
0.9205473561
 40
0.9476473916
 40
0.9740744781
 40
1.0
 40
1.0
 40
1.0
 40
1.0
 10
11.6575723273
 20
9.369391804
 30
0.0
 10
11.6619155919
 20
9.369391804
 30
0.0
 10
11.6706566782
 20
9.3688041281
 30
0.0
 10
11.6836225872
 20
9.3661932783
 30
0.0
 10
11.6963537698
 20
9.3618650178
 30
0.0
 10
11.7087247525
 20
9.3558648529
 30
0.0
 10
11.7206305333
 20
9.3482543022
 30
0.0
 10
11.7319664799
 20
9.3391001764
 30
0.0
 10
11.7426415717
 20
9.3284922682
 30
0.0
 10
11.7525553457
 20
9.3165178855
 30
0.0
 10
11.7616292841
 20
9.3032893778
 30
0.0
 10
11.7697822365
 20
9.2889203769
 30
0.0
 10
11.7769438981
 20
9.2735376993
 30
0.0
 10
11.7830566852
 20
9.2572775645
 30
0.0
 10
11.7880600622
 20
9.2402801653
 30
0.0
 10
11.7919194022
 20
9.2226972464
 30
0.0
 10
11.794593362
 20
9.2046801452
 30
0.0
 10
11.7965548357
 20
9.1802827943
 30
0.0
 10
11.7959616664
 20
9.1496773242
 30
0.0
 10
11.7904572353
 20
9.1138174395
 30
0.0
 10
11.7819344068
 20
9.0853262083
 30
0.0
 10
11.7728615726
 20
9.0640975394
 30
0.0
 10
11.7651106799
 20
9.0492931412
 30
0.0
 10
11.7564064097
 20
9.0355802414
 30
0.0
 10
11.7468308513
 20
9.0230737155
 30
0.0
 10
11.736457905
 20
9.0118905303
 30
0.0
 10
11.7253837727
 20
9.0021253956
 30
0.0
 10
11.7137015244
 20
8.9938678872
 30
0.0
 10
11.7015087517
 20
8.9871961626
 30
0.0
 10
11.6889146912
 20
8.9821700567
 30
0.0
 10
11.6802551429
 20
8.9799385514
 30
0.0
 10
11.6759179794
 20
8.9791194901
 30
0.0
  0
SPLINE
  5
464
100
AcDbEntity
  8
0
100
AcDbSpline
 62
9
  6
CONTINUOUS
 70
0
 71
3
 72
35
 73
31
 74
0
 42
0.0000001
 43
0.0000001
 44
0.0000000001
 40
0.0
 40
0.0
 40
0.0
 40
0.0
 40
0.025714409
 40
0.0517327344
 40
0.0782382814
 40
0.1054185476
 40
0.1334385386
 40
0.1624143434
 40
0.1924068493
 40
0.2234394722
 40
0.2884536948
 40
0.3569880854
 40
0.3923108783
 40
0.4281266313
 40
0.4642758295
 40
0.5005881571
 40
0.5368908942
 40
0.5730115988
 40
0.608780608
 40
0.6440395913
 40
0.712401804
 40
0.7772015753
 40
0.8081197563
 40
0.8379982401
 40
0.8668650737
 40
0.8947860761
 40
0.9218822813
 40
0.9483233259
 40
0.9743006093
 40
1.0
 40
1.0
 40
1.0
 40
1.0
 10
11.6433269951
 20
8.9867247336
 30
0.0
 10
11.6476339253
 20
8.9867904531
 30
0.0
 10
11.6563007038
 20
8.9875302262
 30
0.0
 10
11.6691227644
 20
8.9904199556
 30
0.0
 10
11.6816771625
 20
8.9950757029
 30
0.0
 10
11.6938325211
 20
9.0014413867
 30
0.0
 10
11.7054761368
 20
9.0094506016
 30
0.0
 10
11.7164999541
 20
9.0190230372
 30
0.0
 10
11.7268058613
 20
9.030062693
 30
0.0
 10
11.7396471139
 20
9.0468574789
 30
0.0
 10
11.7532736473
 20
9.0709954132
 30
0.0
 10
11.7630716796
 20
9.097655072
 30
0.0
 10
11.7686888777
 20
9.1203842654
 30
0.0
 10
11.7717395871
 20
9.1381115799
 30
0.0
 10
11.7735507485
 20
9.1561730071
 30
0.0
 10
11.7741130061
 20
9.1743980585
 30
0.0
 10
11.7734120714
 20
9.1926135392
 30
0.0
 10
11.7714635428
 20
9.210646403
 30
0.0
 10
11.7682780549
 20
9.2283264005
 30
0.0
 10
11.7624894466
 20
9.2509637237
 30
0.0
 10
11.7524918694
 20
9.2774693991
 30
0.0
 10
11.7386790481
 20
9.3014061945
 30
0.0
 10
11.7257080556
 20
9.3180073667
 30
0.0
 10
11.7153177379
 20
9.3288900157
 30
0.0
 10
11.7042204503
 20
9.3382944791
 30
0.0
 10
11.6925150672
 20
9.3461261419
 30
0.0
 10
11.6803103776
 20
9.352306209
 30
0.0
 10
11.6677198058
 20
9.3567699038
 30
0.0
 10
11.6548754707
 20
9.3594631674
 30
0.0
 10
11.646207733
 20
9.36006974
 30
0.0
 10
11.6419028172
 20
9.36006974
 30
0.0
  0
SPLINE
  5
465
100
AcDbEntity
  8
0
100
AcDbSpline
 62
7
  6
CONTINUOUS
 70
0
 71
3
 72
15
 73
11
 74
0
 42
0.0000001
 43
0.0000001
 44
0.0000000001
 40
0.0
 40
0.0
 40
0.0
 40
0.0
 40
0.1423694249
 40
0.2789215967
 40
0.4096213335
 40
0.5348081024
 40
0.6551957597
 40
0.7718873482
 40
0.8862901274
 40
1.0
 40
1.0
 40
1.0
 40
1.0
 10
11.539097142
 20
9.0538531644
 30
0.0
 10
11.5421869107
 20
9.0474034925
 30
0.0
 10
11.5488623444
 20
9.0350517027
 30
0.0
 10
11.5605676793
 20
9.0180775043
 30
0.0
 10
11.5736450364
 20
9.0032575363
 30
0.0
 10
11.5879408698
 20
8.9908019626
 30
0.0
 10
11.6032920539
 20
8.9809044497
 30
0.0
 10
11.619501033
 20
8.9737133753
 30
0.0
 10
11.6363451252
 20
8.9693602424
 30
0.0
 10
11.6478273592
 20
8.9683919279
 30
0.0
 10
11.6535392879
 20
8.9683918096
 30
0.0
  0
SPLINE
  5
466
100
AcDbEntity
  8
0
100
AcDbSpline
 62
9
  6
CONTINUOUS
 70
0
 71
3
 72
15
 73
11
 74
0
 42
0.0000001
 43
0.0000001
 44
0.0000000001
 40
0.0
 40
0.0
 40
0.0
 40
0.0
 40
0.1171883458
 40
0.2354516052
 40
0.3554003745
 40
0.4776517423
 40
0.6028116268
 40
0.7313849162
 40
0.8637166906
 40
1.0
 40
1.0
 40
1.0
 40
1.0
 10
11.6404786393
 20
9.3600588745
 30
0.0
 10
11.636805734
 20
9.3600028296
 30
0.0
 10
11.6294258496
 20
9.3594495194
 30
0.0
 10
11.6184664525
 20
9.3573229332
 30
0.0
 10
11.6076697372
 20
9.3539095658
 30
0.0
 10
11.5971233789
 20
9.3492306021
 30
0.0
 10
11.5868974722
 20
9.3433296102
 30
0.0
 10
11.5770631129
 20
9.3362440772
 30
0.0
 10
11.5676858302
 20
9.3280287143
 30
0.0
 10
11.5618653942
 20
9.321927244
 30
0.0
 10
11.5590486112
 20
9.3187156012
 30
0.0
  0
SPLINE
  5
467
100
AcDbEntity
  8
0
100
AcDbSpline
 62
9
  6
CONTINUOUS
 70
0
 71
3
 72
9
 73
5
 74
0
 42
0.0000001
 43
0.0000001
 44
0.0000000001
 40
0.0
 40
0.0
 40
0.0
 40
0.0
 40
0.2444261754
 40
1.0
 40
1.0
 40
1.0
 40
1.0
 10
11.5590486112
 20
9.3187156012
 30
0.0
 10
11.5574967478
 20
9.3169461958
 30
0.0
 10
11.5513152909
 20
9.3095611354
 30
0.0
 10
11.5457994668
 20
9.3016253453
 30
0.0
 10
11.5420069234
 20
9.2954168143
 30
0.0
  0
SPLINE
  5
468
100
AcDbEntity
  8
0
100
AcDbSpline
 62
9
  6
CONTINUOUS
 70
0
 71
3
 72
9
 73
5
 74
0
 42
0.0000001
 43
0.0000001
 44
0.0000000001
 40
0.0
 40
0.0
 40
0.0
 40
0.0
 40
0.256564295
 40
1.0
 40
1.0
 40
1.0
 40
1.0
 10
11.5405372397
 20
9.0538148025
 30
0.0
 10
11.5419729618
 20
9.0513809263
 30
0.0
 10
11.5477828378
 20
9.0420235782
 30
0.0
 10
11.554464059
 20
9.0331974919
 30
0.0
 10
11.5599155605
 20
9.0270879083
 30
0.0
  0
SPLINE
  5
469
100
AcDbEntity
  8
0
100
AcDbSpline
 62
9
  6
CONTINUOUS
 70
0
 71
3
 72
15
 73
11
 74
0
 42
0.0000001
 43
0.0000001
 44
0.0000000001
 40
0.0
 40
0.0
 40
0.0
 40
0.0
 40
0.1361895047
 40
0.2684204205
 40
0.3969016393
 40
0.5219945633
 40
0.6442228357
 40
0.7642117503
 40
0.8825961899
 40
1.0
 40
1.0
 40
1.0
 40
1.0
 10
11.5599155605
 20
9.0270879083
 30
0.0
 10
11.5627612025
 20
9.0238987525
 30
0.0
 10
11.5686391167
 20
9.017846444
 30
0.0
 10
11.5781017368
 20
9.0097194438
 30
0.0
 10
11.5880175084
 20
9.0027360745
 30
0.0
 10
11.5983199298
 20
8.9969510798
 30
0.0
 10
11.6089367588
 20
8.9924013684
 30
0.0
 10
11.6197967233
 20
8.9891299496
 30
0.0
 10
11.630811062
 20
8.987157141
 30
0.0
 10
11.638218231
 20
8.9867138681
 30
0.0
 10
11.6419028172
 20
8.9867138681
 30
0.0
  0
SPLINE
  5
46A
100
AcDbEntity
  8
0
100
AcDbSpline
 62
9
  6
CONTINUOUS
 70
0
 71
3
 72
9
 73
5
 74
0
 42
0.0000001
 43
0.0000001
 44
0.0000000001
 40
0.0
 40
0.0
 40
0.0
 40
0.0
 40
0.2556463962
 40
1.0
 40
1.0
 40
1.0
 40
1.0
 10
12.6024784594
 20
9.2955870942
 30
0.0
 10
12.6012168534
 20
9.2976473761
 30
0.0
 10
12.5961238386
 20
9.3056079449
 30
0.0
 10
12.590388926
 20
9.3131632354
 30
0.0
 10
12.5857626566
 20
9.3184620193
 30
0.0
  0
SPLINE
  5
46B
100
AcDbEntity
  8
0
100
AcDbSpline
 62
9
  6
CONTINUOUS
 70
0
 71
3
 72
27
 73
23
 74
0
 42
0.0000001
 43
0.0000001
 44
0.0000000001
 40
0.0
 40
0.0
 40
0.0
 40
0.0
 40
0.0613307546
 40
0.1197582667
 40
0.1757330072
 40
0.2030443509
 40
0.2300300728
 40
0.2568115297
 40
0.2835160284
 40
0.3102752783
 40
0.3372176048
 40
0.3644653802
 40
0.3921328906
 40
0.4490526016
 40
0.5086478581
 40
0.5712513694
 40
0.6369392091
 40
0.7055517885
 40
0.776719096
 40
0.8499398457
 40
0.9246397438
 40
1.0
 40
1.0
 40
1.0
 40
1.0
 10
12.5848318049
 20
9.3195183333
 30
0.0
 10
12.5801262992
 20
9.324808591
 30
0.0
 10
12.5701985081
 20
9.3345177699
 30
0.0
 10
12.5535804735
 20
9.3463035875
 30
0.0
 10
12.5387126689
 20
9.3533636519
 30
0.0
 10
12.5265418508
 20
9.3571514051
 30
0.0
 10
12.5173640866
 20
9.359064709
 30
0.0
 10
12.5081132789
 20
9.3600651209
 30
0.0
 10
12.4988345765
 20
9.3601437693
 30
0.0
 10
12.4895756387
 20
9.3592990357
 30
0.0
 10
12.4803827316
 20
9.3575404864
 30
0.0
 10
12.4713013341
 20
9.3548743887
 30
0.0
 10
12.4592956935
 20
9.3500827702
 30
0.0
 10
12.4447445765
 20
9.3418100605
 30
0.0
 10
12.4286571615
 20
9.328685288
 30
0.0
 10
12.4140515259
 20
9.3125484637
 30
0.0
 10
12.4012023138
 20
9.2937195655
 30
0.0
 10
12.390348202
 20
9.2725655972
 30
0.0
 10
12.3816825028
 20
9.2495002758
 30
0.0
 10
12.3753728586
 20
9.2249592453
 30
0.0
 10
12.371544416
 20
9.1994270208
 30
0.0
 10
12.3706853089
 20
9.1820915564
 30
0.0
 10
12.3706853089
 20
9.173391804
 30
0.0
  0
SPLINE
  5
46C
100
AcDbEntity
  8
0
100
AcDbSpline
 62
9
  6
CONTINUOUS
 70
0
 71
3
 72
20
 73
16
 74
0
 42
0.0000001
 43
0.0000001
 44
0.0000000001
 40
0.0
 40
0.0
 40
0.0
 40
0.0
 40
0.0714458991
 40
0.1427059582
 40
0.2831289163
 40
0.4191476661
 40
0.5491394426
 40
0.6115423213
 40
0.6720797073
 40
0.7307372572
 40
0.7875710042
 40
0.842693456
 40
0.896293448
 40
0.9486246973
 40
1.0
 40
1.0
 40
1.0
 40
1.0
 10
12.3484241041
 20
9.173391804
 30
0.0
 10
12.3484241041
 20
9.1792527584
 30
0.0
 10
12.3487981643
 20
9.1909633399
 30
0.0
 10
12.3510086819
 20
9.2140954856
 30
0.0
 10
12.3564503389
 20
9.2421869413
 30
0.0
 10
12.3671596462
 20
9.2738679736
 30
0.0
 10
12.3794418392
 20
9.2979792897
 30
0.0
 10
12.3910690208
 20
9.3151899036
 30
0.0
 10
12.4004470931
 20
9.3267904976
 30
0.0
 10
12.410531545
 20
9.3371558666
 30
0.0
 10
12.4212368348
 20
9.346208327
 30
0.0
 10
12.4324831511
 20
9.3538682106
 30
0.0
 10
12.4441805959
 20
9.3600712145
 30
0.0
 10
12.4562309504
 20
9.3647679962
 30
0.0
 10
12.4644993997
 20
9.3668767128
 30
0.0
 10
12.4686404727
 20
9.3676599581
 30
0.0
  0
SPLINE
  5
46D
100
AcDbEntity
  8
0
100
AcDbSpline
 62
9
  6
CONTINUOUS
 70
0
 71
3
 72
27
 73
23
 74
0
 42
0.0000001
 43
0.0000001
 44
0.0000000001
 40
0.0
 40
0.0
 40
0.0
 40
0.0
 40
0.0754061703
 40
0.1501013501
 40
0.2232760845
 40
0.2943663058
 40
0.3628826836
 40
0.4284679537
 40
0.4909755402
 40
0.5504938293
 40
0.6073661402
 40
0.6350233636
 40
0.662270565
 40
0.6892220973
 40
0.7160000869
 40
0.7427322596
 40
0.7695493824
 40
0.7965775881
 40
0.8239368819
 40
0.880018905
 40
0.9385592563
 40
1.0
 40
1.0
 40
1.0
 40
1.0
 10
12.3706929919
 20
9.1713777123
 30
0.0
 10
12.3707590777
 20
9.1627158405
 30
0.0
 10
12.3717421662
 20
9.1454681649
 30
0.0
 10
12.3757339184
 20
9.1200905426
 30
0.0
 10
12.3821807828
 20
9.0957297228
 30
0.0
 10
12.3909559923
 20
9.0728629334
 30
0.0
 10
12.4018912778
 20
9.0519186588
 30
0.0
 10
12.4147933682
 20
9.0333035701
 30
0.0
 10
12.429424425
 20
9.0173779165
 30
0.0
 10
12.4455114257
 20
9.004455504
 30
0.0
 10
12.4600396471
 20
8.996342121
 30
0.0
 10
12.4720152899
 20
8.9916665103
 30
0.0
 10
12.481070959
 20
8.9890802422
 30
0.0
 10
12.4902338369
 20
8.9873952824
 30
0.0
 10
12.499458938
 20
8.986617405
 30
0.0
 10
12.5087005008
 20
8.9867556631
 30
0.0
 10
12.5179114508
 20
8.9878082687
 30
0.0
 10
12.5270472152
 20
8.9897661059
 30
0.0
 10
12.5391602777
 20
8.9936032886
 30
0.0
 10
12.5539514482
 20
9.0007047451
 30
0.0
 10
12.570479543
 20
9.0125075927
 30
0.0
 10
12.5803534183
 20
9.0222097248
 30
0.0
 10
12.5850336276
 20
9.0274926447
 30
0.0
  0
SPLINE
  5
46E
100
AcDbEntity
  8
0
100
AcDbSpline
 62
9
  6
CONTINUOUS
 70
0
 71
3
 72
9
 73
5
 74
0
 42
0.0000001
 43
0.0000001
 44
0.0000000001
 40
0.0
 40
0.0
 40
0.0
 40
0.0
 40
0.24469016
 40
1.0
 40
1.0
 40
1.0
 40
1.0
 10
12.5865898789
 20
9.0292769207
 30
0.0
 10
12.58805831
 20
9.0309868756
 30
0.0
 10
12.5939065791
 20
9.0381056328
 30
0.0
 10
12.5991472045
 20
9.0457184446
 30
0.0
 10
12.6027628893
 20
9.0516626048
 30
0.0
  0
SPLINE
  5
46F
100
AcDbEntity
  8
0
100
AcDbSpline
 62
7
  6
CONTINUOUS
 70
0
 71
3
 72
32
 73
28
 74
0
 42
0.0000001
 43
0.0000001
 44
0.0000000001
 40
0.0
 40
0.0
 40
0.0
 40
0.0
 40
0.0256829606
 40
0.0517844002
 40
0.07847235
 40
0.105901224
 40
0.134189558
 40
0.1634058102
 40
0.1935858173
 40
0.2247307747
 40
0.2897209633
 40
0.3578862196
 40
0.4283447882
 40
0.4641169818
 40
0.5000405164
 40
0.5359638421
 40
0.5717352794
 40
0.6421911057
 40
0.7103526991
 40
0.7753392211
 40
0.8365996871
 40
0.8658145783
 40
0.894101526
 40
0.9215291793
 40
0.9482164151
 40
0.9743174492
 40
1.0
 40
1.0
 40
1.0
 40
1.0
 10
11.381498275
 20
9.3616149667
 30
0.0
 10
11.385611402
 20
9.3610560557
 30
0.0
 10
11.3938409452
 20
9.3593899375
 30
0.0
 10
11.4058838069
 20
9.3553140255
 30
0.0
 10
11.4175975617
 20
9.3496857651
 30
0.0
 10
11.428883546
 20
9.3425619794
 30
0.0
 10
11.4396466991
 20
9.3340013687
 30
0.0
 10
11.4498039821
 20
9.3240860811
 30
0.0
 10
11.4592645023
 20
9.3128939452
 30
0.0
 10
11.4710133144
 20
9.2961705426
 30
0.0
 10
11.4834474383
 20
9.2725653613
 30
0.0
 10
11.494292207
 20
9.241382835
 30
0.0
 10
11.4998098131
 20
9.2136463515
 30
0.0
 10
11.5020531452
 20
9.1907679775
 30
0.0
 10
11.5026202015
 20
9.1733707354
 30
0.0
 10
11.5020503574
 20
9.1559737608
 30
0.0
 10
11.4998035179
 20
9.1330961266
 30
0.0
 10
11.4942824913
 20
9.1053630891
 30
0.0
 10
11.4834291813
 20
9.0741783828
 30
0.0
 10
11.4687236895
 20
9.046269642
 30
0.0
 10
11.4533790432
 20
9.0261839676
 30
0.0
 10
11.4396208966
 20
9.0127595412
 30
0.0
 10
11.4288556396
 20
9.0042016801
 30
0.0
 10
11.4175681039
 20
8.9970816103
 30
0.0
 10
11.4058529889
 20
8.9914569545
 30
0.0
 10
11.3938090044
 20
8.9873851238
 30
0.0
 10
11.3855790352
 20
8.9857217732
 30
0.0
 10
11.3814657854
 20
8.9851642597
 30
0.0
  0
SPLINE
  5
470
100
AcDbEntity
  8
0
100
AcDbSpline
 62
9
  6
CONTINUOUS
 70
0
 71
3
 72
9
 73
5
 74
0
 42
0.0000001
 43
0.0000001
 44
0.0000000001
 40
0.0
 40
0.0
 40
0.0
 40
0.0
 40
0.4957412418
 40
1.0
 40
1.0
 40
1.0
 40
1.0
 10
11.3898541319
 20
8.9949855635
 30
0.0
 10
11.3931968164
 20
8.9957765585
 30
0.0
 10
11.3998569047
 20
8.9977425886
 30
0.0
 10
11.4062699864
 20
9.000402601
 30
0.0
 10
11.4094263708
 20
9.0019010624
 30
0.0
  0
SPLINE
  5
471
100
AcDbEntity
  8
0
100
AcDbSpline
 62
9
  6
CONTINUOUS
 70
0
 71
3
 72
27
 73
23
 74
0
 42
0.0000001
 43
0.0000001
 44
0.0000000001
 40
0.0
 40
0.0
 40
0.0
 40
0.0
 40
0.026162509
 40
0.052968091
 40
0.0804910878
 40
0.1087756694
 40
0.167671414
 40
0.2296826751
 40
0.294514324
 40
0.3616466432
 40
0.4303985641
 40
0.499987421
 40
0.569576598
 40
0.6383293127
 40
0.7054632695
 40
0.7702981424
 40
0.8323137953
 40
0.891214794
 40
0.9195020537
 40
0.9470275224
 40
0.9738353065
 40
1.0
 40
1.0
 40
1.0
 40
1.0
 10
11.4094263708
 20
9.0019010624
 30
0.0
 10
11.412610205
 20
9.0034125554
 30
0.0
 10
11.4189053309
 20
9.0068007322
 30
0.0
 10
11.4279305318
 20
9.012837306
 30
0.0
 10
11.4365924774
 20
9.0198487514
 30
0.0
 10
11.4477378861
 20
9.0305741147
 30
0.0
 10
11.4604430245
 20
9.0462614664
 30
0.0
 10
11.4732405721
 20
9.0678512336
 30
0.0
 10
11.4835159055
 20
9.0919540588
 30
0.0
 10
11.4910281283
 20
9.1179936954
 30
0.0
 10
11.4956083726
 20
9.1453512394
 30
0.0
 10
11.4971493417
 20
9.1733761746
 30
0.0
 10
11.4956118606
 20
9.2014014123
 30
0.0
 10
11.4910348541
 20
9.2287598766
 30
0.0
 10
11.4835257846
 20
9.2548011918
 30
0.0
 10
11.4732536331
 20
9.2789067242
 30
0.0
 10
11.4604583598
 20
9.3004998584
 30
0.0
 10
11.4477547729
 20
9.3161905789
 30
0.0
 10
11.4366103205
 20
9.3269189472
 30
0.0
 10
11.4279490058
 20
9.333932751
 30
0.0
 10
11.4189241305
 20
9.3399714765
 30
0.0
 10
11.4126291752
 20
9.3433612079
 30
0.0
 10
11.4094453842
 20
9.3448734779
 30
0.0
  0
SPLINE
  5
472
100
AcDbEntity
  8
0
100
AcDbSpline
 62
9
  6
CONTINUOUS
 70
0
 71
3
 72
9
 73
5
 74
0
 42
0.0000001
 43
0.0000001
 44
0.0000000001
 40
0.0
 40
0.0
 40
0.0
 40
0.0
 40
0.5042595078
 40
1.0
 40
1.0
 40
1.0
 40
1.0
 10
11.4094453842
 20
9.3448734779
 30
0.0
 10
11.4062925486
 20
9.3463710442
 30
0.0
 10
11.3998867919
 20
9.3490299906
 30
0.0
 10
11.3932343401
 20
9.3509965251
 30
0.0
 10
11.3898954563
 20
9.3517882096
 30
0.0
  0
LINE
  5
473
100
AcDbEntity
  8
0
100
AcDbLine
 62
7
  6
CONTINUOUS
 10
22.0650492539
 20
11.5461762154
 11
22.0622948373
 21
11.5477515239
  0
SPLINE
  5
474
100
AcDbEntity
  8
0
100
AcDbSpline
 62
7
  6
CONTINUOUS
 70
0
 71
3
 72
11
 73
7
 74
0
 42
0.0000001
 43
0.0000001
 44
0.0000000001
 40
0.0
 40
0.0
 40
0.0
 40
0.0
 40
0.2620304421
 40
0.5196994628
 40
0.7673399539
 40
1.0
 40
1.0
 40
1.0
 40
1.0
 10
20.4329256367
 20
11.411391804
 30
0.0
 10
20.4329256367
 20
11.4172029353
 30
0.0
 10
20.4330051917
 20
11.4287285004
 30
0.0
 10
20.4332786296
 20
11.4457440106
 30
0.0
 10
20.4336279418
 20
11.4621062933
 30
0.0
 10
20.4337676314
 20
11.4727578256
 30
0.0
 10
20.4337665519
 20
11.4779176003
 30
0.0
  0
SPLINE
  5
475
100
AcDbEntity
  8
0
100
AcDbSpline
 62
7
  6
CONTINUOUS
 70
0
 71
3
 72
42
 73
38
 74
0
 42
0.0000001
 43
0.0000001
 44
0.0000000001
 40
0.0
 40
0.0
 40
0.0
 40
0.0
 40
0.0984084179
 40
0.1963629563
 40
0.292895248
 40
0.3871026604
 40
0.4330474126
 40
0.4780371295
 40
0.5645180972
 40
0.6452329434
 40
0.7190604178
 40
0.7850209577
 40
0.8147949251
 40
0.8423915352
 40
0.8677820966
 40
0.8909257275
 40
0.9117990235
 40
0.9304222841
 40
0.946814702
 40
0.9609891526
 40
0.9729528369
 40
0.9781081229
 40
0.9827146289
 40
0.9867740554
 40
0.9902880339
 40
0.9932581271
 40
0.9956858287
 40
0.9966967316
 40
0.9975725658
 40
0.9983134997
 40
0.9989196979
 40
0.9993913231
 40
0.9997285388
 40
0.9998467797
 40
0.9999314331
 40
0.9999824926
 40
1.0
 40
1.0
 40
1.0
 40
1.0
 10
20.0069170761
 20
11.411391804
 30
0.0
 10
20.0069170761
 20
11.4167416614
 30
0.0
 10
20.0074391286
 20
11.4274231962
 30
0.0
 10
20.0097174611
 20
11.4432057143
 30
0.0
 10
20.0134493855
 20
11.4584744298
 30
0.0
 10
20.0176645738
 20
11.4706526128
 30
0.0
 10
20.0216147792
 20
11.4799135537
 30
0.0
 10
20.0258079083
 20
11.4886025222
 30
0.0
 10
20.0314993411
 20
11.4986543128
 30
0.0
 10
20.0389243847
 20
11.5094694775
 30
0.0
 10
20.0465129999
 20
11.5187651121
 30
0.0
 10
20.0528715795
 20
11.5254513854
 30
0.0
 10
20.0577536751
 20
11.5300485657
 30
0.0
 10
20.0611317534
 20
11.5330216127
 30
0.0
 10
20.0643237449
 20
11.5356570811
 30
0.0
 10
20.0673016821
 20
11.5379750287
 30
0.0
 10
20.0700429223
 20
11.5399960681
 30
0.0
 10
20.0725331652
 20
11.5417373321
 30
0.0
 10
20.0747597702
 20
11.5432187342
 30
0.0
 10
20.0767108621
 20
11.544459599
 30
0.0
 10
20.0781605922
 20
11.5453499067
 30
0.0
 10
20.0791727308
 20
11.5459586251
 30
0.0
 10
20.0798190444
 20
11.5463418348
 30
0.0
 10
20.0803906485
 20
11.5466760679
 30
0.0
 10
20.08088718
 20
11.546962427
 30
0.0
 10
20.0813082597
 20
11.5472020359
 30
0.0
 10
20.0816120123
 20
11.5473726836
 30
0.0
 10
20.0818169397
 20
11.5474867733
 30
0.0
 10
20.0819419154
 20
11.5475559818
 30
0.0
 10
20.0820477002
 20
11.5476143581
 30
0.0
 10
20.0821344339
 20
11.5476619778
 30
0.0
 10
20.0822015801
 20
11.5476991385
 30
0.0
 10
20.082246218
 20
11.5477233517
 30
0.0
 10
20.0822711027
 20
11.5477379677
 30
0.0
 10
20.0822842688
 20
11.5477444315
 30
0.0
 10
20.0822893591
 20
11.5477493262
 30
0.0
 10
20.0822947219
 20
11.5477505931
 30
0.0
 10
20.0822945232
 20
11.5477515239
 30
0.0
  0
LINE
  5
476
100
AcDbEntity
  8
0
100
AcDbLine
 62
7
  6
CONTINUOUS
 10
20.0821278711
 20
10.7120318229
 11
20.0822945103
 21
10.7118251083
  0
LINE
  5
477
100
AcDbEntity
  8
0
100
AcDbLine
 62
7
  6
CONTINUOUS
 10
22.0624614894
 20
10.7120318229
 11
22.0622948502
 21
10.7118251083
  0
SPLINE
  5
478
100
AcDbEntity
  8
0
100
AcDbSpline
 62
7
  6
CONTINUOUS
 70
0
 71
3
 72
11
 73
7
 74
0
 42
0.0000001
 43
0.0000001
 44
0.0000000001
 40
0.0
 40
0.0
 40
0.0
 40
0.0
 40
0.2326569628
 40
0.480283092
 40
0.7379516991
 40
1.0
 40
1.0
 40
1.0
 40
1.0
 10
21.7108229267
 20
11.4779174457
 30
0.0
 10
21.710822226
 20
11.4727577515
 30
0.0
 10
21.7109616398
 20
11.4621066349
 30
0.0
 10
21.7113106394
 20
11.4457447775
 30
0.0
 10
21.7115843806
 20
11.4287292446
 30
0.0
 10
21.7116637237
 20
11.4172033177
 30
0.0
 10
21.7116637237
 20
11.411391804
 30
0.0
  0
LINE
  5
479
100
AcDbEntity
  8
0
100
AcDbLine
 62
7
  6
CONTINUOUS
 10
20.0822945232
 20
11.5477515239
 11
20.0789800298
 21
11.5458406811
  0
SPLINE
  5
47A
100
AcDbEntity
  8
0
100
AcDbSpline
 62
7
  6
CONTINUOUS
 70
0
 71
3
 72
42
 73
38
 74
0
 42
0.0000001
 43
0.0000001
 44
0.0000000001
 40
0.0
 40
0.0
 40
0.0
 40
0.0
 40
0.0000163507
 40
0.0000662643
 40
0.0001498195
 40
0.0002670403
 40
0.0006025511
 40
0.0010729327
 40
0.0016783154
 40
0.00241883
 40
0.0032946084
 40
0.0043057839
 40
0.0067348664
 40
0.00970718
 40
0.0132238532
 40
0.0172860426
 40
0.0218949326
 40
0.0270516656
 40
0.0390126457
 40
0.0531794171
 40
0.0695671106
 40
0.0881960702
 40
0.109091521
 40
0.1322545366
 40
0.1576483073
 40
0.2150150598
 40
0.281016264
 40
0.3548633182
 40
0.3944263537
 40
0.4355978656
 40
0.5220784393
 40
0.5670653501
 40
0.6130028574
 40
0.7071834415
 40
0.8036842463
 40
0.9016124294
 40
1.0
 40
1.0
 40
1.0
 40
1.0
 10
22.0622948373
 20
11.5477515239
 30
0.0
 10
22.0622950229
 20
11.5477523932
 30
0.0
 10
22.0622999657
 20
11.5477481563
 30
0.0
 10
22.0623055942
 20
11.5477471202
 30
0.0
 10
22.062318611
 20
11.5477393114
 30
0.0
 10
22.0623437964
 20
11.5477265679
 30
0.0
 10
22.0623883896
 20
11.547702056
 30
0.0
 10
22.0624555363
 20
11.5476656427
 30
0.0
 10
22.0625421153
 20
11.5476178921
 30
0.0
 10
22.062647706
 20
11.5475593527
 30
0.0
 10
22.0627724275
 20
11.5474896906
 30
0.0
 10
22.0629769748
 20
11.5473747446
 30
0.0
 10
22.0632802055
 20
11.5472027323
 30
0.0
 10
22.0637007804
 20
11.5469615423
 30
0.0
 10
22.0641970705
 20
11.546673921
 30
0.0
 10
22.0647688551
 20
11.5463391413
 30
0.0
 10
22.0654159203
 20
11.545956486
 30
0.0
 10
22.0664299594
 20
11.5453507979
 30
0.0
 10
22.067881047
 20
11.5444635583
 30
0.0
 10
22.0698308424
 20
11.5432220935
 30
0.0
 10
22.0720557187
 20
11.5417386983
 30
0.0
 10
22.0745455271
 20
11.539994587
 30
0.0
 10
22.077289334
 20
11.5379726937
 30
0.0
 10
22.0802705436
 20
11.5356548624
 30
0.0
 10
22.0847118251
 20
11.5319883292
 30
0.0
 10
22.0906904266
 20
11.5265320774
 30
0.0
 10
22.0980835964
 20
11.5187546209
 30
0.0
 10
22.1042577433
 20
11.5111896463
 30
0.0
 10
22.1091697691
 20
11.5043681678
 30
0.0
 10
22.1141586281
 20
11.4967661111
 30
0.0
 10
22.118789469
 20
11.4885863298
 30
0.0
 10
22.1229812589
 20
11.479897467
 30
0.0
 10
22.1269311262
 20
11.4706383827
 30
0.0
 10
22.1311434499
 20
11.4584628082
 30
0.0
 10
22.1348732466
 20
11.44319819
 30
0.0
 10
22.1371505794
 20
11.427419678
 30
0.0
 10
22.1376722844
 20
11.416740588
 30
0.0
 10
22.1376722844
 20
11.411391804
 30
0.0
  0
SPLINE
  5
47B
100
AcDbEntity
  8
0
100
AcDbSpline
 62
7
  6
CONTINUOUS
 70
0
 71
3
 72
30
 73
26
 74
0
 42
0.0000001
 43
0.0000001
 44
0.0000000001
 40
0.0
 40
0.0
 40
0.0
 40
0.0
 40
0.0503501029
 40
0.0983957456
 40
0.1444139998
 40
0.1668860932
 40
0.1891621729
 40
0.2114333289
 40
0.2339413529
 40
0.256971559
 40
0.2808299482
 40
0.3058175994
 40
0.3321959465
 40
0.3601537675
 40
0.3897908864
 40
0.421115891
 40
0.4540554797
 40
0.4884762732
 40
0.5242102458
 40
0.5988626909
 40
0.6766468448
 40
0.7564110552
 40
0.8372850841
 40
0.9186418782
 40
1.0
 40
1.0
 40
1.0
 40
1.0
 10
21.7108227652
 20
10.7854649767
 30
0.0
 10
21.7108228806
 20
10.7804000891
 30
0.0
 10
21.7113551058
 20
10.7704879675
 30
0.0
 10
21.7140660363
 20
10.7561672442
 30
0.0
 10
21.7181399412
 20
10.7450943659
 30
0.0
 10
21.7225868594
 20
10.7371013452
 30
0.0
 10
21.7265179125
 20
10.731604679
 30
0.0
 10
21.7310991435
 20
10.7266289471
 30
0.0
 10
21.736352433
 20
10.7222457986
 30
0.0
 10
21.7422895106
 20
10.718532282
 30
0.0
 10
21.7489058017
 20
10.7155620336
 30
0.0
 10
21.7561793807
 20
10.7133995252
 30
0.0
 10
21.7640708922
 20
10.7120949101
 30
0.0
 10
21.7725242662
 20
10.7116767704
 30
0.0
 10
21.7814702709
 20
10.7121511493
 30
0.0
 10
21.7908303846
 20
10.7135024416
 30
0.0
 10
21.8005215919
 20
10.7156945956
 30
0.0
 10
21.8104624638
 20
10.7186741738
 30
0.0
 10
21.8241467892
 20
10.7236873959
 30
0.0
 10
21.8413792439
 20
10.7315919413
 30
0.0
 10
21.8617849014
 20
10.7429944825
 30
0.0
 10
21.8819536043
 20
10.7559973335
 30
0.0
 10
21.9017162677
 20
10.7702258538
 30
0.0
 10
21.9209716565
 20
10.7853901426
 30
0.0
 10
21.9334484796
 20
10.7959905204
 30
0.0
 10
21.9395970936
 20
10.801391804
 30
0.0
  0
SPLINE
  5
47C
100
AcDbEntity
  8
0
100
AcDbSpline
 62
7
  6
CONTINUOUS
 70
0
 71
3
 72
24
 73
20
 74
0
 42
0.0000001
 43
0.0000001
 44
0.0000000001
 40
0.0
 40
0.0
 40
0.0
 40
0.0
 40
0.1318150227
 40
0.1968462421
 40
0.2607521203
 40
0.3233095671
 40
0.3844500747
 40
0.4442234714
 40
0.4737112905
 40
0.503016983
 40
0.5613655329
 40
0.5906301596
 40
0.6200773124
 40
0.6798005451
 40
0.7410182984
 40
0.8039038761
 40
0.8683408228
 40
0.933936451
 40
1.0
 40
1.0
 40
1.0
 40
1.0
 10
21.0722946802
 20
11.5477507055
 30
0.0
 10
21.061625921
 20
11.5477507055
 30
0.0
 10
21.0456779107
 20
11.5471048592
 30
0.0
 10
21.0247047657
 20
11.5446830512
 30
0.0
 10
21.0094274199
 20
11.5420043636
 30
0.0
 10
20.9946884257
 20
11.5382850781
 30
0.0
 10
20.9806514729
 20
11.5333703011
 30
0.0
 10
20.9696369696
 20
11.5281122477
 30
0.0
 10
20.9614149623
 20
11.523149748
 30
0.0
 10
20.9536490005
 20
11.5177007698
 30
0.0
 10
20.9464910776
 20
11.5114512519
 30
0.0
 10
20.940080831
 20
11.5044646801
 30
0.0
 10
20.9341410888
 20
11.4969306166
 30
0.0
 10
20.9276613899
 20
11.4865769518
 30
0.0
 10
20.9214610804
 20
11.4730117135
 30
0.0
 10
20.916764249
 20
11.4584607876
 30
0.0
 10
20.9134830388
 20
11.4431714902
 30
0.0
 10
20.9115455072
 20
11.4274001547
 30
0.0
 10
20.9111214488
 20
11.4167388129
 30
0.0
 10
20.9111214488
 20
11.411391804
 30
0.0
  0
SPLINE
  5
47D
100
AcDbEntity
  8
0
100
AcDbSpline
 62
7
  6
CONTINUOUS
 70
0
 71
3
 72
38
 73
34
 74
0
 42
0.0000001
 43
0.0000001
 44
0.0000000001
 40
0.0
 40
0.0
 40
0.0
 40
0.0
 40
0.0394048862
 40
0.0788911136
 40
0.1183774189
 40
0.1578356835
 40
0.1972817615
 40
0.2367383714
 40
0.2761743608
 40
0.2958681545
 40
0.3155267249
 40
0.3546819764
 40
0.3935050509
 40
0.4693269129
 40
0.5415987127
 40
0.5759690632
 40
0.608921046
 40
0.6403080706
 40
0.670016413
 40
0.6979286084
 40
0.7239645115
 40
0.748089724
 40
0.77032683
 40
0.7908371994
 40
0.8099632965
 40
0.8282771584
 40
0.8466353419
 40
0.8660280169
 40
0.8873686443
 40
0.9112500664
 40
0.9380079042
 40
0.9676748569
 40
1.0
 40
1.0
 40
1.0
 40
1.0
 10
21.9395970936
 20
11.411391804
 30
0.0
 10
21.9395970936
 20
11.4160170892
 30
0.0
 10
21.939093401
 20
11.4252847782
 30
0.0
 10
21.9368480723
 20
11.4390233423
 30
0.0
 10
21.9331129982
 20
11.4524432037
 30
0.0
 10
21.9279153871
 20
11.4653617279
 30
0.0
 10
21.9213152426
 20
11.4776206258
 30
0.0
 10
21.9133713522
 20
11.4890500752
 30
0.0
 10
21.9057488906
 20
11.497789514
 30
0.0
 10
21.8991234472
 20
11.5042471729
 30
0.0
 10
21.8921843357
 20
11.510316621
 30
0.0
 10
21.8829852651
 20
11.5171865425
 30
0.0
 10
21.8675464448
 20
11.526586642
 30
0.0
 10
21.8473769885
 20
11.5354768265
 30
0.0
 10
21.8267258093
 20
11.5413514317
 30
0.0
 10
21.8106384301
 20
11.5444920657
 30
0.0
 10
21.7991674173
 20
11.5461547189
 30
0.0
 10
21.788176748
 20
11.5472296485
 30
0.0
 10
21.7777386461
 20
11.5477557994
 30
0.0
 10
21.7679152052
 20
11.5477884872
 30
0.0
 10
21.7587576847
 20
11.5473117163
 30
0.0
 10
21.7503134207
 20
11.546290421
 30
0.0
 10
21.7426154113
 20
11.5446958583
 30
0.0
 10
21.7356950348
 20
11.5424279228
 30
0.0
 10
21.7295851819
 20
11.5393674695
 30
0.0
 10
21.724334306
 20
11.5353809307
 30
0.0
 10
21.7199963297
 20
11.5303681949
 30
0.0
 10
21.7166017549
 20
11.5242695585
 30
0.0
 10
21.714127758
 20
11.5170689519
 30
0.0
 10
21.712425655
 20
11.5087769349
 30
0.0
 10
21.7113921361
 20
11.4993982981
 30
0.0
 10
21.7108961104
 20
11.4889889239
 30
0.0
 10
21.7108234419
 20
11.4817117214
 30
0.0
 10
21.7108229267
 20
11.4779174457
 30
0.0
  0
SPLINE
  5
47E
100
AcDbEntity
  8
0
100
AcDbSpline
 62
7
  6
CONTINUOUS
 70
0
 71
3
 72
30
 73
26
 74
0
 42
0.0000001
 43
0.0000001
 44
0.0000000001
 40
0.0
 40
0.0
 40
0.0
 40
0.0
 40
0.0813579605
 40
0.1627145628
 40
0.2435885414
 40
0.32335271
 40
0.4011369133
 40
0.4757894149
 40
0.5115235536
 40
0.5459443836
 40
0.5788838993
 40
0.6102089651
 40
0.63984613
 40
0.6678039275
 40
0.6941822531
 40
0.7191699664
 40
0.7430283588
 40
0.7660584688
 40
0.7885664894
 40
0.810837641
 40
0.8331137266
 40
0.8555858025
 40
0.9016040895
 40
0.9496497684
 40
1.0
 40
1.0
 40
1.0
 40
1.0
 10
20.2049922669
 20
10.801391804
 30
0.0
 10
20.2111408686
 20
10.7959905311
 30
0.0
 10
20.2236176663
 20
10.7853901785
 30
0.0
 10
20.2428730203
 20
10.7702259115
 30
0.0
 10
20.2626356566
 20
10.7559974027
 30
0.0
 10
20.282804351
 20
10.7429945464
 30
0.0
 10
20.3032100109
 20
10.7315919972
 30
0.0
 10
20.3204424851
 20
10.7236874279
 30
0.0
 10
20.3341268356
 20
10.7186741994
 30
0.0
 10
20.3440677159
 20
10.7156946035
 30
0.0
 10
20.353758927
 20
10.713502455
 30
0.0
 10
20.3631190423
 20
10.7121511518
 30
0.0
 10
20.3720650557
 20
10.7116767702
 30
0.0
 10
20.3805184292
 20
10.712094909
 30
0.0
 10
20.3884099451
 20
10.7133995111
 30
0.0
 10
20.3956835253
 20
10.7155620296
 30
0.0
 10
20.4022998213
 20
10.7185322591
 30
0.0
 10
20.4082368898
 20
10.7222457728
 30
0.0
 10
20.4134901742
 20
10.7266289102
 30
0.0
 10
20.4180714134
 20
10.7316046343
 30
0.0
 10
20.4220024707
 20
10.7371012957
 30
0.0
 10
20.4264493951
 20
10.7450943153
 30
0.0
 10
20.4305233117
 20
10.7561671947
 30
0.0
 10
20.4332342565
 20
10.770487936
 30
0.0
 10
20.4337664806
 20
10.7804000744
 30
0.0
 10
20.4337665972
 20
10.7854649749
 30
0.0
  0
SPLINE
  5
47F
100
AcDbEntity
  8
0
100
AcDbSpline
 62
7
  6
CONTINUOUS
 70
0
 71
3
 72
38
 73
34
 74
0
 42
0.0000001
 43
0.0000001
 44
0.0000000001
 40
0.0
 40
0.0
 40
0.0
 40
0.0
 40
0.0323250739
 40
0.0619898224
 40
0.0887481083
 40
0.1126259847
 40
0.133956603
 40
0.1533400634
 40
0.1716922098
 40
0.1900027053
 40
0.2091166909
 40
0.2296133271
 40
0.2518447279
 40
0.2759587983
 40
0.3019863603
 40
0.3298958948
 40
0.3595980517
 40
0.3909894104
 40
0.4583044766
 40
0.4939228669
 40
0.5306491643
 40
0.5682578227
 40
0.6065593015
 40
0.6454037017
 40
0.6845749747
 40
0.7042390176
 40
0.7239367989
 40
0.7633786813
 40
0.8028394066
 40
0.8422849046
 40
0.8817394271
 40
0.9212227414
 40
1.0
 40
1.0
 40
1.0
 40
1.0
 10
20.4337665519
 20
11.4779176003
 30
0.0
 10
20.4337657581
 20
11.4817117076
 30
0.0
 10
20.4336926251
 20
11.4889883308
 30
0.0
 10
20.4331965633
 20
11.4993970268
 30
0.0
 10
20.4321649594
 20
11.508774791
 30
0.0
 10
20.4304651261
 20
11.5170654129
 30
0.0
 10
20.4279908007
 20
11.5242628666
 30
0.0
 10
20.4245984333
 20
11.5303584625
 30
0.0
 10
20.4202672721
 20
11.5353738473
 30
0.0
 10
20.4150184799
 20
11.5393590962
 30
0.0
 10
20.4089118472
 20
11.5424174831
 30
0.0
 10
20.4019961325
 20
11.544685635
 30
0.0
 10
20.3943043278
 20
11.5462910823
 30
0.0
 10
20.3858625014
 20
11.5473081932
 30
0.0
 10
20.3767081464
 20
11.547781538
 30
0.0
 10
20.366887153
 20
11.5477635964
 30
0.0
 10
20.3564496819
 20
11.5472321429
 30
0.0
 10
20.3414466643
 20
11.5457605362
 30
0.0
 10
20.3258680526
 20
11.5431375608
 30
0.0
 10
20.3099720723
 20
11.5391023408
 30
0.0
 10
20.2976721709
 20
11.5351641073
 30
0.0
 10
20.2853801114
 20
11.5302647486
 30
0.0
 10
20.2732869624
 20
11.5242974321
 30
0.0
 10
20.2616103206
 20
11.5171873425
 30
0.0
 10
20.2524070216
 20
11.5103161825
 30
0.0
 10
20.245464816
 20
11.504246239
 30
0.0
 10
20.2388378011
 20
11.4977881366
 30
0.0
 10
20.2312158307
 20
11.489046709
 30
0.0
 10
20.2232721244
 20
11.4776164214
 30
0.0
 10
20.216671747
 20
11.465359025
 30
0.0
 10
20.211475363
 20
11.452438905
 30
0.0
 10
20.2065034854
 20
11.4345807621
 30
0.0
 10
20.2049922669
 20
11.4206381673
 30
0.0
 10
20.2049922669
 20
11.411391804
 30
0.0
  0
SPLINE
  5
480
100
AcDbEntity
  8
0
100
AcDbSpline
 62
7
  6
CONTINUOUS
 70
0
 71
3
 72
13
 73
9
 74
0
 42
0.0000001
 43
0.0000001
 44
0.0000000001
 40
0.0
 40
0.0
 40
0.0
 40
0.0
 40
0.136191943
 40
0.2704629461
 40
0.4014873323
 40
0.528668416
 40
0.7711438777
 40
1.0
 40
1.0
 40
1.0
 40
1.0
 10
21.0722946802
 20
10.7118248749
 30
0.0
 10
21.0636183704
 20
10.7118248749
 30
0.0
 10
21.0463591185
 20
10.7131595144
 30
0.0
 10
21.021358215
 20
10.7189541393
 30
0.0
 10
20.9979573834
 20
10.7279796927
 30
0.0
 10
20.9698359101
 20
10.7431793183
 30
0.0
 10
20.939584146
 20
10.7668722985
 30
0.0
 10
20.9197383917
 20
10.7896311246
 30
0.0
 10
20.9111214488
 20
10.801391804
 30
0.0
  0
SPLINE
  5
481
100
AcDbEntity
  8
0
100
AcDbSpline
 62
7
  6
CONTINUOUS
 70
0
 71
3
 72
13
 73
9
 74
0
 42
0.0000001
 43
0.0000001
 44
0.0000000001
 40
0.0
 40
0.0
 40
0.0
 40
0.0
 40
0.1361907985
 40
0.270461374
 40
0.4014855005
 40
0.5286666724
 40
0.7711427289
 40
1.0
 40
1.0
 40
1.0
 40
1.0
 10
21.0722946802
 20
10.7118248749
 30
0.0
 10
21.0809709172
 20
10.7118248749
 30
0.0
 10
21.0982300696
 20
10.7131594847
 30
0.0
 10
21.1232308644
 20
10.7189540615
 30
0.0
 10
21.1466316765
 20
10.7279795568
 30
0.0
 10
21.1747532008
 20
10.7431791456
 30
0.0
 10
21.2050050986
 20
10.7668721511
 30
0.0
 10
21.2248509255
 20
10.7896310655
 30
0.0
 10
21.2334679117
 20
10.801391804
 30
0.0
  0
SPLINE
  5
482
100
AcDbEntity
  8
0
100
AcDbSpline
 62
7
  6
CONTINUOUS
 70
0
 71
3
 72
23
 73
19
 74
0
 42
0.0000001
 43
0.0000001
 44
0.0000000001
 40
0.0
 40
0.0
 40
0.0
 40
0.0
 40
0.0660993249
 40
0.1317049002
 40
0.1961364174
 40
0.2590232211
 40
0.3202497576
 40
0.3799631343
 40
0.438630275
 40
0.4678117974
 40
0.497003133
 40
0.5557591334
 40
0.6155333549
 40
0.6766574847
 40
0.7392290442
 40
0.8031307164
 40
0.8681485227
 40
1.0
 40
1.0
 40
1.0
 40
1.0
 10
21.2334679117
 20
11.411391804
 30
0.0
 10
21.2334679117
 20
11.4167415392
 30
0.0
 10
21.2330431516
 20
11.4274062546
 30
0.0
 10
21.231104912
 20
11.443180187
 30
0.0
 10
21.2278236165
 20
11.4584697096
 30
0.0
 10
21.2231223727
 20
11.4730185558
 30
0.0
 10
21.2169262715
 20
11.4865864297
 30
0.0
 10
21.2091907142
 20
11.4989479312
 30
0.0
 10
21.201424405
 20
11.5080826077
 30
0.0
 10
21.1945264625
 20
11.5145854493
 30
0.0
 10
21.1871614186
 20
11.5205663504
 30
0.0
 10
21.1770886544
 20
11.5270819247
 30
0.0
 10
21.1639444764
 20
11.5333760154
 30
0.0
 10
21.1499035929
 20
11.5382843189
 30
0.0
 10
21.1351651634
 20
11.5419979766
 30
0.0
 10
21.1198899767
 20
11.5446856158
 30
0.0
 10
21.09891491
 20
11.5470989718
 30
0.0
 10
21.0829660523
 20
11.5477507055
 30
0.0
 10
21.0722946802
 20
11.5477507055
 30
0.0
  0
ENDSEC
  0
SECTION
  2
OBJECTS
  0
DICTIONARY
  5
C
100
AcDbDictionary
280
0
281
1
  3
ACAD_GROUP
350
D
  3
ACAD_MLINESTYLE
350
17
  3
ACAD_LAYOUT
350
1A
  3
ACAD_PLOTSETTINGS
350
19
  3
ACAD_PLOTSTYLENAME
350
E
  0
DICTIONARY
  5
D
102
{ACAD_REACTORS
330
C
102
}
100
AcDbDictionary
280
0
281
1
  0
ACDBDICTIONARYWDFLT
  5
E
102
{ACAD_REACTORS
330
C
102
}
100
AcDbDictionary
281
1
  3
Normal
350
F
100
AcDbDictionaryWithDefault
340
F
  0
DICTIONARY
  5
17
102
{ACAD_REACTORS
330
C
102
}
100
AcDbDictionary
280
0
281
1
  3
Standard
350
18
  0
DICTIONARY
  5
19
102
{ACAD_REACTORS
330
C
102
}
100
AcDbDictionary
281
1
  0
DICTIONARY
  5
1A
102
{ACAD_REACTORS
330
C
102
}
100
AcDbDictionary
281
1
  3
Model
350
483
  3
Layout1
350
484
  0
ACDBPLACEHOLDER
  5
F
102
{ACAD_REACTORS
330
E
102
}
  0
MLINESTYLE
  5
18
102
{ACAD_REACTORS
330
17
102
}
100
AcDbMlineStyle
  2
STANDARD
 70
0
  3

 62
256
 51
90.0
 52
90.0
 71
2
 49
0.5
 62
256
  6
BYLAYER
 49
-0.5
 62
256
  6
BYLAYER
  0
LAYOUT
  5
483
102
{ACAD_REACTORS
330
1A
102
}
100
AcDbPlotSettings
  1

  2
none_device
  4
ANSI_C_(22.00_x_17.00_Inches)
  6

 40
0.0
 41
0.0
 42
0.0
 43
0.0
 44
558.8
 45
431.8
 46
0.0
 47
0.0
 48
0.0
 49
0.0
140
0.0
141
0.0
142
1.0
143
1.0
 70
1024
 72
0
 73
0
 74
0
  7

 75
0
147
1.0
148
0.0
149
0.0
100
AcDbLayout
  1
Model
 70
0
 71
0
 10
0.0
 20
0.0
 11
22.0
 21
17.0
 12
0.0
 22
0.0
 32
0.0
 14
0.0
 24
0.0
 34
0.0
 15
0.0
 25
0.0
 35
0.0
146
0.0
 13
0.0
 23
0.0
 33
0.0
 16
1.0
 26
0.0
 36
0.0
 17
0.0
 27
1.0
 37
0.0
 76
0
330
202
345
0
346
0
  0
LAYOUT
  5
484
102
{ACAD_REACTORS
330
1A
102
}
100
AcDbPlotSettings
  1

  2
none_device
  4
ANSI_C_(22.00_x_17.00_Inches)
  6

 40
0.0
 41
0.0
 42
0.0
 43
0.0
 44
558.8
 45
431.8
 46
0.0
 47
0.0
 48
0.0
 49
0.0
140
0.0
141
0.0
142
1.0
143
1.0
 70
0
 72
0
 73
0
 74
0
  7

 75
0
147
1.0
148
0.0
149
0.0
100
AcDbLayout
  1
Layout1
 70
0
 71
1
 10
0.0
 20
0.0
 11
22.0
 21
17.0
 12
0.0
 22
0.0
 32
0.0
 14
0.0
 24
0.0
 34
0.0
 15
0.0
 25
0.0
 35
0.0
146
0.0
 13
0.0
 23
0.0
 33
0.0
 16
1.0
 26
0.0
 36
0.0
 17
0.0
 27
1.0
 37
0.0
 76
0
330
203
345
0
346
0
  0
ENDSEC
  0
EOF
