  0
SECTION
  2
HEADER
  9
$ACADVER
  1
AC1015
  9
$DWGCODEPAGE
  3
ANSI_1252
  9
$EXTMAX
 10
11.6929133858
 20
8.2677165354
 30
0.0
  9
$EXTMIN
 10
0.0
 20
0.0
 30
0.0
  9
$LIMMIN
 10
0.0
 20
0.0
  9
$LIMMAX
 10
11.6929133858
 20
8.2677165354
  9
$VIEWCTR
 10
5.8464566929
 20
4.1338582677
  9
$VIEWSIZE
 40
8.2677165354
  9
$CLAYER
  8
0
  9
$LTSCALE
 40
0.6431102362
  9
$CELTYPE
  6
BYLAYER
  9
$DIMSCALE
 40
1.0
  9
$DIMASZ
 40
0.1
  9
$DIMEXO
 40
0.0730807087
  9
$DIMDLI
 40
0.4443307087
  9
$DIMEXE
 40
0.2104724409
  9
$DIMCEN
 40
0.1052362205
  9
$DIMLFAC
 40
1.0
  9
$DIMBLK
  1
_FILLED
  9
$DIMTXT
 40
0.08
  9
$DIMTOL
 70
1
  9
$DIMLIM
 70
0
  9
$DIMTFAC
 40
1.0
  9
$DIMTP
 40
0.01
  9
$DIMTM
 40
0.01
  9
$PDMODE
 70
3
  9
$PDSIZE
 40
0.06
  9
$HANDSEED
  5
239
  9
$TILEMODE
 70
1
  9
$MEASUREMENT
 70
0
  9
$INSUNITS
 70
1
  0
ENDSEC
  0
SECTION
  2
CLASSES
  0
CLASS
  1
ACDBDICTIONARYWDFLT
  2
AcDbDictionaryWithDefault
  3
AutoCAD 2000
 90
0
280
0
281
0
  0
CLASS
  1
ACDBPLACEHOLDER
  2
AcDbPlaceHolder
  3
AutoCAD 2000
 90
0
280
0
281
0
  0
CLASS
  1
LAYOUT
  2
AcDbLayout
  3
AutoCAD 2000
 90
0
280
0
281
0
  0
ENDSEC
  0
SECTION
  2
TABLES
  0
TABLE
  2
VPORT
  5
8
100
AcDbSymbolTable
 70
2
  0
VPORT
  5
1F4
100
AcDbSymbolTableRecord
100
AcDbViewportTableRecord
  2
*ACTIVE
 70
0
 10
0.0
 20
0.0
 11
1.0
 21
1.0
 12
5.8464566929
 22
4.1338582677
 13
0.0
 23
0.0
 14
1.0
 24
1.0
 15
0.0
 25
0.0
 16
0.0
 26
0.0
 36
1.0
 17
0.0
 27
0.0
 37
0.0
 40
8.2677165354
 41
1.4142857143
 42
50.0
 43
0.0
 44
0.0
 50
0.0
 51
0.0
 71
0
 72
100
 73
1
 74
1
 75
0
 76
0
 77
0
 78
0
  0
ENDTAB
  0
TABLE
  2
LTYPE
  5
5
100
AcDbSymbolTable
 70
6
  0
LTYPE
  5
14
100
AcDbSymbolTableRecord
100
AcDbLinetypeTableRecord
  2
BYBLOCK
 70
0
  3

 72
65
 73
0
 40
0.0
  0
LTYPE
  5
15
100
AcDbSymbolTableRecord
100
AcDbLinetypeTableRecord
  2
BYLAYER
 70
0
  3

 72
65
 73
0
 40
0.0
  0
LTYPE
  5
16
100
AcDbSymbolTableRecord
100
AcDbLinetypeTableRecord
  2
CONTINUOUS
 70
64
  3
Solid line
 72
65
 73
0
 40
0.0
  0
LTYPE
  5
1F5
100
AcDbSymbolTableRecord
100
AcDbLinetypeTableRecord
  2
CENTER
 70
64
  3
____ _ ____ _ ____ _ ____ _ ____ _ ____ _ ____
 72
65
 73
4
 40
0.6
 49
0.375
 74
0
 49
-0.075
 74
0
 49
0.075
 74
0
 49
-0.075
 74
0
  0
LTYPE
  5
1F6
100
AcDbSymbolTableRecord
100
AcDbLinetypeTableRecord
  2
HIDDEN
 70
64
  3
- - - - - - - - - - - - - - - - - - - -
 72
65
 73
2
 40
0.2
 49
0.1
 74
0
 49
-0.1
 74
0
  0
LTYPE
  5
1F7
100
AcDbSymbolTableRecord
100
AcDbLinetypeTableRecord
  2
PHANTOM
 70
64
  3
_____ _ _ _____ _ _ _____ _ _ _____
 72
65
 73
6
 40
0.8
 49
0.45
 74
0
 49
-0.05
 74
0
 49
0.1
 74
0
 49
-0.05
 74
0
 49
0.1
 74
0
 49
-0.05
 74
0
  0
LTYPE
  5
1F8
100
AcDbSymbolTableRecord
100
AcDbLinetypeTableRecord
  2
DOT
 70
64
  3
. . . . . . . . . . . . . . . . . . . .
 72
65
 73
2
 40
0.2
 49
0.1
 74
0
 49
-0.1
 74
0
  0
LTYPE
  5
1F9
100
AcDbSymbolTableRecord
100
AcDbLinetypeTableRecord
  2
DASHED
 70
64
  3
- - - - - - - - - - - - - - - - - - - -
 72
65
 73
2
 40
0.2
 49
0.1
 74
0
 49
-0.1
 74
0
  0
ENDTAB
  0
TABLE
  2
LAYER
  5
2
100
AcDbSymbolTable
 70
36
  0
LAYER
  5
10
100
AcDbSymbolTableRecord
100
AcDbLayerTableRecord
  2
0
 70
0
 62
7
  6
CONTINUOUS
370
-3
390
F
  0
LAYER
  5
1FA
100
AcDbSymbolTableRecord
100
AcDbLayerTableRecord
  2
DEFAULT_1
 70
0
 62
7
  6
CENTER
370
-3
390
F
  0
LAYER
  5
1FB
100
AcDbSymbolTableRecord
100
AcDbLayerTableRecord
  2
DEFAULT_2
 70
0
 62
8
  6
HIDDEN
370
-3
390
F
  0
LAYER
  5
1FC
100
AcDbSymbolTableRecord
100
AcDbLayerTableRecord
  2
DEFAULT_3
 70
0
 62
7
  6
PHANTOM
370
-3
390
F
  0
LAYER
  5
1FD
100
AcDbSymbolTableRecord
100
AcDbLayerTableRecord
  2
DEFAULT_COORDINATE_SYSTEM
 70
0
 62
7
  6
CONTINUOUS
370
-3
390
F
  0
LAYER
  5
1FE
100
AcDbSymbolTableRecord
100
AcDbLayerTableRecord
  2
DEFAULT_DATUM_AXES
 70
0
 62
7
  6
CONTINUOUS
370
-3
390
F
  0
LAYER
  5
1FF
100
AcDbSymbolTableRecord
100
AcDbLayerTableRecord
  2
DEFAULT_DATUM_CURVES
 70
0
 62
7
  6
CONTINUOUS
370
-3
390
F
  0
LAYER
  5
200
100
AcDbSymbolTableRecord
100
AcDbLayerTableRecord
  2
DEFAULT_DATUM_PLANES
 70
0
 62
7
  6
CONTINUOUS
370
-3
390
F
  0
ENDTAB
  0
TABLE
  2
STYLE
  5
3
100
AcDbSymbolTable
 70
1
  0
STYLE
  5
11
100
AcDbSymbolTableRecord
100
AcDbTextStyleTableRecord
  2
STANDARD
 70
0
 40
0.0
 41
0.8
 50
0.0
 71
0
 42
0.2
  3
txt
  4

  0
STYLE
  5
201
100
AcDbSymbolTableRecord
100
AcDbTextStyleTableRecord
  2
TEXTSTYLE_1
 70
0
 40
0.0
 41
0.8
 50
0.0
 71
0
 42
0.2
  3
gdt
  4

  0
ENDTAB
  0
TABLE
  2
VIEW
  5
6
100
AcDbSymbolTable
 70
0
  0
ENDTAB
  0
TABLE
  2
UCS
  5
7
100
AcDbSymbolTable
 70
0
  0
ENDTAB
  0
TABLE
  2
APPID
  5
9
100
AcDbSymbolTable
 70
1
  0
APPID
  5
202
100
AcDbSymbolTableRecord
100
AcDbRegAppTableRecord
  2
ACAD
 70
0
  0
ENDTAB
  0
TABLE
  2
BLOCK_RECORD
  5
1
100
AcDbSymbolTable
 70
0
  0
BLOCK_RECORD
  5
203
100
AcDbSymbolTableRecord
100
AcDbBlockTableRecord
  2
*Model_Space
  0
BLOCK_RECORD
  5
204
100
AcDbSymbolTableRecord
100
AcDbBlockTableRecord
  2
*Paper_Space
  0
ENDTAB
  0
TABLE
  2
DIMSTYLE
  5
A
100
AcDbSymbolTable
 70
1
100
AcDbDimStyleTable
 71
0
  0
DIMSTYLE
105
205
100
AcDbSymbolTableRecord
100
AcDbDimStyleTableRecord
  2
STANDARD
 70
0
  3

  4

 40
1.0
 41
0.1
 42
0.0625
 43
0.38
 44
0.18
 45
0.0
 46
0.0
 47
0.01
 48
0.01
140
0.08
141
0.09
142
0.0
143
25.4
144
1.0
145
0.0
146
1.0
147
0.09
 71
1.0
 72
0.0
 73
1
 74
1
 75
0
 76
0
 77
0
 78
4
170
0
171
2
172
0
173
0
174
0
175
0
176
0
177
0
178
0
270
2
271
2
272
2
273
2
274
2
275
0
280
0
281
0
282
0
283
1
284
4
285
0
286
0
287
3
288
0
340
11
  0
ENDTAB
  0
ENDSEC
  0
SECTION
  2
BLOCKS
  0
BLOCK
  5
20
100
AcDbEntity
  8
0
100
AcDbBlockBegin
  2
*Model_Space
 70
0
 10
0.0
 20
0.0
 30
0.0
  3
*Model_Space
  1

  0
ENDBLK
  5
21
100
AcDbEntity
  8
0
100
AcDbBlockEnd
  0
BLOCK
  5
1C
100
AcDbEntity
  8
0
100
AcDbBlockBegin
  2
*Paper_Space
 70
0
 10
0.0
 20
0.0
 30
0.0
  3
*Paper_Space
  1

  0
ENDBLK
  5
1D
100
AcDbEntity
  8
0
100
AcDbBlockEnd
  0
ENDSEC
  0
SECTION
  2
ENTITIES
  0
LINE
  5
206
100
AcDbEntity
  8
0
100
AcDbLine
 62
6
  6
CONTINUOUS
 10
5.3217285925
 20
2.3198595332
 11
5.7317285925
 21
2.3198595332
  0
LINE
  5
207
100
AcDbEntity
  8
0
100
AcDbLine
 62
9
  6
CONTINUOUS
 10
5.356043123
 20
2.3690516922
 11
5.6974140621
 21
2.3690516922
  0
LINE
  5
208
100
AcDbEntity
  8
0
100
AcDbLine
 62
6
  6
CONTINUOUS
 10
5.3467285925
 20
2.3937457901
 11
5.7067285925
 21
2.3937457901
  0
LINE
  5
209
100
AcDbEntity
  8
0
100
AcDbLine
 62
9
  6
CONTINUOUS
 10
5.3350850282
 20
2.4207197323
 11
5.7183721569
 21
2.4207197323
  0
LINE
  5
20A
100
AcDbEntity
  8
0
100
AcDbLine
 62
9
  6
CONTINUOUS
 10
5.7148714497
 20
2.6720443623
 11
5.5293128144
 21
2.6720443594
  0
LINE
  5
20B
100
AcDbEntity
  8
0
100
AcDbLine
 62
9
  6
CONTINUOUS
 10
5.524144185
 20
2.6720443598
 11
5.3385857354
 21
2.6720443623
  0
LINE
  5
20C
100
AcDbEntity
  8
0
100
AcDbLine
 62
9
  6
CONTINUOUS
 10
5.7227285925
 20
2.6926697874
 11
5.675646798
 21
2.6926697786
  0
LINE
  5
20D
100
AcDbEntity
  8
0
100
AcDbLine
 62
9
  6
CONTINUOUS
 10
5.3778104002
 20
2.6926697846
 11
5.3307285925
 21
2.6926697874
  0
LINE
  5
20E
100
AcDbEntity
  8
0
100
AcDbLine
 62
7
  6
CONTINUOUS
 10
5.3307285925
 20
2.7068595332
 11
5.3337062729
 21
2.7068595332
  0
LINE
  5
20F
100
AcDbEntity
  8
0
100
AcDbLine
 62
7
  6
CONTINUOUS
 10
5.7197509121
 20
2.7068595332
 11
5.7227285925
 21
2.7068595332
  0
LINE
  5
210
100
AcDbEntity
  8
0
100
AcDbLine
 62
6
  6
CONTINUOUS
 10
5.7317285925
 20
2.3198595332
 11
5.6974140621
 21
2.3690516922
  0
LINE
  5
211
100
AcDbEntity
  8
0
100
AcDbLine
 62
7
  6
CONTINUOUS
 10
5.7237285925
 20
3.7518595332
 11
5.7211508135
 21
3.7518595332
  0
LINE
  5
212
100
AcDbEntity
  8
0
100
AcDbLine
 62
7
  6
CONTINUOUS
 10
5.3346677938
 20
3.7518595332
 11
5.3297285925
 21
3.7518595332
  0
LINE
  5
213
100
AcDbEntity
  8
0
100
AcDbLine
 62
6
  6
CONTINUOUS
 10
5.7237285925
 20
3.8118595332
 11
5.3297285925
 21
3.8118595332
  0
LINE
  5
214
100
AcDbEntity
  8
0
100
AcDbLine
 62
6
  6
CONTINUOUS
 10
5.2452285925
 20
4.0118595332
 11
5.3297285925
 21
3.8118595332
  0
LINE
  5
215
100
AcDbEntity
  8
0
100
AcDbLine
 62
6
  6
CONTINUOUS
 10
5.2452285925
 20
6.5058595332
 11
5.2452285925
 21
6.4058595332
  0
LINE
  5
216
100
AcDbEntity
  8
0
100
AcDbLine
 62
6
  6
CONTINUOUS
 10
5.2452285925
 20
4.1168595332
 11
5.2452285925
 21
4.0118595332
  0
LINE
  5
217
100
AcDbEntity
  8
0
100
AcDbLine
 62
6
  6
CONTINUOUS
 10
5.3297285925
 20
3.8118595332
 11
5.3297285925
 21
3.7518595332
  0
LINE
  5
218
100
AcDbEntity
  8
0
100
AcDbLine
 62
6
  6
CONTINUOUS
 10
5.3307285925
 20
2.7068595332
 11
5.3307285925
 21
2.6926697874
  0
LINE
  5
219
100
AcDbEntity
  8
0
100
AcDbLine
 62
6
  6
CONTINUOUS
 10
5.8082285925
 20
4.0118595332
 11
5.2452285925
 21
4.0118595332
  0
LINE
  5
21A
100
AcDbEntity
  8
0
100
AcDbLine
 62
6
  6
CONTINUOUS
 10
5.8082285925
 20
4.1168595332
 11
5.2452285925
 21
4.1168595332
  0
LINE
  5
21B
100
AcDbEntity
  8
0
100
AcDbLine
 62
6
  6
CONTINUOUS
 10
5.7227285925
 20
2.7068595332
 11
5.7227285925
 21
2.6926697874
  0
LINE
  5
21C
100
AcDbEntity
  8
0
100
AcDbLine
 62
6
  6
CONTINUOUS
 10
5.7237285925
 20
3.8118595332
 11
5.7237285925
 21
3.7518595332
  0
LINE
  5
21D
100
AcDbEntity
  8
0
100
AcDbLine
 62
6
  6
CONTINUOUS
 10
5.8082285925
 20
6.5058595332
 11
5.8082285925
 21
6.4058595332
  0
LINE
  5
21E
100
AcDbEntity
  8
0
100
AcDbLine
 62
6
  6
CONTINUOUS
 10
5.8082285925
 20
4.1168595332
 11
5.8082285925
 21
4.0118595332
  0
LINE
  5
21F
100
AcDbEntity
  8
0
100
AcDbLine
 62
6
  6
CONTINUOUS
 10
5.8082285925
 20
4.0118595332
 11
5.7237285925
 21
3.8118595332
  0
LINE
  5
220
100
AcDbEntity
  8
0
100
AcDbLine
 62
6
  6
CONTINUOUS
 10
5.356043123
 20
2.3690516922
 11
5.3217285925
 21
2.3198595332
  0
LINE
  5
221
100
AcDbEntity
  8
0
100
AcDbLine
 62
6
  6
CONTINUOUS
 10
5.8082285925
 20
6.4058595332
 11
5.2452285925
 21
6.4058595332
  0
LINE
  5
222
100
AcDbEntity
  8
0
100
AcDbLine
 62
6
  6
CONTINUOUS
 10
5.8082285925
 20
6.5058595332
 11
5.2452285925
 21
6.5058595332
  0
ARC
  5
223
100
AcDbEntity
  8
0
100
AcDbCircle
 62
6
  6
CONTINUOUS
 10
-0.99815473
 20
4.4026159482
 40
6.2499193627
100
AcDbArc
 50
357.379430777
 51
359.7033246747
  0
ARC
  5
224
100
AcDbEntity
  8
0
100
AcDbCircle
 62
6
  6
CONTINUOUS
 10
5.1997285925
 20
2.5482918113
 40
0.186
100
AcDbArc
 50
316.6958241996
 51
41.7081302521
  0
ARC
  5
225
100
AcDbEntity
  8
0
100
AcDbCircle
 62
6
  6
CONTINUOUS
 10
5.3467285925
 20
2.4097457901
 40
0.016
100
AcDbArc
 50
136.6958241996
 51
270.0
  0
ARC
  5
226
100
AcDbEntity
  8
0
100
AcDbCircle
 62
6
  6
CONTINUOUS
 10
5.3429203932
 20
2.3782055964
 40
0.016
100
AcDbArc
 50
325.101876439
 51
76.2307362332
  0
ARC
  5
227
100
AcDbEntity
  8
0
100
AcDbCircle
 62
6
  6
CONTINUOUS
 10
5.3617285925
 20
2.6926697874
 40
0.031
100
AcDbArc
 50
180.0
 51
221.7081302521
  0
ARC
  5
228
100
AcDbEntity
  8
0
100
AcDbCircle
 62
6
  6
CONTINUOUS
 10
5.5267285925
 20
2.1768595332
 40
0.25
100
AcDbArc
 50
145.101876439
 51
34.898123561
  0
ARC
  5
229
100
AcDbEntity
  8
0
100
AcDbCircle
 62
6
  6
CONTINUOUS
 10
5.7067285925
 20
2.4097457901
 40
0.016
100
AcDbArc
 50
270.0
 51
43.3041758004
  0
ARC
  5
22A
100
AcDbEntity
  8
0
100
AcDbCircle
 62
6
  6
CONTINUOUS
 10
5.7105367919
 20
2.3782055964
 40
0.016
100
AcDbArc
 50
103.7692637668
 51
214.898123561
  0
ARC
  5
22B
100
AcDbEntity
  8
0
100
AcDbCircle
 62
6
  6
CONTINUOUS
 10
5.8537285925
 20
2.5482918113
 40
0.186
100
AcDbArc
 50
138.2918697479
 51
223.3041758004
  0
ARC
  5
22C
100
AcDbEntity
  8
0
100
AcDbCircle
 62
6
  6
CONTINUOUS
 10
5.6917285925
 20
2.6926697874
 40
0.031
100
AcDbArc
 50
318.2918697479
 51
360.0
  0
CIRCLE
  5
22D
100
AcDbEntity
  8
0
100
AcDbCircle
 62
6
  6
CONTINUOUS
 10
5.5267285925
 20
3.2293595332
 40
0.5575
  0
ARC
  5
22E
100
AcDbEntity
  8
0
100
AcDbCircle
 62
6
  6
CONTINUOUS
 10
5.5267285925
 20
3.2293595332
 40
0.5292320508
100
AcDbArc
 50
180.0
 51
179.9866114262
  0
CIRCLE
  5
22F
100
AcDbEntity
  8
0
100
AcDbCircle
 62
6
  6
CONTINUOUS
 10
5.5267285925
 20
3.2293595332
 40
0.5275
  0
CIRCLE
  5
230
100
AcDbEntity
  8
0
100
AcDbCircle
 62
6
  6
CONTINUOUS
 10
5.5267285925
 20
3.2293595332
 40
0.5132341523
  0
CIRCLE
  5
231
100
AcDbEntity
  8
0
100
AcDbCircle
 62
6
  6
CONTINUOUS
 10
5.5267285925
 20
3.2293595332
 40
0.4545099561
  0
CIRCLE
  5
232
100
AcDbEntity
  8
0
100
AcDbCircle
 62
9
  6
CONTINUOUS
 10
5.5267285925
 20
3.2293595332
 40
0.3951446566
  0
ARC
  5
233
100
AcDbEntity
  8
0
100
AcDbCircle
 62
6
  6
CONTINUOUS
 10
5.4788976645
 20
6.0075261586
 40
0.516844597
100
AcDbArc
 50
41.4728341881
 51
50.4170062908
  0
ARC
  5
234
100
AcDbEntity
  8
0
100
AcDbCircle
 62
6
  6
CONTINUOUS
 10
5.5267285925
 20
6.2283386999
 40
0.3735208333
100
AcDbArc
 50
47.9864211385
 51
132.0135788615
  0
SPLINE
  5
235
100
AcDbEntity
  8
0
100
AcDbSpline
 62
6
  6
CONTINUOUS
 70
0
 71
3
 72
97
 73
93
 74
91
 42
0.0000001
 43
0.0000001
 44
0.0000000001
 12
0.0109197645
 22
2.1076461569
 32
0.0
 13
1.624657321
 23
1.3426764887
 33
0.0
 40
0.0
 40
0.0
 40
0.0
 40
0.0
 40
0.0625012369
 40
0.1250024724
 40
0.1875037139
 40
0.2500049542
 40
0.3125061927
 40
0.3437572464
 40
0.3750083003
 40
0.4062593538
 40
0.4375104072
 40
0.4687614609
 40
0.5000125146
 40
0.5312635684
 40
0.5468891494
 40
0.5625147303
 40
0.5781403111
 40
0.5937658921
 40
0.6093914737
 40
0.6250170552
 40
0.6328298521
 40
0.6406426484
 40
0.6484554449
 40
0.6562682428
 40
0.6640810427
 40
0.6718938392
 40
0.6758002346
 40
0.6797066307
 40
0.683613032
 40
0.6875194419
 40
0.691425841
 40
0.6933790246
 40
0.6953322068
 40
0.6972854088
 40
0.699238651
 40
0.7011919201
 40
0.7031451435
 40
0.704121716
 40
0.7050982524
 40
0.7060747574
 40
0.7070512952
 40
0.7080279593
 40
0.7085163775
 40
0.7090048608
 40
0.7094933565
 40
0.7099818016
 40
0.7104701454
 40
0.7109583657
 40
0.7114464831
 40
0.7119345763
 40
0.7124227571
 40
0.7129110608
 40
0.7138878485
 40
0.7148645078
 40
0.7158410851
 40
0.7168176664
 40
0.7177942617
 40
0.7187708614
 40
0.7197474595
 40
0.7207240541
 40
0.7226772368
 40
0.724630428
 40
0.7265836326
 40
0.7285368473
 40
0.7304900615
 40
0.7343964288
 40
0.7383027676
 40
0.7422091156
 40
0.74611548
 40
0.7500218469
 40
0.7578343182
 40
0.7656467769
 40
0.773459242
 40
0.781271714
 40
0.7890841829
 40
0.7968966511
 40
0.812519605
 40
0.8203320737
 40
0.8281445501
 40
0.8437675301
 40
0.8515799705
 40
0.8593923772
 40
0.8750152546
 40
0.8906382676
 40
0.9062614051
 40
0.9218843515
 40
0.9296966543
 40
0.9375089065
 40
0.9531316004
 40
0.9687545078
 40
0.9843772984
 40
1.0
 40
1.0
 40
1.0
 40
1.0
 10
5.2516808487
 20
4.3702542526
 30
0.0
 10
5.2519083483
 20
4.4141644165
 30
0.0
 10
5.251438091
 20
4.5019923586
 30
0.0
 10
5.2479559401
 20
4.6336878556
 30
0.0
 10
5.2416986343
 20
4.7652813829
 30
0.0
 10
5.2326693257
 20
4.8967133396
 30
0.0
 10
5.2228381984
 20
5.0060583477
 30
0.0
 10
5.2135919638
 20
5.0933937066
 30
0.0
 10
5.2059673519
 20
5.1588192497
 30
0.0
 10
5.1976536732
 20
5.2241607315
 30
0.0
 10
5.1886517902
 20
5.2894109796
 30
0.0
 10
5.178962804
 20
5.354562748
 30
0.0
 10
5.1685877997
 20
5.4196087619
 30
0.0
 10
5.1593711401
 20
5.4737197965
 30
0.0
 10
5.1516560001
 20
5.516948327
 30
0.0
 10
5.1456988627
 20
5.5493388739
 30
0.0
 10
5.1395711288
 20
5.5816975706
 30
0.0
 10
5.1332729801
 20
5.6140235349
 30
0.0
 10
5.1268046016
 20
5.6463158623
 30
0.0
 10
5.1212725686
 20
5.6731973795
 30
0.0
 10
5.1167619665
 20
5.6946848434
 30
0.0
 10
5.1133365305
 20
5.7107914754
 30
0.0
 10
5.1098686817
 20
5.7268890283
 30
0.0
 10
5.1063584783
 20
5.7429774016
 30
0.0
 10
5.102806041
 20
5.7590565013
 30
0.0
 10
5.0998103102
 20
5.7724478883
 30
0.0
 10
5.0973922117
 20
5.7831561467
 30
0.0
 10
5.0955680849
 20
5.791184952
 30
0.0
 10
5.093733605
 20
5.7992114083
 30
0.0
 10
5.0918892446
 20
5.8072356018
 30
0.0
 10
5.0903433157
 20
5.8139203535
 30
0.0
 10
5.0890995544
 20
5.8192665039
 30
0.0
 10
5.0881638851
 20
5.8232754487
 30
0.0
 10
5.0872266817
 20
5.8272840771
 30
0.0
 10
5.0862895348
 20
5.8312927814
 30
0.0
 10
5.0853522808
 20
5.835301476
 30
0.0
 10
5.0845666684
 20
5.8386409524
 30
0.0
 10
5.0839331132
 20
5.841311249
 30
0.0
 10
5.0834549086
 20
5.8433131512
 30
0.0
 10
5.0829726732
 20
5.8453140602
 30
0.0
 10
5.0824919493
 20
5.8473154252
 30
0.0
 10
5.0820977373
 20
5.848984904
 30
0.0
 10
5.0817893488
 20
5.8503223064
 30
0.0
 10
5.0815619585
 20
5.8513264087
 30
0.0
 10
5.0813350145
 20
5.8523306298
 30
0.0
 10
5.0811053817
 20
5.8533341422
 30
0.0
 10
5.0808698569
 20
5.8543360965
 30
0.0
 10
5.0806251867
 20
5.8553356287
 30
0.0
 10
5.0803683825
 20
5.8563319485
 30
0.0
 10
5.0800954458
 20
5.8573239552
 30
0.0
 10
5.0798070781
 20
5.8583117012
 30
0.0
 10
5.0794100617
 20
5.8596253115
 30
0.0
 10
5.0789023002
 20
5.8612639335
 30
0.0
 10
5.0783177395
 20
5.8632377587
 30
0.0
 10
5.0777514891
 20
5.8652167176
 30
0.0
 10
5.077192423
 20
5.8671976625
 30
0.0
 10
5.0766378933
 20
5.8691798994
 30
0.0
 10
5.0760895227
 20
5.8711638625
 30
0.0
 10
5.0755479469
 20
5.8731496918
 30
0.0
 10
5.0748361117
 20
5.8758002321
 30
0.0
 10
5.0739676246
 20
5.8791190944
 30
0.0
 10
5.0729589481
 20
5.8831103508
 30
0.0
 10
5.0719831788
 20
5.8871098019
 30
0.0
 10
5.0710397435
 20
5.8911170202
 30
0.0
 10
5.0698240549
 20
5.8964696928
 30
0.0
 10
5.068382935
 20
5.9031780796
 30
0.0
 10
5.06678124
 20
5.9112544472
 30
0.0
 10
5.0653090552
 20
5.9193554291
 30
0.0
 10
5.0639665709
 20
5.9274789482
 30
0.0
 10
5.0623494931
 20
5.9383371886
 30
0.0
 10
5.0606526515
 20
5.9519562927
 30
0.0
 10
5.0591380706
 20
5.9683553506
 30
0.0
 10
5.0581472371
 20
5.9847944727
 30
0.0
 10
5.057680724
 20
6.0012567385
 30
0.0
 10
5.0577392838
 20
6.0177257539
 30
0.0
 10
5.0585168246
 20
6.0396682295
 30
0.0
 10
5.0603433786
 20
6.061563391
 30
0.0
 10
5.0632127361
 20
6.0833315741
 30
0.0
 10
5.0667750078
 20
6.1049971822
 30
0.0
 10
5.0713711679
 20
6.1264821811
 30
0.0
 10
5.076984366
 20
6.1477089213
 30
0.0
 10
5.0832720092
 20
6.1687460161
 30
0.0
 10
5.0923858438
 20
6.1946503788
 30
0.0
 10
5.1052764203
 20
6.2249743634
 30
0.0
 10
5.1200735519
 20
6.2544151603
 30
0.0
 10
5.1339433462
 20
6.2781161204
 30
0.0
 10
5.145928514
 20
6.296512878
 30
0.0
 10
5.1584964682
 20
6.3145163114
 30
0.0
 10
5.1752736331
 20
6.3362557797
 30
0.0
 10
5.1970194612
 20
6.3610105458
 30
0.0
 10
5.2202915561
 20
6.3843353411
 30
0.0
 10
5.2367680804
 20
6.3988674552
 30
0.0
 10
5.2452285925
 20
6.4058595332
 30
0.0
 11
5.2516808487
 21
4.3702542526
 31
0.0
 11
5.2509752968
 21
4.501984623
 31
0.0
 11
5.2474934144
 21
4.6336708559
 31
0.0
 11
5.2412366338
 21
4.765254455
 31
0.0
 11
5.2322079903
 21
4.8966769559
 31
0.0
 11
5.2204115778
 21
5.0278799809
 31
0.0
 11
5.2134769825
 21
5.0933809679
 31
0.0
 11
5.2058525074
 21
5.1588052398
 31
0.0
 11
5.1975389725
 21
5.224145526
 31
0.0
 11
5.188537273
 21
5.2893945661
 31
0.0
 11
5.1788484677
 21
5.3545451222
 31
0.0
 11
5.1684736364
 21
5.4195899589
 31
0.0
 11
5.1574138813
 21
5.4845218445
 31
0.0
 11
5.151627538
 21
5.516943176
 31
0.0
 11
5.14567043
 21
5.5493335656
 31
0.0
 11
5.1395427264
 21
5.5816921149
 31
0.0
 11
5.1332446086
 21
5.6140179283
 31
0.0
 11
5.1267762583
 21
5.6463101103
 31
0.0
 11
5.1201378382
 21
5.6785677598
 31
0.0
 11
5.1167548859
 21
5.6946833485
 31
0.0
 11
5.1133294618
 21
5.7107899619
 31
0.0
 11
5.1098616229
 21
5.726887497
 31
0.0
 11
5.1063514396
 21
5.7429758547
 31
0.0
 11
5.1027989671
 21
5.7590549316
 31
0.0
 11
5.099203992
 21
5.7751245517
 31
0.0
 11
5.097390453
 21
5.783155748
 31
0.0
 11
5.0955663606
 21
5.7911845552
 31
0.0
 11
5.0937319597
 21
5.7992110249
 31
0.0
 11
5.09188745
 21
5.8072351962
 31
0.0
 11
5.0900317863
 21
5.8152567717
 31
0.0
 11
5.0890990793
 21
5.8192663942
 31
0.0
 11
5.0881636341
 21
5.8232753757
 31
0.0
 11
5.0872266999
 21
5.8272840523
 31
0.0
 11
5.0862895218
 21
5.831292759
 31
0.0
 11
5.0853513585
 21
5.8353012932
 31
0.0
 11
5.0844078449
 21
5.8393084727
 31
0.0
 11
5.0839325973
 21
5.8413111524
 31
0.0
 11
5.0834542307
 21
5.843313011
 31
0.0
 11
5.082972934
 21
5.8453140993
 31
0.0
 11
5.0824932545
 21
5.8473156468
 31
0.0
 11
5.0820212486
 21
5.8493192913
 31
0.0
 11
5.081790015
 21
5.8503224114
 31
0.0
 11
5.0815620355
 21
5.8513264169
 31
0.0
 11
5.0813345548
 21
5.8523305624
 31
0.0
 11
5.0811043763
 21
5.8533339832
 31
0.0
 11
5.0808683035
 21
5.8543358146
 31
0.0
 11
5.0806231397
 21
5.8553351919
 31
0.0
 11
5.0803656883
 21
5.8563312505
 31
0.0
 11
5.0800928968
 21
5.8573231648
 31
0.0
 11
5.0798055495
 21
5.8583111531
 31
0.0
 11
5.0795085858
 21
5.8592965641
 31
0.0
 11
5.0789063972
 21
5.8612652748
 31
0.0
 11
5.0783207683
 21
5.8632386928
 31
0.0
 11
5.0777526852
 21
5.8652170531
 31
0.0
 11
5.0771931824
 21
5.8671978658
 31
0.0
 11
5.0766389212
 21
5.8691801821
 31
0.0
 11
5.0760906548
 21
5.8711641748
 31
0.0
 11
5.0755492292
 21
5.8731500414
 31
0.0
 11
5.0750154899
 21
5.87513798
 31
0.0
 11
5.0739732112
 21
5.8791205237
 31
0.0
 11
5.0729644358
 21
5.8831117039
 31
0.0
 11
5.0719885701
 21
5.8871110869
 31
0.0
 11
5.0710450206
 21
5.8911182391
 31
0.0
 11
5.070133202
 21
5.8951327293
 31
0.0
 11
5.0684042045
 21
5.9031824888
 31
0.0
 11
5.0668028261
 21
5.9112585436
 31
0.0
 11
5.0653306745
 21
5.9193591707
 31
0.0
 11
5.0639881808
 21
5.9274823271
 31
0.0
 11
5.0627753756
 21
5.9356258615
 31
0.0
 11
5.0607395864
 21
5.9519656757
 31
0.0
 11
5.0592253621
 21
5.9683620234
 31
0.0
 11
5.0582346241
 21
5.984798324
 31
0.0
 11
5.0577682361
 21
6.0012578652
 31
0.0
 11
5.0578267226
 21
6.0177239025
 31
0.0
 11
5.0584099071
 21
6.0341797113
 31
0.0
 11
5.0611474943
 21
6.0669938156
 31
0.0
 11
5.0632993547
 21
6.0833187438
 31
0.0
 11
5.0659707787
 21
6.0995667533
 31
0.0
 11
5.072858979
 21
6.1317663829
 31
0.0
 11
5.0770686856
 21
6.1476852456
 31
0.0
 11
5.0817840441
 21
6.1634616482
 31
0.0
 11
5.0927115066
 21
6.194523518
 31
0.0
 11
5.1055941404
 21
6.2248270782
 31
0.0
 11
5.1203813292
 21
6.254248573
 31
0.0
 11
5.1370132625
 21
6.2826675377
 31
0.0
 11
5.1460013986
 21
6.2964637576
 31
0.0
 11
5.1554262231
 21
6.3099652925
 31
0.0
 11
5.1755424833
 21
6.3360336603
 31
0.0
 11
5.1972738953
 21
6.3607722759
 31
0.0
 11
5.2205320636
 21
6.38408096
 31
0.0
 11
5.2452285925
 21
6.4058595332
 31
0.0
  0
SPLINE
  5
236
100
AcDbEntity
  8
0
100
AcDbSpline
 62
6
  6
CONTINUOUS
 70
0
 71
3
 72
96
 73
92
 74
90
 42
0.0000001
 43
0.0000001
 44
0.0000000001
 12
-0.1042713496
 22
2.2781003234
 32
0.0
 13
-1.5104926611
 23
1.7085155892
 33
0.0
 40
0.0
 40
0.0
 40
0.0
 40
0.0
 40
0.0625008631
 40
0.125001729
 40
0.1875025914
 40
0.2500034561
 40
0.3125043244
 40
0.3750051904
 40
0.406256131
 40
0.4375070723
 40
0.4687580136
 40
0.5000089544
 40
0.5312598954
 40
0.5625108366
 40
0.5781363707
 40
0.5937619048
 40
0.6093874389
 40
0.6250129729
 40
0.6406385067
 40
0.6562640406
 40
0.671889575
 40
0.6875151096
 40
0.6953278842
 40
0.7031406582
 40
0.7109534324
 40
0.7187662082
 40
0.7265789857
 40
0.7304853739
 40
0.7343917593
 40
0.7382981436
 40
0.7422045322
 40
0.7461109298
 40
0.7500173201
 40
0.7519704988
 40
0.753923676
 40
0.7558768762
 40
0.7578301216
 40
0.7597833796
 40
0.7617365631
 40
0.7627131029
 40
0.7636896067
 40
0.7646661425
 40
0.7651544558
 40
0.7656428214
 40
0.7661312594
 40
0.766619753
 40
0.7671082313
 40
0.7675966251
 40
0.768084891
 40
0.7685730323
 40
0.7690611193
 40
0.7695492825
 40
0.7705259629
 40
0.7710143574
 40
0.771502698
 40
0.7719910011
 40
0.7724792887
 40
0.7734558631
 40
0.7744324537
 40
0.7754090505
 40
0.7763856458
 40
0.7773622373
 40
0.779315414
 40
0.7812686011
 40
0.7832218025
 40
0.7851750121
 40
0.7871282159
 40
0.7890814081
 40
0.792987732
 40
0.7968940598
 40
0.8008004058
 40
0.8047067544
 40
0.8086130974
 40
0.8125194357
 40
0.8203318158
 40
0.8281442053
 40
0.8359565983
 40
0.8437689881
 40
0.8515813778
 40
0.8593937692
 40
0.8672061598
 40
0.8750185545
 40
0.8906410408
 40
0.898453403
 40
0.9062657303
 40
0.9218881266
 40
0.9375106692
 40
0.9531333031
 40
0.9687556002
 40
0.9843776582
 40
1.0
 40
1.0
 40
1.0
 40
1.0
 10
5.8082285925
 20
4.1168595332
 30
0.0
 10
5.8060562427
 20
4.164320612
 30
0.0
 10
5.8027942882
 20
4.2592958966
 30
0.0
 10
5.8011508395
 20
4.4018304759
 30
0.0
 10
5.802757279
 20
4.544366228
 30
0.0
 10
5.8076144099
 20
4.6868281597
 30
0.0
 10
5.8157189375
 20
4.8291419522
 30
0.0
 10
5.8251753716
 20
4.9475535026
 30
0.0
 10
5.8343589811
 20
5.042132682
 30
0.0
 10
5.8420551903
 20
5.1129848482
 30
0.0
 10
5.8505587319
 20
5.1837445596
 30
0.0
 10
5.8598686234
 20
5.2544027397
 30
0.0
 10
5.8699835998
 20
5.3249501127
 30
0.0
 10
5.8790825273
 20
5.3836398596
 30
0.0
 10
5.8867627951
 20
5.4305268447
 30
0.0
 10
5.8927234258
 20
5.4656587842
 30
0.0
 10
5.8988842633
 20
5.5007561561
 30
0.0
 10
5.905245109
 20
5.5358178344
 30
0.0
 10
5.9118057603
 20
5.5708426741
 30
0.0
 10
5.9185659871
 20
5.6058295435
 30
0.0
 10
5.9255255578
 20
5.6407773
 30
0.0
 10
5.9314911322
 20
5.6698669196
 30
0.0
 10
5.9363630751
 20
5.6931178816
 30
0.0
 10
5.9400667723
 20
5.7105456204
 30
0.0
 10
5.9438201247
 20
5.7279627321
 30
0.0
 10
5.9476230551
 20
5.7453690883
 30
0.0
 10
5.950833358
 20
5.7598653276
 30
0.0
 10
5.9534265054
 20
5.7714567594
 30
0.0
 10
5.9553839358
 20
5.7801475082
 30
0.0
 10
5.9573538512
 20
5.7888354355
 30
0.0
 10
5.9593359501
 20
5.7975206009
 30
0.0
 10
5.9613297402
 20
5.8062030939
 30
0.0
 10
5.9630013815
 20
5.8134361577
 30
0.0
 10
5.9643468651
 20
5.8192206909
 30
0.0
 10
5.9653593379
 20
5.8235583047
 30
0.0
 10
5.9663735608
 20
5.8278955615
 30
0.0
 10
5.9673872437
 20
5.8322330075
 30
0.0
 10
5.9684022597
 20
5.8365701295
 30
0.0
 10
5.9692550494
 20
5.8401826985
 30
0.0
 10
5.9699440718
 20
5.8430710179
 30
0.0
 10
5.970465692
 20
5.8452360208
 30
0.0
 10
5.9708992973
 20
5.8470404806
 30
0.0
 10
5.971241436
 20
5.8484852837
 30
0.0
 10
5.9714948678
 20
5.8495697944
 30
0.0
 10
5.9717436956
 20
5.850655512
 30
0.0
 10
5.971989002
 20
5.8517421152
 30
0.0
 10
5.9722353906
 20
5.8528284399
 30
0.0
 10
5.9724867587
 20
5.8539134525
 30
0.0
 10
5.9727472448
 20
5.8549960601
 30
0.0
 10
5.9730207274
 20
5.8560752365
 30
0.0
 10
5.973311889
 20
5.8571497219
 30
0.0
 10
5.9737256696
 20
5.8585754953
 30
0.0
 10
5.9741626572
 20
5.8599945471
 30
0.0
 10
5.9745973318
 20
5.861414413
 30
0.0
 10
5.974915661
 20
5.8624816257
 30
0.0
 10
5.9752278323
 20
5.863550564
 30
0.0
 10
5.975637685
 20
5.864977599
 30
0.0
 10
5.9761426376
 20
5.8667634883
 30
0.0
 10
5.9767437865
 20
5.8689079163
 30
0.0
 10
5.977337778
 20
5.8710543576
 30
0.0
 10
5.9779238973
 20
5.8732029635
 30
0.0
 10
5.9786932987
 20
5.8760710313
 30
0.0
 10
5.979630054
 20
5.8796627777
 30
0.0
 10
5.9807150592
 20
5.8839828857
 30
0.0
 10
5.9817616831
 20
5.8883124784
 30
0.0
 10
5.982770663
 20
5.8926510066
 30
0.0
 10
5.983742848
 20
5.8969979229
 30
0.0
 10
5.9849898712
 20
5.9028045161
 30
0.0
 10
5.9864556242
 20
5.9100824039
 30
0.0
 10
5.9880631206
 20
5.9188449455
 30
0.0
 10
5.9895187259
 20
5.927634026
 30
0.0
 10
5.9908225672
 20
5.9364468971
 30
0.0
 10
5.9919743794
 20
5.9452809465
 30
0.0
 10
5.9933069097
 20
5.9570840201
 30
0.0
 10
5.9945907739
 20
5.9718784342
 30
0.0
 10
5.9955179111
 20
5.9896737812
 30
0.0
 10
5.9958310248
 20
6.0074906301
 30
0.0
 10
5.9955293638
 20
6.0253076412
 30
0.0
 10
5.9946137894
 20
6.0431036958
 30
0.0
 10
5.9930850267
 20
6.0608575083
 30
0.0
 10
5.9909449811
 20
6.0785483579
 30
0.0
 10
5.9872796132
 20
6.1020204118
 30
0.0
 10
5.9824018708
 20
6.1252901237
 30
0.0
 10
5.9763332672
 20
6.1482585812
 30
0.0
 10
5.9694752274
 20
6.1710041908
 30
0.0
 10
5.9594363192
 20
6.198972433
 30
0.0
 10
5.945109793
 20
6.2316220644
 30
0.0
 10
5.9285656833
 20
6.2632066253
 30
0.0
 10
5.9098839846
 20
6.29357587
 30
0.0
 10
5.8891450884
 20
6.3225768548
 30
0.0
 10
5.8740195266
 20
6.3409171732
 30
0.0
 10
5.8661537157
 20
6.349814178
 30
0.0
 11
5.8082285925
 21
4.1168595332
 31
0.0
 11
5.8033358688
 21
4.2593078368
 31
0.0
 11
5.8016924875
 21
4.4018306739
 31
0.0
 11
5.8032990608
 21
4.5443539225
 31
0.0
 11
5.8081556426
 21
4.6868034667
 31
0.0
 11
5.8162594637
 21
4.8291052215
 31
0.0
 11
5.8276060894
 21
4.9711851775
 31
0.0
 11
5.834493722
 21
5.0421188823
 31
0.0
 11
5.8421897457
 21
5.112969439
 31
0.0
 11
5.8506931236
 21
5.1837276381
 31
0.0
 11
5.8600028042
 21
5.2543842717
 31
0.0
 11
5.8701175544
 21
5.3249301569
 31
0.0
 11
5.8810360091
 21
5.3953561286
 31
0.0
 11
5.8867961981
 21
5.4305212828
 31
0.0
 11
5.8927567936
 21
5.465653023
 31
0.0
 11
5.898917598
 21
5.5007502073
 31
0.0
 11
5.9052784099
 21
5.5358116948
 31
0.0
 11
5.9118390228
 21
5.5708363456
 31
0.0
 11
5.918599211
 21
5.6058230242
 31
0.0
 11
5.925558744
 21
5.6407705965
 31
0.0
 11
5.9327174064
 21
5.6756779237
 31
0.0
 11
5.9363713649
 21
5.6931161337
 31
0.0
 11
5.9400750481
 21
5.7105438489
 31
0.0
 11
5.9438283873
 21
5.7279609379
 31
0.0
 11
5.9476312936
 21
5.7453672753
 31
0.0
 11
5.9514837206
 21
5.7627627235
 31
0.0
 11
5.953428601
 21
5.7714562913
 31
0.0
 11
5.9553860168
 21
5.7801470387
 31
0.0
 11
5.9573558807
 21
5.7888349705
 31
0.0
 11
5.9593378969
 21
5.7975201481
 31
0.0
 11
5.9613317718
 21
5.806202632
 31
0.0
 11
5.963338438
 21
5.8148821513
 31
0.0
 11
5.9643474255
 21
5.8192205615
 31
0.0
 11
5.9653596237
 21
5.82355822
 31
0.0
 11
5.9663734607
 21
5.8278955496
 31
0.0
 11
5.9673874642
 21
5.8322329462
 31
0.0
 11
5.9684036644
 21
5.8365698583
 31
0.0
 11
5.9694278885
 21
5.8409047077
 31
0.0
 11
5.9699448898
 21
5.8430708496
 31
0.0
 11
5.9704654693
 21
5.8452360498
 31
0.0
 11
5.9709844203
 21
5.8474017161
 31
0.0
 11
5.9712408922
 21
5.848485371
 31
0.0
 11
5.9714940829
 21
5.8495699197
 31
0.0
 11
5.9717430961
 21
5.8506556043
 31
0.0
 11
5.9719891862
 21
5.8517420857
 31
0.0
 11
5.9722362413
 21
5.8528283119
 31
0.0
 11
5.9724883105
 21
5.8539131878
 31
0.0
 11
5.9727494429
 21
5.854995618
 31
0.0
 11
5.9730236874
 21
5.8560745072
 31
0.0
 11
5.9733150581
 21
5.8571487697
 31
0.0
 11
5.9736240916
 21
5.8582182657
 31
0.0
 11
5.9742711146
 21
5.8603495213
 31
0.0
 11
5.974596065
 21
5.8614148406
 31
0.0
 11
5.9749146466
 21
5.8624819536
 31
0.0
 11
5.9752270406
 21
5.8635508053
 31
0.0
 11
5.9755347319
 21
5.8646209834
 31
0.0
 11
5.9761418345
 21
5.8667637009
 31
0.0
 11
5.9767425916
 21
5.8689082448
 31
0.0
 11
5.9773364662
 21
5.8710547194
 31
0.0
 11
5.977922387
 21
5.8732033751
 31
0.0
 11
5.978499283
 21
5.8753544626
 31
0.0
 11
5.9796235346
 21
5.8796644365
 31
0.0
 11
5.9807086587
 21
5.8839844519
 31
0.0
 11
5.9817554071
 21
5.8883139595
 31
0.0
 11
5.9827645318
 21
5.89265241
 31
0.0
 11
5.9837366987
 21
5.8969992778
 31
0.0
 11
5.9846719218
 21
5.9013542162
 31
0.0
 11
5.9864303895
 21
5.9100872489
 31
0.0
 11
5.9880378025
 21
5.9188493519
 31
0.0
 11
5.9894934313
 21
5.9276379872
 31
0.0
 11
5.9907972297
 21
5.936450432
 31
0.0
 11
5.9919489808
 21
5.9452840222
 31
0.0
 11
5.9929483428
 21
5.9541361366
 31
0.0
 11
5.9944885253
 21
5.9718854566
 31
0.0
 11
5.9954155737
 21
5.9896773609
 31
0.0
 11
5.9957285624
 21
6.0074906596
 31
0.0
 11
5.9954270449
 21
6.0253041488
 31
0.0
 11
5.9945115914
 21
6.0430966541
 31
0.0
 11
5.9929831462
 21
6.0608470144
 31
0.0
 11
5.9908434511
 21
6.0785341024
 31
0.0
 11
5.9880947037
 21
6.096136832
 31
0.0
 11
5.9807857882
 21
6.1310059061
 31
0.0
 11
5.976234571
 21
6.148230757
 31
0.0
 11
5.9710915628
 21
6.1652881804
 31
0.0
 11
5.9590563399
 21
6.1988204239
 31
0.0
 11
5.9447402184
 21
6.2314445005
 31
0.0
 11
5.9282092603
 21
6.2630043478
 31
0.0
 11
5.9095409996
 21
6.2933480104
 31
0.0
 11
5.888820305
 21
6.3223282758
 31
0.0
 11
5.8661537157
 21
6.349814178
 31
0.0
  0
ENDSEC
  0
SECTION
  2
OBJECTS
  0
DICTIONARY
  5
C
100
AcDbDictionary
280
0
281
1
  3
ACAD_GROUP
350
D
  3
ACAD_MLINESTYLE
350
17
  3
ACAD_LAYOUT
350
1A
  3
ACAD_PLOTSETTINGS
350
19
  3
ACAD_PLOTSTYLENAME
350
E
  0
DICTIONARY
  5
D
102
{ACAD_REACTORS
330
C
102
}
100
AcDbDictionary
280
0
281
1
  0
ACDBDICTIONARYWDFLT
  5
E
102
{ACAD_REACTORS
330
C
102
}
100
AcDbDictionary
281
1
  3
Normal
350
F
100
AcDbDictionaryWithDefault
340
F
  0
DICTIONARY
  5
17
102
{ACAD_REACTORS
330
C
102
}
100
AcDbDictionary
280
0
281
1
  3
Standard
350
18
  0
DICTIONARY
  5
19
102
{ACAD_REACTORS
330
C
102
}
100
AcDbDictionary
281
1
  0
DICTIONARY
  5
1A
102
{ACAD_REACTORS
330
C
102
}
100
AcDbDictionary
281
1
  3
Model
350
237
  3
Layout1
350
238
  0
ACDBPLACEHOLDER
  5
F
102
{ACAD_REACTORS
330
E
102
}
  0
MLINESTYLE
  5
18
102
{ACAD_REACTORS
330
17
102
}
100
AcDbMlineStyle
  2
STANDARD
 70
0
  3

 62
256
 51
90.0
 52
90.0
 71
2
 49
0.5
 62
256
  6
BYLAYER
 49
-0.5
 62
256
  6
BYLAYER
  0
LAYOUT
  5
237
102
{ACAD_REACTORS
330
1A
102
}
100
AcDbPlotSettings
  1

  2
none_device
  4
ISO_A4_(297.00_x_210.00_MM)
  6

 40
0.0
 41
0.0
 42
0.0
 43
0.0
 44
297.0
 45
210.0
 46
0.0
 47
0.0
 48
0.0
 49
0.0
140
0.0
141
0.0
142
1.0
143
1.0
 70
1024
 72
0
 73
0
 74
0
  7

 75
0
147
1.0
148
0.0
149
0.0
100
AcDbLayout
  1
Model
 70
0
 71
0
 10
0.0
 20
0.0
 11
11.6929133858
 21
8.2677165354
 12
0.0
 22
0.0
 32
0.0
 14
0.0
 24
0.0
 34
0.0
 15
0.0
 25
0.0
 35
0.0
146
0.0
 13
0.0
 23
0.0
 33
0.0
 16
1.0
 26
0.0
 36
0.0
 17
0.0
 27
1.0
 37
0.0
 76
0
330
203
345
0
346
0
  0
LAYOUT
  5
238
102
{ACAD_REACTORS
330
1A
102
}
100
AcDbPlotSettings
  1

  2
none_device
  4
ISO_A4_(297.00_x_210.00_MM)
  6

 40
0.0
 41
0.0
 42
0.0
 43
0.0
 44
297.0
 45
210.0
 46
0.0
 47
0.0
 48
0.0
 49
0.0
140
0.0
141
0.0
142
1.0
143
1.0
 70
0
 72
0
 73
0
 74
0
  7

 75
0
147
1.0
148
0.0
149
0.0
100
AcDbLayout
  1
Layout1
 70
0
 71
1
 10
0.0
 20
0.0
 11
11.6929133858
 21
8.2677165354
 12
0.0
 22
0.0
 32
0.0
 14
0.0
 24
0.0
 34
0.0
 15
0.0
 25
0.0
 35
0.0
146
0.0
 13
0.0
 23
0.0
 33
0.0
 16
1.0
 26
0.0
 36
0.0
 17
0.0
 27
1.0
 37
0.0
 76
0
330
204
345
0
346
0
  0
ENDSEC
  0
EOF
