  0
SECTION
  2
HEADER
  9
$ACADVER
  1
AC1015
  9
$DWGCODEPAGE
  3
ANSI_1252
  9
$EXTMAX
 10
11.6929133858
 20
8.2677165354
 30
0.0
  9
$EXTMIN
 10
0.0
 20
0.0
 30
0.0
  9
$LIMMIN
 10
0.0
 20
0.0
  9
$LIMMAX
 10
11.6929133858
 20
8.2677165354
  9
$VIEWCTR
 10
5.8464566929
 20
4.1338582677
  9
$VIEWSIZE
 40
8.2677165354
  9
$CLAYER
  8
0
  9
$LTSCALE
 40
0.6431102362
  9
$CELTYPE
  6
BYLAYER
  9
$DIMSCALE
 40
1.0
  9
$DIMASZ
 40
0.1
  9
$DIMEXO
 40
0.0730807087
  9
$DIMDLI
 40
0.4443307087
  9
$DIMEXE
 40
0.2104724409
  9
$DIMCEN
 40
0.1052362205
  9
$DIMLFAC
 40
1.0
  9
$DIMBLK
  1
_FILLED
  9
$DIMTXT
 40
0.08
  9
$DIMTOL
 70
1
  9
$DIMLIM
 70
0
  9
$DIMTFAC
 40
1.0
  9
$DIMTP
 40
0.01
  9
$DIMTM
 40
0.01
  9
$PDMODE
 70
3
  9
$PDSIZE
 40
0.06
  9
$HANDSEED
  5
27F
  9
$TILEMODE
 70
1
  9
$MEASUREMENT
 70
0
  9
$INSUNITS
 70
1
  0
ENDSEC
  0
SECTION
  2
CLASSES
  0
CLASS
  1
ACDBDICTIONARYWDFLT
  2
AcDbDictionaryWithDefault
  3
AutoCAD 2000
 90
0
280
0
281
0
  0
CLASS
  1
ACDBPLACEHOLDER
  2
AcDbPlaceHolder
  3
AutoCAD 2000
 90
0
280
0
281
0
  0
CLASS
  1
LAYOUT
  2
AcDbLayout
  3
AutoCAD 2000
 90
0
280
0
281
0
  0
ENDSEC
  0
SECTION
  2
TABLES
  0
TABLE
  2
VPORT
  5
8
100
AcDbSymbolTable
 70
2
  0
VPORT
  5
1F4
100
AcDbSymbolTableRecord
100
AcDbViewportTableRecord
  2
*ACTIVE
 70
0
 10
0.0
 20
0.0
 11
1.0
 21
1.0
 12
5.8464566929
 22
4.1338582677
 13
0.0
 23
0.0
 14
1.0
 24
1.0
 15
0.0
 25
0.0
 16
0.0
 26
0.0
 36
1.0
 17
0.0
 27
0.0
 37
0.0
 40
8.2677165354
 41
1.4142857143
 42
50.0
 43
0.0
 44
0.0
 50
0.0
 51
0.0
 71
0
 72
100
 73
1
 74
1
 75
0
 76
0
 77
0
 78
0
  0
ENDTAB
  0
TABLE
  2
LTYPE
  5
5
100
AcDbSymbolTable
 70
6
  0
LTYPE
  5
14
100
AcDbSymbolTableRecord
100
AcDbLinetypeTableRecord
  2
BYBLOCK
 70
0
  3

 72
65
 73
0
 40
0.0
  0
LTYPE
  5
15
100
AcDbSymbolTableRecord
100
AcDbLinetypeTableRecord
  2
BYLAYER
 70
0
  3

 72
65
 73
0
 40
0.0
  0
LTYPE
  5
16
100
AcDbSymbolTableRecord
100
AcDbLinetypeTableRecord
  2
CONTINUOUS
 70
64
  3
Solid line
 72
65
 73
0
 40
0.0
  0
LTYPE
  5
1F5
100
AcDbSymbolTableRecord
100
AcDbLinetypeTableRecord
  2
CENTER
 70
64
  3
____ _ ____ _ ____ _ ____ _ ____ _ ____ _ ____
 72
65
 73
4
 40
0.6
 49
0.375
 74
0
 49
-0.075
 74
0
 49
0.075
 74
0
 49
-0.075
 74
0
  0
LTYPE
  5
1F6
100
AcDbSymbolTableRecord
100
AcDbLinetypeTableRecord
  2
HIDDEN
 70
64
  3
- - - - - - - - - - - - - - - - - - - -
 72
65
 73
2
 40
0.2
 49
0.1
 74
0
 49
-0.1
 74
0
  0
LTYPE
  5
1F7
100
AcDbSymbolTableRecord
100
AcDbLinetypeTableRecord
  2
PHANTOM
 70
64
  3
_____ _ _ _____ _ _ _____ _ _ _____
 72
65
 73
6
 40
0.8
 49
0.45
 74
0
 49
-0.05
 74
0
 49
0.1
 74
0
 49
-0.05
 74
0
 49
0.1
 74
0
 49
-0.05
 74
0
  0
LTYPE
  5
1F8
100
AcDbSymbolTableRecord
100
AcDbLinetypeTableRecord
  2
DOT
 70
64
  3
. . . . . . . . . . . . . . . . . . . .
 72
65
 73
2
 40
0.2
 49
0.1
 74
0
 49
-0.1
 74
0
  0
LTYPE
  5
1F9
100
AcDbSymbolTableRecord
100
AcDbLinetypeTableRecord
  2
DASHED
 70
64
  3
- - - - - - - - - - - - - - - - - - - -
 72
65
 73
2
 40
0.2
 49
0.1
 74
0
 49
-0.1
 74
0
  0
ENDTAB
  0
TABLE
  2
LAYER
  5
2
100
AcDbSymbolTable
 70
36
  0
LAYER
  5
10
100
AcDbSymbolTableRecord
100
AcDbLayerTableRecord
  2
0
 70
0
 62
7
  6
CONTINUOUS
370
-3
390
F
  0
LAYER
  5
1FA
100
AcDbSymbolTableRecord
100
AcDbLayerTableRecord
  2
DEFAULT_1
 70
0
 62
7
  6
CENTER
370
-3
390
F
  0
LAYER
  5
1FB
100
AcDbSymbolTableRecord
100
AcDbLayerTableRecord
  2
DEFAULT_2
 70
0
 62
8
  6
HIDDEN
370
-3
390
F
  0
LAYER
  5
1FC
100
AcDbSymbolTableRecord
100
AcDbLayerTableRecord
  2
DEFAULT_3
 70
0
 62
7
  6
PHANTOM
370
-3
390
F
  0
LAYER
  5
1FD
100
AcDbSymbolTableRecord
100
AcDbLayerTableRecord
  2
DEFAULT_COORDINATE_SYSTEM
 70
0
 62
7
  6
CONTINUOUS
370
-3
390
F
  0
LAYER
  5
1FE
100
AcDbSymbolTableRecord
100
AcDbLayerTableRecord
  2
DEFAULT_DATUM_AXES
 70
0
 62
7
  6
CONTINUOUS
370
-3
390
F
  0
LAYER
  5
1FF
100
AcDbSymbolTableRecord
100
AcDbLayerTableRecord
  2
DEFAULT_DATUM_CURVES
 70
0
 62
7
  6
CONTINUOUS
370
-3
390
F
  0
LAYER
  5
200
100
AcDbSymbolTableRecord
100
AcDbLayerTableRecord
  2
DEFAULT_DATUM_PLANES
 70
0
 62
7
  6
CONTINUOUS
370
-3
390
F
  0
ENDTAB
  0
TABLE
  2
STYLE
  5
3
100
AcDbSymbolTable
 70
1
  0
STYLE
  5
11
100
AcDbSymbolTableRecord
100
AcDbTextStyleTableRecord
  2
STANDARD
 70
0
 40
0.0
 41
0.8
 50
0.0
 71
0
 42
0.2
  3
txt
  4

  0
STYLE
  5
201
100
AcDbSymbolTableRecord
100
AcDbTextStyleTableRecord
  2
TEXTSTYLE_1
 70
0
 40
0.0
 41
0.8
 50
0.0
 71
0
 42
0.2
  3
gdt
  4

  0
ENDTAB
  0
TABLE
  2
VIEW
  5
6
100
AcDbSymbolTable
 70
0
  0
ENDTAB
  0
TABLE
  2
UCS
  5
7
100
AcDbSymbolTable
 70
0
  0
ENDTAB
  0
TABLE
  2
APPID
  5
9
100
AcDbSymbolTable
 70
1
  0
APPID
  5
202
100
AcDbSymbolTableRecord
100
AcDbRegAppTableRecord
  2
ACAD
 70
0
  0
ENDTAB
  0
TABLE
  2
BLOCK_RECORD
  5
1
100
AcDbSymbolTable
 70
0
  0
BLOCK_RECORD
  5
203
100
AcDbSymbolTableRecord
100
AcDbBlockTableRecord
  2
*Model_Space
  0
BLOCK_RECORD
  5
204
100
AcDbSymbolTableRecord
100
AcDbBlockTableRecord
  2
*Paper_Space
  0
ENDTAB
  0
TABLE
  2
DIMSTYLE
  5
A
100
AcDbSymbolTable
 70
1
100
AcDbDimStyleTable
 71
0
  0
DIMSTYLE
105
205
100
AcDbSymbolTableRecord
100
AcDbDimStyleTableRecord
  2
STANDARD
 70
0
  3

  4

 40
1.0
 41
0.1
 42
0.0625
 43
0.38
 44
0.18
 45
0.0
 46
0.0
 47
0.01
 48
0.01
140
0.08
141
0.09
142
0.0
143
25.4
144
1.0
145
0.0
146
1.0
147
0.09
 71
1.0
 72
0.0
 73
1
 74
1
 75
0
 76
0
 77
0
 78
4
170
0
171
2
172
0
173
0
174
0
175
0
176
0
177
0
178
0
270
2
271
2
272
2
273
2
274
2
275
0
280
0
281
0
282
0
283
1
284
4
285
0
286
0
287
3
288
0
340
11
  0
ENDTAB
  0
ENDSEC
  0
SECTION
  2
BLOCKS
  0
BLOCK
  5
20
100
AcDbEntity
  8
0
100
AcDbBlockBegin
  2
*Model_Space
 70
0
 10
0.0
 20
0.0
 30
0.0
  3
*Model_Space
  1

  0
ENDBLK
  5
21
100
AcDbEntity
  8
0
100
AcDbBlockEnd
  0
BLOCK
  5
1C
100
AcDbEntity
  8
0
100
AcDbBlockBegin
  2
*Paper_Space
 70
0
 10
0.0
 20
0.0
 30
0.0
  3
*Paper_Space
  1

  0
ENDBLK
  5
1D
100
AcDbEntity
  8
0
100
AcDbBlockEnd
  0
ENDSEC
  0
SECTION
  2
ENTITIES
  0
LINE
  5
206
100
AcDbEntity
  8
0
100
AcDbLine
 62
6
  6
CONTINUOUS
 10
5.0911389367
 20
3.5948199798
 11
5.8011389367
 21
3.5948199798
  0
LINE
  5
207
100
AcDbEntity
  8
0
100
AcDbLine
 62
6
  6
CONTINUOUS
 10
4.9675710932
 20
4.6972907643
 11
5.0260424707
 21
4.8226830381
  0
LINE
  5
208
100
AcDbEntity
  8
0
100
AcDbLine
 62
9
  6
CONTINUOUS
 10
5.794288638
 20
3.7788199798
 11
5.528051329
 21
3.7788199798
  0
LINE
  5
209
100
AcDbEntity
  8
0
100
AcDbLine
 62
9
  6
CONTINUOUS
 10
5.0911389367
 20
3.7788199798
 11
5.3767358715
 21
3.7788199798
  0
LINE
  5
20A
100
AcDbEntity
  8
0
100
AcDbLine
 62
6
  6
CONTINUOUS
 10
5.0703931982
 20
3.8964749091
 11
5.0347750844
 21
3.9943348726
  0
LINE
  5
20B
100
AcDbEntity
  8
0
100
AcDbLine
 62
6
  6
CONTINUOUS
 10
5.0461389367
 20
4.9078199798
 11
5.0461389367
 21
4.8498199798
  0
LINE
  5
20C
100
AcDbEntity
  8
0
100
AcDbLine
 62
6
  6
CONTINUOUS
 10
5.0911389367
 20
3.5948199798
 11
5.0911389367
 21
3.7788199798
  0
LINE
  5
20D
100
AcDbEntity
  8
0
100
AcDbLine
 62
9
  6
CONTINUOUS
 10
5.0703931982
 20
3.8964749091
 11
5.8218846751
 21
3.8964749091
  0
LWPOLYLINE
  5
20E
100
AcDbEntity
  8
0
100
AcDbPolyline
 62
6
  6
CONTINUOUS
 90
61
 70
0
 10
5.4461389367
 20
4.0618201598
 10
5.4622566429
 20
4.0622159701
 10
5.4789557769
 20
4.0634676494
 10
5.4955597522
 20
4.0655774946
 10
5.5119870046
 20
4.0685380035
 10
5.5281579193
 20
4.0723327808
 10
5.5439964427
 20
4.0769371382
 10
5.5594411148
 20
4.0823225293
 10
5.5744839635
 20
4.0884769588
 10
5.5891288384
 20
4.0953943082
 10
5.6033715824
 20
4.1030642386
 10
5.6171981579
 20
4.1114766677
 10
5.6305633774
 20
4.1206044703
 10
5.6434161922
 20
4.1304120661
 10
5.6557260853
 20
4.1408757946
 10
5.6674693958
 20
4.1519790975
 10
5.6786215265
 20
4.1637062031
 10
5.6891614628
 20
4.1760352606
 10
5.6990661858
 20
4.1889378814
 10
5.7083107143
 20
4.2023843742
 10
5.7168690248
 20
4.2163446855
 10
5.7247135788
 20
4.2307875179
 10
5.7318122922
 20
4.2456729937
 10
5.7381320928
 20
4.2609552565
 10
5.7436469175
 20
4.2765843464
 10
5.748341361
 20
4.2925065296
 10
5.7522041701
 20
4.3086734398
 10
5.7552251428
 20
4.3250385368
 10
5.7573943117
 20
4.3415549285
 10
5.7587019556
 20
4.3581749618
 10
5.7591387555
 20
4.3748475392
 10
5.7586990639
 20
4.3915200307
 10
5.7573885571
 20
4.4081398072
 10
5.7552165577
 20
4.4246557737
 10
5.7521927901
 20
4.4410202772
 10
5.7483272257
 20
4.4571864226
 10
5.7436300712
 20
4.4731076674
 10
5.7381125864
 20
4.4887356426
 10
5.7317901923
 20
4.5040166258
 10
5.7246889878
 20
4.518900683
 10
5.7168420472
 20
4.5333419698
 10
5.708281452
 20
4.5473006194
 10
5.6990347395
 20
4.5607453373
 10
5.6891279336
 20
4.5736460712
 10
5.6785860167
 20
4.5859731314
 10
5.6674320049
 20
4.5976981363
 10
5.6556869143
 20
4.6087992777
 10
5.6433753235
 20
4.6192608114
 10
5.6305208621
 20
4.6290661905
 10
5.6171540489
 20
4.6381917391
 10
5.6033260187
 20
4.6466018213
 10
5.5890820101
 20
4.6542692961
 10
5.5744359605
 20
4.6611841377
 10
5.5593919276
 20
4.6673360467
 10
5.5439460715
 20
4.6727189084
 10
5.5281063982
 20
4.677320698
 10
5.5119344436
 20
4.6811128461
 10
5.4955063477
 20
4.6840706579
 10
5.4789018179
 20
4.6861777492
 10
5.4622025115
 20
4.6874266477
 10
5.4461389367
 20
4.6878197998
  0
LINE
  5
20F
100
AcDbEntity
  8
0
100
AcDbLine
 62
9
  6
CONTINUOUS
 10
5.4461389367
 20
4.6972907643
 11
5.4461389367
 21
3.9943348726
  0
LINE
  5
210
100
AcDbEntity
  8
0
100
AcDbLine
 62
6
  6
CONTINUOUS
 10
4.41736049
 20
4.0711174175
 11
4.7393714553
 21
4.1514037683
  0
LINE
  5
211
100
AcDbEntity
  8
0
100
AcDbLine
 62
9
  6
CONTINUOUS
 10
5.8220857502
 20
4.3049355827
 11
5.8117524847
 21
4.3049355827
  0
LINE
  5
212
100
AcDbEntity
  8
0
100
AcDbLine
 62
9
  6
CONTINUOUS
 10
5.0701921232
 20
4.3049355827
 11
5.0805253887
 21
4.3049355827
  0
LINE
  5
213
100
AcDbEntity
  8
0
100
AcDbLine
 62
6
  6
CONTINUOUS
 10
6.4749173834
 20
4.0711174175
 11
6.1529064181
 21
4.1514037683
  0
LINE
  5
214
100
AcDbEntity
  8
0
100
AcDbLine
 62
6
  6
CONTINUOUS
 10
6.1394257309
 20
4.5948750784
 11
6.4749173834
 21
4.6785225421
  0
LINE
  5
215
100
AcDbEntity
  8
0
100
AcDbLine
 62
6
  6
CONTINUOUS
 10
4.7528521425
 20
4.5948750784
 11
4.41736049
 21
4.6785225421
  0
LINE
  5
216
100
AcDbEntity
  8
0
100
AcDbLine
 62
6
  6
CONTINUOUS
 10
5.8011389367
 20
3.7149212219
 11
5.8011389367
 21
3.5948199798
  0
LINE
  5
217
100
AcDbEntity
  8
0
100
AcDbLine
 62
6
  6
CONTINUOUS
 10
5.8461389367
 20
4.9078199798
 11
5.8461389367
 21
4.8498199798
  0
LWPOLYLINE
  5
218
100
AcDbEntity
  8
0
100
AcDbPolyline
 62
6
  6
CONTINUOUS
 90
61
 70
0
 10
5.4461389367
 20
4.6878197998
 10
5.4300753619
 20
4.6874266477
 10
5.4133760555
 20
4.6861777492
 10
5.3967715258
 20
4.6840706579
 10
5.3803434298
 20
4.6811128461
 10
5.3641714753
 20
4.677320698
 10
5.348331802
 20
4.6727189084
 10
5.3328859458
 20
4.6673360468
 10
5.3178419129
 20
4.6611841377
 10
5.3031958634
 20
4.6542692961
 10
5.2889518547
 20
4.6466018213
 10
5.2751238245
 20
4.6381917392
 10
5.2617570113
 20
4.6290661905
 10
5.2489025499
 20
4.6192608114
 10
5.2365909591
 20
4.6087992777
 10
5.2248458686
 20
4.5976981364
 10
5.2136918568
 20
4.5859731314
 10
5.2031499398
 20
4.5736460712
 10
5.1932431339
 20
4.5607453373
 10
5.1839964214
 20
4.5473006194
 10
5.1754358262
 20
4.5333419699
 10
5.1675888857
 20
4.518900683
 10
5.1604876811
 20
4.5040166258
 10
5.154165287
 20
4.4887356426
 10
5.1486478022
 20
4.4731076674
 10
5.1439506477
 20
4.4571864226
 10
5.1400850833
 20
4.4410202772
 10
5.1370613157
 20
4.4246557738
 10
5.1348893163
 20
4.4081398072
 10
5.1335788095
 20
4.3915200307
 10
5.1331391179
 20
4.3748475392
 10
5.1335759178
 20
4.3581749619
 10
5.1348835617
 20
4.3415549285
 10
5.1370527306
 20
4.3250385369
 10
5.1400737033
 20
4.3086734398
 10
5.1439365124
 20
4.2925065296
 10
5.1486309559
 20
4.2765843464
 10
5.1541457806
 20
4.2609552565
 10
5.1604655812
 20
4.2456729938
 10
5.1675642946
 20
4.2307875179
 10
5.1754088486
 20
4.2163446855
 10
5.183967159
 20
4.2023843742
 10
5.1932116875
 20
4.1889378814
 10
5.2031164106
 20
4.1760352606
 10
5.2136563469
 20
4.1637062031
 10
5.2248084776
 20
4.1519790976
 10
5.2365517881
 20
4.1408757946
 10
5.2488616812
 20
4.1304120661
 10
5.261714496
 20
4.1206044703
 10
5.2750797155
 20
4.1114766677
 10
5.288906291
 20
4.1030642386
 10
5.303149035
 20
4.0953943082
 10
5.3177939099
 20
4.0884769588
 10
5.3328367586
 20
4.0823225293
 10
5.3482814307
 20
4.0769371382
 10
5.3641199541
 20
4.0723327808
 10
5.3802908688
 20
4.0685380035
 10
5.3967181212
 20
4.0655774946
 10
5.4133220965
 20
4.0634676494
 10
5.4300212305
 20
4.0622159701
 10
5.4461389367
 20
4.0618201598
  0
LINE
  5
219
100
AcDbEntity
  8
0
100
AcDbLine
 62
9
  6
CONTINUOUS
 10
5.9084959152
 20
4.6293502746
 11
5.6619631265
 21
4.6293502746
  0
LINE
  5
21A
100
AcDbEntity
  8
0
100
AcDbLine
 62
9
  6
CONTINUOUS
 10
4.9837819582
 20
4.6293502746
 11
5.2303147469
 21
4.6293502746
  0
LINE
  5
21B
100
AcDbEntity
  8
0
100
AcDbLine
 62
6
  6
CONTINUOUS
 10
5.8011389226
 20
3.7144777572
 11
5.8010359776
 21
3.7140962035
  0
LINE
  5
21C
100
AcDbEntity
  8
0
100
AcDbLine
 62
6
  6
CONTINUOUS
 10
5.857502789
 20
3.9943348726
 11
5.8218846751
 21
3.8964749091
  0
LINE
  5
21D
100
AcDbEntity
  8
0
100
AcDbLine
 62
9
  6
CONTINUOUS
 10
5.0260424707
 20
4.8226830381
 11
5.8662354027
 21
4.8226830381
  0
LINE
  5
21E
100
AcDbEntity
  8
0
100
AcDbLine
 62
6
  6
CONTINUOUS
 10
5.8461389367
 20
4.8498199798
 11
5.0461389367
 21
4.8498199798
  0
LINE
  5
21F
100
AcDbEntity
  8
0
100
AcDbLine
 62
6
  6
CONTINUOUS
 10
5.8461389367
 20
4.9078199798
 11
5.0461389367
 21
4.9078199798
  0
LINE
  5
220
100
AcDbEntity
  8
0
100
AcDbLine
 62
6
  6
CONTINUOUS
 10
5.8662354027
 20
4.8226830381
 11
5.9247067802
 21
4.6972907643
  0
LINE
  5
221
100
AcDbEntity
  8
0
100
AcDbLine
 62
6
  6
CONTINUOUS
 10
5.7311389367
 20
4.9498199798
 11
5.1611389367
 21
4.9498199798
  0
ARC
  5
222
100
AcDbEntity
  8
0
100
AcDbCircle
 62
6
  6
CONTINUOUS
 10
4.7471389367
 20
3.7788199798
 40
0.344
100
AcDbArc
 50
0.0
 51
20.0
  0
ARC
  5
223
100
AcDbEntity
  8
0
100
AcDbCircle
 62
6
  6
CONTINUOUS
 10
4.7998655977
 20
3.908770774
 40
0.2500606151
100
AcDbArc
 50
102.0604960008
 51
103.9997648796
  0
ARC
  5
224
100
AcDbEntity
  8
0
100
AcDbCircle
 62
6
  6
CONTINUOUS
 10
5.4461389346
 20
3.7828199801
 40
0.0820100017
100
AcDbArc
 50
345.5320324569
 51
357.2043153525
  0
ARC
  5
225
100
AcDbEntity
  8
0
100
AcDbCircle
 62
6
  6
CONTINUOUS
 10
5.2218572608
 20
4.6051269495
 40
0.35
100
AcDbArc
 50
99.9902695006
 51
120.1358758316
  0
ARC
  5
226
100
AcDbEntity
  8
0
100
AcDbCircle
 62
6
  6
CONTINUOUS
 10
4.3416397681
 20
4.374821044
 40
0.313
100
AcDbArc
 50
76.0001952375
 51
283.9998052019
  0
ARC
  5
227
100
AcDbEntity
  8
0
100
AcDbCircle
 62
6
  6
CONTINUOUS
 10
5.0686389367
 20
4.8028199798
 40
0.047
100
AcDbArc
 50
90.0
 51
155.0
  0
ARC
  5
228
100
AcDbEntity
  8
0
100
AcDbCircle
 62
6
  6
CONTINUOUS
 10
5.4461389367
 20
4.0328199798
 40
0.95
100
AcDbArc
 50
74.9149629756
 51
105.0850370244
  0
ARC
  5
229
100
AcDbEntity
  8
0
100
AcDbCircle
 62
6
  6
CONTINUOUS
 10
6.1718330197
 20
3.7857843986
 40
0.3768906628
100
AcDbArc
 50
188.1510538276
 51
190.0038027778
  0
ARC
  5
22A
100
AcDbEntity
  8
0
100
AcDbCircle
 62
6
  6
CONTINUOUS
 10
6.1451389367
 20
3.7788199798
 40
0.344
100
AcDbArc
 50
160.0
 51
167.7217979851
  0
ARC
  5
22B
100
AcDbEntity
  8
0
100
AcDbCircle
 62
6
  6
CONTINUOUS
 10
6.0924122757
 20
3.908770774
 40
0.2500606151
100
AcDbArc
 50
76.0002351204
 51
77.9395039992
  0
ARC
  5
22C
100
AcDbEntity
  8
0
100
AcDbCircle
 62
6
  6
CONTINUOUS
 10
5.573865981
 20
3.7594129834
 40
0.2265067065
100
AcDbArc
 50
352.3346705584
 51
353.1373014083
  0
ARC
  5
22D
100
AcDbEntity
  8
0
100
AcDbCircle
 62
6
  6
CONTINUOUS
 10
5.9972554982
 20
3.7728581108
 40
0.2066698594
100
AcDbArc
 50
158.8469012103
 51
164.3336592744
  0
ARC
  5
22E
100
AcDbEntity
  8
0
100
AcDbCircle
 62
6
  6
CONTINUOUS
 10
5.4461389834
 20
3.7828199697
 40
0.0820100082
100
AcDbArc
 50
128.0085655377
 51
146.011314209
  0
ARC
  5
22F
100
AcDbEntity
  8
0
100
AcDbCircle
 62
6
  6
CONTINUOUS
 10
5.4461421761
 20
3.7828207955
 40
0.082006569
100
AcDbArc
 50
357.2036358866
 51
25.3648509104
  0
ARC
  5
230
100
AcDbEntity
  8
0
100
AcDbCircle
 62
6
  6
CONTINUOUS
 10
5.4461389367
 20
3.7828199798
 40
0.0651
100
AcDbArc
 50
309.1810693927
 51
309.1672515749
  0
CIRCLE
  5
231
100
AcDbEntity
  8
0
100
AcDbCircle
 62
6
  6
CONTINUOUS
 10
5.4461389367
 20
3.7828199798
 40
0.062
  0
ARC
  5
232
100
AcDbEntity
  8
0
100
AcDbCircle
 62
6
  6
CONTINUOUS
 10
5.6704206126
 20
4.6051269495
 40
0.35
100
AcDbArc
 50
59.8641241684
 51
80.0097304994
  0
ARC
  5
233
100
AcDbEntity
  8
0
100
AcDbCircle
 62
6
  6
CONTINUOUS
 10
6.5506381053
 20
4.374821044
 40
0.313
100
AcDbArc
 50
256.0001947981
 51
103.9998047625
  0
ARC
  5
234
100
AcDbEntity
  8
0
100
AcDbCircle
 62
6
  6
CONTINUOUS
 10
5.8236389367
 20
4.8028199798
 40
0.047
100
AcDbArc
 50
25.0
 51
90.0
  0
SPLINE
  5
235
100
AcDbEntity
  8
0
100
AcDbSpline
 62
6
  6
CONTINUOUS
 70
0
 71
3
 72
18
 73
14
 74
12
 42
0.0000001
 43
0.0000001
 44
0.0000000001
 12
-0.0268086507
 22
-0.0415251889
 32
0.0
 13
-0.046192073
 23
-0.0175879918
 33
0.0
 40
0.0
 40
0.0
 40
0.0
 40
0.0
 40
0.1249392471
 40
0.249956116
 40
0.3124601769
 40
0.3749130582
 40
0.4373313656
 40
0.4997433774
 40
0.6246113962
 40
0.6871184114
 40
0.74966843
 40
0.8748274814
 40
1.0
 40
1.0
 40
1.0
 40
1.0
 10
5.5255481915
 20
3.7623307078
 30
0.0
 10
5.5244317073
 20
3.7606013326
 30
0.0
 10
5.5220284534
 20
3.7572483812
 30
0.0
 10
5.5186602994
 20
3.7533464121
 30
0.0
 10
5.5157773809
 20
3.7504038222
 30
0.0
 10
5.5135282511
 20
3.7482878823
 30
0.0
 10
5.5111975638
 20
3.7462644763
 30
0.0
 10
5.5079871343
 20
3.7436906767
 30
0.0
 10
5.5046294457
 20
3.7413030069
 30
0.0
 10
5.5011462008
 20
3.739105706
 30
0.0
 10
5.4975809236
 20
3.7370343151
 30
0.0
 10
5.4929853221
 20
3.7346887273
 30
0.0
 10
5.4891825287
 20
3.733081429
 30
0.0
 10
5.4872552026
 20
3.7323475846
 30
0.0
 11
5.5255481915
 21
3.7623307078
 31
0.0
 11
5.52195646
 21
3.7573072681
 31
0.0
 11
5.5179236501
 21
3.75262546
 31
0.0
 11
5.5157620817
 21
3.7504181977
 31
0.0
 11
5.5135140497
 21
3.7483027513
 31
0.0
 11
5.5111846107
 21
3.7462798999
 31
0.0
 11
5.5087779788
 21
3.7443500252
 31
0.0
 11
5.5037499898
 21
3.740770732
 31
0.0
 11
5.5011370638
 21
3.739122125
 31
0.0
 11
5.4984638724
 21
3.7375689112
 31
0.0
 11
5.4929540418
 21
3.7347561633
 31
0.0
 11
5.4872552026
 21
3.7323475846
 31
0.0
  0
LINE
  5
236
100
AcDbEntity
  8
0
100
AcDbLine
 62
6
  6
CONTINUOUS
 10
5.8006725232
 20
3.7203133884
 11
5.8011385488
 21
3.7144857747
  0
LINE
  5
237
100
AcDbEntity
  8
0
100
AcDbLine
 62
6
  6
CONTINUOUS
 10
5.797388739
 20
3.7370948756
 11
5.798749845
 21
3.7323475846
  0
SPLINE
  5
238
100
AcDbEntity
  8
0
100
AcDbSpline
 62
6
  6
CONTINUOUS
 70
0
 71
3
 72
29
 73
25
 74
23
 42
0.0000001
 43
0.0000001
 44
0.0000000001
 12
0.0040446807
 22
0.0050874877
 32
0.0
 13
0.0033027189
 23
-0.0055976799
 33
0.0
 40
0.0
 40
0.0
 40
0.0
 40
0.0
 40
0.2261276748
 40
0.3292548745
 40
0.4254976691
 40
0.5146637045
 40
0.5965635276
 40
0.6710119089
 40
0.737830004
 40
0.796849074
 40
0.8479186662
 40
0.8704446267
 40
0.8909630429
 40
0.9094798515
 40
0.9260085961
 40
0.9405745977
 40
0.9532222041
 40
0.9640279464
 40
0.9731252045
 40
0.9807499485
 40
0.9873136271
 40
0.9904032503
 40
0.99348569
 40
1.0
 40
1.0
 40
1.0
 40
1.0
 10
5.8045112766
 20
3.8474372113
 30
0.0
 10
5.804816148
 20
3.8478206852
 30
0.0
 10
5.8052623892
 20
3.8483772086
 30
0.0
 10
5.8058460003
 20
3.8490907696
 30
0.0
 10
5.8062454181
 20
3.8495716304
 30
0.0
 10
5.8066195101
 20
3.8500137152
 30
0.0
 10
5.8069676242
 20
3.8504158914
 30
0.0
 10
5.8072891028
 20
3.8507770332
 30
0.0
 10
5.8075832822
 20
3.8510960372
 30
0.0
 10
5.8078495066
 20
3.8513717945
 30
0.0
 10
5.8080553118
 20
3.8515723734
 30
0.0
 10
5.8082060784
 20
3.8517096689
 30
0.0
 10
5.8083070656
 20
3.8517968139
 30
0.0
 10
5.8084007447
 20
3.8518724528
 30
0.0
 10
5.8084870972
 20
3.8519365123
 30
0.0
 10
5.8085661107
 20
3.8519889341
 30
0.0
 10
5.8086377982
 20
3.8520296701
 30
0.0
 10
5.808702219
 20
3.8520586962
 30
0.0
 10
5.8087595584
 20
3.8520759386
 30
0.0
 10
5.808810137
 20
3.8520812372
 30
0.0
 10
5.8088477098
 20
3.8520747106
 30
0.0
 10
5.8088727586
 20
3.8520627856
 30
0.0
 10
5.8088951309
 20
3.852046596
 30
0.0
 10
5.8089083218
 20
3.8520298934
 30
0.0
 10
5.8089154935
 20
3.8520177384
 30
0.0
 11
5.8045112766
 21
3.8474372113
 31
0.0
 11
5.8054316224
 21
3.8485830529
 31
0.0
 11
5.8058561201
 21
3.8491017574
 31
0.0
 11
5.806255973
 21
3.8495827889
 31
0.0
 11
5.8066305352
 21
3.8500250009
 31
0.0
 11
5.8069791607
 21
3.8504272467
 31
0.0
 11
5.8073012035
 21
3.8507883798
 31
0.0
 11
5.8075960177
 21
3.8511072537
 31
0.0
 11
5.8078629573
 21
3.8513827217
 31
0.0
 11
5.8081013826
 21
3.8516136434
 31
0.0
 11
5.808209748
 21
3.8517120879
 31
0.0
 11
5.8083108402
 21
3.8517990618
 31
0.0
 11
5.8084046307
 21
3.8518744736
 31
0.0
 11
5.8084910913
 21
3.8519382313
 31
0.0
 11
5.8085701936
 21
3.8519902433
 31
0.0
 11
5.8086419091
 21
3.8520304177
 31
0.0
 11
5.8087062096
 21
3.8520586629
 31
0.0
 11
5.8087630667
 21
3.8520748871
 31
0.0
 11
5.808812452
 21
3.8520789985
 31
0.0
 11
5.8088543371
 21
3.8520709053
 31
0.0
 11
5.8088724583
 21
3.8520622534
 31
0.0
 11
5.8088886937
 21
3.8520505159
 31
0.0
 11
5.8089154935
 21
3.8520177384
 31
0.0
  0
SPLINE
  5
239
100
AcDbEntity
  8
0
100
AcDbSpline
 62
6
  6
CONTINUOUS
 70
0
 71
3
 72
16
 73
12
 74
10
 42
0.0000001
 43
0.0000001
 44
0.0000000001
 12
-0.0013537947
 22
0.0500757077
 32
0.0
 13
0.0090125161
 23
0.0492766051
 33
0.0
 40
0.0
 40
0.0
 40
0.0
 40
0.0
 40
0.1247098546
 40
0.249983079
 40
0.3127341201
 40
0.3755091566
 40
0.5010304153
 40
0.6263890838
 40
0.7514286396
 40
0.8760098191
 40
1.0
 40
1.0
 40
1.0
 40
1.0
 10
5.794288638
 20
3.7788199798
 30
0.0
 10
5.7942323608
 20
3.7809016245
 30
0.0
 10
5.7941770104
 20
3.7850760749
 30
0.0
 10
5.7942495629
 20
3.7902982661
 30
0.0
 10
5.7943927397
 20
3.7944837801
 30
0.0
 10
5.7945930301
 20
3.7986710931
 30
0.0
 10
5.7949490493
 20
3.8038970663
 30
0.0
 10
5.7955401196
 20
3.8101469724
 30
0.0
 10
5.7962903513
 20
3.8163639648
 30
0.0
 10
5.7971924995
 20
3.8225375502
 30
0.0
 10
5.7978915291
 20
3.8266293724
 30
0.0
 10
5.7982640169
 20
3.8286659775
 30
0.0
 11
5.794288638
 21
3.7788199798
 31
0.0
 11
5.7942053438
 21
3.7850666405
 31
0.0
 11
5.7942923528
 21
3.7913414747
 31
0.0
 11
5.7943998449
 21
3.7944830872
 31
0.0
 11
5.794550028
 21
3.7976241518
 31
0.0
 11
5.7949766947
 21
3.8038975217
 31
0.0
 11
5.7955675071
 21
3.810149385
 31
0.0
 11
5.7963171956
 21
3.8163680912
 31
0.0
 11
5.7972187469
 21
3.8225433982
 31
0.0
 11
5.7982640169
 21
3.8286659775
 31
0.0
  0
SPLINE
  5
23A
100
AcDbEntity
  8
0
100
AcDbSpline
 62
6
  6
CONTINUOUS
 70
0
 71
3
 72
34
 73
30
 74
28
 42
0.0000001
 43
0.0000001
 44
0.0000000001
 12
0.1303019229
 22
0.0311499679
 32
0.0
 13
0.0908334339
 23
-0.0984794339
 33
0.0
 40
0.0
 40
0.0
 40
0.0
 40
0.0
 40
0.0622836066
 40
0.124901982
 40
0.1877755456
 40
0.2508451897
 40
0.2824289286
 40
0.3140285423
 40
0.3456353125
 40
0.3772424428
 40
0.4088415487
 40
0.4404210788
 40
0.5034700263
 40
0.5349282638
 40
0.5663303766
 40
0.6289428296
 40
0.6601557404
 40
0.6913008838
 40
0.722378396
 40
0.7533902708
 40
0.7843403246
 40
0.8152341233
 40
0.8460794713
 40
0.8768893649
 40
0.8922875708
 40
0.9076843338
 40
0.938469362
 40
0.9692389914
 40
1.0
 40
1.0
 40
1.0
 40
1.0
 10
5.3956389029
 20
3.8474372113
 30
0.0
 10
5.3983441275
 20
3.8480839221
 30
0.0
 10
5.4037989661
 20
3.8492598732
 30
0.0
 10
5.4120743552
 20
3.8506354119
 30
0.0
 10
5.4204445621
 20
3.8515912886
 30
0.0
 10
5.4274711217
 20
3.8520068
 30
0.0
 10
5.4331091975
 20
3.8520994091
 30
0.0
 10
5.4373426161
 20
3.852045752
 30
0.0
 10
5.4415736086
 20
3.8518660535
 30
0.0
 10
5.4457971333
 20
3.8515571351
 30
0.0
 10
5.4500078803
 20
3.8511172227
 30
0.0
 10
5.4555940499
 20
3.8503565105
 30
0.0
 10
5.4611356631
 20
3.8493330334
 30
0.0
 10
5.4666097083
 20
3.8480444481
 30
0.0
 10
5.4720198545
 20
3.8465827045
 30
0.0
 10
5.477345006
 20
3.8448587054
 30
0.0
 10
5.4825626146
 20
3.8428757639
 30
0.0
 10
5.4864117097
 20
3.8412625616
 30
0.0
 10
5.4901950985
 20
3.8395222251
 30
0.0
 10
5.4939077657
 20
3.8376549233
 30
0.0
 10
5.4975445653
 20
3.8356608261
 30
0.0
 10
5.5011005064
 20
3.8335402294
 30
0.0
 10
5.5045684974
 20
3.8312900379
 30
0.0
 10
5.5073796603
 20
3.8293037909
 30
0.0
 10
5.5095764573
 20
3.8276473361
 30
0.0
 10
5.5117370841
 20
3.8259457874
 30
0.0
 10
5.5143670318
 20
3.8237318149
 30
0.0
 10
5.5173929186
 20
3.8209295584
 30
0.0
 10
5.5193119323
 20
3.8189606837
 30
0.0
 10
5.5202433083
 20
3.8179509081
 30
0.0
 11
5.3956389029
 21
3.8474372113
 31
0.0
 11
5.4037966973
 21
3.8491918234
 31
0.0
 11
5.4120730804
 21
3.8505630485
 31
0.0
 11
5.4204426275
 21
3.8515139722
 31
0.0
 11
5.4288777297
 21
3.8520098276
 31
0.0
 11
5.4331085518
 21
3.8520788798
 31
0.0
 11
5.4373417182
 21
3.852024757
 31
0.0
 11
5.4415723516
 21
3.8518445159
 31
0.0
 11
5.4457955624
 21
3.8515352509
 31
0.0
 11
5.4500060776
 21
3.8510952365
 31
0.0
 11
5.4541981758
 21
3.8505241276
 31
0.0
 11
5.4625041331
 21
3.8489875589
 31
0.0
 11
5.466606512
 21
3.8480215869
 31
0.0
 11
5.4706678916
 21
3.8469240961
 31
0.0
 11
5.4786479319
 21
3.8443386711
 31
0.0
 11
5.4825567645
 21
3.8428528452
 31
0.0
 11
5.486404894
 21
3.8412395558
 31
0.0
 11
5.4901872617
 21
3.8394991638
 31
0.0
 11
5.4938987763
 21
3.8376318716
 31
0.0
 11
5.4975343464
 21
3.8356378813
 31
0.0
 11
5.5010885725
 21
3.8335169383
 31
0.0
 11
5.5045545697
 21
3.8312665838
 31
0.0
 11
5.5079250058
 21
3.8288836956
 31
0.0
 11
5.5095720972
 21
3.8276415756
 31
0.0
 11
5.5111924936
 21
3.8263651391
 31
0.0
 11
5.5143460167
 21
3.8237069823
 31
0.0
 11
5.5173687409
 21
3.820904014
 31
0.0
 11
5.5202433083
 21
3.8179509081
 31
0.0
  0
SPLINE
  5
23B
100
AcDbEntity
  8
0
100
AcDbSpline
 62
6
  6
CONTINUOUS
 70
0
 71
3
 72
51
 73
47
 74
45
 42
0.0000001
 43
0.0000001
 44
0.0000000001
 12
0.1089614869
 22
-0.2336686626
 32
0.0
 13
0.250166343
 23
0.0623734747
 33
0.0
 40
0.0
 40
0.0
 40
0.0
 40
0.0
 40
0.0303507799
 40
0.0605417637
 40
0.0905952852
 40
0.1205325164
 40
0.1503735176
 40
0.1801372966
 40
0.2098418772
 40
0.2395050901
 40
0.2691460063
 40
0.2987839335
 40
0.3284382518
 40
0.3581284678
 40
0.387874268
 40
0.4176955461
 40
0.44761138
 40
0.4776403477
 40
0.5078025963
 40
0.5381200525
 40
0.5686164746
 40
0.5993174902
 40
0.6302493384
 40
0.661415548
 40
0.6927992151
 40
0.7085685085
 40
0.7243865292
 40
0.7402586843
 40
0.7562037219
 40
0.7722422403
 40
0.7883952073
 40
0.8046839102
 40
0.8211299043
 40
0.8294188133
 40
0.8377568446
 40
0.8546379217
 40
0.871906472
 40
0.8896409442
 40
0.8986521977
 40
0.9077358225
 40
0.9168744538
 40
0.9260548746
 40
0.9445069198
 40
0.9630259055
 40
0.981545603
 40
1.0
 40
1.0
 40
1.0
 40
1.0
 10
5.9247067802
 20
4.6972907643
 30
0.0
 10
5.9258091356
 20
4.6949267556
 30
0.0
 10
5.928106529
 20
4.6902563829
 30
0.0
 10
5.9318323737
 20
4.6834173987
 30
0.0
 10
5.9358210012
 20
4.6767695454
 30
0.0
 10
5.9400650742
 20
4.6703178363
 30
0.0
 10
5.9445573474
 20
4.6640670757
 30
0.0
 10
5.9492905698
 20
4.6580221334
 30
0.0
 10
5.9542574745
 20
4.6521877661
 30
0.0
 10
5.9594512147
 20
4.646568758
 30
0.0
 10
5.9648662518
 20
4.6411707938
 30
0.0
 10
5.9704969838
 20
4.6359993501
 30
0.0
 10
5.976337863
 20
4.6310599227
 30
0.0
 10
5.9823833208
 20
4.6263579844
 30
0.0
 10
5.9886278289
 20
4.6218990712
 30
0.0
 10
5.995065629
 20
4.6176885487
 30
0.0
 10
6.0016914344
 20
4.6137327969
 30
0.0
 10
6.0085008138
 20
4.6100401763
 30
0.0
 10
6.0154889614
 20
4.606618857
 30
0.0
 10
6.0226511121
 20
4.6034770968
 30
0.0
 10
6.0299824861
 20
4.6006231429
 30
0.0
 10
6.0374781815
 20
4.5980652506
 30
0.0
 10
6.0451312151
 20
4.5958124127
 30
0.0
 10
6.0529301609
 20
4.593873524
 30
0.0
 10
6.0595278008
 20
4.5925296018
 30
0.0
 10
6.0648630947
 20
4.5916206329
 30
0.0
 10
6.068898078
 20
4.5910224865
 30
0.0
 10
6.0729600964
 20
4.5905103884
 30
0.0
 10
6.0770513159
 20
4.5900863263
 30
0.0
 10
6.081175058
 20
4.5897519357
 30
0.0
 10
6.0853347857
 20
4.5895088776
 30
0.0
 10
6.0895339408
 20
4.5893588016
 30
0.0
 10
6.0930596012
 20
4.5893127165
 30
0.0
 10
6.0959019733
 20
4.5893236004
 30
0.0
 10
6.0987814314
 20
4.5893670062
 30
0.0
 10
6.102431335
 20
4.589485438
 30
0.0
 10
6.1068836894
 20
4.5897360945
 30
0.0
 10
6.1106546374
 20
4.5900385398
 30
0.0
 10
6.1137191072
 20
4.5903403458
 30
0.0
 10
6.1160453654
 20
4.5905986563
 30
0.0
 10
6.1183825666
 20
4.5908884435
 30
0.0
 10
6.121513506
 20
4.5913177852
 30
0.0
 10
6.1254324936
 20
4.5919317633
 30
0.0
 10
6.1301243942
 20
4.5927883935
 30
0.0
 10
6.1347934174
 20
4.593762964
 30
0.0
 10
6.1378868412
 20
4.5944913902
 30
0.0
 10
6.1394257309
 20
4.5948750784
 30
0.0
 11
5.9247067802
 21
4.6972907643
 31
0.0
 11
5.9281609628
 21
4.6902692158
 31
0.0
 11
5.931884968
 21
4.6834338505
 31
0.0
 11
5.9358715518
 21
4.6767895228
 31
0.0
 11
5.9401134707
 21
4.6703410872
 31
0.0
 11
5.9446034805
 21
4.6640933978
 31
0.0
 11
5.9493343377
 21
4.658051309
 31
0.0
 11
5.9542987998
 21
4.6522196759
 31
0.0
 11
5.959490081
 21
4.6466035227
 31
0.0
 11
5.9649024708
 21
4.6412082734
 31
0.0
 11
5.9705304142
 21
4.6360394094
 31
0.0
 11
5.976368356
 21
4.6311024124
 31
0.0
 11
5.9824107411
 21
4.6264027638
 31
0.0
 11
5.9886520145
 21
4.6219459452
 31
0.0
 11
5.9950866269
 21
4.6177374594
 31
0.0
 11
6.0017093299
 21
4.6137838697
 31
0.0
 11
6.0085153083
 21
4.610093269
 31
0.0
 11
6.0154997807
 21
4.6066738693
 31
0.0
 11
6.0226579659
 21
4.6035338826
 31
0.0
 11
6.0299850825
 21
4.6006815208
 31
0.0
 11
6.0374763492
 21
4.5981249961
 31
0.0
 11
6.0451266578
 21
4.5958725784
 31
0.0
 11
6.0529246429
 21
4.5939336476
 31
0.0
 11
6.0608533099
 21
4.5923185825
 31
0.0
 11
6.0648612755
 21
4.5916357541
 31
0.0
 11
6.06889548
 21
4.5910377984
 31
0.0
 11
6.072955602
 21
4.59052613
 31
0.0
 11
6.0770447305
 21
4.5901023738
 31
0.0
 11
6.0811663322
 21
4.5897681781
 31
0.0
 11
6.0853238738
 21
4.589525191
 31
0.0
 11
6.0895208217
 21
4.5893750607
 31
0.0
 11
6.0937606427
 21
4.5893194354
 31
0.0
 11
6.0958977138
 21
4.5893275772
 31
0.0
 11
6.0980472201
 21
4.5893600529
 31
0.0
 11
6.102397285
 21
4.5895014117
 31
0.0
 11
6.1068425322
 21
4.5897512268
 31
0.0
 11
6.1114002876
 21
4.5901167309
 31
0.0
 11
6.1137124209
 21
4.5903445002
 31
0.0
 11
6.1160400873
 21
4.5906030707
 31
0.0
 11
6.1183783448
 21
4.5908930205
 31
0.0
 11
6.1207233529
 21
4.591214493
 31
0.0
 11
6.125423467
 21
4.5919505237
 31
0.0
 11
6.1301204836
 21
4.5928080554
 31
0.0
 11
6.1347945294
 21
4.5937839523
 31
0.0
 11
6.1394257309
 21
4.5948750784
 31
0.0
  0
SPLINE
  5
23C
100
AcDbEntity
  8
0
100
AcDbSpline
 62
6
  6
CONTINUOUS
 70
0
 71
3
 72
54
 73
50
 74
48
 42
0.0000001
 43
0.0000001
 44
0.0000000001
 12
-0.3501254174
 22
0.0748064232
 32
0.0
 13
-0.1224526733
 23
-0.3364359548
 33
0.0
 40
0.0
 40
0.0
 40
0.0
 40
0.0
 40
0.0142399964
 40
0.0284653969
 40
0.0427024544
 40
0.0569774915
 40
0.0641375754
 40
0.0713170873
 40
0.0857529126
 40
0.1003276927
 40
0.1150750366
 40
0.1299751748
 40
0.1449922835
 40
0.1601040363
 40
0.1752995528
 40
0.2058986458
 40
0.221283725
 40
0.236712062
 40
0.2521747657
 40
0.2676690772
 40
0.2987526127
 40
0.3299698114
 40
0.3456316675
 40
0.3613293546
 40
0.3928242353
 40
0.4244411367
 40
0.4561643335
 40
0.4879789382
 40
0.5198714753
 40
0.5358443357
 40
0.55183257
 40
0.5678351454
 40
0.5838510316
 40
0.5998788912
 40
0.6159172611
 40
0.6480172062
 40
0.680140064
 40
0.7122725536
 40
0.7444016323
 40
0.7604620968
 40
0.7765172338
 40
0.7925657582
 40
0.8086066202
 40
0.8406589233
 40
0.8726663452
 40
0.9046172139
 40
0.9364987103
 40
0.9682974386
 40
1.0
 40
1.0
 40
1.0
 40
1.0
 10
6.14466103
 20
4.1533119339
 30
0.0
 10
6.1429991017
 20
4.153667015
 30
0.0
 10
6.1396697013
 20
4.1543433814
 30
0.0
 10
6.1346555149
 20
4.1552559972
 30
0.0
 10
6.1296195316
 20
4.1560662967
 30
0.0
 10
6.1254030789
 20
4.1566562918
 30
0.0
 10
6.1220141904
 20
4.1570777413
 30
0.0
 10
6.1186021389
 20
4.1574669901
 30
0.0
 10
6.1143036058
 20
4.1578906014
 30
0.0
 10
6.1090966086
 20
4.1582935895
 30
0.0
 10
6.1038268735
 20
4.1585888021
 30
0.0
 10
6.0984992883
 20
4.1587737206
 30
0.0
 10
6.0931254698
 20
4.1588446223
 30
0.0
 10
6.0877160856
 20
4.1587991259
 30
0.0
 10
6.0804502074
 20
4.1585814469
 30
0.0
 10
6.0731603217
 20
4.1581262394
 30
0.0
 10
6.0658637771
 20
4.1574312933
 30
0.0
 10
6.0603783009
 20
4.1567869996
 30
0.0
 10
6.0548955859
 20
4.1560191838
 30
0.0
 10
6.0475872842
 20
4.1548289236
 30
0.0
 10
6.038475712
 20
4.1530294507
 30
0.0
 10
6.0294346231
 20
4.1508181156
 30
0.0
 10
6.0222440136
 20
4.1487993133
 30
0.0
 10
6.0150693151
 20
4.1466083976
 30
0.0
 10
6.0061690964
 20
4.1435569314
 30
0.0
 10
5.9956354201
 20
4.1394073073
 30
0.0
 10
5.9852638247
 20
4.1347729756
 30
0.0
 10
5.9750822449
 20
4.1296613823
 30
0.0
 10
5.9667828918
 20
4.1250122646
 30
0.0
 10
5.9602656881
 20
4.1210618509
 30
0.0
 10
5.955439765
 20
4.1179825715
 30
0.0
 10
5.9506822583
 20
4.1147894216
 30
0.0
 10
5.9459964691
 20
4.1114837216
 30
0.0
 10
5.9413849215
 20
4.1080679976
 30
0.0
 10
5.9353375183
 20
4.1033692079
 30
0.0
 10
5.9279778443
 20
4.0972329015
 30
0.0
 10
5.9194886872
 20
4.0894702895
 30
0.0
 10
5.9113604335
 20
4.0813256227
 30
0.0
 10
5.9049043651
 20
4.0742349303
 30
0.0
 10
5.8999411448
 20
4.0683902877
 30
0.0
 10
5.8963224889
 20
4.0639235981
 30
0.0
 10
5.8928101846
 20
4.059375758
 30
0.0
 10
5.888272873
 20
4.0532098917
 30
0.0
 10
5.8828747478
 20
4.0453160465
 30
0.0
 10
5.8768442757
 20
4.0355686651
 30
0.0
 10
5.8712732716
 20
4.0255748334
 30
0.0
 10
5.8661726087
 20
4.0153607692
 30
0.0
 10
5.861553186
 20
4.0049528979
 30
0.0
 10
5.8587968101
 20
3.9978901664
 30
0.0
 10
5.857502789
 20
3.9943348726
 30
0.0
 11
6.14466103
 21
4.1533119339
 31
0.0
 11
6.1396647284
 21
4.1543267063
 31
0.0
 11
6.1346539421
 21
4.1552386022
 31
0.0
 11
6.1296214136
 21
4.1560483687
 31
0.0
 11
6.1245598859
 21
4.156756753
 31
0.0
 11
6.1220159793
 21
4.1570731602
 31
0.0
 11
6.1194620779
 21
4.1573644883
 31
0.0
 11
6.114318537
 21
4.1578710476
 31
0.0
 11
6.1091159164
 21
4.1582736439
 31
0.0
 11
6.103844237
 21
4.1585691825
 31
0.0
 11
6.0985127846
 21
4.1587541973
 31
0.0
 11
6.0931367127
 21
4.1588251742
 31
0.0
 11
6.0877264771
 21
4.1587798436
 31
0.0
 11
6.0822884994
 21
4.1586170037
 31
0.0
 11
6.071354481
 21
4.157934128
 31
0.0
 11
6.0658710221
 21
4.1574117582
 31
0.0
 11
6.0603849843
 21
4.1567672111
 31
0.0
 11
6.0549024151
 21
4.1559993772
 31
0.0
 11
6.0494271602
 21
4.1551076686
 31
0.0
 11
6.0385092911
 21
4.1529513852
 31
0.0
 11
6.0276527174
 21
4.1502958894
 31
0.0
 11
6.0222540818
 21
4.1487801653
 31
0.0
 11
6.0168788726
 21
4.1471388717
 31
0.0
 11
6.0062121043
 21
4.1434824938
 31
0.0
 11
5.9956799987
 21
4.1393338873
 31
0.0
 11
5.9853103116
 21
4.1347004434
 31
0.0
 11
5.9751307984
 21
4.1295895531
 31
0.0
 11
5.9651692148
 21
4.1240086079
 31
0.0
 11
5.9602788201
 21
4.1210441743
 31
0.0
 11
5.9554533161
 21
4.1179649986
 31
0.0
 11
5.9506961694
 21
4.1147720102
 31
0.0
 11
5.9460105781
 21
4.1114666381
 31
0.0
 11
5.9413992593
 21
4.108051207
 31
0.0
 11
5.9368648798
 21
4.1045281351
 31
0.0
 11
5.9280376069
 21
4.0971687411
 31
0.0
 11
5.9195500951
 21
4.0894078008
 31
0.0
 11
5.9114236801
 21
4.0812646587
 31
0.0
 11
5.9036796975
 21
4.0727586595
 31
0.0
 11
5.8999577858
 21
4.0683756337
 31
0.0
 11
5.8963394831
 21
4.0639091479
 31
0.0
 11
5.8928273993
 21
4.0593616579
 31
0.0
 11
5.889423412
 21
4.0547361038
 31
0.0
 11
5.882945196
 21
4.0452639145
 31
0.0
 11
5.8769157222
 21
4.0355188357
 31
0.0
 11
5.8713458676
 21
4.0255271297
 31
0.0
 11
5.8662465092
 21
4.015315059
 31
0.0
 11
5.861628524
 21
4.0049088858
 31
0.0
 11
5.857502789
 21
3.9943348726
 31
0.0
  0
SPLINE
  5
23D
100
AcDbEntity
  8
0
100
AcDbSpline
 62
6
  6
CONTINUOUS
 70
0
 71
3
 72
51
 73
47
 74
45
 42
0.0000001
 43
0.0000001
 44
0.0000000001
 12
-0.1089614869
 22
-0.2336686626
 32
0.0
 13
-0.250166343
 23
0.0623734747
 33
0.0
 40
0.0
 40
0.0
 40
0.0
 40
0.0
 40
0.0303507799
 40
0.0605417637
 40
0.0905952852
 40
0.1205325164
 40
0.1503735176
 40
0.1801372966
 40
0.2098418772
 40
0.2395050901
 40
0.2691460063
 40
0.2987839335
 40
0.3284382518
 40
0.3581284678
 40
0.387874268
 40
0.4176955461
 40
0.44761138
 40
0.4776403477
 40
0.5078025963
 40
0.5381200525
 40
0.5686164746
 40
0.5993174902
 40
0.6302493384
 40
0.661415548
 40
0.6927992151
 40
0.7085685085
 40
0.7243865292
 40
0.7402586843
 40
0.7562037219
 40
0.7722422403
 40
0.7883952073
 40
0.8046839102
 40
0.8211299043
 40
0.8294188133
 40
0.8377568446
 40
0.8546379217
 40
0.871906472
 40
0.8896409442
 40
0.8986521977
 40
0.9077358225
 40
0.9168744538
 40
0.9260548746
 40
0.9445069198
 40
0.9630259055
 40
0.981545603
 40
1.0
 40
1.0
 40
1.0
 40
1.0
 10
4.9675710932
 20
4.6972907643
 30
0.0
 10
4.9664687378
 20
4.6949267556
 30
0.0
 10
4.9641713444
 20
4.6902563829
 30
0.0
 10
4.9604454997
 20
4.6834173987
 30
0.0
 10
4.9564568722
 20
4.6767695454
 30
0.0
 10
4.9522127992
 20
4.6703178363
 30
0.0
 10
4.947720526
 20
4.6640670757
 30
0.0
 10
4.9429873036
 20
4.6580221334
 30
0.0
 10
4.9380203989
 20
4.6521877661
 30
0.0
 10
4.9328266587
 20
4.646568758
 30
0.0
 10
4.9274116216
 20
4.6411707938
 30
0.0
 10
4.9217808896
 20
4.6359993501
 30
0.0
 10
4.9159400104
 20
4.6310599227
 30
0.0
 10
4.9098945526
 20
4.6263579844
 30
0.0
 10
4.9036500445
 20
4.6218990712
 30
0.0
 10
4.8972122444
 20
4.6176885487
 30
0.0
 10
4.890586439
 20
4.6137327969
 30
0.0
 10
4.8837770596
 20
4.6100401763
 30
0.0
 10
4.876788912
 20
4.606618857
 30
0.0
 10
4.8696267613
 20
4.6034770968
 30
0.0
 10
4.8622953873
 20
4.6006231429
 30
0.0
 10
4.8547996919
 20
4.5980652506
 30
0.0
 10
4.8471466583
 20
4.5958124127
 30
0.0
 10
4.8393477125
 20
4.593873524
 30
0.0
 10
4.8327500726
 20
4.5925296018
 30
0.0
 10
4.8274147787
 20
4.5916206329
 30
0.0
 10
4.8233797954
 20
4.5910224865
 30
0.0
 10
4.819317777
 20
4.5905103884
 30
0.0
 10
4.8152265575
 20
4.5900863263
 30
0.0
 10
4.8111028154
 20
4.5897519357
 30
0.0
 10
4.8069430877
 20
4.5895088776
 30
0.0
 10
4.8027439326
 20
4.5893588016
 30
0.0
 10
4.7992182722
 20
4.5893127165
 30
0.0
 10
4.7963759001
 20
4.5893236004
 30
0.0
 10
4.793496442
 20
4.5893670062
 30
0.0
 10
4.7898465384
 20
4.589485438
 30
0.0
 10
4.785394184
 20
4.5897360945
 30
0.0
 10
4.781623236
 20
4.5900385398
 30
0.0
 10
4.7785587662
 20
4.5903403458
 30
0.0
 10
4.776232508
 20
4.5905986563
 30
0.0
 10
4.7738953068
 20
4.5908884435
 30
0.0
 10
4.7707643674
 20
4.5913177852
 30
0.0
 10
4.7668453798
 20
4.5919317633
 30
0.0
 10
4.7621534792
 20
4.5927883935
 30
0.0
 10
4.757484456
 20
4.593762964
 30
0.0
 10
4.7543910322
 20
4.5944913902
 30
0.0
 10
4.7528521425
 20
4.5948750784
 30
0.0
 11
4.9675710932
 21
4.6972907643
 31
0.0
 11
4.9641169106
 21
4.6902692158
 31
0.0
 11
4.9603929054
 21
4.6834338505
 31
0.0
 11
4.9564063216
 21
4.6767895228
 31
0.0
 11
4.9521644027
 21
4.6703410872
 31
0.0
 11
4.9476743929
 21
4.6640933978
 31
0.0
 11
4.9429435357
 21
4.658051309
 31
0.0
 11
4.9379790735
 21
4.6522196759
 31
0.0
 11
4.9327877924
 21
4.6466035227
 31
0.0
 11
4.9273754026
 21
4.6412082734
 31
0.0
 11
4.9217474592
 21
4.6360394094
 31
0.0
 11
4.9159095174
 21
4.6311024124
 31
0.0
 11
4.9098671323
 21
4.6264027638
 31
0.0
 11
4.9036258589
 21
4.6219459452
 31
0.0
 11
4.8971912465
 21
4.6177374594
 31
0.0
 11
4.8905685435
 21
4.6137838697
 31
0.0
 11
4.8837625651
 21
4.610093269
 31
0.0
 11
4.8767780927
 21
4.6066738693
 31
0.0
 11
4.8696199075
 21
4.6035338826
 31
0.0
 11
4.8622927909
 21
4.6006815208
 31
0.0
 11
4.8548015242
 21
4.5981249961
 31
0.0
 11
4.8471512156
 21
4.5958725784
 31
0.0
 11
4.8393532305
 21
4.5939336476
 31
0.0
 11
4.8314245635
 21
4.5923185825
 31
0.0
 11
4.8274165979
 21
4.5916357541
 31
0.0
 11
4.8233823934
 21
4.5910377984
 31
0.0
 11
4.8193222714
 21
4.59052613
 31
0.0
 11
4.8152331429
 21
4.5901023738
 31
0.0
 11
4.8111115412
 21
4.5897681781
 31
0.0
 11
4.8069539996
 21
4.589525191
 31
0.0
 11
4.8027570517
 21
4.5893750607
 31
0.0
 11
4.7985172307
 21
4.5893194354
 31
0.0
 11
4.7963801596
 21
4.5893275772
 31
0.0
 11
4.7942306533
 21
4.5893600529
 31
0.0
 11
4.7898805884
 21
4.5895014117
 31
0.0
 11
4.7854353412
 21
4.5897512268
 31
0.0
 11
4.7808775858
 21
4.5901167309
 31
0.0
 11
4.7785654525
 21
4.5903445002
 31
0.0
 11
4.7762377861
 21
4.5906030707
 31
0.0
 11
4.7738995286
 21
4.5908930205
 31
0.0
 11
4.7715545205
 21
4.591214493
 31
0.0
 11
4.7668544064
 21
4.5919505237
 31
0.0
 11
4.7621573897
 21
4.5928080554
 31
0.0
 11
4.757483344
 21
4.5937839523
 31
0.0
 11
4.7528521425
 21
4.5948750784
 31
0.0
  0
SPLINE
  5
23E
100
AcDbEntity
  8
0
100
AcDbSpline
 62
6
  6
CONTINUOUS
 70
0
 71
3
 72
54
 73
50
 74
48
 42
0.0000001
 43
0.0000001
 44
0.0000000001
 12
0.3501254174
 22
0.0748064232
 32
0.0
 13
0.1224526733
 23
-0.3364359548
 33
0.0
 40
0.0
 40
0.0
 40
0.0
 40
0.0
 40
0.0142399964
 40
0.0284653969
 40
0.0427024544
 40
0.0569774915
 40
0.0641375754
 40
0.0713170873
 40
0.0857529126
 40
0.1003276927
 40
0.1150750366
 40
0.1299751748
 40
0.1449922835
 40
0.1601040363
 40
0.1752995528
 40
0.2058986458
 40
0.221283725
 40
0.236712062
 40
0.2521747657
 40
0.2676690772
 40
0.2987526127
 40
0.3299698114
 40
0.3456316675
 40
0.3613293546
 40
0.3928242353
 40
0.4244411367
 40
0.4561643335
 40
0.4879789382
 40
0.5198714753
 40
0.5358443357
 40
0.55183257
 40
0.5678351454
 40
0.5838510316
 40
0.5998788912
 40
0.6159172611
 40
0.6480172062
 40
0.680140064
 40
0.7122725536
 40
0.7444016323
 40
0.7604620968
 40
0.7765172338
 40
0.7925657582
 40
0.8086066202
 40
0.8406589233
 40
0.8726663452
 40
0.9046172139
 40
0.9364987103
 40
0.9682974386
 40
1.0
 40
1.0
 40
1.0
 40
1.0
 10
4.7476168434
 20
4.1533119339
 30
0.0
 10
4.7492787717
 20
4.153667015
 30
0.0
 10
4.7526081721
 20
4.1543433814
 30
0.0
 10
4.7576223585
 20
4.1552559972
 30
0.0
 10
4.7626583418
 20
4.1560662967
 30
0.0
 10
4.7668747945
 20
4.1566562918
 30
0.0
 10
4.770263683
 20
4.1570777413
 30
0.0
 10
4.7736757345
 20
4.1574669901
 30
0.0
 10
4.7779742676
 20
4.1578906014
 30
0.0
 10
4.7831812648
 20
4.1582935895
 30
0.0
 10
4.7884509999
 20
4.1585888021
 30
0.0
 10
4.7937785851
 20
4.1587737206
 30
0.0
 10
4.7991524036
 20
4.1588446223
 30
0.0
 10
4.8045617878
 20
4.1587991259
 30
0.0
 10
4.811827666
 20
4.1585814469
 30
0.0
 10
4.8191175517
 20
4.1581262394
 30
0.0
 10
4.8264140963
 20
4.1574312933
 30
0.0
 10
4.8318995725
 20
4.1567869996
 30
0.0
 10
4.8373822875
 20
4.1560191838
 30
0.0
 10
4.8446905892
 20
4.1548289236
 30
0.0
 10
4.8538021614
 20
4.1530294507
 30
0.0
 10
4.8628432503
 20
4.1508181156
 30
0.0
 10
4.8700338598
 20
4.1487993133
 30
0.0
 10
4.8772085583
 20
4.1466083976
 30
0.0
 10
4.886108777
 20
4.1435569314
 30
0.0
 10
4.8966424533
 20
4.1394073073
 30
0.0
 10
4.9070140487
 20
4.1347729756
 30
0.0
 10
4.9171956285
 20
4.1296613823
 30
0.0
 10
4.9254949816
 20
4.1250122646
 30
0.0
 10
4.9320121853
 20
4.1210618509
 30
0.0
 10
4.9368381084
 20
4.1179825715
 30
0.0
 10
4.9415956151
 20
4.1147894216
 30
0.0
 10
4.9462814043
 20
4.1114837216
 30
0.0
 10
4.9508929519
 20
4.1080679976
 30
0.0
 10
4.9569403551
 20
4.1033692079
 30
0.0
 10
4.9643000291
 20
4.0972329015
 30
0.0
 10
4.9727891862
 20
4.0894702895
 30
0.0
 10
4.9809174399
 20
4.0813256227
 30
0.0
 10
4.9873735083
 20
4.0742349303
 30
0.0
 10
4.9923367286
 20
4.0683902877
 30
0.0
 10
4.9959553845
 20
4.0639235981
 30
0.0
 10
4.9994676888
 20
4.059375758
 30
0.0
 10
5.0040050004
 20
4.0532098917
 30
0.0
 10
5.0094031256
 20
4.0453160465
 30
0.0
 10
5.0154335977
 20
4.0355686651
 30
0.0
 10
5.0210046018
 20
4.0255748334
 30
0.0
 10
5.0261052647
 20
4.0153607692
 30
0.0
 10
5.0307246874
 20
4.0049528979
 30
0.0
 10
5.0334810633
 20
3.9978901664
 30
0.0
 10
5.0347750844
 20
3.9943348726
 30
0.0
 11
4.7476168434
 21
4.1533119339
 31
0.0
 11
4.752613145
 21
4.1543267063
 31
0.0
 11
4.7576239313
 21
4.1552386022
 31
0.0
 11
4.7626564598
 21
4.1560483687
 31
0.0
 11
4.7677179875
 21
4.156756753
 31
0.0
 11
4.7702618941
 21
4.1570731602
 31
0.0
 11
4.7728157955
 21
4.1573644883
 31
0.0
 11
4.7779593364
 21
4.1578710476
 31
0.0
 11
4.783161957
 21
4.1582736439
 31
0.0
 11
4.7884336364
 21
4.1585691825
 31
0.0
 11
4.7937650888
 21
4.1587541973
 31
0.0
 11
4.7991411607
 21
4.1588251742
 31
0.0
 11
4.8045513963
 21
4.1587798436
 31
0.0
 11
4.809989374
 21
4.1586170037
 31
0.0
 11
4.8209233924
 21
4.157934128
 31
0.0
 11
4.8264068513
 21
4.1574117582
 31
0.0
 11
4.8318928891
 21
4.1567672111
 31
0.0
 11
4.8373754583
 21
4.1559993772
 31
0.0
 11
4.8428507132
 21
4.1551076686
 31
0.0
 11
4.8537685823
 21
4.1529513852
 31
0.0
 11
4.864625156
 21
4.1502958894
 31
0.0
 11
4.8700237916
 21
4.1487801653
 31
0.0
 11
4.8753990008
 21
4.1471388717
 31
0.0
 11
4.8860657691
 21
4.1434824938
 31
0.0
 11
4.8965978746
 21
4.1393338873
 31
0.0
 11
4.9069675618
 21
4.1347004434
 31
0.0
 11
4.917147075
 21
4.1295895531
 31
0.0
 11
4.9271086586
 21
4.1240086079
 31
0.0
 11
4.9319990533
 21
4.1210441743
 31
0.0
 11
4.9368245573
 21
4.1179649986
 31
0.0
 11
4.941581704
 21
4.1147720102
 31
0.0
 11
4.9462672953
 21
4.1114666381
 31
0.0
 11
4.9508786141
 21
4.108051207
 31
0.0
 11
4.9554129936
 21
4.1045281351
 31
0.0
 11
4.9642402665
 21
4.0971687411
 31
0.0
 11
4.9727277783
 21
4.0894078008
 31
0.0
 11
4.9808541933
 21
4.0812646587
 31
0.0
 11
4.9885981759
 21
4.0727586595
 31
0.0
 11
4.9923200876
 21
4.0683756337
 31
0.0
 11
4.9959383903
 21
4.0639091479
 31
0.0
 11
4.9994504741
 21
4.0593616579
 31
0.0
 11
5.0028544614
 21
4.0547361038
 31
0.0
 11
5.0093326774
 21
4.0452639145
 31
0.0
 11
5.0153621512
 21
4.0355188357
 31
0.0
 11
5.0209320058
 21
4.0255271297
 31
0.0
 11
5.0260313642
 21
4.015315059
 31
0.0
 11
5.0306493494
 21
4.0049088858
 31
0.0
 11
5.0347750844
 21
3.9943348726
 31
0.0
  0
SPLINE
  5
23F
100
AcDbEntity
  8
0
100
AcDbSpline
 62
6
  6
CONTINUOUS
 70
0
 71
3
 72
29
 73
25
 74
23
 42
0.0000001
 43
0.0000001
 44
0.0000000001
 12
-0.0065100485
 22
-0.0294952514
 32
0.0
 13
-0.010050473
 23
-0.0284840057
 33
0.0
 40
0.0
 40
0.0
 40
0.0
 40
0.0
 40
0.0081544379
 40
0.01783533
 40
0.0290555302
 40
0.0418220299
 40
0.0561384918
 40
0.0720065631
 40
0.0894266085
 40
0.1083981351
 40
0.1289170273
 40
0.1509712938
 40
0.1996318212
 40
0.2542696759
 40
0.3147730841
 40
0.3810327919
 40
0.4529492465
 40
0.530426761
 40
0.6133748035
 40
0.7017630923
 40
0.7956279177
 40
0.8446289235
 40
0.8950178601
 40
1.0
 40
1.0
 40
1.0
 40
1.0
 10
5.808902776
 20
3.8514926703
 30
0.0
 10
5.8088850807
 20
3.8514124979
 30
0.0
 10
5.8088402286
 20
3.8512385057
 30
0.0
 10
5.8087550928
 20
3.850958576
 30
0.0
 10
5.8086464826
 20
3.8506374226
 30
0.0
 10
5.8085146269
 20
3.8502749885
 30
0.0
 10
5.8083597546
 20
3.8498712065
 30
0.0
 10
5.808182122
 20
3.849426025
 30
0.0
 10
5.8079819949
 20
3.8489393916
 30
0.0
 10
5.8077596487
 20
3.8484112886
 30
0.0
 10
5.8075154498
 20
3.8478417768
 30
0.0
 10
5.8071493138
 20
3.8469993219
 30
0.0
 10
5.806639986
 20
3.8458445521
 30
0.0
 10
5.8059699091
 20
3.8443375957
 30
0.0
 10
5.8052272504
 20
3.8426689895
 30
0.0
 10
5.8044170599
 20
3.8408400203
 30
0.0
 10
5.8035460806
 20
3.8388510733
 30
0.0
 10
5.8026209542
 20
3.8367024487
 30
0.0
 10
5.8016477903
 20
3.8343940093
 30
0.0
 10
5.800634092
 20
3.8319237139
 30
0.0
 10
5.7997758078
 20
3.8297592487
 30
0.0
 10
5.799076879
 20
3.8279433326
 30
0.0
 10
5.7983515291
 20
3.8260177101
 30
0.0
 10
5.7978174829
 20
3.8245472486
 30
0.0
 10
5.7974657762
 20
3.823550478
 30
0.0
 11
5.808902776
 21
3.8514926703
 31
0.0
 11
5.8088425189
 21
3.8512538488
 31
0.0
 11
5.8087582765
 21
3.8509738337
 31
0.0
 11
5.8086503348
 21
3.8506525752
 31
0.0
 11
5.8085189794
 21
3.8502900233
 31
0.0
 11
5.8083644963
 21
3.8498861281
 31
0.0
 11
5.8081871713
 21
3.8494408397
 31
0.0
 11
5.8079872903
 21
3.8489541081
 31
0.0
 11
5.8077651393
 21
3.8484258836
 31
0.0
 11
5.8075210936
 21
3.8478561784
 31
0.0
 11
5.8072557453
 21
3.8472451554
 31
0.0
 11
5.8066636397
 21
3.845899898
 31
0.0
 11
5.8059938198
 21
3.8443915953
 31
0.0
 11
5.8052512829
 21
3.8427217311
 31
0.0
 11
5.8044413693
 21
3.840891546
 31
0.0
 11
5.8035705153
 21
3.8389015035
 31
0.0
 11
5.8026453755
 21
3.8367519122
 31
0.0
 11
5.8016726357
 21
3.834442996
 31
0.0
 11
5.800659781
 21
3.8319728027
 31
0.0
 11
5.799615146
 21
3.8293370678
 31
0.0
 11
5.7990835283
 21
3.8279557546
 31
0.0
 11
5.7985471185
 21
3.8265314078
 31
0.0
 11
5.7974657762
 21
3.823550478
 31
0.0
  0
SPLINE
  5
240
100
AcDbEntity
  8
0
100
AcDbSpline
 62
6
  6
CONTINUOUS
 70
0
 71
3
 72
38
 73
34
 74
32
 42
0.0000001
 43
0.0000001
 44
0.0000000001
 12
-0.0328051588
 22
0.0562811009
 32
0.0
 13
-0.0017605221
 23
0.0651202067
 33
0.0
 40
0.0
 40
0.0
 40
0.0
 40
0.0
 40
0.0006316363
 40
0.0014273864
 40
0.0023899094
 40
0.0035203121
 40
0.0062830077
 40
0.0097095
 40
0.0137914826
 40
0.0185198102
 40
0.0238849184
 40
0.0298770114
 40
0.0364861553
 40
0.0437023294
 40
0.0599153728
 40
0.0784318435
 40
0.0991468239
 40
0.12194771
 40
0.1467218903
 40
0.1733568031
 40
0.2017399677
 40
0.2317626631
 40
0.2633279159
 40
0.3307077889
 40
0.4031250888
 40
0.4798578836
 40
0.5603255199
 40
0.6439894221
 40
0.6868525807
 40
0.7303144025
 40
0.8187720304
 40
0.90884077
 40
1.0
 40
1.0
 40
1.0
 40
1.0
 10
5.8010358913
 20
3.7141142825
 30
0.0
 10
5.8010289843
 20
3.7141261322
 30
0.0
 10
5.8010150388
 20
3.7141538696
 30
0.0
 10
5.8009947723
 20
3.7142016599
 30
0.0
 10
5.8009728381
 20
3.7142604449
 30
0.0
 10
5.8009390941
 20
3.714360349
 30
0.0
 10
5.8008936965
 20
3.7145127155
 30
0.0
 10
5.8008358691
 20
3.7147281364
 30
0.0
 10
5.8007719568
 20
3.7149860681
 30
0.0
 10
5.8007021584
 20
3.7152858717
 30
0.0
 10
5.8006266984
 20
3.7156269211
 30
0.0
 10
5.8005457745
 20
3.7160085732
 30
0.0
 10
5.8004595809
 20
3.7164301845
 30
0.0
 10
5.8003328898
 20
3.717070039
 30
0.0
 10
5.8001633297
 20
3.7179649696
 30
0.0
 10
5.7999489493
 20
3.7191496985
 30
0.0
 10
5.7997185235
 20
3.7204768654
 30
0.0
 10
5.799474183
 20
3.7219395015
 30
0.0
 10
5.7992180853
 20
3.7235304753
 30
0.0
 10
5.7989523779
 20
3.725242652
 30
0.0
 10
5.7986791958
 20
3.7270689747
 30
0.0
 10
5.7984006153
 20
3.7290027137
 30
0.0
 10
5.7980161003
 20
3.7317766952
 30
0.0
 10
5.7975352348
 20
3.7354666505
 30
0.0
 10
5.7969781944
 20
3.7401355083
 30
0.0
 10
5.7964438157
 20
3.7450929742
 30
0.0
 10
5.7959431975
 20
3.7502993647
 30
0.0
 10
5.7955660049
 20
3.7547784516
 30
0.0
 10
5.795290165
 20
3.758459404
 30
0.0
 10
5.7950305396
 20
3.7622458814
 30
0.0
 10
5.79474631
 20
3.7670580338
 30
0.0
 10
5.7944744707
 20
3.772907998
 30
0.0
 10
5.794342134
 20
3.7768412105
 30
0.0
 10
5.794288638
 20
3.7788199798
 30
0.0
 11
5.8010358913
 21
3.7141142825
 31
0.0
 11
5.8010170027
 21
3.7141508382
 31
0.0
 11
5.8009965059
 21
3.7141984523
 31
0.0
 11
5.8009743978
 21
3.714257128
 31
0.0
 11
5.800950683
 21
3.7143268439
 31
0.0
 11
5.8008985191
 21
3.7144990915
 31
0.0
 11
5.8008401961
 21
3.7147145527
 31
0.0
 11
5.8007758982
 21
3.7149725788
 31
0.0
 11
5.8007058094
 21
3.7152725208
 31
0.0
 11
5.8006301136
 21
3.7156137299
 31
0.0
 11
5.8005489949
 21
3.7159955571
 31
0.0
 11
5.8004626374
 21
3.7164173536
 31
0.0
 11
5.8003712249
 21
3.7168784705
 31
0.0
 11
5.8001739716
 21
3.71791607
 31
0.0
 11
5.7999587781
 21
3.7191029564
 31
0.0
 11
5.7997276191
 21
3.7204324671
 31
0.0
 11
5.7994826312
 21
3.721897465
 31
0.0
 11
5.7992259512
 21
3.7234908117
 31
0.0
 11
5.7989597162
 21
3.7252053692
 31
0.0
 11
5.7986860631
 21
3.7270339995
 31
0.0
 11
5.7984070725
 21
3.7289697969
 31
0.0
 11
5.7981246466
 21
3.7310065962
 31
0.0
 11
5.7975569553
 21
3.7353591254
 31
0.0
 11
5.7969979223
 21
3.740043438
 31
0.0
 11
5.7964618275
 21
3.7450132887
 31
0.0
 11
5.7959599475
 21
3.7502311915
 31
0.0
 11
5.7955026952
 21
3.755662178
 31
0.0
 11
5.7952940581
 21
3.7584466501
 31
0.0
 11
5.7951003131
 21
3.7612712902
 31
0.0
 11
5.7947603118
 21
3.7670237347
 31
0.0
 11
5.7944880035
 21
3.7728848504
 31
0.0
 11
5.794288638
 21
3.7788199798
 31
0.0
  0
SPLINE
  5
241
100
AcDbEntity
  8
0
100
AcDbSpline
 62
9
  6
CONTINUOUS
 70
0
 71
3
 72
11
 73
7
 74
5
 42
0.0000001
 43
0.0000001
 44
0.0000000001
 12
-0.0271924449
 22
-0.0000096562
 32
0.0
 13
-0.0260787954
 23
-0.0077023103
 33
0.0
 40
0.0
 40
0.0
 40
0.0
 40
0.0
 40
0.2692616847
 40
0.524654445
 40
0.7677308099
 40
1.0
 40
1.0
 40
1.0
 40
1.0
 10
5.6619631265
 20
4.6293502746
 30
0.0
 10
5.6595224987
 20
4.6293494079
 30
0.0
 10
5.6547652177
 20
4.6291958516
 30
0.0
 10
5.6478365069
 20
4.6284910108
 30
0.0
 10
5.6413068276
 20
4.6273465018
 30
0.0
 10
5.6371255337
 20
4.6262869464
 30
0.0
 10
5.6351064335
 20
4.6256906099
 30
0.0
 11
5.6619631265
 21
4.6293502746
 31
0.0
 11
5.6546453396
 21
4.6291053683
 31
0.0
 11
5.6477370235
 21
4.6283948915
 31
0.0
 11
5.6412275857
 21
4.6272471901
 31
0.0
 11
5.6351064335
 21
4.6256906099
 31
0.0
  0
SPLINE
  5
242
100
AcDbEntity
  8
0
100
AcDbSpline
 62
9
  6
CONTINUOUS
 70
0
 71
3
 72
11
 73
7
 74
5
 42
0.0000001
 43
0.0000001
 44
0.0000000001
 12
-0.0602757555
 22
-0.0002017739
 32
0.0
 13
-0.0596562735
 23
0.0086218587
 33
0.0
 40
0.0
 40
0.0
 40
0.0
 40
0.0
 40
0.274843908
 40
0.5333463982
 40
0.7751949491
 40
1.0
 40
1.0
 40
1.0
 40
1.0
 10
5.8117524847
 20
4.3049355827
 30
0.0
 10
5.8062303433
 20
4.3049170973
 30
0.0
 10
5.795512514
 20
4.3050829126
 30
0.0
 10
5.779955855
 20
4.3059112113
 30
0.0
 10
5.7654417321
 20
4.3072191263
 30
0.0
 10
5.7561372113
 20
4.3083930402
 30
0.0
 10
5.7516668674
 20
4.3090391193
 30
0.0
 11
5.8117524847
 21
4.3049355827
 31
0.0
 11
5.7951880036
 21
4.3051952949
 31
0.0
 11
5.7796287063
 21
4.3060271849
 31
0.0
 11
5.7651101737
 21
4.3073391051
 31
0.0
 11
5.7516668674
 21
4.3090391193
 31
0.0
  0
SPLINE
  5
243
100
AcDbEntity
  8
0
100
AcDbSpline
 62
9
  6
CONTINUOUS
 70
0
 71
3
 72
52
 73
48
 74
46
 42
0.0000001
 43
0.0000001
 44
0.0000000001
 12
0.0649136563
 22
-0.329462012
 32
0.0
 13
0.0904196595
 23
-0.323393391
 33
0.0
 40
0.0
 40
0.0
 40
0.0
 40
0.0
 40
0.020740695
 40
0.0423791851
 40
0.0649011671
 40
0.0882921945
 40
0.1125376685
 40
0.1376205057
 40
0.1635197879
 40
0.190214316
 40
0.2038532131
 40
0.2176830058
 40
0.2317011365
 40
0.2459061418
 40
0.2748742088
 40
0.3045818628
 40
0.3350232464
 40
0.3505171658
 40
0.3661916453
 40
0.3820425992
 40
0.3980650703
 40
0.4306047312
 40
0.4637709615
 40
0.4805766457
 40
0.4975240362
 40
0.5146076291
 40
0.5318217042
 40
0.5666184652
 40
0.6018688251
 40
0.6375257385
 40
0.6735198502
 40
0.6916171296
 40
0.7097672243
 40
0.7279596853
 40
0.7370685515
 40
0.7461841158
 40
0.7644308208
 40
0.7826913145
 40
0.81921969
 40
0.8374704318
 40
0.8557007542
 40
0.8739021182
 40
0.8920671335
 40
0.9101903714
 40
0.928266643
 40
0.964257725
 40
1.0
 40
1.0
 40
1.0
 40
1.0
 10
4.9837819582
 20
4.6293502746
 30
0.0
 10
4.984230743
 20
4.6270725176
 30
0.0
 10
4.9851715738
 20
4.622423077
 30
0.0
 10
4.9866783263
 20
4.6153164431
 30
0.0
 10
4.9883103857
 20
4.607933414
 30
0.0
 10
4.9900673694
 20
4.6002794236
 30
0.0
 10
4.991948658
 20
4.5923601171
 30
0.0
 10
4.9939542135
 20
4.5841819927
 30
0.0
 10
4.9960854691
 20
4.5757526748
 30
0.0
 10
4.9979534108
 20
4.5685782297
 30
0.0
 10
4.9995114932
 20
4.5627192538
 30
0.0
 10
5.0007205102
 20
4.5582356887
 30
0.0
 10
5.0019619624
 20
4.5536952718
 30
0.0
 10
5.0036703514
 20
4.5475259061
 30
0.0
 10
5.0058805595
 20
4.5396732995
 30
0.0
 10
5.0086219468
 20
4.53008232
 30
0.0
 10
5.0109700295
 20
4.5219475507
 30
0.0
 10
5.0128888117
 20
4.5153237623
 30
0.0
 10
5.0143548047
 20
4.5102690879
 30
0.0
 10
5.0158384067
 20
4.5051579211
 30
0.0
 10
5.0178492272
 20
4.4982341164
 30
0.0
 10
5.0204013931
 20
4.489449315
 30
0.0
 10
5.0229764084
 20
4.4805798604
 30
0.0
 10
5.0250622738
 20
4.4733857338
 30
0.0
 10
5.0266452616
 20
4.4679201042
 30
0.0
 10
5.0282380847
 20
4.4624097328
 30
0.0
 10
5.03037982
 20
4.454978322
 30
0.0
 10
5.0330698421
 20
4.4455887225
 30
0.0
 10
5.0362931729
 20
4.4342045635
 30
0.0
 10
5.0395059252
 20
4.4226782089
 30
0.0
 10
5.0421555379
 20
4.4129881683
 30
0.0
 10
5.0442550335
 20
4.4051793351
 30
0.0
 10
5.0458192204
 20
4.3992899442
 30
0.0
 10
5.0471091308
 20
4.3943687061
 30
0.0
 10
5.0481324246
 20
4.3904230218
 30
0.0
 10
5.0491500952
 20
4.3864696132
 30
0.0
 10
5.050410474
 20
4.3815209379
 30
0.0
 10
5.0524081692
 20
4.3735937534
 30
0.0
 10
5.0543859433
 20
4.3656611093
 30
0.0
 10
5.0563629879
 20
4.3577317711
 30
0.0
 10
5.0578487599
 20
4.351794124
 30
0.0
 10
5.0593424393
 20
4.3458683534
 30
0.0
 10
5.0608476333
 20
4.3399578629
 30
0.0
 10
5.0623652323
 20
4.334065001
 30
0.0
 10
5.0644040316
 20
4.3262459881
 30
0.0
 10
5.0669888191
 20
4.316531317
 30
0.0
 10
5.0691148551
 20
4.3087885212
 30
0.0
 10
5.0701921232
 20
4.3049355827
 30
0.0
 11
4.9837819582
 21
4.6293502746
 31
0.0
 11
4.9851619535
 21
4.6225237179
 31
0.0
 11
4.9866678253
 21
4.6154153532
 31
0.0
 11
4.9882991429
 21
4.6080305958
 31
0.0
 11
4.9900554755
 21
4.6003748611
 31
0.0
 11
4.991936401
 21
4.5924535791
 31
0.0
 11
4.9939420444
 21
4.5842731405
 31
0.0
 11
4.9960734084
 21
4.5758414764
 31
0.0
 11
4.9983315746
 21
4.5671666563
 31
0.0
 11
4.9995085465
 21
4.5627405845
 31
0.0
 11
5.0007176245
 21
4.5582567497
 31
0.0
 11
5.001958885
 21
4.5537161202
 31
0.0
 11
5.0032314819
 21
4.5491190283
 31
0.0
 11
5.0058643553
 21
4.5397547574
 31
0.0
 11
5.0086034849
 21
4.5301624674
 31
0.0
 11
5.0114360905
 21
4.5203406748
 31
0.0
 11
5.0128834531
 21
4.5153432513
 31
0.0
 11
5.0143494876
 21
4.510288113
 31
0.0
 11
5.0158331757
 21
4.5051763934
 31
0.0
 11
5.0173336526
 21
4.500009575
 31
0.0
 11
5.0203815129
 21
4.4895165722
 31
0.0
 11
5.0234861492
 21
4.4788209656
 31
0.0
 11
5.0250575961
 21
4.4734008924
 31
0.0
 11
5.0266405459
 21
4.4679346104
 31
0.0
 11
5.0282333036
 21
4.4624235541
 31
0.0
 11
5.0298338372
 21
4.4568691385
 31
0.0
 11
5.0330500972
 21
4.4456358882
 31
0.0
 11
5.036273056
 21
4.4342461778
 31
0.0
 11
5.0394863739
 21
4.4227119624
 31
0.0
 11
5.0426728706
 21
4.4110528843
 31
0.0
 11
5.0442505187
 21
4.4051842475
 31
0.0
 11
5.0458148087
 21
4.3992936841
 31
0.0
 11
5.047363522
 21
4.3933842983
 31
0.0
 11
5.0481313442
 21
4.3904235169
 31
0.0
 11
5.0488944626
 21
4.3874591972
 31
0.0
 11
5.0504075966
 21
4.3815218021
 31
0.0
 11
5.0519068304
 21
4.3755761067
 31
0.0
 11
5.0548808961
 21
4.3636760322
 31
0.0
 11
5.0563643774
 21
4.3577297619
 31
0.0
 11
5.0578512572
 21
4.3517914087
 31
0.0
 11
5.0593458486
 21
4.3458650197
 31
0.0
 11
5.0608514402
 21
4.3399540104
 31
0.0
 11
5.0623695072
 21
4.3340606782
 31
0.0
 11
5.0639013398
 21
4.3281872063
 31
0.0
 11
5.067011461
 21
4.3165085756
 31
0.0
 11
5.0701921232
 21
4.3049355827
 31
0.0
  0
SPLINE
  5
244
100
AcDbEntity
  8
0
100
AcDbSpline
 62
9
  6
CONTINUOUS
 70
0
 71
3
 72
53
 73
49
 74
47
 42
0.0000001
 43
0.0000001
 44
0.0000000001
 12
-0.3198501147
 22
-0.2098021703
 32
0.0
 13
0.0873520261
 23
-0.3724119628
 33
0.0
 40
0.0
 40
0.0
 40
0.0
 40
0.0
 40
0.0636671973
 40
0.0954584434
 40
0.1272064307
 40
0.1430619995
 40
0.1589037528
 40
0.190543182
 40
0.2221235204
 40
0.2536431164
 40
0.2693801555
 40
0.2851015206
 40
0.300807076
 40
0.3164964365
 40
0.3478242123
 40
0.3790862909
 40
0.3946948932
 40
0.4102896655
 40
0.4258721983
 40
0.4414441279
 40
0.4570057285
 40
0.4725569144
 40
0.5036269545
 40
0.5346583332
 40
0.5501619546
 40
0.5656581754
 40
0.5966294042
 40
0.6275817666
 40
0.6585294459
 40
0.6740088733
 40
0.689494103
 40
0.7204791311
 40
0.7359814741
 40
0.7514903449
 40
0.7670067736
 40
0.7747684142
 40
0.7825325111
 40
0.7980682174
 40
0.8136141434
 40
0.8447286441
 40
0.8602937195
 40
0.8758580991
 40
0.8914167924
 40
0.9069659609
 40
0.9225046998
 40
0.9380321553
 40
0.9690471219
 40
1.0
 40
1.0
 40
1.0
 40
1.0
 10
5.2303147469
 20
4.6293502746
 30
0.0
 10
5.2235267601
 20
4.6248977692
 30
0.0
 10
5.2135356929
 20
4.6179305416
 30
0.0
 10
5.2006472433
 20
4.6080809695
 30
0.0
 10
5.1927869225
 20
4.601698729
 30
0.0
 10
5.1866224909
 20
4.5964597573
 30
0.0
 10
5.180548155
 20
4.5911375389
 30
0.0
 10
5.1731173969
 20
4.5843227434
 30
0.0
 10
5.1644652408
 20
4.575890274
 30
0.0
 10
5.1574825082
 20
4.5686567947
 30
0.0
 10
5.152039594
 20
4.5627524427
 30
0.0
 10
5.1480319096
 20
4.5582684589
 30
0.0
 10
5.1440977494
 20
4.5537278641
 30
0.0
 10
5.1389558864
 20
4.5476019852
 30
0.0
 10
5.1327242964
 20
4.5398027667
 30
0.0
 10
5.1267666929
 20
4.5318048136
 30
0.0
 10
5.1221810525
 20
4.5252921337
 30
0.0
 10
5.1188360564
 20
4.5203522509
 30
0.0
 10
5.1155865532
 20
4.5153546077
 30
0.0
 10
5.1124355792
 20
4.5102992358
 30
0.0
 10
5.1093849884
 20
4.5051872856
 30
0.0
 10
5.1054553816
 20
4.4983003924
 30
0.0
 10
5.1008033411
 20
4.4895569748
 30
0.0
 10
5.0965091564
 20
4.4806389405
 30
0.0
 10
5.0932987101
 20
4.4734098818
 30
0.0
 10
5.0902418872
 20
4.4661228782
 30
0.0
 10
5.086712016
 20
4.4569004928
 30
0.0
 10
5.0829659921
 20
4.4456629936
 30
0.0
 10
5.0802726855
 20
4.4361673336
 30
0.0
 10
5.0783875331
 20
4.4285008185
 30
0.0
 10
5.076684911
 20
4.4207869177
 30
0.0
 10
5.0752614943
 20
4.413010454
 30
0.0
 10
5.0741272547
 20
4.4051866947
 30
0.0
 10
5.0734231842
 20
4.3992953921
 30
0.0
 10
5.0729609386
 20
4.3943708796
 30
0.0
 10
5.0726669534
 20
4.3904236387
 30
0.0
 10
5.0724239754
 20
4.3864704711
 30
0.0
 10
5.0722154082
 20
4.381521182
 30
0.0
 10
5.0720770316
 20
4.373591383
 30
0.0
 10
5.0722209305
 20
4.3656552262
 30
0.0
 10
5.0726248852
 20
4.3577285971
 30
0.0
 10
5.0730526191
 20
4.3517904845
 30
0.0
 10
5.0735994422
 20
4.345864273
 30
0.0
 10
5.0742607671
 20
4.3399530427
 30
0.0
 10
5.0750345449
 20
4.3340594929
 30
0.0
 10
5.0762124568
 20
4.3262314754
 30
0.0
 10
5.0779536949
 20
4.3165026206
 30
0.0
 10
5.0796241231
 20
4.3087779901
 30
0.0
 10
5.0805253887
 20
4.3049355827
 30
0.0
 11
5.2303147469
 21
4.6293502746
 31
0.0
 11
5.2103414626
 21
4.6154153532
 31
0.0
 11
5.2006797029
 21
4.6080305958
 31
0.0
 11
5.1912525195
 21
4.6003748611
 31
0.0
 11
5.1866311099
 21
4.5964470696
 31
0.0
 11
5.1820733767
 21
4.5924535791
 31
0.0
 11
5.1731539812
 21
4.5842731405
 31
0.0
 11
5.1645032227
 21
4.5758414764
 31
0.0
 11
5.1561297378
 21
4.5671666563
 31
0.0
 11
5.1520496717
 21
4.5627405845
 31
0.0
 11
5.1480421626
 21
4.5582567497
 31
0.0
 11
5.1441083493
 21
4.5537161202
 31
0.0
 11
5.1402502986
 21
4.5491190283
 31
0.0
 11
5.1327727169
 21
4.5397547574
 31
0.0
 11
5.1256319817
 21
4.5301624674
 31
0.0
 11
5.1221949892
 21
4.5252803516
 31
0.0
 11
5.1188506775
 21
4.5203406748
 31
0.0
 11
5.1156018697
 21
4.5153432513
 31
0.0
 11
5.112451277
 21
4.510288113
 31
0.0
 11
5.1094010432
 21
4.5051763934
 31
0.0
 11
5.1064531322
 21
4.500009575
 31
0.0
 11
5.1008721346
 21
4.4895165722
 31
0.0
 11
5.0957239959
 21
4.4788209656
 31
0.0
 11
5.0933171585
 21
4.4734008924
 31
0.0
 11
5.0910245067
 21
4.4679346104
 31
0.0
 11
5.0867926077
 21
4.4568691385
 31
0.0
 11
5.0830513803
 21
4.4456358882
 31
0.0
 11
5.0798241873
 21
4.4342461778
 31
0.0
 11
5.078410652
 21
4.4284961956
 31
0.0
 11
5.0771342071
 21
4.4227119624
 31
0.0
 11
5.0750023926
 21
4.4110528843
 31
0.0
 11
5.0741518858
 21
4.4051842475
 31
0.0
 11
5.0734482211
 21
4.3992936841
 31
0.0
 11
5.0728938297
 21
4.3933842983
 31
0.0
 11
5.0726733713
 21
4.3904235169
 31
0.0
 11
5.0724911162
 21
4.3874591972
 31
0.0
 11
5.0722398793
 21
4.3815218021
 31
0.0
 11
5.0721351704
 21
4.3755761067
 31
0.0
 11
5.0723435248
 21
4.3636760322
 31
0.0
 11
5.0726456824
 21
4.3577297619
 31
0.0
 11
5.0730725562
 21
4.3517914087
 31
0.0
 11
5.0736187055
 21
4.3458650197
 31
0.0
 11
5.0742797502
 21
4.3399540104
 31
0.0
 11
5.0750531876
 21
4.3340606782
 31
0.0
 11
5.0759367069
 21
4.3281872063
 31
0.0
 11
5.0780247483
 21
4.3165085756
 31
0.0
 11
5.0805253887
 21
4.3049355827
 31
0.0
  0
SPLINE
  5
245
100
AcDbEntity
  8
0
100
AcDbSpline
 62
9
  6
CONTINUOUS
 70
0
 71
3
 72
11
 73
7
 74
5
 42
0.0000001
 43
0.0000001
 44
0.0000000001
 12
0.0271924449
 22
-0.0000096562
 32
0.0
 13
0.0260787954
 23
-0.0077023103
 33
0.0
 40
0.0
 40
0.0
 40
0.0
 40
0.0
 40
0.2692616847
 40
0.524654445
 40
0.7677308099
 40
1.0
 40
1.0
 40
1.0
 40
1.0
 10
5.2303147469
 20
4.6293502746
 30
0.0
 10
5.2327553747
 20
4.6293494079
 30
0.0
 10
5.2375126557
 20
4.6291958516
 30
0.0
 10
5.2444413665
 20
4.6284910108
 30
0.0
 10
5.2509710458
 20
4.6273465018
 30
0.0
 10
5.2551523396
 20
4.6262869464
 30
0.0
 10
5.2571714399
 20
4.6256906099
 30
0.0
 11
5.2303147469
 21
4.6293502746
 31
0.0
 11
5.2376325338
 21
4.6291053683
 31
0.0
 11
5.2445408499
 21
4.6283948915
 31
0.0
 11
5.2510502877
 21
4.6272471901
 31
0.0
 11
5.2571714399
 21
4.6256906099
 31
0.0
  0
SPLINE
  5
246
100
AcDbEntity
  8
0
100
AcDbSpline
 62
9
  6
CONTINUOUS
 70
0
 71
3
 72
11
 73
7
 74
5
 42
0.0000001
 43
0.0000001
 44
0.0000000001
 12
0.0602757555
 22
-0.0002017739
 32
0.0
 13
0.0596562735
 23
0.0086218587
 33
0.0
 40
0.0
 40
0.0
 40
0.0
 40
0.0
 40
0.274843908
 40
0.5333463982
 40
0.7751949491
 40
1.0
 40
1.0
 40
1.0
 40
1.0
 10
5.0805253887
 20
4.3049355827
 30
0.0
 10
5.0860475301
 20
4.3049170973
 30
0.0
 10
5.0967653594
 20
4.3050829126
 30
0.0
 10
5.1123220184
 20
4.3059112113
 30
0.0
 10
5.1268361413
 20
4.3072191263
 30
0.0
 10
5.1361406621
 20
4.3083930402
 30
0.0
 10
5.140611006
 20
4.3090391193
 30
0.0
 11
5.0805253887
 21
4.3049355827
 31
0.0
 11
5.0970898698
 21
4.3051952949
 31
0.0
 11
5.1126491671
 21
4.3060271849
 31
0.0
 11
5.1271676997
 21
4.3073391051
 31
0.0
 11
5.140611006
 21
4.3090391193
 31
0.0
  0
SPLINE
  5
247
100
AcDbEntity
  8
0
100
AcDbSpline
 62
9
  6
CONTINUOUS
 70
0
 71
3
 72
52
 73
48
 74
46
 42
0.0000001
 43
0.0000001
 44
0.0000000001
 12
-0.0649136563
 22
-0.329462012
 32
0.0
 13
-0.0904196595
 23
-0.323393391
 33
0.0
 40
0.0
 40
0.0
 40
0.0
 40
0.0
 40
0.020740695
 40
0.0423791851
 40
0.0649011671
 40
0.0882921945
 40
0.1125376685
 40
0.1376205057
 40
0.1635197879
 40
0.190214316
 40
0.2038532131
 40
0.2176830058
 40
0.2317011365
 40
0.2459061418
 40
0.2748742088
 40
0.3045818628
 40
0.3350232464
 40
0.3505171658
 40
0.3661916453
 40
0.3820425992
 40
0.3980650703
 40
0.4306047312
 40
0.4637709615
 40
0.4805766457
 40
0.4975240362
 40
0.5146076291
 40
0.5318217042
 40
0.5666184652
 40
0.6018688251
 40
0.6375257385
 40
0.6735198502
 40
0.6916171296
 40
0.7097672243
 40
0.7279596853
 40
0.7370685515
 40
0.7461841158
 40
0.7644308208
 40
0.7826913145
 40
0.81921969
 40
0.8374704318
 40
0.8557007542
 40
0.8739021182
 40
0.8920671335
 40
0.9101903714
 40
0.928266643
 40
0.964257725
 40
1.0
 40
1.0
 40
1.0
 40
1.0
 10
5.9084959152
 20
4.6293502746
 30
0.0
 10
5.9080471304
 20
4.6270725176
 30
0.0
 10
5.9071062996
 20
4.622423077
 30
0.0
 10
5.9055995471
 20
4.6153164431
 30
0.0
 10
5.9039674877
 20
4.607933414
 30
0.0
 10
5.902210504
 20
4.6002794236
 30
0.0
 10
5.9003292154
 20
4.5923601171
 30
0.0
 10
5.8983236599
 20
4.5841819927
 30
0.0
 10
5.8961924043
 20
4.5757526748
 30
0.0
 10
5.8943244626
 20
4.5685782297
 30
0.0
 10
5.8927663802
 20
4.5627192538
 30
0.0
 10
5.8915573632
 20
4.5582356887
 30
0.0
 10
5.890315911
 20
4.5536952718
 30
0.0
 10
5.888607522
 20
4.5475259061
 30
0.0
 10
5.8863973139
 20
4.5396732995
 30
0.0
 10
5.8836559266
 20
4.53008232
 30
0.0
 10
5.8813078439
 20
4.5219475507
 30
0.0
 10
5.8793890617
 20
4.5153237623
 30
0.0
 10
5.8779230687
 20
4.5102690879
 30
0.0
 10
5.8764394667
 20
4.5051579211
 30
0.0
 10
5.8744286462
 20
4.4982341164
 30
0.0
 10
5.8718764803
 20
4.489449315
 30
0.0
 10
5.869301465
 20
4.4805798604
 30
0.0
 10
5.8672155996
 20
4.4733857338
 30
0.0
 10
5.8656326118
 20
4.4679201042
 30
0.0
 10
5.8640397887
 20
4.4624097328
 30
0.0
 10
5.8618980534
 20
4.454978322
 30
0.0
 10
5.8592080313
 20
4.4455887225
 30
0.0
 10
5.8559847005
 20
4.4342045635
 30
0.0
 10
5.8527719482
 20
4.4226782089
 30
0.0
 10
5.8501223355
 20
4.4129881683
 30
0.0
 10
5.8480228399
 20
4.4051793351
 30
0.0
 10
5.846458653
 20
4.3992899442
 30
0.0
 10
5.8451687426
 20
4.3943687061
 30
0.0
 10
5.8441454488
 20
4.3904230218
 30
0.0
 10
5.8431277782
 20
4.3864696132
 30
0.0
 10
5.8418673994
 20
4.3815209379
 30
0.0
 10
5.8398697042
 20
4.3735937534
 30
0.0
 10
5.8378919301
 20
4.3656611093
 30
0.0
 10
5.8359148855
 20
4.3577317711
 30
0.0
 10
5.8344291135
 20
4.351794124
 30
0.0
 10
5.8329354341
 20
4.3458683534
 30
0.0
 10
5.8314302401
 20
4.3399578629
 30
0.0
 10
5.8299126411
 20
4.334065001
 30
0.0
 10
5.8278738418
 20
4.3262459881
 30
0.0
 10
5.8252890543
 20
4.316531317
 30
0.0
 10
5.8231630183
 20
4.3087885212
 30
0.0
 10
5.8220857502
 20
4.3049355827
 30
0.0
 11
5.9084959152
 21
4.6293502746
 31
0.0
 11
5.9071159199
 21
4.6225237179
 31
0.0
 11
5.9056100481
 21
4.6154153532
 31
0.0
 11
5.9039787305
 21
4.6080305958
 31
0.0
 11
5.9022223979
 21
4.6003748611
 31
0.0
 11
5.9003414724
 21
4.5924535791
 31
0.0
 11
5.898335829
 21
4.5842731405
 31
0.0
 11
5.896204465
 21
4.5758414764
 31
0.0
 11
5.8939462988
 21
4.5671666563
 31
0.0
 11
5.8927693269
 21
4.5627405845
 31
0.0
 11
5.8915602489
 21
4.5582567497
 31
0.0
 11
5.8903189884
 21
4.5537161202
 31
0.0
 11
5.8890463915
 21
4.5491190283
 31
0.0
 11
5.8864135181
 21
4.5397547574
 31
0.0
 11
5.8836743885
 21
4.5301624674
 31
0.0
 11
5.8808417829
 21
4.5203406748
 31
0.0
 11
5.8793944203
 21
4.5153432513
 31
0.0
 11
5.8779283858
 21
4.510288113
 31
0.0
 11
5.8764446977
 21
4.5051763934
 31
0.0
 11
5.8749442208
 21
4.500009575
 31
0.0
 11
5.8718963605
 21
4.4895165722
 31
0.0
 11
5.8687917242
 21
4.4788209656
 31
0.0
 11
5.8672202773
 21
4.4734008924
 31
0.0
 11
5.8656373275
 21
4.4679346104
 31
0.0
 11
5.8640445698
 21
4.4624235541
 31
0.0
 11
5.8624440362
 21
4.4568691385
 31
0.0
 11
5.8592277762
 21
4.4456358882
 31
0.0
 11
5.8560048174
 21
4.4342461778
 31
0.0
 11
5.8527914995
 21
4.4227119624
 31
0.0
 11
5.8496050027
 21
4.4110528843
 31
0.0
 11
5.8480273547
 21
4.4051842475
 31
0.0
 11
5.8464630647
 21
4.3992936841
 31
0.0
 11
5.8449143514
 21
4.3933842983
 31
0.0
 11
5.8441465292
 21
4.3904235169
 31
0.0
 11
5.8433834108
 21
4.3874591972
 31
0.0
 11
5.8418702768
 21
4.3815218021
 31
0.0
 11
5.840371043
 21
4.3755761067
 31
0.0
 11
5.8373969773
 21
4.3636760322
 31
0.0
 11
5.835913496
 21
4.3577297619
 31
0.0
 11
5.8344266162
 21
4.3517914087
 31
0.0
 11
5.8329320248
 21
4.3458650197
 31
0.0
 11
5.8314264332
 21
4.3399540104
 31
0.0
 11
5.8299083662
 21
4.3340606782
 31
0.0
 11
5.8283765336
 21
4.3281872063
 31
0.0
 11
5.8252664124
 21
4.3165085756
 31
0.0
 11
5.8220857502
 21
4.3049355827
 31
0.0
  0
SPLINE
  5
248
100
AcDbEntity
  8
0
100
AcDbSpline
 62
9
  6
CONTINUOUS
 70
0
 71
3
 72
51
 73
47
 74
45
 42
0.0000001
 43
0.0000001
 44
0.0000000001
 12
-0.1034670575
 22
0.3009641687
 32
0.0
 13
0.0854363315
 23
0.3065704571
 33
0.0
 40
0.0
 40
0.0
 40
0.0
 40
0.0
 40
0.0003760427
 40
0.0014977798
 40
0.0033556297
 40
0.0059400171
 40
0.0092413729
 40
0.0132499325
 40
0.0179526405
 40
0.0233337558
 40
0.0360679141
 40
0.0513258107
 40
0.059861461
 40
0.0689799182
 40
0.0888997057
 40
0.1109543486
 40
0.1350137521
 40
0.1609524198
 40
0.1886490092
 40
0.2179832766
 40
0.2488428568
 40
0.2811443121
 40
0.3148139725
 40
0.3321399519
 40
0.3497820627
 40
0.3859839212
 40
0.4233631555
 40
0.4618691329
 40
0.5014579485
 40
0.5420948875
 40
0.5837568378
 40
0.6049690498
 40
0.6264315255
 40
0.6700837396
 40
0.7146792291
 40
0.7373245421
 40
0.7601969065
 40
0.8065957096
 40
0.8301140036
 40
0.8538385003
 40
0.8657773119
 40
0.8777664857
 40
0.901888767
 40
0.9261898467
 40
0.9506533923
 40
1.0
 40
1.0
 40
1.0
 40
1.0
 10
5.857502789
 20
3.9943348726
 30
0.0
 10
5.8574898196
 20
3.9943725977
 30
0.0
 10
5.8574380882
 20
3.9945228314
 30
0.0
 10
5.8573216292
 20
3.9948592223
 30
0.0
 10
5.8571277147
 20
3.99541671
 30
0.0
 10
5.8568565339
 20
3.9961921325
 30
0.0
 10
5.8565084018
 20
3.9971823484
 30
0.0
 10
5.8560835965
 20
3.9983838101
 30
0.0
 10
5.8555834832
 20
3.9997926578
 30
0.0
 10
5.85477225
 20
4.0020733032
 30
0.0
 10
5.8535843329
 20
4.0054084279
 30
0.0
 10
5.8522853282
 20
4.0090592254
 30
0.0
 10
5.8511170157
 20
4.0123493985
 30
0.0
 10
5.8497872051
 20
4.0161070297
 30
0.0
 10
5.8479910539
 20
4.0212209345
 30
0.0
 10
5.8456999442
 20
4.0278408568
 30
0.0
 10
5.8432411943
 20
4.0350783163
 30
0.0
 10
5.8406433345
 20
4.0429004573
 30
0.0
 10
5.8379355969
 20
4.0512754796
 30
0.0
 10
5.8351466105
 20
4.0601725076
 30
0.0
 10
5.8323043068
 20
4.0695643282
 30
0.0
 10
5.8294482028
 20
4.079431794
 30
0.0
 10
5.8271113938
 20
4.0879541029
 30
0.0
 10
5.8252694354
 20
4.0949987351
 30
0.0
 10
5.8234211557
 20
4.1023190951
 30
0.0
 10
5.8211796555
 20
4.1117339107
 30
0.0
 10
5.8186581808
 20
4.1233550533
 30
0.0
 10
5.8163252293
 20
4.1353819188
 30
0.0
 10
5.8142239655
 20
4.147802362
 30
0.0
 10
5.812411647
 20
4.1606067932
 30
0.0
 10
5.8111970879
 20
4.1715222785
 30
0.0
 10
5.8104231349
 20
4.1804358963
 30
0.0
 10
5.809784548
 20
4.1895719096
 30
0.0
 10
5.8092774382
 20
4.2012019951
 30
0.0
 10
5.8091996302
 20
4.2129687894
 30
0.0
 10
5.8094157399
 20
4.2225265124
 30
0.0
 10
5.809831967
 20
4.2322690237
 30
0.0
 10
5.8105559555
 20
4.2420893246
 30
0.0
 10
5.8116022514
 20
4.2519685473
 30
0.0
 10
5.8123997137
 20
4.2581965234
 30
0.0
 10
5.8131253543
 20
4.2631994379
 30
0.0
 10
5.8139138961
 20
4.2682355509
 30
0.0
 10
5.8150121737
 20
4.2745501391
 30
0.0
 10
5.8165065772
 20
4.2821371937
 30
0.0
 10
5.8187437722
 20
4.2923025526
 30
0.0
 10
5.8206804191
 20
4.2998928454
 30
0.0
 10
5.8220857502
 20
4.3049355827
 30
0.0
 11
5.857502789
 21
3.9943348726
 31
0.0
 11
5.8574638278
 21
3.9944480297
 31
0.0
 11
5.8573471147
 21
3.994785408
 31
0.0
 11
5.8571529051
 21
3.9953438683
 31
0.0
 11
5.8568814548
 21
3.9961202715
 31
0.0
 11
5.8565330193
 21
3.9971114782
 31
0.0
 11
5.8561079134
 21
3.998314302
 31
0.0
 11
5.855607418
 21
3.9997247859
 31
0.0
 11
5.8550336
 21
4.0013383461
 31
0.0
 11
5.8536743553
 21
4.0051562875
 31
0.0
 11
5.8520468977
 21
4.00973131
 31
0.0
 11
5.8511381424
 21
4.0122912914
 31
0.0
 11
5.8501701638
 21
4.0150270674
 31
0.0
 11
5.8480704395
 21
4.0210087697
 31
0.0
 11
5.8457755314
 21
4.0276419489
 31
0.0
 11
5.8433132828
 21
4.0348922276
 31
0.0
 11
5.8407121675
 21
4.0427267721
 31
0.0
 11
5.8380011862
 21
4.0511140403
 31
0.0
 11
5.8352093562
 21
4.06002253
 31
0.0
 11
5.8323672098
 21
4.0694234404
 31
0.0
 11
5.8295113646
 21
4.079298819
 31
0.0
 11
5.8266799654
 21
4.0896334358
 31
0.0
 11
5.8252853533
 21
4.0949681991
 31
0.0
 11
5.8239112344
 21
4.1004121035
 31
0.0
 11
5.8212455604
 21
4.1116208269
 31
0.0
 11
5.818725736
 21
4.1232469332
 31
0.0
 11
5.8163946791
 21
4.1352778188
 31
0.0
 11
5.814297778
 21
4.1477013485
 31
0.0
 11
5.8124897956
 21
4.1605071663
 31
0.0
 11
5.8110277184
 21
4.173685338
 31
0.0
 11
5.8104441959
 21
4.1804109166
 31
0.0
 11
5.8099683237
 21
4.1872248116
 31
0.0
 11
5.8093664554
 21
4.2011042051
 31
0.0
 11
5.8092759121
 21
4.2152965534
 31
0.0
 11
5.8094391936
 21
4.2225016366
 31
0.0
 11
5.8097501587
 21
4.2297741842
 31
0.0
 11
5.810838276
 21
4.2445005856
 31
0.0
 11
5.8116268921
 21
4.251943686
 31
0.0
 11
5.8125861892
 21
4.2594328837
 31
0.0
 11
5.8131316344
 21
4.2631930888
 31
0.0
 11
5.8137218234
 21
4.2669627552
 31
0.0
 11
5.8150368428
 21
4.2745262717
 31
0.0
 11
5.8165310944
 21
4.2821144333
 31
0.0
 11
5.818204229
 21
4.2897181193
 31
0.0
 11
5.8220857502
 21
4.3049355827
 31
0.0
  0
SPLINE
  5
249
100
AcDbEntity
  8
0
100
AcDbSpline
 62
9
  6
CONTINUOUS
 70
0
 71
3
 72
33
 73
29
 74
27
 42
0.0000001
 43
0.0000001
 44
0.0000000001
 12
-0.0148812842
 22
-0.0682549543
 32
0.0
 13
-0.0135257123
 23
-0.0685363346
 33
0.0
 40
0.0
 40
0.0
 40
0.0
 40
0.0
 40
0.0011597802
 40
0.0046119637
 40
0.0103159173
 40
0.0182311463
 40
0.0283172997
 40
0.0405341754
 40
0.0548430902
 40
0.0712134339
 40
0.0896174069
 40
0.110027133
 40
0.1567521361
 40
0.2111555526
 40
0.272925363
 40
0.3064627264
 40
0.3417097023
 40
0.3786222735
 40
0.4171617355
 40
0.4573089249
 40
0.4990492932
 40
0.5872524186
 40
0.6336875913
 40
0.6816601523
 40
0.7311455033
 40
0.7821075972
 40
0.8883165414
 40
1.0
 40
1.0
 40
1.0
 40
1.0
 10
5.9247067802
 20
4.6972907643
 30
0.0
 10
5.9247010272
 20
4.6972643774
 30
0.0
 10
5.924678011
 20
4.6971594782
 30
0.0
 10
5.9246254878
 20
4.6969250721
 30
0.0
 10
5.9245370478
 20
4.6965375087
 30
0.0
 10
5.9244118098
 20
4.6959998968
 30
0.0
 10
5.924249068
 20
4.6953153074
 30
0.0
 10
5.9240480362
 20
4.6944867959
 30
0.0
 10
5.9238078482
 20
4.6935172174
 30
0.0
 10
5.9235294022
 20
4.6924086963
 30
0.0
 10
5.9232136604
 20
4.6911630697
 30
0.0
 10
5.9227215055
 20
4.6892329672
 30
0.0
 10
5.9220186816
 20
4.6864914759
 30
0.0
 10
5.9210762726
 20
4.6828171467
 30
0.0
 10
5.9202111514
 20
4.6794400225
 30
0.0
 10
5.9194578063
 20
4.6764947473
 30
0.0
 10
5.9188486141
 20
4.674110063
 30
0.0
 10
5.918211428
 20
4.6716123102
 30
0.0
 10
5.9175470867
 20
4.6690037237
 30
0.0
 10
5.9168586758
 20
4.6662852591
 30
0.0
 10
5.9158946268
 20
4.6624436286
 30
0.0
 10
5.9149126439
 20
4.6584555371
 30
0.0
 10
5.9139212328
 20
4.6543204202
 30
0.0
 10
5.9131552879
 20
4.6510584193
 30
0.0
 10
5.9123822013
 20
4.6476898569
 30
0.0
 10
5.9113301234
 20
4.6429940342
 30
0.0
 10
5.9100113707
 20
4.6368738017
 30
0.0
 10
5.908999448
 20
4.6319017329
 30
0.0
 10
5.9084959152
 20
4.6293502746
 30
0.0
 11
5.9247067802
 21
4.6972907643
 31
0.0
 11
5.9246894219
 21
4.6972116254
 31
0.0
 11
5.9246368366
 21
4.6969762648
 31
0.0
 11
5.9245482587
 21
4.6965877667
 31
0.0
 11
5.9244229225
 21
4.696049215
 31
0.0
 11
5.9242600626
 21
4.6953636939
 31
0.0
 11
5.9240589134
 21
4.6945342875
 31
0.0
 11
5.9238188993
 21
4.6935639346
 31
0.0
 11
5.9235405637
 21
4.6924547195
 31
0.0
 11
5.9232248574
 21
4.6912084151
 31
0.0
 11
5.922872732
 21
4.6898267936
 31
0.0
 11
5.9220630295
 21
4.6866646891
 31
0.0
 11
5.9211190583
 21
4.6829832595
 31
0.0
 11
5.9200483373
 21
4.6788030792
 31
0.0
 11
5.9194677824
 21
4.6765332874
 31
0.0
 11
5.9188583439
 21
4.6741476082
 31
0.0
 11
5.9182209566
 21
4.6716489766
 31
0.0
 11
5.9175569023
 21
4.6690398568
 31
0.0
 11
5.9168687389
 21
4.666320982
 31
0.0
 11
5.9161593168
 21
4.6634926885
 31
0.0
 11
5.914688098
 21
4.6575091902
 31
0.0
 11
5.9139320022
 21
4.654354658
 31
0.0
 11
5.9131660381
 21
4.6510920871
 31
0.0
 11
5.9123927658
 21
4.6477227222
 31
0.0
 11
5.911614454
 21
4.6442487185
 31
0.0
 11
5.9100517325
 21
4.6369955866
 31
0.0
 11
5.9084959152
 21
4.6293502746
 31
0.0
  0
SPLINE
  5
24A
100
AcDbEntity
  8
0
100
AcDbSpline
 62
9
  6
CONTINUOUS
 70
0
 71
3
 72
51
 73
47
 74
45
 42
0.0000001
 43
0.0000001
 44
0.0000000001
 12
0.1034670575
 22
0.3009641687
 32
0.0
 13
-0.0854363315
 23
0.3065704571
 33
0.0
 40
0.0
 40
0.0
 40
0.0
 40
0.0
 40
0.0003760427
 40
0.0014977798
 40
0.0033556297
 40
0.0059400171
 40
0.0092413729
 40
0.0132499325
 40
0.0179526405
 40
0.0233337558
 40
0.0360679141
 40
0.0513258107
 40
0.059861461
 40
0.0689799182
 40
0.0888997057
 40
0.1109543486
 40
0.1350137521
 40
0.1609524198
 40
0.1886490092
 40
0.2179832766
 40
0.2488428568
 40
0.2811443121
 40
0.3148139725
 40
0.3321399519
 40
0.3497820627
 40
0.3859839212
 40
0.4233631555
 40
0.4618691329
 40
0.5014579485
 40
0.5420948875
 40
0.5837568378
 40
0.6049690498
 40
0.6264315255
 40
0.6700837396
 40
0.7146792291
 40
0.7373245421
 40
0.7601969065
 40
0.8065957096
 40
0.8301140036
 40
0.8538385003
 40
0.8657773119
 40
0.8777664857
 40
0.901888767
 40
0.9261898467
 40
0.9506533923
 40
1.0
 40
1.0
 40
1.0
 40
1.0
 10
5.0347750844
 20
3.9943348726
 30
0.0
 10
5.0347880537
 20
3.9943725977
 30
0.0
 10
5.0348397852
 20
3.9945228314
 30
0.0
 10
5.0349562442
 20
3.9948592223
 30
0.0
 10
5.0351501587
 20
3.99541671
 30
0.0
 10
5.0354213395
 20
3.9961921325
 30
0.0
 10
5.0357694716
 20
3.9971823484
 30
0.0
 10
5.0361942769
 20
3.9983838101
 30
0.0
 10
5.0366943902
 20
3.9997926578
 30
0.0
 10
5.0375056234
 20
4.0020733032
 30
0.0
 10
5.0386935405
 20
4.0054084279
 30
0.0
 10
5.0399925452
 20
4.0090592254
 30
0.0
 10
5.0411608577
 20
4.0123493985
 30
0.0
 10
5.0424906683
 20
4.0161070297
 30
0.0
 10
5.0442868195
 20
4.0212209345
 30
0.0
 10
5.0465779292
 20
4.0278408568
 30
0.0
 10
5.0490366791
 20
4.0350783163
 30
0.0
 10
5.0516345389
 20
4.0429004573
 30
0.0
 10
5.0543422765
 20
4.0512754796
 30
0.0
 10
5.0571312629
 20
4.0601725076
 30
0.0
 10
5.0599735666
 20
4.0695643282
 30
0.0
 10
5.0628296706
 20
4.079431794
 30
0.0
 10
5.0651664796
 20
4.0879541029
 30
0.0
 10
5.067008438
 20
4.0949987351
 30
0.0
 10
5.0688567177
 20
4.1023190951
 30
0.0
 10
5.0710982179
 20
4.1117339107
 30
0.0
 10
5.0736196926
 20
4.1233550533
 30
0.0
 10
5.0759526441
 20
4.1353819188
 30
0.0
 10
5.0780539079
 20
4.147802362
 30
0.0
 10
5.0798662264
 20
4.1606067932
 30
0.0
 10
5.0810807855
 20
4.1715222785
 30
0.0
 10
5.0818547385
 20
4.1804358963
 30
0.0
 10
5.0824933254
 20
4.1895719096
 30
0.0
 10
5.0830004352
 20
4.2012019951
 30
0.0
 10
5.0830782432
 20
4.2129687894
 30
0.0
 10
5.0828621335
 20
4.2225265124
 30
0.0
 10
5.0824459064
 20
4.2322690237
 30
0.0
 10
5.0817219179
 20
4.2420893246
 30
0.0
 10
5.080675622
 20
4.2519685473
 30
0.0
 10
5.0798781597
 20
4.2581965234
 30
0.0
 10
5.0791525191
 20
4.2631994379
 30
0.0
 10
5.0783639773
 20
4.2682355509
 30
0.0
 10
5.0772656996
 20
4.2745501391
 30
0.0
 10
5.0757712962
 20
4.2821371937
 30
0.0
 10
5.0735341012
 20
4.2923025526
 30
0.0
 10
5.0715974543
 20
4.2998928454
 30
0.0
 10
5.0701921232
 20
4.3049355827
 30
0.0
 11
5.0347750844
 21
3.9943348726
 31
0.0
 11
5.0348140456
 21
3.9944480297
 31
0.0
 11
5.0349307587
 21
3.994785408
 31
0.0
 11
5.0351249683
 21
3.9953438683
 31
0.0
 11
5.0353964186
 21
3.9961202715
 31
0.0
 11
5.0357448541
 21
3.9971114782
 31
0.0
 11
5.03616996
 21
3.998314302
 31
0.0
 11
5.0366704554
 21
3.9997247859
 31
0.0
 11
5.0372442734
 21
4.0013383461
 31
0.0
 11
5.0386035181
 21
4.0051562875
 31
0.0
 11
5.0402309757
 21
4.00973131
 31
0.0
 11
5.041139731
 21
4.0122912914
 31
0.0
 11
5.0421077096
 21
4.0150270674
 31
0.0
 11
5.0442074339
 21
4.0210087697
 31
0.0
 11
5.046502342
 21
4.0276419489
 31
0.0
 11
5.0489645906
 21
4.0348922276
 31
0.0
 11
5.0515657059
 21
4.0427267721
 31
0.0
 11
5.0542766872
 21
4.0511140403
 31
0.0
 11
5.0570685172
 21
4.06002253
 31
0.0
 11
5.0599106636
 21
4.0694234404
 31
0.0
 11
5.0627665088
 21
4.079298819
 31
0.0
 11
5.065597908
 21
4.0896334358
 31
0.0
 11
5.0669925201
 21
4.0949681991
 31
0.0
 11
5.0683666389
 21
4.1004121035
 31
0.0
 11
5.071032313
 21
4.1116208269
 31
0.0
 11
5.0735521374
 21
4.1232469332
 31
0.0
 11
5.0758831943
 21
4.1352778188
 31
0.0
 11
5.0779800954
 21
4.1477013485
 31
0.0
 11
5.0797880778
 21
4.1605071663
 31
0.0
 11
5.081250155
 21
4.173685338
 31
0.0
 11
5.0818336775
 21
4.1804109166
 31
0.0
 11
5.0823095497
 21
4.1872248116
 31
0.0
 11
5.082911418
 21
4.2011042051
 31
0.0
 11
5.0830019613
 21
4.2152965534
 31
0.0
 11
5.0828386798
 21
4.2225016366
 31
0.0
 11
5.0825277147
 21
4.2297741842
 31
0.0
 11
5.0814395974
 21
4.2445005856
 31
0.0
 11
5.0806509813
 21
4.251943686
 31
0.0
 11
5.0796916842
 21
4.2594328837
 31
0.0
 11
5.079146239
 21
4.2631930888
 31
0.0
 11
5.07855605
 21
4.2669627552
 31
0.0
 11
5.0772410306
 21
4.2745262717
 31
0.0
 11
5.075746779
 21
4.2821144333
 31
0.0
 11
5.0740736444
 21
4.2897181193
 31
0.0
 11
5.0701921232
 21
4.3049355827
 31
0.0
  0
SPLINE
  5
24B
100
AcDbEntity
  8
0
100
AcDbSpline
 62
9
  6
CONTINUOUS
 70
0
 71
3
 72
33
 73
29
 74
27
 42
0.0000001
 43
0.0000001
 44
0.0000000001
 12
0.0148812842
 22
-0.0682549543
 32
0.0
 13
0.0135257123
 23
-0.0685363346
 33
0.0
 40
0.0
 40
0.0
 40
0.0
 40
0.0
 40
0.0011597802
 40
0.0046119637
 40
0.0103159173
 40
0.0182311463
 40
0.0283172997
 40
0.0405341754
 40
0.0548430902
 40
0.0712134339
 40
0.0896174069
 40
0.110027133
 40
0.1567521361
 40
0.2111555526
 40
0.272925363
 40
0.3064627264
 40
0.3417097023
 40
0.3786222735
 40
0.4171617355
 40
0.4573089249
 40
0.4990492932
 40
0.5872524186
 40
0.6336875913
 40
0.6816601523
 40
0.7311455033
 40
0.7821075972
 40
0.8883165414
 40
1.0
 40
1.0
 40
1.0
 40
1.0
 10
4.9675710932
 20
4.6972907643
 30
0.0
 10
4.9675768462
 20
4.6972643774
 30
0.0
 10
4.9675998624
 20
4.6971594782
 30
0.0
 10
4.9676523856
 20
4.6969250721
 30
0.0
 10
4.9677408256
 20
4.6965375087
 30
0.0
 10
4.9678660636
 20
4.6959998968
 30
0.0
 10
4.9680288054
 20
4.6953153074
 30
0.0
 10
4.9682298372
 20
4.6944867959
 30
0.0
 10
4.9684700252
 20
4.6935172174
 30
0.0
 10
4.9687484712
 20
4.6924086963
 30
0.0
 10
4.969064213
 20
4.6911630697
 30
0.0
 10
4.9695563679
 20
4.6892329672
 30
0.0
 10
4.9702591918
 20
4.6864914759
 30
0.0
 10
4.9712016008
 20
4.6828171467
 30
0.0
 10
4.972066722
 20
4.6794400225
 30
0.0
 10
4.9728200671
 20
4.6764947473
 30
0.0
 10
4.9734292593
 20
4.674110063
 30
0.0
 10
4.9740664454
 20
4.6716123102
 30
0.0
 10
4.9747307867
 20
4.6690037237
 30
0.0
 10
4.9754191976
 20
4.6662852591
 30
0.0
 10
4.9763832466
 20
4.6624436286
 30
0.0
 10
4.9773652295
 20
4.6584555371
 30
0.0
 10
4.9783566406
 20
4.6543204202
 30
0.0
 10
4.9791225855
 20
4.6510584193
 30
0.0
 10
4.9798956721
 20
4.6476898569
 30
0.0
 10
4.98094775
 20
4.6429940342
 30
0.0
 10
4.9822665027
 20
4.6368738017
 30
0.0
 10
4.9832784254
 20
4.6319017329
 30
0.0
 10
4.9837819582
 20
4.6293502746
 30
0.0
 11
4.9675710932
 21
4.6972907643
 31
0.0
 11
4.9675884515
 21
4.6972116254
 31
0.0
 11
4.9676410368
 21
4.6969762648
 31
0.0
 11
4.9677296147
 21
4.6965877667
 31
0.0
 11
4.9678549509
 21
4.696049215
 31
0.0
 11
4.9680178108
 21
4.6953636939
 31
0.0
 11
4.96821896
 21
4.6945342875
 31
0.0
 11
4.9684589741
 21
4.6935639346
 31
0.0
 11
4.9687373097
 21
4.6924547195
 31
0.0
 11
4.9690530159
 21
4.6912084151
 31
0.0
 11
4.9694051414
 21
4.6898267936
 31
0.0
 11
4.9702148439
 21
4.6866646891
 31
0.0
 11
4.9711588151
 21
4.6829832595
 31
0.0
 11
4.9722295361
 21
4.6788030792
 31
0.0
 11
4.972810091
 21
4.6765332874
 31
0.0
 11
4.9734195295
 21
4.6741476082
 31
0.0
 11
4.9740569168
 21
4.6716489766
 31
0.0
 11
4.9747209711
 21
4.6690398568
 31
0.0
 11
4.9754091345
 21
4.666320982
 31
0.0
 11
4.9761185566
 21
4.6634926885
 31
0.0
 11
4.9775897754
 21
4.6575091902
 31
0.0
 11
4.9783458712
 21
4.654354658
 31
0.0
 11
4.9791118353
 21
4.6510920871
 31
0.0
 11
4.9798851076
 21
4.6477227222
 31
0.0
 11
4.9806634194
 21
4.6442487185
 31
0.0
 11
4.9822261409
 21
4.6369955866
 31
0.0
 11
4.9837819582
 21
4.6293502746
 31
0.0
  0
SPLINE
  5
24C
100
AcDbEntity
  8
0
100
AcDbSpline
 62
9
  6
CONTINUOUS
 70
0
 71
3
 72
31
 73
27
 74
25
 42
0.0000001
 43
0.0000001
 44
0.0000000001
 12
0.2293980929
 22
0.0
 32
0.0
 13
0.1918412273
 23
-0.1257792849
 33
0.0
 40
0.0
 40
0.0
 40
0.0
 40
0.0
 40
0.0626734821
 40
0.1253731725
 40
0.1880716905
 40
0.2507373241
 40
0.3133656559
 40
0.3759575684
 40
0.407240211
 40
0.4385130688
 40
0.4697769365
 40
0.5010320886
 40
0.5322782545
 40
0.5635146378
 40
0.5947399346
 40
0.6259529808
 40
0.6571546621
 40
0.6883464411
 40
0.7195298612
 40
0.7507065518
 40
0.7818782329
 40
0.8130466912
 40
0.8442130068
 40
0.8753772585
 40
0.937696155
 40
1.0
 40
1.0
 40
1.0
 40
1.0
 10
5.4461389367
 20
4.6972907643
 30
0.0
 10
5.4509313291
 20
4.6972907643
 30
0.0
 10
5.4605193512
 20
4.6970781969
 30
0.0
 10
5.4748742443
 20
4.6961471719
 30
0.0
 10
5.4891782822
 20
4.6946285946
 30
0.0
 10
5.5034054809
 20
4.6925468013
 30
0.0
 10
5.5175330874
 20
4.6899166647
 30
0.0
 10
5.5292091966
 20
4.6872793628
 30
0.0
 10
5.5384810625
 20
4.684909359
 30
0.0
 10
5.5453979324
 20
4.6830043179
 30
0.0
 10
5.5522770233
 20
4.6809746334
 30
0.0
 10
5.5591168683
 20
4.6788231991
 30
0.0
 10
5.5659159736
 20
4.6765529657
 30
0.0
 10
5.5726728528
 20
4.6741668637
 30
0.0
 10
5.5793860656
 20
4.6716678276
 30
0.0
 10
5.5860543829
 20
4.6690586367
 30
0.0
 10
5.5926759275
 20
4.6663396591
 30
0.0
 10
5.5992490106
 20
4.6635112558
 30
0.0
 10
5.6057719786
 20
4.6605737621
 30
0.0
 10
5.6122431703
 20
4.6575275029
 30
0.0
 10
5.6186609531
 20
4.6543728583
 30
0.0
 10
5.6250235224
 20
4.65111003
 30
0.0
 10
5.631329473
 20
4.6477402635
 30
0.0
 10
5.639660066
 20
4.6431081018
 30
0.0
 10
5.649926581
 20
4.6370618539
 30
0.0
 10
5.6579789778
 20
4.6319624523
 30
0.0
 10
5.6619631265
 20
4.6293502746
 30
0.0
 11
5.4461389367
 21
4.6972907643
 31
0.0
 11
5.4605126737
 21
4.6969762648
 31
0.0
 11
5.4748659561
 21
4.696049215
 31
0.0
 11
5.4891688718
 21
4.6945342875
 31
0.0
 11
5.5033930363
 21
4.6924547195
 31
0.0
 11
5.5175174661
 21
4.6898267936
 31
0.0
 11
5.5315234157
 21
4.6866646891
 31
0.0
 11
5.5384761219
 21
4.6848877775
 31
0.0
 11
5.545392634
 21
4.6829832595
 31
0.0
 11
5.5522714452
 21
4.6809540483
 31
0.0
 11
5.5591110652
 21
4.6788030792
 31
0.0
 11
5.5659100032
 21
4.6765332874
 31
0.0
 11
5.5726667687
 21
4.6741476082
 31
0.0
 11
5.5793798713
 21
4.6716489766
 31
0.0
 11
5.5860477906
 21
4.6690398568
 31
0.0
 11
5.5926688967
 21
4.666320982
 31
0.0
 11
5.5992415347
 21
4.6634926885
 31
0.0
 11
5.6057640494
 21
4.6605553125
 31
0.0
 11
5.612234786
 21
4.6575091902
 31
0.0
 11
5.6186520894
 21
4.654354658
 31
0.0
 11
5.6250143151
 21
4.6510920871
 31
0.0
 11
5.6313200771
 21
4.6477227222
 31
0.0
 11
5.6375682596
 21
4.6442487185
 31
0.0
 11
5.6498874724
 21
4.6369955866
 31
0.0
 11
5.6619631265
 21
4.6293502746
 31
0.0
  0
SPLINE
  5
24D
100
AcDbEntity
  8
0
100
AcDbSpline
 62
9
  6
CONTINUOUS
 70
0
 71
3
 72
31
 73
27
 74
25
 42
0.0000001
 43
0.0000001
 44
0.0000000001
 12
-0.2293980929
 22
0.0
 32
0.0
 13
-0.1918412273
 23
-0.1257792849
 33
0.0
 40
0.0
 40
0.0
 40
0.0
 40
0.0
 40
0.0626734821
 40
0.1253731725
 40
0.1880716905
 40
0.2507373241
 40
0.3133656559
 40
0.3759575684
 40
0.407240211
 40
0.4385130688
 40
0.4697769365
 40
0.5010320886
 40
0.5322782545
 40
0.5635146378
 40
0.5947399346
 40
0.6259529808
 40
0.6571546621
 40
0.6883464411
 40
0.7195298612
 40
0.7507065518
 40
0.7818782329
 40
0.8130466912
 40
0.8442130068
 40
0.8753772585
 40
0.937696155
 40
1.0
 40
1.0
 40
1.0
 40
1.0
 10
5.4461389367
 20
4.6972907643
 30
0.0
 10
5.4413465443
 20
4.6972907643
 30
0.0
 10
5.4317585222
 20
4.6970781969
 30
0.0
 10
5.4174036291
 20
4.6961471719
 30
0.0
 10
5.4030995912
 20
4.6946285946
 30
0.0
 10
5.3888723925
 20
4.6925468013
 30
0.0
 10
5.374744786
 20
4.6899166647
 30
0.0
 10
5.3630686767
 20
4.6872793628
 30
0.0
 10
5.3537968109
 20
4.684909359
 30
0.0
 10
5.346879941
 20
4.6830043179
 30
0.0
 10
5.3400008501
 20
4.6809746334
 30
0.0
 10
5.3331610051
 20
4.6788231991
 30
0.0
 10
5.3263618998
 20
4.6765529657
 30
0.0
 10
5.3196050206
 20
4.6741668637
 30
0.0
 10
5.3128918078
 20
4.6716678276
 30
0.0
 10
5.3062234905
 20
4.6690586367
 30
0.0
 10
5.2996019459
 20
4.6663396591
 30
0.0
 10
5.2930288628
 20
4.6635112558
 30
0.0
 10
5.2865058948
 20
4.6605737621
 30
0.0
 10
5.2800347031
 20
4.6575275029
 30
0.0
 10
5.2736169203
 20
4.6543728583
 30
0.0
 10
5.267254351
 20
4.65111003
 30
0.0
 10
5.2609484004
 20
4.6477402635
 30
0.0
 10
5.2526178074
 20
4.6431081018
 30
0.0
 10
5.2423512924
 20
4.6370618539
 30
0.0
 10
5.2342988956
 20
4.6319624523
 30
0.0
 10
5.2303147469
 20
4.6293502746
 30
0.0
 11
5.4461389367
 21
4.6972907643
 31
0.0
 11
5.4317651997
 21
4.6969762648
 31
0.0
 11
5.4174119173
 21
4.696049215
 31
0.0
 11
5.4031090016
 21
4.6945342875
 31
0.0
 11
5.3888848371
 21
4.6924547195
 31
0.0
 11
5.3747604073
 21
4.6898267936
 31
0.0
 11
5.3607544577
 21
4.6866646891
 31
0.0
 11
5.3538017515
 21
4.6848877775
 31
0.0
 11
5.3468852394
 21
4.6829832595
 31
0.0
 11
5.3400064281
 21
4.6809540483
 31
0.0
 11
5.3331668082
 21
4.6788030792
 31
0.0
 11
5.3263678702
 21
4.6765332874
 31
0.0
 11
5.3196111047
 21
4.6741476082
 31
0.0
 11
5.312898002
 21
4.6716489766
 31
0.0
 11
5.3062300828
 21
4.6690398568
 31
0.0
 11
5.2996089766
 21
4.666320982
 31
0.0
 11
5.2930363387
 21
4.6634926885
 31
0.0
 11
5.286513824
 21
4.6605553125
 31
0.0
 11
5.2800430874
 21
4.6575091902
 31
0.0
 11
5.273625784
 21
4.654354658
 31
0.0
 11
5.2672635583
 21
4.6510920871
 31
0.0
 11
5.2609577963
 21
4.6477227222
 31
0.0
 11
5.2547096138
 21
4.6442487185
 31
0.0
 11
5.242390401
 21
4.6369955866
 31
0.0
 11
5.2303147469
 21
4.6293502746
 31
0.0
  0
SPLINE
  5
24E
100
AcDbEntity
  8
0
100
AcDbSpline
 62
6
  6
CONTINUOUS
 70
0
 71
3
 72
39
 73
35
 74
33
 42
0.0000001
 43
0.0000001
 44
0.0000000001
 12
-0.1093246501
 22
-0.0586624943
 32
0.0
 13
-0.0166732256
 23
0.1229437713
 33
0.0
 40
0.0
 40
0.0
 40
0.0
 40
0.0
 40
0.0312372832
 40
0.0625487032
 40
0.0938947009
 40
0.109573165
 40
0.1252493779
 40
0.1565862467
 40
0.1879126829
 40
0.2192291882
 40
0.2348863027
 40
0.2505409317
 40
0.2661942737
 40
0.2818475008
 40
0.3131488452
 40
0.3444433406
 40
0.3757140882
 40
0.4069520842
 40
0.4381754915
 40
0.4693935848
 40
0.5006024483
 40
0.5317894251
 40
0.5629610402
 40
0.5941323521
 40
0.6253089065
 40
0.6876400839
 40
0.7499901401
 40
0.7812031809
 40
0.8124387355
 40
0.8436942157
 40
0.8749649488
 40
0.9062438863
 40
0.9375207693
 40
1.0
 40
1.0
 40
1.0
 40
1.0
 10
5.4643305841
 20
3.7203133884
 30
0.0
 10
5.463192249
 20
3.7197025694
 30
0.0
 10
5.4608675139
 20
3.7185619192
 30
0.0
 10
5.4572634923
 20
3.7171077498
 30
0.0
 10
5.4541752267
 20
3.7161181029
 30
0.0
 10
5.4516648474
 20
3.7154663498
 30
0.0
 10
5.4491319201
 20
3.7149103161
 30
0.0
 10
5.4459294166
 20
3.7143977299
 30
0.0
 10
5.4420526569
 20
3.7140749788
 30
0.0
 10
5.4388111796
 20
3.7140499736
 30
0.0
 10
5.4362236859
 20
3.7141764719
 30
0.0
 10
5.4342882022
 20
3.7143447778
 30
0.0
 10
5.4323605827
 20
3.7145856396
 30
0.0
 10
5.4298044629
 20
3.715001469
 30
0.0
 10
5.4266405458
 20
3.7156956124
 30
0.0
 10
5.4229145535
 20
3.7167961135
 30
0.0
 10
5.4192771048
 20
3.718153688
 30
0.0
 10
5.4157448478
 20
3.7197577061
 30
0.0
 10
5.4123289858
 20
3.7215915459
 30
0.0
 10
5.4090389056
 20
3.7236398941
 30
0.0
 10
5.405883577
 20
3.7258874259
 30
0.0
 10
5.4028712221
 20
3.7283199863
 30
0.0
 10
5.4000076785
 20
3.7309235212
 30
0.0
 10
5.3972963387
 20
3.7336845374
 30
0.0
 10
5.3938890892
 20
3.737557512
 30
0.0
 10
5.3900228403
 20
3.7427305108
 30
0.0
 10
5.3866976607
 20
3.7482668729
 30
0.0
 10
5.3843655597
 20
3.7528729501
 30
0.0
 10
5.3827792283
 20
3.756410275
 30
0.0
 10
5.3813572388
 20
3.7600192257
 30
0.0
 10
5.3800996564
 20
3.7636905331
 30
0.0
 10
5.3790062213
 20
3.7674150327
 30
0.0
 10
5.3777676112
 20
3.7724366394
 30
0.0
 10
5.3770831149
 20
3.7762595024
 30
0.0
 10
5.3767358715
 20
3.7788199798
 30
0.0
 11
5.4643305841
 21
3.7203133884
 31
0.0
 11
5.4608512863
 21
3.7186061553
 31
0.0
 11
5.4572485507
 21
3.7171529398
 31
0.0
 11
5.4535447272
 21
3.7159669465
 31
0.0
 11
5.4516618918
 21
3.7154782846
 31
0.0
 11
5.4497621655
 21
3.7150613755
 31
0.0
 11
5.4459231732
 21
3.714446381
 31
0.0
 11
5.4420499419
 21
3.7141237419
 31
0.0
 11
5.4381646433
 21
3.7140938105
 31
0.0
 11
5.4362243975
 21
3.7141887203
 31
0.0
 11
5.4342894333
 21
3.7143568786
 31
0.0
 11
5.4323622971
 21
3.7145974808
 31
0.0
 11
5.4304453886
 21
3.7149091696
 31
0.0
 11
5.4266518418
 21
3.7157403317
 31
0.0
 11
5.4229279667
 21
3.7168394143
 31
0.0
 11
5.4192929308
 21
3.7181954643
 31
0.0
 11
5.4157633779
 21
3.7197964327
 31
0.0
 11
5.4123495848
 21
3.721627507
 31
0.0
 11
5.4090608395
 21
3.7236734454
 31
0.0
 11
5.4059064303
 21
3.725919006
 31
0.0
 11
5.4028953422
 21
3.7283490607
 31
0.0
 11
5.4000329822
 21
3.7309498237
 31
0.0
 11
5.3973224243
 21
3.7337083844
 31
0.0
 11
5.3947667021
 21
3.7366118474
 31
0.0
 11
5.390131641
 21
3.7428022729
 31
0.0
 11
5.3861433251
 21
3.7494306006
 31
0.0
 11
5.3843934029
 21
3.7528852534
 31
0.0
 11
5.3828070938
 21
3.756421087
 31
0.0
 11
5.381384963
 21
3.7600287464
 31
0.0
 11
5.3801271643
 21
3.7636989353
 31
0.0
 11
5.3790335312
 21
3.7674224027
 31
0.0
 11
5.3781038882
 21
3.771189899
 31
0.0
 11
5.3767358715
 21
3.7788199798
 31
0.0
  0
SPLINE
  5
24F
100
AcDbEntity
  8
0
100
AcDbSpline
 62
9
  6
CONTINUOUS
 70
0
 71
3
 72
23
 73
19
 74
17
 42
0.0000001
 43
0.0000001
 44
0.0000000001
 12
-0.0000610783
 22
-0.0481286493
 32
0.0
 13
0.0010460185
 23
-0.0481173074
 33
0.0
 40
0.0
 40
0.0
 40
0.0
 40
0.0
 40
0.004157802
 40
0.0167245376
 40
0.0378332868
 40
0.0675894516
 40
0.1060513978
 40
0.1531162269
 40
0.208598286
 40
0.2721405338
 40
0.3433034381
 40
0.4214876065
 40
0.506040743
 40
0.5962594184
 40
0.6914340855
 40
0.790883466
 40
0.893944808
 40
1.0
 40
1.0
 40
1.0
 40
1.0
 10
6.1394257309
 20
4.5948750784
 30
0.0
 10
6.1394256462
 20
4.5948083753
 30
0.0
 10
6.1394254341
 20
4.5945400654
 30
0.0
 10
6.1394259519
 20
4.59393311
 30
0.0
 10
6.139428457
 20
4.5929154851
 30
0.0
 10
6.1394364993
 20
4.5914824436
 30
0.0
 10
6.1394532357
 20
4.5896330433
 30
0.0
 10
6.1394831744
 20
4.5873710444
 30
0.0
 10
6.1395304901
 20
4.5847069054
 30
0.0
 10
6.1395984172
 20
4.5816564979
 30
0.0
 10
6.1396899501
 20
4.5782423543
 30
0.0
 10
6.1398044097
 20
4.5744916572
 30
0.0
 10
6.1399410363
 20
4.5704358081
 30
0.0
 10
6.1400938829
 20
4.5661077838
 30
0.0
 10
6.1402570667
 20
4.5615409974
 30
0.0
 10
6.1404202726
 20
4.5567680479
 30
0.0
 10
6.140573282
 20
4.5518201109
 30
0.0
 10
6.1406586982
 20
4.5484663352
 30
0.0
 10
6.1406956768
 20
4.5467653051
 30
0.0
 11
6.1394257309
 21
4.5948750784
 31
0.0
 11
6.139425568
 21
4.594674969
 31
0.0
 11
6.139425956
 21
4.5940701488
 31
0.0
 11
6.1394285583
 21
4.593054216
 31
0.0
 11
6.1394364313
 21
4.5916221128
 31
0.0
 11
6.1394531481
 21
4.5897710658
 31
0.0
 11
6.1394829547
 21
4.587506094
 31
0.0
 11
6.1395300632
 21
4.5848362315
 31
0.0
 11
6.1395978774
 21
4.5817787792
 31
0.0
 11
6.1396889453
 21
4.5783550138
 31
0.0
 11
6.1398032
 21
4.5745938483
 31
0.0
 11
6.1399390435
 21
4.5705266858
 31
0.0
 11
6.14009137
 21
4.5661872531
 31
0.0
 11
6.1402534709
 21
4.5616094916
 31
0.0
 11
6.1404157344
 21
4.5568258758
 31
0.0
 11
6.1405673576
 21
4.5518679879
 31
0.0
 11
6.1406956768
 21
4.5467653051
 31
0.0
  0
SPLINE
  5
250
100
AcDbEntity
  8
0
100
AcDbSpline
 62
9
  6
CONTINUOUS
 70
0
 71
3
 72
56
 73
52
 74
50
 42
0.0000001
 43
0.0000001
 44
0.0000000001
 12
0.2513186564
 22
-0.0001911136
 32
0.0
 13
0.2490159256
 23
0.0339436649
 33
0.0
 40
0.0
 40
0.0
 40
0.0
 40
0.0
 40
0.0073725209
 40
0.0150896761
 40
0.0231725641
 40
0.0316362478
 40
0.0404907832
 40
0.0497421069
 40
0.0593927801
 40
0.0694426009
 40
0.0798891039
 40
0.0907279654
 40
0.1019533313
 40
0.1135580842
 40
0.1255340592
 40
0.1378722368
 40
0.1505636326
 40
0.1635997016
 40
0.1769714053
 40
0.1906692287
 40
0.2046832681
 40
0.2190033075
 40
0.2485193017
 40
0.2791315848
 40
0.3107528586
 40
0.3269144695
 40
0.3432953896
 40
0.3598835889
 40
0.3766665632
 40
0.4107676003
 40
0.4455027798
 40
0.4807811873
 40
0.5165181143
 40
0.5526364469
 40
0.5890671181
 40
0.625732341
 40
0.662549793
 40
0.699451865
 40
0.7363963077
 40
0.7733825841
 40
0.7919006673
 40
0.8104418904
 40
0.8290147445
 40
0.8476498666
 40
0.8664029384
 40
0.8853091478
 40
0.9043324479
 40
0.9234248132
 40
0.9425572669
 40
0.961710895
 40
1.0
 40
1.0
 40
1.0
 40
1.0
 10
5.9084959152
 20
4.6293502746
 30
0.0
 10
5.9091135325
 20
4.629349805
 30
0.0
 10
5.910377917
 20
4.6293020975
 30
0.0
 10
5.9123101749
 20
4.6291046689
 30
0.0
 10
5.9143183356
 20
4.6287838878
 30
0.0
 10
5.9164010238
 20
4.6283437288
 30
0.0
 10
5.9185570216
 20
4.6277881187
 30
0.0
 10
5.9207850313
 20
4.6271209507
 30
0.0
 10
5.9230837439
 20
4.6263460996
 30
0.0
 10
5.9254518241
 20
4.6254674297
 30
0.0
 10
5.9278879197
 20
4.624488801
 30
0.0
 10
5.9303906637
 20
4.6234140718
 30
0.0
 10
5.9329586785
 20
4.6222471022
 30
0.0
 10
5.9355905761
 20
4.6209917501
 30
0.0
 10
5.9382849705
 20
4.6196518899
 30
0.0
 10
5.9410404991
 20
4.6182313109
 30
0.0
 10
5.943856058
 20
4.616733982
 30
0.0
 10
5.9467309313
 20
4.6151642515
 30
0.0
 10
5.9496644497
 20
4.6135263387
 30
0.0
 10
5.9526559587
 20
4.6118244826
 30
0.0
 10
5.9557048036
 20
4.6100629249
 30
0.0
 10
5.9598876982
 20
4.6076154974
 30
0.0
 10
5.9652500667
 20
4.6044307284
 30
0.0
 10
5.9718407295
 20
4.6004760186
 30
0.0
 10
5.9774689769
 20
4.5970917197
 30
0.0
 10
5.9820803345
 20
4.5943298256
 30
0.0
 10
5.9856153167
 20
4.5922217609
 30
0.0
 10
5.9892010022
 20
4.5900971112
 30
0.0
 10
5.994074553
 20
4.5872339665
 30
0.0
 10
6.000284316
 20
4.5836441564
 30
0.0
 10
6.0078908712
 20
4.5793758309
 30
0.0
 10
6.0156863205
 20
4.5751661172
 30
0.0
 10
6.0236658883
 20
4.5710566867
 30
0.0
 10
6.0318247745
 20
4.5670893175
 30
0.0
 10
6.040156558
 20
4.5633063079
 30
0.0
 10
6.0486523547
 20
4.5597520133
 30
0.0
 10
6.0573008941
 20
4.5564731637
 30
0.0
 10
6.0660901141
 20
4.5535166972
 30
0.0
 10
6.0750102701
 20
4.5509296291
 30
0.0
 10
6.0825449417
 20
4.5491231867
 30
0.0
 10
6.0886291484
 20
4.5479117716
 30
0.0
 10
6.0932234233
 20
4.5471254405
 30
0.0
 10
6.0978477975
 20
4.5464677289
 30
0.0
 10
6.1025070873
 20
4.54594338
 30
0.0
 10
6.1072077548
 20
4.5455554323
 30
0.0
 10
6.111950393
 20
4.5453065653
 30
0.0
 10
6.1167267264
 20
4.5451971302
 30
0.0
 10
6.1215231409
 20
4.5452291388
 30
0.0
 10
6.1263275321
 20
4.545401709
 30
0.0
 10
6.1327296376
 20
4.5458162974
 30
0.0
 10
6.1375174778
 20
4.5463320809
 30
0.0
 10
6.1406956768
 20
4.5467653051
 30
0.0
 11
5.9084959152
 21
4.6293502746
 31
0.0
 11
5.910347578
 21
4.629283886
 31
0.0
 11
5.9122773348
 21
4.6290900669
 31
0.0
 11
5.9142837718
 21
4.628772703
 31
0.0
 11
5.9163654754
 21
4.6283356803
 31
0.0
 11
5.918521032
 21
4.6277828846
 31
0.0
 11
5.9207490278
 21
4.6271182018
 31
0.0
 11
5.9230480493
 21
4.6263455178
 31
0.0
 11
5.9254166828
 21
4.6254687183
 31
0.0
 11
5.9278535147
 21
4.6244916893
 31
0.0
 11
5.9303571311
 21
4.6234183167
 31
0.0
 11
5.9329261187
 21
4.6222524863
 31
0.0
 11
5.9355590635
 21
4.6209980839
 31
0.0
 11
5.9382545521
 21
4.6196589954
 31
0.0
 11
5.9410111766
 21
4.6182391096
 31
0.0
 11
5.9438278208
 21
4.6167424564
 31
0.0
 11
5.946703789
 21
4.6151732694
 31
0.0
 11
5.9496384183
 21
4.6135357983
 31
0.0
 11
5.9526310458
 21
4.6118342926
 31
0.0
 11
5.9556810086
 21
4.610073002
 31
0.0
 11
5.9587876437
 21
4.6082561759
 31
0.0
 11
5.9651682795
 21
4.6044729159
 31
0.0
 11
5.9717676497
 21
4.6005185092
 31
0.0
 11
5.9785804512
 21
4.5964269524
 31
0.0
 11
5.9820652313
 21
4.5943403666
 31
0.0
 11
5.9856013837
 21
4.592232303
 31
0.0
 11
5.9891882793
 21
4.5901076578
 31
0.0
 11
5.992825306
 21
4.587971654
 31
0.0
 11
6.0002473059
 21
4.5836864761
 31
0.0
 11
6.0078624888
 21
4.5794185814
 31
0.0
 11
6.0156659604
 21
4.5752097816
 31
0.0
 11
6.0236528262
 21
4.5711018886
 31
0.0
 11
6.0318181918
 21
4.5671367142
 31
0.0
 11
6.0401569477
 21
4.5633562148
 31
0.0
 11
6.048659864
 21
4.5598051133
 31
0.0
 11
6.0573140043
 21
4.5565306216
 31
0.0
 11
6.0661063032
 21
4.5535800404
 31
0.0
 11
6.0750256975
 21
4.5510008002
 31
0.0
 11
6.0840665667
 21
4.5488406836
 31
0.0
 11
6.0886310842
 21
4.5479327472
 31
0.0
 11
6.0932242062
 21
4.5471475325
 31
0.0
 11
6.0978455055
 21
4.5464909713
 31
0.0
 11
6.1024995145
 21
4.5459675058
 31
0.0
 11
6.1071965421
 21
4.5455798418
 31
0.0
 11
6.111941473
 21
4.5453303693
 31
0.0
 11
6.1167211287
 21
4.5452207927
 31
0.0
 11
6.1215192931
 21
4.5452524653
 31
0.0
 11
6.126324553
 21
4.5454246542
 31
0.0
 11
6.1311281739
 21
4.5457354632
 31
0.0
 11
6.1406956768
 21
4.5467653051
 31
0.0
  0
SPLINE
  5
251
100
AcDbEntity
  8
0
100
AcDbSpline
 62
9
  6
CONTINUOUS
 70
0
 71
3
 72
27
 73
23
 74
21
 42
0.0000001
 43
0.0000001
 44
0.0000000001
 12
0.0047839265
 22
-0.2200626984
 32
0.0
 13
0.0037963285
 23
-0.2200819508
 33
0.0
 40
0.0
 40
0.0
 40
0.0
 40
0.0
 40
0.0473030508
 40
0.0721258138
 40
0.0976832426
 40
0.1508823006
 40
0.2066706597
 40
0.2648253113
 40
0.3251254069
 40
0.3873516177
 40
0.4513090011
 40
0.483881471
 40
0.516816431
 40
0.5500870226
 40
0.5836662968
 40
0.6175263955
 40
0.6516389508
 40
0.720506384
 40
0.7900273308
 40
0.8599498452
 40
0.9300136782
 40
1.0
 40
1.0
 40
1.0
 40
1.0
 10
6.1406956768
 20
4.5467653051
 30
0.0
 10
6.1407711082
 20
4.5432954261
 30
0.0
 10
6.1408737893
 20
4.5380044222
 30
0.0
 10
6.1409971099
 20
4.5308383111
 30
0.0
 10
6.1411189028
 20
4.5232395136
 30
0.0
 10
6.1412632055
 20
4.5133687988
 30
0.0
 10
6.1414295536
 20
4.5011064515
 30
0.0
 10
6.1415986387
 20
4.4883230807
 30
0.0
 10
6.1417778964
 20
4.4750674475
 30
0.0
 10
6.1419748993
 20
4.4613862633
 30
0.0
 10
6.1421584936
 20
4.4497395241
 30
0.0
 10
6.1423208808
 20
4.4402418751
 30
0.0
 10
6.1424517457
 20
4.4329955576
 30
0.0
 10
6.1425913946
 20
4.4256755195
 30
0.0
 10
6.1427405186
 20
4.4182877754
 30
0.0
 10
6.1428981622
 20
4.4108384185
 30
0.0
 10
6.1431183504
 20
4.4008006613
 30
0.0
 10
6.1434075064
 20
4.3881472997
 30
0.0
 10
6.1437622395
 20
4.3728673214
 30
0.0
 10
6.1441111515
 20
4.3574994013
 30
0.0
 10
6.1444378875
 20
4.3420968354
 30
0.0
 10
6.1446315081
 20
4.3318229445
 30
0.0
 10
6.1447200718
 20
4.3266887024
 30
0.0
 11
6.1406956768
 21
4.5467653051
 31
0.0
 11
6.1409007926
 21
4.5363552293
 31
0.0
 11
6.1409951231
 21
4.5308921888
 31
0.0
 11
6.1410855437
 21
4.52526735
 31
0.0
 11
6.1412584217
 21
4.513558732
 31
0.0
 11
6.1414265197
 21
4.5012800452
 31
0.0
 11
6.141597177
 21
4.4884804896
 31
0.0
 11
6.1417778932
 21
4.475208783
 31
0.0
 11
6.1419761405
 21
4.4615133147
 31
0.0
 11
6.1421989349
 21
4.447437118
 31
0.0
 11
6.1423215687
 21
4.4402684878
 31
0.0
 11
6.1424525243
 21
4.4330202021
 31
0.0
 11
6.1425923076
 21
4.4256981903
 31
0.0
 11
6.1427413002
 21
4.4183084006
 31
0.0
 11
6.1428987274
 21
4.4108569582
 31
0.0
 11
6.1430631856
 21
4.4033500849
 31
0.0
 11
6.1434073241
 21
4.388195258
 31
0.0
 11
6.1437602556
 21
4.3728967467
 31
0.0
 11
6.1441070986
 21
4.3575096827
 31
0.0
 11
6.144431924
 21
4.3420910249
 31
0.0
 11
6.1447200718
 21
4.3266887024
 31
0.0
  0
SPLINE
  5
252
100
AcDbEntity
  8
0
100
AcDbSpline
 62
9
  6
CONTINUOUS
 70
0
 71
3
 72
40
 73
36
 74
34
 42
0.0000001
 43
0.0000001
 44
0.0000000001
 12
0.3236243882
 22
-0.0011159055
 32
0.0
 13
0.3234278983
 23
-0.0113306867
 33
0.0
 40
0.0
 40
0.0
 40
0.0
 40
0.0
 40
0.0252373162
 40
0.051189412
 40
0.0778339244
 40
0.10514656
 40
0.1331014207
 40
0.1616712779
 40
0.1908277993
 40
0.2205403958
 40
0.2507745643
 40
0.2814947817
 40
0.3126650845
 40
0.3442491725
 40
0.408512314
 40
0.4411156253
 40
0.4739782896
 40
0.5403125663
 40
0.5737002015
 40
0.6071792846
 40
0.640709124
 40
0.6742582813
 40
0.7078038329
 40
0.7413238889
 40
0.7747790777
 40
0.8080809876
 40
0.824644536
 40
0.8411339073
 40
0.8575369158
 40
0.8738296899
 40
0.8899746695
 40
0.9059500329
 40
0.9375213118
 40
0.9688048326
 40
1.0
 40
1.0
 40
1.0
 40
1.0
 10
5.8220857502
 20
4.3049355827
 30
0.0
 10
5.8248082205
 20
4.3049261952
 30
0.0
 10
5.8303305596
 20
4.3049619625
 30
0.0
 10
5.8387249073
 20
4.3051608943
 30
0.0
 10
5.8473389561
 20
4.3054953181
 30
0.0
 10
5.8561635225
 20
4.3059546778
 30
0.0
 10
5.8651894684
 20
4.3065284163
 30
0.0
 10
5.8744076296
 20
4.3072059822
 30
0.0
 10
5.8838086949
 20
4.3079767826
 30
0.0
 10
5.8933828499
 20
4.3088302852
 30
0.0
 10
5.9031196861
 20
4.309756468
 30
0.0
 10
5.9130083992
 20
4.3107452153
 30
0.0
 10
5.9230381317
 20
4.3117864161
 30
0.0
 10
5.936662949
 20
4.3132395116
 30
0.0
 10
5.9504372782
 20
4.3147478808
 30
0.0
 10
5.9643484949
 20
4.3162731562
 30
0.0
 10
5.9784831188
 20
4.3178107175
 30
0.0
 10
5.9927060246
 20
4.3193194533
 30
0.0
 10
6.0070029443
 20
4.3207584403
 30
0.0
 10
6.017783632
 20
4.3217945912
 30
0.0
 10
6.0285871321
 20
4.3227740545
 30
0.0
 10
6.039403836
 20
4.3236851035
 30
0.0
 10
6.0502259865
 20
4.3245156704
 30
0.0
 10
6.061044719
 20
4.3252536591
 30
0.0
 10
6.0718437799
 20
4.3258869594
 30
0.0
 10
6.0808218054
 20
4.3263197182
 30
0.0
 10
6.0879742931
 20
4.326602903
 30
0.0
 10
6.0933063996
 20
4.3267820343
 30
0.0
 10
6.0986103338
 20
4.3269266931
 30
0.0
 10
6.1038779481
 20
4.3270362986
 30
0.0
 10
6.1091000296
 20
4.3271115591
 30
0.0
 10
6.1159706111
 20
4.3271663347
 30
0.0
 10
6.1244747063
 20
4.3271510225
 30
0.0
 10
6.1346195154
 20
4.3269981444
 30
0.0
 10
6.1413569427
 20
4.3268065233
 30
0.0
 10
6.1447200718
 20
4.3266887024
 30
0.0
 11
5.8220857502
 21
4.3049355827
 31
0.0
 11
5.8302530628
 21
4.3049845703
 31
0.0
 11
5.8386495701
 21
4.3051799868
 31
0.0
 11
5.8472660703
 21
4.3055112437
 31
0.0
 11
5.8560933614
 21
4.3059677526
 31
0.0
 11
5.8651222415
 21
4.3065389249
 31
0.0
 11
5.8743435089
 21
4.307214172
 31
0.0
 11
5.88374796
 21
4.307982906
 31
0.0
 11
5.8933259399
 21
4.3088346617
 31
0.0
 11
5.9030667288
 21
4.3097592635
 31
0.0
 11
5.9129594536
 21
4.3107465779
 31
0.0
 11
5.9229932408
 21
4.3117864711
 31
0.0
 11
5.9331572173
 21
4.3128688096
 31
0.0
 11
5.9538322319
 21
4.3151202777
 31
0.0
 11
5.9643208456
 21
4.3162686205
 31
0.0
 11
5.9748938728
 21
4.3174171246
 31
0.0
 11
5.9962429626
 21
4.3196689379
 31
0.0
 11
6.0069939227
 21
4.3207494079
 31
0.0
 11
6.0177790913
 21
4.3217843607
 31
0.0
 11
6.0285860665
 21
4.3227623634
 31
0.0
 11
6.0394053071
 21
4.3236717321
 31
0.0
 11
6.0502298454
 21
4.324500557
 31
0.0
 11
6.0610527964
 21
4.3252369203
 31
0.0
 11
6.0718613024
 21
4.3258691226
 31
0.0
 11
6.0826262722
 21
4.3263860575
 31
0.0
 11
6.0879824863
 21
4.3265978601
 31
0.0
 11
6.0933158825
 21
4.3267767183
 31
0.0
 11
6.0986223588
 21
4.3269212818
 31
0.0
 11
6.1038939878
 21
4.327030987
 31
0.0
 11
6.1091183869
 21
4.3271061866
 31
0.0
 11
6.1142882716
 21
4.3271472632
 31
0.0
 11
6.1245055505
 21
4.3271282699
 31
0.0
 11
6.1346285671
 21
4.3269754215
 31
0.0
 11
6.1447200718
 21
4.3266887024
 31
0.0
  0
SPLINE
  5
253
100
AcDbEntity
  8
0
100
AcDbSpline
 62
9
  6
CONTINUOUS
 70
0
 71
3
 72
56
 73
52
 74
50
 42
0.0000001
 43
0.0000001
 44
0.0000000001
 12
-0.2513186564
 22
-0.0001911136
 32
0.0
 13
-0.2490159256
 23
0.0339436649
 33
0.0
 40
0.0
 40
0.0
 40
0.0
 40
0.0
 40
0.0073725209
 40
0.0150896761
 40
0.0231725641
 40
0.0316362478
 40
0.0404907832
 40
0.0497421069
 40
0.0593927801
 40
0.0694426009
 40
0.0798891039
 40
0.0907279654
 40
0.1019533313
 40
0.1135580842
 40
0.1255340592
 40
0.1378722368
 40
0.1505636326
 40
0.1635997016
 40
0.1769714053
 40
0.1906692287
 40
0.2046832681
 40
0.2190033075
 40
0.2485193017
 40
0.2791315848
 40
0.3107528586
 40
0.3269144695
 40
0.3432953896
 40
0.3598835889
 40
0.3766665632
 40
0.4107676003
 40
0.4455027798
 40
0.4807811873
 40
0.5165181143
 40
0.5526364469
 40
0.5890671181
 40
0.625732341
 40
0.662549793
 40
0.699451865
 40
0.7363963077
 40
0.7733825841
 40
0.7919006673
 40
0.8104418904
 40
0.8290147445
 40
0.8476498666
 40
0.8664029384
 40
0.8853091478
 40
0.9043324479
 40
0.9234248132
 40
0.9425572669
 40
0.961710895
 40
1.0
 40
1.0
 40
1.0
 40
1.0
 10
4.9837819582
 20
4.6293502746
 30
0.0
 10
4.9831643409
 20
4.629349805
 30
0.0
 10
4.9818999564
 20
4.6293020975
 30
0.0
 10
4.9799676985
 20
4.6291046689
 30
0.0
 10
4.9779595378
 20
4.6287838878
 30
0.0
 10
4.9758768496
 20
4.6283437288
 30
0.0
 10
4.9737208518
 20
4.6277881187
 30
0.0
 10
4.9714928421
 20
4.6271209507
 30
0.0
 10
4.9691941295
 20
4.6263460996
 30
0.0
 10
4.9668260493
 20
4.6254674297
 30
0.0
 10
4.9643899537
 20
4.624488801
 30
0.0
 10
4.9618872097
 20
4.6234140718
 30
0.0
 10
4.9593191949
 20
4.6222471022
 30
0.0
 10
4.9566872973
 20
4.6209917501
 30
0.0
 10
4.9539929029
 20
4.6196518899
 30
0.0
 10
4.9512373743
 20
4.6182313109
 30
0.0
 10
4.9484218154
 20
4.616733982
 30
0.0
 10
4.9455469421
 20
4.6151642515
 30
0.0
 10
4.9426134237
 20
4.6135263387
 30
0.0
 10
4.9396219147
 20
4.6118244826
 30
0.0
 10
4.9365730698
 20
4.6100629249
 30
0.0
 10
4.9323901752
 20
4.6076154974
 30
0.0
 10
4.9270278067
 20
4.6044307284
 30
0.0
 10
4.9204371439
 20
4.6004760186
 30
0.0
 10
4.9148088965
 20
4.5970917197
 30
0.0
 10
4.9101975389
 20
4.5943298256
 30
0.0
 10
4.9066625567
 20
4.5922217609
 30
0.0
 10
4.9030768712
 20
4.5900971112
 30
0.0
 10
4.8982033204
 20
4.5872339665
 30
0.0
 10
4.8919935574
 20
4.5836441564
 30
0.0
 10
4.8843870022
 20
4.5793758309
 30
0.0
 10
4.8765915529
 20
4.5751661172
 30
0.0
 10
4.8686119851
 20
4.5710566867
 30
0.0
 10
4.8604530989
 20
4.5670893175
 30
0.0
 10
4.8521213154
 20
4.5633063079
 30
0.0
 10
4.8436255187
 20
4.5597520133
 30
0.0
 10
4.8349769793
 20
4.5564731637
 30
0.0
 10
4.8261877593
 20
4.5535166972
 30
0.0
 10
4.8172676033
 20
4.5509296291
 30
0.0
 10
4.8097329317
 20
4.5491231867
 30
0.0
 10
4.803648725
 20
4.5479117716
 30
0.0
 10
4.7990544501
 20
4.5471254405
 30
0.0
 10
4.7944300759
 20
4.5464677289
 30
0.0
 10
4.7897707861
 20
4.54594338
 30
0.0
 10
4.7850701186
 20
4.5455554323
 30
0.0
 10
4.7803274804
 20
4.5453065653
 30
0.0
 10
4.775551147
 20
4.5451971302
 30
0.0
 10
4.7707547325
 20
4.5452291388
 30
0.0
 10
4.7659503413
 20
4.545401709
 30
0.0
 10
4.7595482358
 20
4.5458162974
 30
0.0
 10
4.7547603956
 20
4.5463320809
 30
0.0
 10
4.7515821966
 20
4.5467653051
 30
0.0
 11
4.9837819582
 21
4.6293502746
 31
0.0
 11
4.9819302954
 21
4.629283886
 31
0.0
 11
4.9800005386
 21
4.6290900669
 31
0.0
 11
4.9779941016
 21
4.628772703
 31
0.0
 11
4.975912398
 21
4.6283356803
 31
0.0
 11
4.9737568414
 21
4.6277828846
 31
0.0
 11
4.9715288456
 21
4.6271182018
 31
0.0
 11
4.9692298241
 21
4.6263455178
 31
0.0
 11
4.9668611906
 21
4.6254687183
 31
0.0
 11
4.9644243587
 21
4.6244916893
 31
0.0
 11
4.9619207422
 21
4.6234183167
 31
0.0
 11
4.9593517547
 21
4.6222524863
 31
0.0
 11
4.9567188099
 21
4.6209980839
 31
0.0
 11
4.9540233213
 21
4.6196589954
 31
0.0
 11
4.9512666968
 21
4.6182391096
 31
0.0
 11
4.9484500526
 21
4.6167424564
 31
0.0
 11
4.9455740844
 21
4.6151732694
 31
0.0
 11
4.9426394551
 21
4.6135357983
 31
0.0
 11
4.9396468276
 21
4.6118342926
 31
0.0
 11
4.9365968648
 21
4.610073002
 31
0.0
 11
4.9334902297
 21
4.6082561759
 31
0.0
 11
4.9271095939
 21
4.6044729159
 31
0.0
 11
4.9205102237
 21
4.6005185092
 31
0.0
 11
4.9136974222
 21
4.5964269524
 31
0.0
 11
4.9102126421
 21
4.5943403666
 31
0.0
 11
4.9066764897
 21
4.592232303
 31
0.0
 11
4.9030895941
 21
4.5901076578
 31
0.0
 11
4.8994525674
 21
4.587971654
 31
0.0
 11
4.8920305675
 21
4.5836864761
 31
0.0
 11
4.8844153846
 21
4.5794185814
 31
0.0
 11
4.876611913
 21
4.5752097816
 31
0.0
 11
4.8686250472
 21
4.5711018886
 31
0.0
 11
4.8604596816
 21
4.5671367142
 31
0.0
 11
4.8521209257
 21
4.5633562148
 31
0.0
 11
4.8436180094
 21
4.5598051133
 31
0.0
 11
4.8349638691
 21
4.5565306216
 31
0.0
 11
4.8261715702
 21
4.5535800404
 31
0.0
 11
4.8172521759
 21
4.5510008002
 31
0.0
 11
4.8082113067
 21
4.5488406836
 31
0.0
 11
4.8036467892
 21
4.5479327472
 31
0.0
 11
4.7990536672
 21
4.5471475325
 31
0.0
 11
4.7944323679
 21
4.5464909713
 31
0.0
 11
4.7897783589
 21
4.5459675058
 31
0.0
 11
4.7850813313
 21
4.5455798418
 31
0.0
 11
4.7803364004
 21
4.5453303693
 31
0.0
 11
4.7755567447
 21
4.5452207927
 31
0.0
 11
4.7707585803
 21
4.5452524653
 31
0.0
 11
4.7659533204
 21
4.5454246542
 31
0.0
 11
4.7611496995
 21
4.5457354632
 31
0.0
 11
4.7515821966
 21
4.5467653051
 31
0.0
  0
SPLINE
  5
254
100
AcDbEntity
  8
0
100
AcDbSpline
 62
9
  6
CONTINUOUS
 70
0
 71
3
 72
23
 73
19
 74
17
 42
0.0000001
 43
0.0000001
 44
0.0000000001
 12
0.0000610783
 22
-0.0481286493
 32
0.0
 13
-0.0010460185
 23
-0.0481173074
 33
0.0
 40
0.0
 40
0.0
 40
0.0
 40
0.0
 40
0.004157802
 40
0.0167245376
 40
0.0378332868
 40
0.0675894516
 40
0.1060513978
 40
0.1531162269
 40
0.208598286
 40
0.2721405338
 40
0.3433034381
 40
0.4214876065
 40
0.506040743
 40
0.5962594184
 40
0.6914340855
 40
0.790883466
 40
0.893944808
 40
1.0
 40
1.0
 40
1.0
 40
1.0
 10
4.7528521425
 20
4.5948750784
 30
0.0
 10
4.7528522272
 20
4.5948083753
 30
0.0
 10
4.7528524393
 20
4.5945400654
 30
0.0
 10
4.7528519215
 20
4.59393311
 30
0.0
 10
4.7528494164
 20
4.5929154851
 30
0.0
 10
4.7528413741
 20
4.5914824436
 30
0.0
 10
4.7528246377
 20
4.5896330433
 30
0.0
 10
4.752794699
 20
4.5873710444
 30
0.0
 10
4.7527473833
 20
4.5847069054
 30
0.0
 10
4.7526794562
 20
4.5816564979
 30
0.0
 10
4.7525879233
 20
4.5782423543
 30
0.0
 10
4.7524734637
 20
4.5744916572
 30
0.0
 10
4.7523368371
 20
4.5704358081
 30
0.0
 10
4.7521839905
 20
4.5661077838
 30
0.0
 10
4.7520208067
 20
4.5615409974
 30
0.0
 10
4.7518576008
 20
4.5567680479
 30
0.0
 10
4.7517045914
 20
4.5518201109
 30
0.0
 10
4.7516191752
 20
4.5484663352
 30
0.0
 10
4.7515821966
 20
4.5467653051
 30
0.0
 11
4.7528521425
 21
4.5948750784
 31
0.0
 11
4.7528523054
 21
4.594674969
 31
0.0
 11
4.7528519174
 21
4.5940701488
 31
0.0
 11
4.7528493151
 21
4.593054216
 31
0.0
 11
4.7528414421
 21
4.5916221128
 31
0.0
 11
4.7528247253
 21
4.5897710658
 31
0.0
 11
4.7527949187
 21
4.587506094
 31
0.0
 11
4.7527478102
 21
4.5848362315
 31
0.0
 11
4.752679996
 21
4.5817787792
 31
0.0
 11
4.7525889281
 21
4.5783550138
 31
0.0
 11
4.7524746734
 21
4.5745938483
 31
0.0
 11
4.7523388299
 21
4.5705266858
 31
0.0
 11
4.7521865034
 21
4.5661872531
 31
0.0
 11
4.7520244025
 21
4.5616094916
 31
0.0
 11
4.751862139
 21
4.5568258758
 31
0.0
 11
4.7517105158
 21
4.5518679879
 31
0.0
 11
4.7515821966
 21
4.5467653051
 31
0.0
  0
SPLINE
  5
255
100
AcDbEntity
  8
0
100
AcDbSpline
 62
9
  6
CONTINUOUS
 70
0
 71
3
 72
40
 73
36
 74
34
 42
0.0000001
 43
0.0000001
 44
0.0000000001
 12
-0.3236243882
 22
-0.0011159055
 32
0.0
 13
-0.3234278983
 23
-0.0113306867
 33
0.0
 40
0.0
 40
0.0
 40
0.0
 40
0.0
 40
0.0252373162
 40
0.051189412
 40
0.0778339244
 40
0.10514656
 40
0.1331014207
 40
0.1616712779
 40
0.1908277993
 40
0.2205403958
 40
0.2507745643
 40
0.2814947817
 40
0.3126650845
 40
0.3442491725
 40
0.408512314
 40
0.4411156253
 40
0.4739782896
 40
0.5403125663
 40
0.5737002015
 40
0.6071792846
 40
0.640709124
 40
0.6742582813
 40
0.7078038329
 40
0.7413238889
 40
0.7747790777
 40
0.8080809876
 40
0.824644536
 40
0.8411339073
 40
0.8575369158
 40
0.8738296899
 40
0.8899746695
 40
0.9059500329
 40
0.9375213118
 40
0.9688048326
 40
1.0
 40
1.0
 40
1.0
 40
1.0
 10
5.0701921232
 20
4.3049355827
 30
0.0
 10
5.0674696529
 20
4.3049261952
 30
0.0
 10
5.0619473138
 20
4.3049619625
 30
0.0
 10
5.0535529661
 20
4.3051608943
 30
0.0
 10
5.0449389173
 20
4.3054953181
 30
0.0
 10
5.0361143509
 20
4.3059546778
 30
0.0
 10
5.027088405
 20
4.3065284163
 30
0.0
 10
5.0178702438
 20
4.3072059822
 30
0.0
 10
5.0084691785
 20
4.3079767826
 30
0.0
 10
4.9988950235
 20
4.3088302852
 30
0.0
 10
4.9891581873
 20
4.309756468
 30
0.0
 10
4.9792694742
 20
4.3107452153
 30
0.0
 10
4.9692397417
 20
4.3117864161
 30
0.0
 10
4.9556149244
 20
4.3132395116
 30
0.0
 10
4.9418405952
 20
4.3147478808
 30
0.0
 10
4.9279293785
 20
4.3162731562
 30
0.0
 10
4.9137947546
 20
4.3178107175
 30
0.0
 10
4.8995718488
 20
4.3193194533
 30
0.0
 10
4.8852749291
 20
4.3207584403
 30
0.0
 10
4.8744942414
 20
4.3217945912
 30
0.0
 10
4.8636907413
 20
4.3227740545
 30
0.0
 10
4.8528740374
 20
4.3236851035
 30
0.0
 10
4.8420518869
 20
4.3245156704
 30
0.0
 10
4.8312331544
 20
4.3252536591
 30
0.0
 10
4.8204340935
 20
4.3258869594
 30
0.0
 10
4.811456068
 20
4.3263197182
 30
0.0
 10
4.8043035803
 20
4.326602903
 30
0.0
 10
4.7989714738
 20
4.3267820343
 30
0.0
 10
4.7936675396
 20
4.3269266931
 30
0.0
 10
4.7883999253
 20
4.3270362986
 30
0.0
 10
4.7831778438
 20
4.3271115591
 30
0.0
 10
4.7763072623
 20
4.3271663347
 30
0.0
 10
4.7678031671
 20
4.3271510225
 30
0.0
 10
4.757658358
 20
4.3269981444
 30
0.0
 10
4.7509209307
 20
4.3268065233
 30
0.0
 10
4.7475578016
 20
4.3266887024
 30
0.0
 11
5.0701921232
 21
4.3049355827
 31
0.0
 11
5.0620248106
 21
4.3049845703
 31
0.0
 11
5.0536283033
 21
4.3051799868
 31
0.0
 11
5.0450118031
 21
4.3055112437
 31
0.0
 11
5.036184512
 21
4.3059677526
 31
0.0
 11
5.0271556319
 21
4.3065389249
 31
0.0
 11
5.0179343645
 21
4.307214172
 31
0.0
 11
5.0085299134
 21
4.307982906
 31
0.0
 11
4.9989519335
 21
4.3088346617
 31
0.0
 11
4.9892111446
 21
4.3097592635
 31
0.0
 11
4.9793184198
 21
4.3107465779
 31
0.0
 11
4.9692846326
 21
4.3117864711
 31
0.0
 11
4.9591206561
 21
4.3128688096
 31
0.0
 11
4.9384456415
 21
4.3151202777
 31
0.0
 11
4.9279570278
 21
4.3162686205
 31
0.0
 11
4.9173840006
 21
4.3174171246
 31
0.0
 11
4.8960349108
 21
4.3196689379
 31
0.0
 11
4.8852839507
 21
4.3207494079
 31
0.0
 11
4.8744987821
 21
4.3217843607
 31
0.0
 11
4.8636918069
 21
4.3227623634
 31
0.0
 11
4.8528725663
 21
4.3236717321
 31
0.0
 11
4.842048028
 21
4.324500557
 31
0.0
 11
4.831225077
 21
4.3252369203
 31
0.0
 11
4.820416571
 21
4.3258691226
 31
0.0
 11
4.8096516012
 21
4.3263860575
 31
0.0
 11
4.8042953871
 21
4.3265978601
 31
0.0
 11
4.7989619909
 21
4.3267767183
 31
0.0
 11
4.7936555146
 21
4.3269212818
 31
0.0
 11
4.7883838855
 21
4.327030987
 31
0.0
 11
4.7831594865
 21
4.3271061866
 31
0.0
 11
4.7779896018
 21
4.3271472632
 31
0.0
 11
4.7677723229
 21
4.3271282699
 31
0.0
 11
4.7576493063
 21
4.3269754215
 31
0.0
 11
4.7475578016
 21
4.3266887024
 31
0.0
  0
SPLINE
  5
256
100
AcDbEntity
  8
0
100
AcDbSpline
 62
9
  6
CONTINUOUS
 70
0
 71
3
 72
27
 73
23
 74
21
 42
0.0000001
 43
0.0000001
 44
0.0000000001
 12
-0.0047839265
 22
-0.2200626984
 32
0.0
 13
-0.0037963285
 23
-0.2200819508
 33
0.0
 40
0.0
 40
0.0
 40
0.0
 40
0.0
 40
0.0473030508
 40
0.0721258138
 40
0.0976832426
 40
0.1508823006
 40
0.2066706597
 40
0.2648253113
 40
0.3251254069
 40
0.3873516177
 40
0.4513090011
 40
0.483881471
 40
0.516816431
 40
0.5500870226
 40
0.5836662968
 40
0.6175263955
 40
0.6516389508
 40
0.720506384
 40
0.7900273308
 40
0.8599498452
 40
0.9300136782
 40
1.0
 40
1.0
 40
1.0
 40
1.0
 10
4.7515821966
 20
4.5467653051
 30
0.0
 10
4.7515067652
 20
4.5432954261
 30
0.0
 10
4.7514040841
 20
4.5380044222
 30
0.0
 10
4.7512807635
 20
4.5308383111
 30
0.0
 10
4.7511589706
 20
4.5232395136
 30
0.0
 10
4.7510146679
 20
4.5133687988
 30
0.0
 10
4.7508483198
 20
4.5011064515
 30
0.0
 10
4.7506792347
 20
4.4883230807
 30
0.0
 10
4.750499977
 20
4.4750674475
 30
0.0
 10
4.7503029741
 20
4.4613862633
 30
0.0
 10
4.7501193798
 20
4.4497395241
 30
0.0
 10
4.7499569926
 20
4.4402418751
 30
0.0
 10
4.7498261277
 20
4.4329955576
 30
0.0
 10
4.7496864788
 20
4.4256755195
 30
0.0
 10
4.7495373548
 20
4.4182877754
 30
0.0
 10
4.7493797112
 20
4.4108384185
 30
0.0
 10
4.749159523
 20
4.4008006613
 30
0.0
 10
4.748870367
 20
4.3881472997
 30
0.0
 10
4.7485156339
 20
4.3728673214
 30
0.0
 10
4.7481667219
 20
4.3574994013
 30
0.0
 10
4.7478399859
 20
4.3420968354
 30
0.0
 10
4.7476463653
 20
4.3318229445
 30
0.0
 10
4.7475578016
 20
4.3266887024
 30
0.0
 11
4.7515821966
 21
4.5467653051
 31
0.0
 11
4.7513770808
 21
4.5363552293
 31
0.0
 11
4.7512827503
 21
4.5308921888
 31
0.0
 11
4.7511923297
 21
4.52526735
 31
0.0
 11
4.7510194517
 21
4.513558732
 31
0.0
 11
4.7508513537
 21
4.5012800452
 31
0.0
 11
4.7506806964
 21
4.4884804896
 31
0.0
 11
4.7504999802
 21
4.475208783
 31
0.0
 11
4.7503017329
 21
4.4615133147
 31
0.0
 11
4.7500789385
 21
4.447437118
 31
0.0
 11
4.7499563047
 21
4.4402684878
 31
0.0
 11
4.7498253491
 21
4.4330202021
 31
0.0
 11
4.7496855658
 21
4.4256981903
 31
0.0
 11
4.7495365732
 21
4.4183084006
 31
0.0
 11
4.749379146
 21
4.4108569582
 31
0.0
 11
4.7492146878
 21
4.4033500849
 31
0.0
 11
4.7488705493
 21
4.388195258
 31
0.0
 11
4.7485176178
 21
4.3728967467
 31
0.0
 11
4.7481707748
 21
4.3575096827
 31
0.0
 11
4.7478459494
 21
4.3420910249
 31
0.0
 11
4.7475578016
 21
4.3266887024
 31
0.0
  0
SPLINE
  5
257
100
AcDbEntity
  8
0
100
AcDbSpline
 62
9
  6
CONTINUOUS
 70
0
 71
3
 72
23
 73
19
 74
17
 42
0.0000001
 43
0.0000001
 44
0.0000000001
 12
-0.0029903239
 22
-0.1733559974
 32
0.0
 13
0.0019316922
 23
-0.1733710412
 33
0.0
 40
0.0
 40
0.0
 40
0.0
 40
0.0
 40
0.0987181334
 40
0.1953710912
 40
0.3801602362
 40
0.4671450394
 40
0.5497066165
 40
0.6272185061
 40
0.6990858262
 40
0.7647203922
 40
0.8235295156
 40
0.8749213342
 40
0.9183117805
 40
0.9531161196
 40
0.9787394557
 40
0.9879209862
 40
0.9945782342
 40
1.0
 40
1.0
 40
1.0
 40
1.0
 10
4.7475578016
 20
4.3266887024
 30
0.0
 10
4.7474594019
 20
4.3209842423
 30
0.0
 10
4.7472938396
 20
4.3096941365
 30
0.0
 10
4.7470748078
 20
4.2877242143
 30
0.0
 10
4.7469959014
 20
4.2664312894
 30
0.0
 10
4.7470167339
 20
4.2459528475
 30
0.0
 10
4.7470656806
 20
4.2316744509
 30
0.0
 10
4.7471340561
 20
4.2182698524
 30
0.0
 10
4.7472117891
 20
4.2058436032
 30
0.0
 10
4.747288655
 20
4.1944982788
 30
0.0
 10
4.7473615497
 20
4.1843363152
 30
0.0
 10
4.7474275116
 20
4.1754599105
 30
0.0
 10
4.7474855385
 20
4.1679708161
 30
0.0
 10
4.7475348267
 20
4.1619709612
 30
0.0
 10
4.747570271
 20
4.1579481273
 30
0.0
 10
4.7475933724
 20
4.1555519801
 30
0.0
 10
4.7476058341
 20
4.1543233128
 30
0.0
 10
4.7476133524
 20
4.1536252596
 30
0.0
 10
4.7476168434
 20
4.1533119339
 30
0.0
 11
4.7475578016
 21
4.3266887024
 31
0.0
 11
4.7473056206
 21
4.309574634
 31
0.0
 11
4.7471376033
 21
4.2928176138
 31
0.0
 11
4.7470092511
 21
4.2607787989
 31
0.0
 11
4.7470232116
 21
4.2456972247
 31
0.0
 11
4.7470707979
 21
4.2313826301
 31
0.0
 11
4.7471384039
 21
4.2179436503
 31
0.0
 11
4.7472151702
 21
4.2054834024
 31
0.0
 11
4.7472921241
 21
4.1941038243
 31
0.0
 11
4.7473650923
 21
4.1839076545
 31
0.0
 11
4.7474314584
 21
4.1749974963
 31
0.0
 11
4.7474900326
 21
4.1674746113
 31
0.0
 11
4.7475398757
 21
4.1614403786
 31
0.0
 11
4.7475795481
 21
4.156997936
 31
0.0
 11
4.7475949331
 21
4.1554061002
 31
0.0
 11
4.7476066914
 21
4.1542519145
 31
0.0
 11
4.7476168434
 21
4.1533119339
 31
0.0
  0
LINE
  5
258
100
AcDbEntity
  8
0
100
AcDbLine
 62
9
  6
CONTINUOUS
 10
4.7515821966
 20
4.5467653051
 11
4.7432132722
 21
4.5480148834
  0
LINE
  5
259
100
AcDbEntity
  8
0
100
AcDbLine
 62
9
  6
CONTINUOUS
 10
4.7449128367
 20
4.5968545697
 11
4.7432132722
 21
4.5480148834
  0
LINE
  5
25A
100
AcDbEntity
  8
0
100
AcDbLine
 62
9
  6
CONTINUOUS
 10
4.7475578016
 20
4.3266887024
 11
4.7392298166
 21
4.3263479011
  0
SPLINE
  5
25B
100
AcDbEntity
  8
0
100
AcDbSpline
 62
9
  6
CONTINUOUS
 70
0
 71
3
 72
28
 73
24
 74
22
 42
0.0000001
 43
0.0000001
 44
0.0000000001
 12
-0.0051700149
 22
-0.2216440891
 32
0.0
 13
-0.0038665105
 23
-0.2216706597
 33
0.0
 40
0.0
 40
0.0
 40
0.0
 40
0.0
 40
0.0474526013
 40
0.0723321246
 40
0.0979346047
 40
0.1511909742
 40
0.2069975851
 40
0.2651374873
 40
0.3253961014
 40
0.3875604786
 40
0.4514440856
 40
0.4839782834
 40
0.516875409
 40
0.5501094842
 40
0.5836544366
 40
0.617483221
 40
0.6515682454
 40
0.685881831
 40
0.7203949032
 40
0.7898978236
 40
0.8598291299
 40
0.9299331028
 40
1.0
 40
1.0
 40
1.0
 40
1.0
 10
4.7432132722
 20
4.5480148834
 30
0.0
 10
4.7431314954
 20
4.5445090206
 30
0.0
 10
4.7430221253
 20
4.5391646645
 30
0.0
 10
4.7428940206
 20
4.531928288
 30
0.0
 10
4.7427698921
 20
4.5242628727
 30
0.0
 10
4.7426269979
 20
4.5143119177
 30
0.0
 10
4.7424675275
 20
4.5019564083
 30
0.0
 10
4.7423091066
 20
4.4890833699
 30
0.0
 10
4.7421428229
 20
4.4757405442
 30
0.0
 10
4.7419596188
 20
4.461973431
 30
0.0
 10
4.7417869449
 20
4.4502552421
 30
0.0
 10
4.7416323288
 20
4.4406999294
 30
0.0
 10
4.7415066793
 20
4.4334094937
 30
0.0
 10
4.7413714533
 20
4.42604452
 30
0.0
 10
4.7412257953
 20
4.418610881
 30
0.0
 10
4.7410706462
 20
4.4111145346
 30
0.0
 10
4.7409075684
 20
4.4035615405
 30
0.0
 10
4.740737919
 20
4.3959581089
 30
0.0
 10
4.7405046481
 20
4.3857380127
 30
0.0
 10
4.7402058708
 20
4.3728865263
 30
0.0
 10
4.7398512562
 20
4.3574054065
 30
0.0
 10
4.7395178309
 20
4.3418821217
 30
0.0
 10
4.7393201214
 20
4.3315251595
 30
0.0
 10
4.7392298166
 20
4.3263479011
 30
0.0
 11
4.7432132722
 21
4.5480148834
 31
0.0
 11
4.742994344
 21
4.5374967121
 31
0.0
 11
4.7428963336
 21
4.5319816837
 31
0.0
 11
4.7428041073
 21
4.5263062511
 31
0.0
 11
4.7426324957
 21
4.514500328
 31
0.0
 11
4.7424709654
 21
4.5021288125
 31
0.0
 11
4.7423107043
 21
4.489239938
 31
0.0
 11
4.7421427263
 21
4.4758813955
 31
0.0
 11
4.7419580745
 21
4.4621005179
 31
0.0
 11
4.7417482894
 21
4.4479387963
 31
0.0
 11
4.7416315036
 21
4.4407267677
 31
0.0
 11
4.7415057475
 21
4.4334344152
 31
0.0
 11
4.7413703678
 21
4.426067519
 31
0.0
 11
4.7412248466
 21
4.4186318801
 31
0.0
 11
4.7410699249
 21
4.4111334907
 31
0.0
 11
4.7409070286
 21
4.4035784475
 31
0.0
 11
4.7407376004
 21
4.3959728622
 31
0.0
 11
4.7405632946
 21
4.3883231486
 31
0.0
 11
4.740207482
 21
4.3729181555
 31
0.0
 11
4.7398552291
 21
4.3574180808
 31
0.0
 11
4.7395239596
 21
4.3418792539
 31
0.0
 11
4.7392298166
 21
4.3263479011
 31
0.0
  0
SPLINE
  5
25C
100
AcDbEntity
  8
0
100
AcDbSpline
 62
9
  6
CONTINUOUS
 70
0
 71
3
 72
23
 73
19
 74
17
 42
0.0000001
 43
0.0000001
 44
0.0000000001
 12
-0.0030511089
 22
-0.1749229258
 32
0.0
 13
0.0020364603
 23
-0.1749376971
 33
0.0
 40
0.0
 40
0.0
 40
0.0
 40
0.0
 40
0.0986891362
 40
0.1953162657
 40
0.38006927
 40
0.4670473706
 40
0.5496079235
 40
0.6271217647
 40
0.6989938205
 40
0.7646361346
 40
0.8234554241
 40
0.8748591844
 40
0.9182633292
 40
0.9530829058
 40
0.9787214078
 40
0.9879098375
 40
0.9945728362
 40
1.0
 40
1.0
 40
1.0
 40
1.0
 10
4.7392298166
 20
4.3263479011
 30
0.0
 10
4.7391294461
 20
4.3205935703
 30
0.0
 10
4.7389616034
 20
4.3092045812
 30
0.0
 10
4.7387438147
 20
4.2870412705
 30
0.0
 10
4.7386734301
 20
4.2655597633
 30
0.0
 10
4.7387072063
 20
4.2448987265
 30
0.0
 10
4.7387666163
 20
4.2304915961
 30
0.0
 10
4.7388454026
 20
4.2169655143
 30
0.0
 10
4.7389328493
 20
4.2044261227
 30
0.0
 10
4.7390180754
 20
4.1929769457
 30
0.0
 10
4.739097955
 20
4.1827214022
 30
0.0
 10
4.739169517
 20
4.173762686
 30
0.0
 10
4.7392319238
 20
4.1662035209
 30
0.0
 10
4.7392845514
 20
4.1601468669
 30
0.0
 10
4.7393221886
 20
4.1560854994
 30
0.0
 10
4.7393466506
 20
4.1536660749
 30
0.0
 10
4.7393598311
 20
4.1524252516
 30
0.0
 10
4.7393677712
 20
4.1517202402
 30
0.0
 10
4.7393714553
 20
4.1514037683
 30
0.0
 11
4.7392298166
 21
4.3263479011
 31
0.0
 11
4.7389741086
 21
4.3090841764
 31
0.0
 11
4.7388069868
 21
4.2921801313
 31
0.0
 11
4.7386907253
 21
4.2598578885
 31
0.0
 11
4.738714104
 21
4.2446411283
 31
0.0
 11
4.738772054
 21
4.2301973144
 31
0.0
 11
4.7388500138
 21
4.2166365281
 31
0.0
 11
4.7389364125
 21
4.2040628423
 31
0.0
 11
4.7390217338
 21
4.1925790671
 31
0.0
 11
4.7391016875
 21
4.1822889704
 31
0.0
 11
4.7391736786
 21
4.1732961947
 31
0.0
 11
4.7392366654
 21
4.1657029211
 31
0.0
 11
4.7392898793
 21
4.1596114848
 31
0.0
 11
4.7393320066
 21
4.1551262387
 31
0.0
 11
4.7393482985
 21
4.1535188098
 31
0.0
 11
4.7393607337
 21
4.1523531876
 31
0.0
 11
4.7393714553
 21
4.1514037683
 31
0.0
  0
SPLINE
  5
25D
100
AcDbEntity
  8
0
100
AcDbSpline
 62
9
  6
CONTINUOUS
 70
0
 71
3
 72
14
 73
10
 74
8
 42
0.0000001
 43
0.0000001
 44
0.0000000001
 12
-0.1144614219
 22
0.0176417371
 32
0.0
 13
-0.1118495632
 23
0.0300386951
 33
0.0
 40
0.0
 40
0.0
 40
0.0
 40
0.0
 40
0.1229328028
 40
0.2468789001
 40
0.3716419792
 40
0.4970121943
 40
0.6227682132
 40
0.7486790205
 40
1.0
 40
1.0
 40
1.0
 40
1.0
 10
4.7432132722
 20
4.5480148834
 30
0.0
 10
4.7385229178
 20
4.5487377995
 30
0.0
 10
4.7291194717
 20
4.550294538
 30
0.0
 10
4.7150134555
 20
4.5529172204
 30
0.0
 10
4.7008634627
 20
4.5558054451
 30
0.0
 10
4.6866915961
 20
4.5589263953
 30
0.0
 10
4.6725198429
 20
4.5622472737
 30
0.0
 10
4.6536664088
 20
4.5668948636
 30
0.0
 10
4.6395781408
 20
4.5705853189
 30
0.0
 10
4.6302080936
 20
4.5731017703
 30
0.0
 11
4.7432132722
 21
4.5480148834
 31
0.0
 11
4.729166232
 21
4.5503341409
 31
0.0
 11
4.7150524795
 21
4.5529524621
 31
0.0
 11
4.7008941413
 21
4.5558369727
 31
0.0
 11
4.6867133438
 21
4.5589547985
 31
0.0
 11
4.6725322138
 21
4.5622730654
 31
0.0
 11
4.6583728777
 21
4.5657588991
 31
0.0
 11
4.6302080936
 21
4.5731017703
 31
0.0
  0
SPLINE
  5
25E
100
AcDbEntity
  8
0
100
AcDbSpline
 62
9
  6
CONTINUOUS
 70
0
 71
3
 72
49
 73
45
 74
43
 42
0.0000001
 43
0.0000001
 44
0.0000000001
 12
0.0507186012
 22
-0.0126455676
 32
0.0
 13
-0.0003023814
 23
-0.0522704069
 33
0.0
 40
0.0
 40
0.0
 40
0.0
 40
0.0
 40
0.0000280362
 40
0.0000862037
 40
0.0001771344
 40
0.0003013843
 40
0.0004591491
 40
0.0006505145
 40
0.0008755217
 40
0.0011341906
 40
0.0017525368
 40
0.0025055575
 40
0.0033932022
 40
0.0044153978
 40
0.0055720592
 40
0.006863094
 40
0.0082884055
 40
0.0098478943
 40
0.0133689952
 40
0.0174255719
 40
0.0220167329
 40
0.0271413706
 40
0.0327983216
 40
0.0389864208
 40
0.0457045021
 40
0.0529513987
 40
0.0690269673
 40
0.0872013952
 40
0.1074533719
 40
0.1297592
 40
0.1540951919
 40
0.1804351304
 40
0.2087426468
 40
0.2389788376
 40
0.2711048052
 40
0.3050793657
 40
0.3408521664
 40
0.4175818574
 40
0.5008667718
 40
0.590256409
 40
0.68529782
 40
0.7855520992
 40
0.8905891802
 40
1.0
 40
1.0
 40
1.0
 40
1.0
 10
4.6305454676
 20
4.6253695574
 30
0.0
 10
4.6305459416
 20
4.6253694392
 30
0.0
 10
4.6305467307
 20
4.6253678644
 30
0.0
 10
4.630547538
 20
4.6253650705
 30
0.0
 10
4.6305484634
 20
4.6253602988
 30
0.0
 10
4.6305493783
 20
4.6253539048
 30
0.0
 10
4.6305503217
 20
4.6253456947
 30
0.0
 10
4.6305512688
 20
4.6253357411
 30
0.0
 10
4.6305522246
 20
4.6253240161
 30
0.0
 10
4.6305535874
 20
4.6253048637
 30
0.0
 10
4.6305552562
 20
4.62527651
 30
0.0
 10
4.6305571811
 20
4.6252371965
 30
0.0
 10
4.6305591203
 20
4.6251908396
 30
0.0
 10
4.6305610715
 20
4.6251374451
 30
0.0
 10
4.630563031
 20
4.6250770181
 30
0.0
 10
4.6305649968
 20
4.6250095643
 30
0.0
 10
4.6305669669
 20
4.6249350892
 30
0.0
 10
4.6305697092
 20
4.624821765
 30
0.0
 10
4.6305730928
 20
4.6246625968
 30
0.0
 10
4.6305770051
 20
4.6244506058
 30
0.0
 10
4.6305809008
 20
4.6242106707
 30
0.0
 10
4.6305847509
 20
4.6239428471
 30
0.0
 10
4.6305885268
 20
4.6236471953
 30
0.0
 10
4.6305922003
 20
4.6233237766
 30
0.0
 10
4.6305957436
 20
4.622972652
 30
0.0
 10
4.6306004203
 20
4.6224492535
 30
0.0
 10
4.6306056942
 20
4.6217262402
 30
0.0
 10
4.6306108657
 20
4.6207766245
 30
0.0
 10
4.6306147904
 20
4.6197184474
 30
0.0
 10
4.6306171842
 20
4.6185529079
 30
0.0
 10
4.6306177605
 20
4.6172812908
 30
0.0
 10
4.6306162366
 20
4.6159051024
 30
0.0
 10
4.6306124072
 20
4.6144261145
 30
0.0
 10
4.630606064
 20
4.6128463201
 30
0.0
 10
4.6305969991
 20
4.6111677961
 30
0.0
 10
4.6305850119
 20
4.6093928196
 30
0.0
 10
4.6305647129
 20
4.6068407187
 30
0.0
 10
4.6305319731
 20
4.6034295204
 30
0.0
 10
4.6304827164
 20
4.5990842386
 30
0.0
 10
4.6304256691
 20
4.5944199685
 30
0.0
 10
4.6303638718
 20
4.5894600645
 30
0.0
 10
4.6303026221
 20
4.5842274955
 30
0.0
 10
4.6302471838
 20
4.5787444771
 30
0.0
 10
4.6302191215
 20
4.5750080864
 30
0.0
 10
4.6302080936
 20
4.5731017703
 30
0.0
 11
4.6305454676
 21
4.6253695574
 31
0.0
 11
4.6305464129
 21
4.6253684376
 31
0.0
 11
4.630547362
 21
4.625365549
 31
0.0
 11
4.6305483147
 21
4.6253608924
 31
0.0
 11
4.6305492709
 21
4.6253544685
 31
0.0
 11
4.6305502303
 21
4.6253462779
 31
0.0
 11
4.6305511928
 21
4.6253363214
 31
0.0
 11
4.6305521582
 21
4.6253245997
 31
0.0
 11
4.6305531264
 21
4.6253111135
 31
0.0
 11
4.6305550705
 21
4.6252788502
 31
0.0
 11
4.6305570236
 21
4.6252395374
 31
0.0
 11
4.6305589844
 21
4.6251931805
 31
0.0
 11
4.6305609516
 21
4.6251397852
 31
0.0
 11
4.6305629239
 21
4.6250793572
 31
0.0
 11
4.6305648999
 21
4.6250119021
 31
0.0
 11
4.6305668784
 21
4.6249374255
 31
0.0
 11
4.6305688578
 21
4.6248559331
 31
0.0
 11
4.6305728147
 21
4.6246719232
 31
0.0
 11
4.6305767597
 21
4.6244599174
 31
0.0
 11
4.6305806796
 21
4.6242199636
 31
0.0
 11
4.6305845495
 21
4.6239521201
 31
0.0
 11
4.6305883421
 21
4.6236564484
 31
0.0
 11
4.63059203
 21
4.6233330095
 31
0.0
 11
4.6305955856
 21
4.6229818648
 31
0.0
 11
4.6305989815
 21
4.6226030755
 31
0.0
 11
4.6306051844
 21
4.6217628078
 31
0.0
 11
4.6306104084
 21
4.6208128215
 31
0.0
 11
4.6306143798
 21
4.6197542322
 31
0.0
 11
4.6306168141
 21
4.6185882805
 31
0.0
 11
4.6306174269
 21
4.6173162072
 31
0.0
 11
4.6306159468
 21
4.6159393856
 31
0.0
 11
4.6306121541
 21
4.6144597203
 31
0.0
 11
4.6306058424
 21
4.6128792485
 31
0.0
 11
4.630596805
 21
4.6112000073
 31
0.0
 11
4.6305848774
 21
4.6094241535
 31
0.0
 11
4.630570063
 21
4.6075543221
 31
0.0
 11
4.6305319553
 21
4.6035437439
 31
0.0
 11
4.6304832958
 21
4.5991906066
 31
0.0
 11
4.6304267009
 21
4.5945184385
 31
0.0
 11
4.6303656108
 21
4.5895508777
 31
0.0
 11
4.6303049575
 21
4.5843108091
 31
0.0
 11
4.630250285
 21
4.5788206585
 31
0.0
 11
4.6302080936
 21
4.5731017703
 31
0.0
  0
SPLINE
  5
25F
100
AcDbEntity
  8
0
100
AcDbSpline
 62
9
  6
CONTINUOUS
 70
0
 71
3
 72
11
 73
7
 74
5
 42
0.0000001
 43
0.0000001
 44
0.0000000001
 12
-0.1102446807
 22
-0.0047499588
 32
0.0
 13
-0.1100414834
 23
-0.0082051008
 33
0.0
 40
0.0
 40
0.0
 40
0.0
 40
0.0
 40
0.2551672956
 40
0.5061766114
 40
0.754099946
 40
1.0
 40
1.0
 40
1.0
 40
1.0
 10
4.7392298166
 20
4.3263479011
 30
0.0
 10
4.7298528709
 20
4.3259438897
 30
0.0
 10
4.7112558592
 20
4.3250450118
 30
0.0
 10
4.6835640958
 20
4.323446362
 30
0.0
 10
4.6562261783
 20
4.3216494013
 30
0.0
 10
4.6381092327
 20
4.3203417763
 30
0.0
 10
4.6290894971
 20
4.3196692314
 30
0.0
 11
4.7392298166
 21
4.3263479011
 31
0.0
 11
4.7111054811
 21
4.3249933626
 31
0.0
 11
4.6834530688
 21
4.3234028669
 31
0.0
 11
4.6561539506
 21
4.3216152209
 31
0.0
 11
4.6290894971
 21
4.3196692314
 31
0.0
  0
SPLINE
  5
260
100
AcDbEntity
  8
0
100
AcDbSpline
 62
9
  6
CONTINUOUS
 70
0
 71
3
 72
24
 73
20
 74
18
 42
0.0000001
 43
0.0000001
 44
0.0000000001
 12
-0.0014660845
 22
-0.2534310568
 32
0.0
 13
-0.0010056085
 23
-0.2534333023
 33
0.0
 40
0.0
 40
0.0
 40
0.0
 40
0.0
 40
0.0465389465
 40
0.0964921156
 40
0.1495674718
 40
0.2054856664
 40
0.2639718365
 40
0.3247528119
 40
0.3875561249
 40
0.4521206124
 40
0.518191796
 40
0.5517096415
 40
0.5855042086
 40
0.6195416142
 40
0.6537878141
 40
0.7227693906
 40
0.7921669861
 40
0.8616930241
 40
1.0
 40
1.0
 40
1.0
 40
1.0
 10
4.6302080936
 20
4.5731017703
 30
0.0
 10
4.6301853502
 20
4.5691702989
 30
0.0
 10
4.6301465564
 20
4.5610188841
 30
0.0
 10
4.6301023593
 20
4.5483837344
 30
0.0
 10
4.6300656596
 20
4.5349562139
 30
0.0
 10
4.6300330742
 20
4.5208078271
 30
0.0
 10
4.6300007425
 20
4.5060084795
 30
0.0
 10
4.6299648091
 20
4.4906274943
 30
0.0
 10
4.6299213454
 20
4.4747330394
 30
0.0
 10
4.6298667442
 20
4.4583917072
 30
0.0
 10
4.6298093914
 20
4.4445243922
 30
0.0
 10
4.62975521
 20
4.4332564849
 30
0.0
 10
4.6297098566
 20
4.4246947309
 30
0.0
 10
4.6296604626
 20
4.4160714682
 30
0.0
 10
4.6295900976
 20
4.4044757341
 30
0.0
 10
4.6294957542
 20
4.3898929182
 30
0.0
 10
4.6293795225
 20
4.3723297962
 30
0.0
 10
4.6292302653
 20
4.3489102662
 30
0.0
 10
4.629135858
 20
4.3313530959
 30
0.0
 10
4.6290894971
 20
4.3196692314
 30
0.0
 11
4.6302080936
 21
4.5731017703
 31
0.0
 11
4.6301503205
 21
4.5613073001
 31
0.0
 11
4.6301048466
 21
4.5486474855
 31
0.0
 11
4.630067255
 21
4.5351963693
 31
0.0
 11
4.6300338473
 21
4.5210247644
 31
0.0
 11
4.6300007988
 21
4.5062023414
 31
0.0
 11
4.6299642024
 21
4.4907983403
 31
0.0
 11
4.6299201649
 21
4.4748818249
 31
0.0
 11
4.6298650277
 21
4.4585189977
 31
0.0
 11
4.629795527
 21
4.4417743719
 31
0.0
 11
4.6297546333
 21
4.4332798651
 31
0.0
 11
4.6297093526
 21
4.4247152487
 31
0.0
 11
4.6296600761
 21
4.4160891094
 31
0.0
 11
4.6296075185
 21
4.4074100727
 31
0.0
 11
4.6294955503
 21
4.3899280649
 31
0.0
 11
4.629380311
 21
4.3723406422
 31
0.0
 11
4.629269253
 21
4.35472064
 31
0.0
 11
4.6290894971
 21
4.3196692314
 31
0.0
  0
SPLINE
  5
261
100
AcDbEntity
  8
0
100
AcDbSpline
 62
9
  6
CONTINUOUS
 70
0
 71
3
 72
58
 73
54
 74
52
 42
0.0000001
 43
0.0000001
 44
0.0000000001
 12
-0.0007762529
 22
-0.1956311498
 32
0.0
 13
-0.1898215631
 23
-0.047327831
 33
0.0
 40
0.0
 40
0.0
 40
0.0
 40
0.0
 40
0.0989154554
 40
0.1956939956
 40
0.2897605204
 40
0.3805452665
 40
0.4674740472
 40
0.5499499647
 40
0.589330231
 40
0.6273740095
 40
0.6640086864
 40
0.6991616465
 40
0.7327600646
 40
0.7647302785
 40
0.794998417
 40
0.8234906094
 40
0.8501330964
 40
0.8748525629
 40
0.8975758052
 40
0.9081659666
 40
0.9182296214
 40
0.927757579
 40
0.9367404876
 40
0.9451689551
 40
0.9530335897
 40
0.9603250024
 40
0.9670338142
 40
0.9731506491
 40
0.9786661327
 40
0.9835708416
 40
0.9857911504
 40
0.9878551497
 40
0.989761631
 40
0.9915093865
 40
0.9930972098
 40
0.994523896
 40
0.9957882433
 40
0.9968890538
 40
0.9973777609
 40
0.9978251385
 40
0.9982310401
 40
0.998595321
 40
0.998917839
 40
0.9991984563
 40
0.9994370422
 40
0.9996334796
 40
0.9997876801
 40
0.9998489345
 40
0.9998996371
 40
0.9999398268
 40
0.9999696034
 40
0.999989258
 40
1.0
 40
1.0
 40
1.0
 40
1.0
 10
4.6290894971
 20
4.3196692314
 30
0.0
 10
4.6290639026
 20
4.3132189166
 30
0.0
 10
4.6290282941
 20
4.3004575725
 30
0.0
 10
4.6290156851
 20
4.2815620215
 30
0.0
 10
4.629038242
 20
4.2631966932
 30
0.0
 10
4.6290884992
 20
4.2454737373
 30
0.0
 10
4.6291589721
 20
4.228506693
 30
0.0
 10
4.629228829
 20
4.2148918161
 30
0.0
 10
4.6292870608
 20
4.2044647587
 30
0.0
 10
4.6293302604
 20
4.1970270126
 30
0.0
 10
4.6293729095
 20
4.1898649345
 30
0.0
 10
4.6294142502
 20
4.1829927397
 30
0.0
 10
4.6294535181
 20
4.1764247117
 30
0.0
 10
4.6294904103
 20
4.1701752189
 30
0.0
 10
4.6295246315
 20
4.1642586976
 30
0.0
 10
4.6295558864
 20
4.158689591
 30
0.0
 10
4.6295838773
 20
4.1534823057
 30
0.0
 10
4.6296084427
 20
4.148651206
 30
0.0
 10
4.6296263287
 20
4.1448668727
 30
0.0
 10
4.629638713
 20
4.1420382429
 30
0.0
 10
4.6296468215
 20
4.140070079
 30
0.0
 10
4.6296539517
 20
4.1382067225
 30
0.0
 10
4.629660079
 20
4.1364499951
 30
0.0
 10
4.6296651788
 20
4.1348017316
 30
0.0
 10
4.6296692269
 20
4.1332637695
 30
0.0
 10
4.6296721993
 20
4.1318379454
 30
0.0
 10
4.6296740691
 20
4.1305260952
 30
0.0
 10
4.6296748106
 20
4.1293300537
 30
0.0
 10
4.6296743971
 20
4.1282516592
 30
0.0
 10
4.6296730345
 20
4.1274273615
 30
0.0
 10
4.6296712511
 20
4.1268281401
 30
0.0
 10
4.6296696407
 20
4.1264244363
 30
0.0
 10
4.629667708
 20
4.1260515499
 30
0.0
 10
4.6296654469
 20
4.1257097178
 30
0.0
 10
4.6296628521
 20
4.1253991768
 30
0.0
 10
4.6296599197
 20
4.1251201639
 30
0.0
 10
4.6296566449
 20
4.1248729157
 30
0.0
 10
4.6296535207
 20
4.1246868382
 30
0.0
 10
4.6296507865
 20
4.1245540384
 30
0.0
 10
4.6296487277
 20
4.1244665503
 30
0.0
 10
4.6296465789
 20
4.124387181
 30
0.0
 10
4.6296443399
 20
4.12431596
 30
0.0
 10
4.6296420118
 20
4.1242529164
 30
0.0
 10
4.6296395958
 20
4.1241980798
 30
0.0
 10
4.6296370974
 20
4.1241514776
 30
0.0
 10
4.6296345188
 20
4.1241131406
 30
0.0
 10
4.6296321793
 20
4.1240863759
 30
0.0
 10
4.6296301779
 20
4.1240691381
 30
0.0
 10
4.6296287688
 20
4.1240593065
 30
0.0
 10
4.6296273768
 20
4.1240515833
 30
0.0
 10
4.6296259253
 20
4.1240458537
 30
0.0
 10
4.6296246309
 20
4.1240422704
 30
0.0
 10
4.6296233039
 20
4.1240404809
 30
0.0
 10
4.6296226242
 20
4.1240403115
 30
0.0
 11
4.6290894971
 21
4.3196692314
 31
0.0
 11
4.6290348272
 21
4.300318212
 31
0.0
 11
4.6290216334
 21
4.2813851705
 31
0.0
 11
4.6290435226
 21
4.2629826962
 31
0.0
 11
4.6290931976
 21
4.2452223016
 31
0.0
 11
4.6291630212
 21
4.2282163338
 31
0.0
 11
4.6292449
 21
4.2120815559
 31
0.0
 11
4.6292878394
 21
4.2043776082
 31
0.0
 11
4.6293309795
 21
4.1969351265
 31
0.0
 11
4.629373559
 21
4.1897683126
 31
0.0
 11
4.6294148166
 21
4.1828913682
 31
0.0
 11
4.6294540682
 21
4.1763185365
 31
0.0
 11
4.6294909378
 21
4.1700642262
 31
0.0
 11
4.6295251267
 21
4.1641428875
 31
0.0
 11
4.6295563359
 21
4.1585689707
 31
0.0
 11
4.6295842896
 21
4.1533569042
 31
0.0
 11
4.6296088035
 21
4.1485210307
 31
0.0
 11
4.6296297163
 21
4.1440756708
 31
0.0
 11
4.6296387718
 21
4.1420039089
 31
0.0
 11
4.6296468665
 21
4.1400351456
 31
0.0
 11
4.6296539794
 21
4.1381711792
 31
0.0
 11
4.6296600861
 21
4.1364138393
 31
0.0
 11
4.6296651612
 21
4.1347649633
 31
0.0
 11
4.6296691796
 21
4.133226389
 31
0.0
 11
4.6296721152
 21
4.1317999533
 31
0.0
 11
4.6296739398
 21
4.1304874917
 31
0.0
 11
4.6296746245
 21
4.129290839
 31
0.0
 11
4.6296741401
 21
4.1282118302
 31
0.0
 11
4.6296724538
 21
4.1272523103
 31
0.0
 11
4.6296711448
 21
4.1268179473
 31
0.0
 11
4.6296695162
 21
4.1264141648
 31
0.0
 11
4.6296675615
 21
4.1260411999
 31
0.0
 11
4.6296652739
 21
4.1256992894
 31
0.0
 11
4.6296626469
 21
4.1253886704
 31
0.0
 11
4.6296596736
 21
4.1251095798
 31
0.0
 11
4.6296563475
 21
4.1248622545
 31
0.0
 11
4.6296526618
 21
4.1246469315
 31
0.0
 11
4.6296506821
 21
4.1245513449
 31
0.0
 11
4.62964861
 21
4.1244638478
 31
0.0
 11
4.6296464447
 21
4.1243844697
 31
0.0
 11
4.6296441853
 21
4.1243132402
 31
0.0
 11
4.629641831
 21
4.1242501891
 31
0.0
 11
4.629639381
 21
4.1241953459
 31
0.0
 11
4.6296368345
 21
4.1241487402
 31
0.0
 11
4.6296341905
 21
4.1241104017
 31
0.0
 11
4.6296314484
 21
4.1240803599
 31
0.0
 11
4.6296300402
 21
4.1240684596
 31
0.0
 11
4.6296286071
 21
4.1240586446
 31
0.0
 11
4.6296271491
 21
4.1240509185
 31
0.0
 11
4.629625666
 21
4.1240452852
 31
0.0
 11
4.6296241578
 21
4.1240417483
 31
0.0
 11
4.6296226242
 21
4.1240403115
 31
0.0
  0
LINE
  5
262
100
AcDbEntity
  8
0
100
AcDbLine
 62
6
  6
CONTINUOUS
 10
5.8089154935
 20
3.8520177384
 11
5.808902776
 21
3.8514926703
  0
SPLINE
  5
263
100
AcDbEntity
  8
0
100
AcDbSpline
 62
9
  6
CONTINUOUS
 70
0
 71
3
 72
20
 73
16
 74
14
 42
0.0000001
 43
0.0000001
 44
0.0000000001
 12
-0.2113769033
 22
0.0567680925
 32
0.0
 13
-0.2172675163
 23
0.0264128361
 33
0.0
 40
0.0
 40
0.0
 40
0.0
 40
0.0
 40
0.12694845
 40
0.2539514552
 40
0.3806780542
 40
0.4438344363
 40
0.5068002218
 40
0.5695385741
 40
0.6320154638
 40
0.6942003
 40
0.7560665916
 40
0.8175926435
 40
0.8787622894
 40
0.9395656622
 40
1.0
 40
1.0
 40
1.0
 40
1.0
 10
4.6302080936
 20
4.5731017703
 30
0.0
 10
4.6212634368
 20
4.5755039775
 30
0.0
 10
4.6033952218
 20
4.5804021171
 30
0.0
 10
4.5766375454
 20
4.5878412855
 30
0.0
 10
4.5543443409
 20
4.593964544
 30
0.0
 10
4.5365202796
 20
4.5987174122
 30
0.0
 10
4.5231833474
 20
4.6021779863
 30
0.0
 10
4.509865567
 20
4.6055133036
 30
0.0
 10
4.496569525
 20
4.6086982705
 30
0.0
 10
4.4832978036
 20
4.6117077962
 30
0.0
 10
4.4700529757
 20
4.6145167811
 30
0.0
 10
4.4568376171
 20
4.6171001164
 30
0.0
 10
4.4436542617
 20
4.6194326865
 30
0.0
 10
4.4305055673
 20
4.6214893472
 30
0.0
 10
4.4217378868
 20
4.6226633186
 30
0.0
 10
4.4173610806
 20
4.6231953994
 30
0.0
 11
4.6302080936
 21
4.5731017703
 31
0.0
 11
4.6034035809
 21
4.5804171958
 31
0.0
 11
4.5766142167
 21
4.5878327862
 31
0.0
 11
4.5498601023
 21
4.5951484428
 31
0.0
 11
4.5365028932
 21
4.5987060094
 31
0.0
 11
4.5231624541
 21
4.6021632469
 31
0.0
 11
4.5098414386
 21
4.6054950396
 31
0.0
 11
4.4965425001
 21
4.6086762716
 31
0.0
 11
4.4832682921
 21
4.6116818269
 31
0.0
 11
4.470021468
 21
4.6144865898
 31
0.0
 11
4.4568046813
 21
4.6170654444
 31
0.0
 11
4.4436205856
 21
4.6193932747
 31
0.0
 11
4.4304718342
 21
4.621444965
 31
0.0
 11
4.4173610806
 21
4.6231953994
 31
0.0
  0
LINE
  5
264
100
AcDbEntity
  8
0
100
AcDbLine
 62
9
  6
CONTINUOUS
 10
4.4173610806
 20
4.6231953994
 11
4.41736049
 21
4.6785225421
  0
LINE
  5
265
100
AcDbEntity
  8
0
100
AcDbLine
 62
9
  6
CONTINUOUS
 10
4.4173661023
 20
4.6231947889
 11
4.4173624841
 21
4.3041579654
  0
SPLINE
  5
266
100
AcDbEntity
  8
0
100
AcDbSpline
 62
9
  6
CONTINUOUS
 70
0
 71
3
 72
14
 73
10
 74
8
 42
0.0000001
 43
0.0000001
 44
0.0000000001
 12
-0.2117109391
 22
-0.0157859521
 32
0.0
 13
-0.2119648129
 23
-0.0119010973
 33
0.0
 40
0.0
 40
0.0
 40
0.0
 40
0.0
 40
0.2457863674
 40
0.3698740261
 40
0.4946715165
 40
0.6201296159
 40
0.7462004169
 40
0.8728381509
 40
1.0
 40
1.0
 40
1.0
 40
1.0
 10
4.6290894971
 20
4.3196692314
 30
0.0
 10
4.6117442762
 20
4.3183759075
 30
0.0
 10
4.5856495061
 20
4.3163318057
 30
0.0
 10
4.550753175
 20
4.3135629517
 30
0.0
 10
4.5243435315
 20
4.3114900424
 30
0.0
 10
4.4977891406
 20
4.309468427
 30
0.0
 10
4.4710972739
 20
4.3075389011
 30
0.0
 10
4.4442752437
 20
4.3057422655
 30
0.0
 10
4.4263470966
 20
4.3046624205
 30
0.0
 10
4.4173624841
 20
4.3041579654
 30
0.0
 11
4.6290894971
 21
4.3196692314
 31
0.0
 11
4.5770645861
 21
4.3156476638
 31
0.0
 11
4.5508029515
 21
4.3135706309
 31
0.0
 11
4.5243893369
 21
4.3115039991
 31
0.0
 11
4.4978311126
 21
4.3094885925
 31
0.0
 11
4.4711356488
 21
4.3075652353
 31
0.0
 11
4.4443103158
 21
4.3057747515
 31
0.0
 11
4.4173624841
 21
4.3041579654
 31
0.0
  0
LINE
  5
267
100
AcDbEntity
  8
0
100
AcDbLine
 62
6
  6
CONTINUOUS
 10
4.4173632241
 20
4.3041580069
 11
4.41736049
 21
4.0711174175
  0
SPLINE
  5
268
100
AcDbEntity
  8
0
100
AcDbSpline
 62
6
  6
CONTINUOUS
 70
0
 71
3
 72
16
 73
12
 74
10
 42
0.0000001
 43
0.0000001
 44
0.0000000001
 12
-0.0067276434
 22
0.0496077888
 32
0.0
 13
0.008617326
 23
0.0493146589
 33
0.0
 40
0.0
 40
0.0
 40
0.0
 40
0.0
 40
0.1255726971
 40
0.2512132858
 40
0.3140114755
 40
0.3767636828
 40
0.5020876821
 40
0.627142225
 40
0.7518602053
 40
0.8761729209
 40
1.0
 40
1.0
 40
1.0
 40
1.0
 10
5.3767358715
 20
3.7788199798
 30
0.0
 10
5.3764542687
 20
3.7808964411
 30
0.0
 10
5.3759845962
 20
3.7850637238
 30
0.0
 10
5.3756243727
 20
3.7902929671
 30
0.0
 10
5.3754683219
 20
3.7944820292
 30
0.0
 10
5.3753993292
 20
3.7986681372
 30
0.0
 10
5.3754724853
 20
3.8038944351
 30
0.0
 10
5.3758023587
 20
3.8101465349
 30
0.0
 10
5.3763615477
 20
3.8163652903
 30
0.0
 10
5.377135194
 20
3.8225401434
 30
0.0
 10
5.377784835
 20
3.8266304808
 30
0.0
 10
5.3781405211
 20
3.8286659775
 30
0.0
 11
5.3767358715
 21
3.7788199798
 31
0.0
 11
5.3760300709
 21
3.7850666405
 31
0.0
 11
5.3755963387
 21
3.7913414747
 31
0.0
 11
5.3754791688
 21
3.7944830872
 31
0.0
 11
5.3754271866
 21
3.7976241518
 31
0.0
 11
5.3755130594
 21
3.8038975217
 31
0.0
 11
5.3758411846
 21
3.810149385
 31
0.0
 11
5.3763983864
 21
3.8163680912
 31
0.0
 11
5.377170027
 21
3.8225433982
 31
0.0
 11
5.3781405211
 21
3.8286659775
 31
0.0
  0
SPLINE
  5
269
100
AcDbEntity
  8
0
100
AcDbSpline
 62
9
  6
CONTINUOUS
 70
0
 71
3
 72
23
 73
19
 74
17
 42
0.0000001
 43
0.0000001
 44
0.0000000001
 12
0.0029903239
 22
-0.1733559974
 32
0.0
 13
-0.0019316922
 23
-0.1733710412
 33
0.0
 40
0.0
 40
0.0
 40
0.0
 40
0.0
 40
0.0987181334
 40
0.1953710912
 40
0.3801602362
 40
0.4671450394
 40
0.5497066165
 40
0.6272185061
 40
0.6990858262
 40
0.7647203922
 40
0.8235295156
 40
0.8749213342
 40
0.9183117805
 40
0.9531161196
 40
0.9787394557
 40
0.9879209862
 40
0.9945782342
 40
1.0
 40
1.0
 40
1.0
 40
1.0
 10
6.1447200718
 20
4.3266887024
 30
0.0
 10
6.1448184715
 20
4.3209842423
 30
0.0
 10
6.1449840338
 20
4.3096941365
 30
0.0
 10
6.1452030656
 20
4.2877242143
 30
0.0
 10
6.145281972
 20
4.2664312894
 30
0.0
 10
6.1452611395
 20
4.2459528475
 30
0.0
 10
6.1452121928
 20
4.2316744509
 30
0.0
 10
6.1451438173
 20
4.2182698524
 30
0.0
 10
6.1450660843
 20
4.2058436032
 30
0.0
 10
6.1449892184
 20
4.1944982788
 30
0.0
 10
6.1449163237
 20
4.1843363152
 30
0.0
 10
6.1448503618
 20
4.1754599105
 30
0.0
 10
6.1447923349
 20
4.1679708161
 30
0.0
 10
6.1447430467
 20
4.1619709612
 30
0.0
 10
6.1447076024
 20
4.1579481273
 30
0.0
 10
6.144684501
 20
4.1555519801
 30
0.0
 10
6.1446720393
 20
4.1543233128
 30
0.0
 10
6.144664521
 20
4.1536252596
 30
0.0
 10
6.14466103
 20
4.1533119339
 30
0.0
 11
6.1447200718
 21
4.3266887024
 31
0.0
 11
6.1449722528
 21
4.309574634
 31
0.0
 11
6.1451402701
 21
4.2928176138
 31
0.0
 11
6.1452686223
 21
4.2607787989
 31
0.0
 11
6.1452546618
 21
4.2456972247
 31
0.0
 11
6.1452070755
 21
4.2313826301
 31
0.0
 11
6.1451394695
 21
4.2179436503
 31
0.0
 11
6.1450627032
 21
4.2054834024
 31
0.0
 11
6.1449857493
 21
4.1941038243
 31
0.0
 11
6.1449127811
 21
4.1839076545
 31
0.0
 11
6.144846415
 21
4.1749974963
 31
0.0
 11
6.1447878408
 21
4.1674746113
 31
0.0
 11
6.1447379977
 21
4.1614403786
 31
0.0
 11
6.1446983253
 21
4.156997936
 31
0.0
 11
6.1446829403
 21
4.1554061002
 31
0.0
 11
6.144671182
 21
4.1542519145
 31
0.0
 11
6.14466103
 21
4.1533119339
 31
0.0
  0
LINE
  5
26A
100
AcDbEntity
  8
0
100
AcDbLine
 62
9
  6
CONTINUOUS
 10
6.1473650367
 20
4.5968545697
 11
6.1490646012
 21
4.5480148834
  0
LINE
  5
26B
100
AcDbEntity
  8
0
100
AcDbLine
 62
9
  6
CONTINUOUS
 10
6.1406956768
 20
4.5467653051
 11
6.1490646012
 21
4.5480148834
  0
SPLINE
  5
26C
100
AcDbEntity
  8
0
100
AcDbSpline
 62
9
  6
CONTINUOUS
 70
0
 71
3
 72
28
 73
24
 74
22
 42
0.0000001
 43
0.0000001
 44
0.0000000001
 12
0.0051700149
 22
-0.2216440891
 32
0.0
 13
0.0038665105
 23
-0.2216706597
 33
0.0
 40
0.0
 40
0.0
 40
0.0
 40
0.0
 40
0.0474526013
 40
0.0723321246
 40
0.0979346047
 40
0.1511909742
 40
0.2069975851
 40
0.2651374873
 40
0.3253961014
 40
0.3875604786
 40
0.4514440856
 40
0.4839782834
 40
0.516875409
 40
0.5501094842
 40
0.5836544366
 40
0.617483221
 40
0.6515682454
 40
0.685881831
 40
0.7203949032
 40
0.7898978236
 40
0.8598291299
 40
0.9299331028
 40
1.0
 40
1.0
 40
1.0
 40
1.0
 10
6.1490646012
 20
4.5480148834
 30
0.0
 10
6.149146378
 20
4.5445090206
 30
0.0
 10
6.1492557481
 20
4.5391646645
 30
0.0
 10
6.1493838528
 20
4.531928288
 30
0.0
 10
6.1495079813
 20
4.5242628727
 30
0.0
 10
6.1496508755
 20
4.5143119177
 30
0.0
 10
6.1498103459
 20
4.5019564083
 30
0.0
 10
6.1499687668
 20
4.4890833699
 30
0.0
 10
6.1501350505
 20
4.4757405442
 30
0.0
 10
6.1503182546
 20
4.461973431
 30
0.0
 10
6.1504909285
 20
4.4502552421
 30
0.0
 10
6.1506455446
 20
4.4406999294
 30
0.0
 10
6.1507711941
 20
4.4334094937
 30
0.0
 10
6.1509064201
 20
4.42604452
 30
0.0
 10
6.1510520781
 20
4.418610881
 30
0.0
 10
6.1512072271
 20
4.4111145346
 30
0.0
 10
6.151370305
 20
4.4035615405
 30
0.0
 10
6.1515399544
 20
4.3959581089
 30
0.0
 10
6.1517732253
 20
4.3857380127
 30
0.0
 10
6.1520720026
 20
4.3728865263
 30
0.0
 10
6.1524266172
 20
4.3574054065
 30
0.0
 10
6.1527600425
 20
4.3418821217
 30
0.0
 10
6.152957752
 20
4.3315251595
 30
0.0
 10
6.1530480568
 20
4.3263479011
 30
0.0
 11
6.1490646012
 21
4.5480148834
 31
0.0
 11
6.1492835294
 21
4.5374967121
 31
0.0
 11
6.1493815398
 21
4.5319816837
 31
0.0
 11
6.149473766
 21
4.5263062511
 31
0.0
 11
6.1496453777
 21
4.514500328
 31
0.0
 11
6.149806908
 21
4.5021288125
 31
0.0
 11
6.1499671691
 21
4.489239938
 31
0.0
 11
6.1501351471
 21
4.4758813955
 31
0.0
 11
6.1503197989
 21
4.4621005179
 31
0.0
 11
6.150529584
 21
4.4479387963
 31
0.0
 11
6.1506463698
 21
4.4407267677
 31
0.0
 11
6.1507721259
 21
4.4334344152
 31
0.0
 11
6.1509075055
 21
4.426067519
 31
0.0
 11
6.1510530268
 21
4.4186318801
 31
0.0
 11
6.1512079485
 21
4.4111334907
 31
0.0
 11
6.1513708448
 21
4.4035784475
 31
0.0
 11
6.151540273
 21
4.3959728622
 31
0.0
 11
6.1517145788
 21
4.3883231486
 31
0.0
 11
6.1520703914
 21
4.3729181555
 31
0.0
 11
6.1524226443
 21
4.3574180808
 31
0.0
 11
6.1527539138
 21
4.3418792539
 31
0.0
 11
6.1530480568
 21
4.3263479011
 31
0.0
  0
LINE
  5
26D
100
AcDbEntity
  8
0
100
AcDbLine
 62
9
  6
CONTINUOUS
 10
6.1447200718
 20
4.3266887024
 11
6.1530480568
 21
4.3263479011
  0
SPLINE
  5
26E
100
AcDbEntity
  8
0
100
AcDbSpline
 62
9
  6
CONTINUOUS
 70
0
 71
3
 72
23
 73
19
 74
17
 42
0.0000001
 43
0.0000001
 44
0.0000000001
 12
0.0030511089
 22
-0.1749229258
 32
0.0
 13
-0.0020364603
 23
-0.1749376971
 33
0.0
 40
0.0
 40
0.0
 40
0.0
 40
0.0
 40
0.0986891362
 40
0.1953162657
 40
0.38006927
 40
0.4670473706
 40
0.5496079235
 40
0.6271217647
 40
0.6989938205
 40
0.7646361346
 40
0.8234554241
 40
0.8748591844
 40
0.9182633292
 40
0.9530829058
 40
0.9787214078
 40
0.9879098375
 40
0.9945728362
 40
1.0
 40
1.0
 40
1.0
 40
1.0
 10
6.1530480568
 20
4.3263479011
 30
0.0
 10
6.1531484273
 20
4.3205935703
 30
0.0
 10
6.15331627
 20
4.3092045812
 30
0.0
 10
6.1535340587
 20
4.2870412705
 30
0.0
 10
6.1536044433
 20
4.2655597633
 30
0.0
 10
6.1535706671
 20
4.2448987265
 30
0.0
 10
6.1535112571
 20
4.2304915961
 30
0.0
 10
6.1534324708
 20
4.2169655143
 30
0.0
 10
6.1533450241
 20
4.2044261227
 30
0.0
 10
6.153259798
 20
4.1929769457
 30
0.0
 10
6.1531799184
 20
4.1827214022
 30
0.0
 10
6.1531083564
 20
4.173762686
 30
0.0
 10
6.1530459496
 20
4.1662035209
 30
0.0
 10
6.152993322
 20
4.1601468669
 30
0.0
 10
6.1529556848
 20
4.1560854994
 30
0.0
 10
6.1529312228
 20
4.1536660749
 30
0.0
 10
6.1529180423
 20
4.1524252516
 30
0.0
 10
6.1529101022
 20
4.1517202402
 30
0.0
 10
6.1529064181
 20
4.1514037683
 30
0.0
 11
6.1530480568
 21
4.3263479011
 31
0.0
 11
6.1533037648
 21
4.3090841764
 31
0.0
 11
6.1534708866
 21
4.2921801313
 31
0.0
 11
6.1535871481
 21
4.2598578885
 31
0.0
 11
6.1535637694
 21
4.2446411283
 31
0.0
 11
6.1535058194
 21
4.2301973144
 31
0.0
 11
6.1534278596
 21
4.2166365281
 31
0.0
 11
6.1533414609
 21
4.2040628423
 31
0.0
 11
6.1532561396
 21
4.1925790671
 31
0.0
 11
6.1531761859
 21
4.1822889704
 31
0.0
 11
6.1531041948
 21
4.1732961947
 31
0.0
 11
6.153041208
 21
4.1657029211
 31
0.0
 11
6.1529879941
 21
4.1596114848
 31
0.0
 11
6.1529458667
 21
4.1551262387
 31
0.0
 11
6.1529295749
 21
4.1535188098
 31
0.0
 11
6.1529171397
 21
4.1523531876
 31
0.0
 11
6.1529064181
 21
4.1514037683
 31
0.0
  0
SPLINE
  5
26F
100
AcDbEntity
  8
0
100
AcDbSpline
 62
9
  6
CONTINUOUS
 70
0
 71
3
 72
47
 73
43
 74
41
 42
0.0000001
 43
0.0000001
 44
0.0000000001
 12
-0.5139018321
 22
0.0
 32
0.0
 13
-0.1177992472
 23
0.5002183827
 33
0.0
 40
0.0
 40
0.0
 40
0.0
 40
0.0
 40
0.0315071812
 40
0.0472682967
 40
0.0630288096
 40
0.0787847579
 40
0.0945320115
 40
0.1102690012
 40
0.1259960229
 40
0.1574165597
 40
0.1887889973
 40
0.220104817
 40
0.2513682649
 40
0.2825812414
 40
0.2981686992
 40
0.3137424798
 40
0.3448546634
 40
0.3759325398
 40
0.4069838864
 40
0.4380142714
 40
0.4690375755
 40
0.5000687608
 40
0.5311211173
 40
0.5622071532
 40
0.5933391325
 40
0.6245284919
 40
0.6557837222
 40
0.6871054197
 40
0.7184939944
 40
0.7499495957
 40
0.7814530548
 40
0.812975573
 40
0.8287362767
 40
0.8444904458
 40
0.8759483105
 40
0.8916391333
 40
0.9072949191
 40
0.9229092127
 40
0.9384734545
 40
0.9539762345
 40
0.9694060797
 40
1.0
 40
1.0
 40
1.0
 40
1.0
 10
5.4461389367
 20
3.9943348726
 30
0.0
 10
5.4407417373
 20
3.9943348726
 30
0.0
 10
5.4326423734
 20
3.9945624423
 30
0.0
 10
5.4218703858
 20
3.9953075336
 30
0.0
 10
5.4138079786
 20
3.9960843574
 30
0.0
 10
5.4057716792
 20
3.9970758757
 30
0.0
 10
5.3977684366
 20
3.9982792383
 30
0.0
 10
5.3898042431
 20
3.9996904747
 30
0.0
 10
5.3792481324
 20
4.0018419616
 30
0.0
 10
5.3661738766
 20
4.0050269705
 30
0.0
 10
5.3507108366
 20
4.0096066808
 30
0.0
 10
5.335508724
 20
4.014908045
 30
0.0
 10
5.3205933927
 20
4.0208950829
 30
0.0
 10
5.3084147743
 20
4.0264293431
 30
0.0
 10
5.2988362636
 20
4.031165463
 30
0.0
 10
5.2893769363
 20
4.0360981471
 30
0.0
 10
5.277762629
 20
4.0426302287
 30
0.0
 10
5.2641684785
 20
4.051023497
 30
0.0
 10
5.2509271779
 20
4.0599376875
 30
0.0
 10
5.2380421229
 20
4.0693432474
 30
0.0
 10
5.2255218772
 20
4.0792235502
 30
0.0
 10
5.2133732927
 20
4.0895630561
 30
0.0
 10
5.2016024511
 20
4.100346418
 30
0.0
 10
5.1902162377
 20
4.1115596813
 30
0.0
 10
5.1792226281
 20
4.1231903662
 30
0.0
 10
5.1686294931
 20
4.1352254815
 30
0.0
 10
5.1584457486
 20
4.1476510107
 30
0.0
 10
5.1486907172
 20
4.1604589482
 30
0.0
 10
5.1393852438
 20
4.1736393028
 30
0.0
 10
5.1305528501
 20
4.1871785983
 30
0.0
 10
5.1222175888
 20
4.2010562319
 30
0.0
 10
5.1157075885
 20
4.2128825994
 30
0.0
 10
5.1107744276
 20
4.2224889068
 30
0.0
 10
5.1060335
 20
4.2321791094
 30
0.0
 10
5.1015843035
 20
4.2419967478
 30
0.0
 10
5.0974449454
 20
4.2519276329
 30
0.0
 10
5.0945046476
 20
4.259416129
 30
0.0
 10
5.0917315402
 20
4.2669450168
 30
0.0
 10
5.0891299596
 20
4.2745071686
 30
0.0
 10
5.0867026908
 20
4.282093982
 30
0.0
 10
5.0837120496
 20
4.2922008728
 30
0.0
 10
5.0817267023
 20
4.2998343689
 30
0.0
 10
5.0805253887
 20
4.3049355827
 30
0.0
 11
5.4461389367
 21
3.9943348726
 31
0.0
 11
5.4299536079
 21
3.994785408
 31
0.0
 11
5.4218732172
 21
3.9953438683
 31
0.0
 11
5.4138111596
 21
3.9961202715
 31
0.0
 11
5.4057750479
 21
3.9971114782
 31
0.0
 11
5.3977723947
 21
3.998314302
 31
0.0
 11
5.3898090765
 21
3.9997247859
 31
0.0
 11
5.3818896387
 21
4.0013383461
 31
0.0
 11
5.3662004309
 21
4.0051562875
 31
0.0
 11
5.3507408242
 21
4.00973131
 31
0.0
 11
5.3355438548
 21
4.0150270674
 31
0.0
 11
5.3206325631
 21
4.0210087697
 31
0.0
 11
5.3060279217
 21
4.0276419489
 31
0.0
 11
5.298847148
 21
4.0311920712
 31
0.0
 11
5.2917504471
 21
4.0348922276
 31
0.0
 11
5.2778128898
 21
4.0427267721
 31
0.0
 11
5.2642215006
 21
4.0511140403
 31
0.0
 11
5.2509823302
 21
4.06002253
 31
0.0
 11
5.2381014904
 21
4.0694234404
 31
0.0
 11
5.2255853407
 21
4.079298819
 31
0.0
 11
5.2134403021
 21
4.0896334358
 31
0.0
 11
5.2016728168
 21
4.1004121035
 31
0.0
 11
5.1902899085
 21
4.1116208269
 31
0.0
 11
5.1792992465
 21
4.1232469332
 31
0.0
 11
5.1687085336
 21
4.1352778188
 31
0.0
 11
5.1585277865
 21
4.1477013485
 31
0.0
 11
5.1487758028
 21
4.1605071663
 31
0.0
 11
5.1394734627
 21
4.173685338
 31
0.0
 11
5.1306421079
 21
4.1872248116
 31
0.0
 11
5.1223073404
 21
4.2011042051
 31
0.0
 11
5.1144970654
 21
4.2152965534
 31
0.0
 11
5.1107973438
 21
4.2225016366
 31
0.0
 11
5.1072397003
 21
4.2297741842
 31
0.0
 11
5.1005703017
 21
4.2445005856
 31
0.0
 11
5.0974685317
 21
4.251943686
 31
0.0
 11
5.0945287046
 21
4.2594328837
 31
0.0
 11
5.0917557918
 21
4.2669627552
 31
0.0
 11
5.0891540425
 21
4.2745262717
 31
0.0
 11
5.0867268194
 21
4.2821144333
 31
0.0
 11
5.0844774305
 21
4.2897181193
 31
0.0
 11
5.0805253887
 21
4.3049355827
 31
0.0
  0
SPLINE
  5
270
100
AcDbEntity
  8
0
100
AcDbSpline
 62
9
  6
CONTINUOUS
 70
0
 71
3
 72
49
 73
45
 74
43
 42
0.0000001
 43
0.0000001
 44
0.0000000001
 12
-0.0507186011
 22
-0.0126455676
 32
0.0
 13
0.0003023814
 23
-0.0522704069
 33
0.0
 40
0.0
 40
0.0
 40
0.0
 40
0.0
 40
0.0000280362
 40
0.0000862037
 40
0.0001771344
 40
0.0003013843
 40
0.0004591491
 40
0.0006505145
 40
0.0008755217
 40
0.0011341906
 40
0.0017525368
 40
0.0025055575
 40
0.0033932022
 40
0.0044153978
 40
0.0055720592
 40
0.006863094
 40
0.0082884055
 40
0.0098478943
 40
0.0133689952
 40
0.0174255719
 40
0.0220167329
 40
0.0271413706
 40
0.0327983216
 40
0.0389864208
 40
0.0457045021
 40
0.0529513987
 40
0.0690269673
 40
0.0872013952
 40
0.1074533719
 40
0.1297592
 40
0.1540951919
 40
0.1804351304
 40
0.2087426468
 40
0.2389788376
 40
0.2711048052
 40
0.3050793657
 40
0.3408521664
 40
0.4175818574
 40
0.5008667718
 40
0.590256409
 40
0.68529782
 40
0.7855520992
 40
0.8905891802
 40
1.0
 40
1.0
 40
1.0
 40
1.0
 10
6.2617324058
 20
4.6253695574
 30
0.0
 10
6.2617319318
 20
4.6253694392
 30
0.0
 10
6.2617311427
 20
4.6253678644
 30
0.0
 10
6.2617303354
 20
4.6253650705
 30
0.0
 10
6.26172941
 20
4.6253602988
 30
0.0
 10
6.2617284951
 20
4.6253539048
 30
0.0
 10
6.2617275517
 20
4.6253456947
 30
0.0
 10
6.2617266046
 20
4.6253357411
 30
0.0
 10
6.2617256488
 20
4.6253240161
 30
0.0
 10
6.2617242859
 20
4.6253048637
 30
0.0
 10
6.2617226172
 20
4.62527651
 30
0.0
 10
6.2617206923
 20
4.6252371965
 30
0.0
 10
6.2617187531
 20
4.6251908396
 30
0.0
 10
6.2617168019
 20
4.6251374451
 30
0.0
 10
6.2617148423
 20
4.6250770181
 30
0.0
 10
6.2617128766
 20
4.6250095643
 30
0.0
 10
6.2617109065
 20
4.6249350892
 30
0.0
 10
6.2617081642
 20
4.624821765
 30
0.0
 10
6.2617047806
 20
4.6246625968
 30
0.0
 10
6.2617008683
 20
4.6244506058
 30
0.0
 10
6.2616969726
 20
4.6242106707
 30
0.0
 10
6.2616931225
 20
4.6239428471
 30
0.0
 10
6.2616893466
 20
4.6236471953
 30
0.0
 10
6.2616856731
 20
4.6233237766
 30
0.0
 10
6.2616821298
 20
4.622972652
 30
0.0
 10
6.2616774531
 20
4.6224492535
 30
0.0
 10
6.2616721792
 20
4.6217262402
 30
0.0
 10
6.2616670077
 20
4.6207766245
 30
0.0
 10
6.261663083
 20
4.6197184474
 30
0.0
 10
6.2616606891
 20
4.6185529079
 30
0.0
 10
6.2616601129
 20
4.6172812908
 30
0.0
 10
6.2616616368
 20
4.6159051024
 30
0.0
 10
6.2616654662
 20
4.6144261145
 30
0.0
 10
6.2616718094
 20
4.6128463201
 30
0.0
 10
6.2616808743
 20
4.6111677961
 30
0.0
 10
6.2616928615
 20
4.6093928196
 30
0.0
 10
6.2617131605
 20
4.6068407187
 30
0.0
 10
6.2617459003
 20
4.6034295204
 30
0.0
 10
6.261795157
 20
4.5990842386
 30
0.0
 10
6.2618522043
 20
4.5944199685
 30
0.0
 10
6.2619140016
 20
4.5894600645
 30
0.0
 10
6.2619752513
 20
4.5842274955
 30
0.0
 10
6.2620306896
 20
4.5787444771
 30
0.0
 10
6.2620587519
 20
4.5750080864
 30
0.0
 10
6.2620697798
 20
4.5731017703
 30
0.0
 11
6.2617324058
 21
4.6253695574
 31
0.0
 11
6.2617314605
 21
4.6253684376
 31
0.0
 11
6.2617305114
 21
4.625365549
 31
0.0
 11
6.2617295587
 21
4.6253608924
 31
0.0
 11
6.2617286025
 21
4.6253544685
 31
0.0
 11
6.2617276431
 21
4.6253462779
 31
0.0
 11
6.2617266806
 21
4.6253363214
 31
0.0
 11
6.2617257152
 21
4.6253245997
 31
0.0
 11
6.261724747
 21
4.6253111135
 31
0.0
 11
6.2617228029
 21
4.6252788502
 31
0.0
 11
6.2617208498
 21
4.6252395374
 31
0.0
 11
6.261718889
 21
4.6251931805
 31
0.0
 11
6.2617169218
 21
4.6251397852
 31
0.0
 11
6.2617149495
 21
4.6250793572
 31
0.0
 11
6.2617129735
 21
4.6250119021
 31
0.0
 11
6.261710995
 21
4.6249374255
 31
0.0
 11
6.2617090156
 21
4.6248559331
 31
0.0
 11
6.2617050587
 21
4.6246719232
 31
0.0
 11
6.2617011137
 21
4.6244599174
 31
0.0
 11
6.2616971938
 21
4.6242199636
 31
0.0
 11
6.2616933239
 21
4.6239521201
 31
0.0
 11
6.2616895313
 21
4.6236564484
 31
0.0
 11
6.2616858434
 21
4.6233330095
 31
0.0
 11
6.2616822878
 21
4.6229818648
 31
0.0
 11
6.2616788919
 21
4.6226030755
 31
0.0
 11
6.261672689
 21
4.6217628078
 31
0.0
 11
6.261667465
 21
4.6208128215
 31
0.0
 11
6.2616634936
 21
4.6197542322
 31
0.0
 11
6.2616610593
 21
4.6185882805
 31
0.0
 11
6.2616604465
 21
4.6173162072
 31
0.0
 11
6.2616619266
 21
4.6159393856
 31
0.0
 11
6.2616657193
 21
4.6144597203
 31
0.0
 11
6.261672031
 21
4.6128792485
 31
0.0
 11
6.2616810684
 21
4.6112000073
 31
0.0
 11
6.261692996
 21
4.6094241535
 31
0.0
 11
6.2617078104
 21
4.6075543221
 31
0.0
 11
6.2617459181
 21
4.6035437439
 31
0.0
 11
6.2617945776
 21
4.5991906066
 31
0.0
 11
6.2618511725
 21
4.5945184385
 31
0.0
 11
6.2619122626
 21
4.5895508777
 31
0.0
 11
6.2619729159
 21
4.5843108091
 31
0.0
 11
6.2620275884
 21
4.5788206585
 31
0.0
 11
6.2620697798
 21
4.5731017703
 31
0.0
  0
SPLINE
  5
271
100
AcDbEntity
  8
0
100
AcDbSpline
 62
9
  6
CONTINUOUS
 70
0
 71
3
 72
14
 73
10
 74
8
 42
0.0000001
 43
0.0000001
 44
0.0000000001
 12
0.1144614219
 22
0.0176417371
 32
0.0
 13
0.1118495632
 23
0.0300386951
 33
0.0
 40
0.0
 40
0.0
 40
0.0
 40
0.0
 40
0.1229328028
 40
0.2468789001
 40
0.3716419792
 40
0.4970121943
 40
0.6227682132
 40
0.7486790205
 40
1.0
 40
1.0
 40
1.0
 40
1.0
 10
6.1490646012
 20
4.5480148834
 30
0.0
 10
6.1537549556
 20
4.5487377995
 30
0.0
 10
6.1631584017
 20
4.550294538
 30
0.0
 10
6.1772644179
 20
4.5529172204
 30
0.0
 10
6.1914144107
 20
4.5558054451
 30
0.0
 10
6.2055862773
 20
4.5589263953
 30
0.0
 10
6.2197580305
 20
4.5622472737
 30
0.0
 10
6.2386114646
 20
4.5668948636
 30
0.0
 10
6.2526997326
 20
4.5705853189
 30
0.0
 10
6.2620697798
 20
4.5731017703
 30
0.0
 11
6.1490646012
 21
4.5480148834
 31
0.0
 11
6.1631116414
 21
4.5503341409
 31
0.0
 11
6.1772253939
 21
4.5529524621
 31
0.0
 11
6.1913837321
 21
4.5558369727
 31
0.0
 11
6.2055645296
 21
4.5589547985
 31
0.0
 11
6.2197456596
 21
4.5622730654
 31
0.0
 11
6.2339049957
 21
4.5657588991
 31
0.0
 11
6.2620697798
 21
4.5731017703
 31
0.0
  0
SPLINE
  5
272
100
AcDbEntity
  8
0
100
AcDbSpline
 62
9
  6
CONTINUOUS
 70
0
 71
3
 72
24
 73
20
 74
18
 42
0.0000001
 43
0.0000001
 44
0.0000000001
 12
0.0014660845
 22
-0.2534310568
 32
0.0
 13
0.0010056085
 23
-0.2534333023
 33
0.0
 40
0.0
 40
0.0
 40
0.0
 40
0.0
 40
0.0465389465
 40
0.0964921156
 40
0.1495674718
 40
0.2054856664
 40
0.2639718365
 40
0.3247528119
 40
0.3875561249
 40
0.4521206124
 40
0.518191796
 40
0.5517096415
 40
0.5855042086
 40
0.6195416142
 40
0.6537878141
 40
0.7227693906
 40
0.7921669861
 40
0.8616930241
 40
1.0
 40
1.0
 40
1.0
 40
1.0
 10
6.2620697798
 20
4.5731017703
 30
0.0
 10
6.2620925232
 20
4.5691702989
 30
0.0
 10
6.262131317
 20
4.5610188841
 30
0.0
 10
6.2621755141
 20
4.5483837344
 30
0.0
 10
6.2622122138
 20
4.5349562139
 30
0.0
 10
6.2622447992
 20
4.5208078271
 30
0.0
 10
6.2622771309
 20
4.5060084795
 30
0.0
 10
6.2623130643
 20
4.4906274943
 30
0.0
 10
6.262356528
 20
4.4747330394
 30
0.0
 10
6.2624111292
 20
4.4583917072
 30
0.0
 10
6.262468482
 20
4.4445243922
 30
0.0
 10
6.2625226634
 20
4.4332564849
 30
0.0
 10
6.2625680168
 20
4.4246947309
 30
0.0
 10
6.2626174108
 20
4.4160714682
 30
0.0
 10
6.2626877758
 20
4.4044757341
 30
0.0
 10
6.2627821192
 20
4.3898929182
 30
0.0
 10
6.2628983509
 20
4.3723297962
 30
0.0
 10
6.2630476081
 20
4.3489102662
 30
0.0
 10
6.2631420154
 20
4.3313530959
 30
0.0
 10
6.2631883763
 20
4.3196692314
 30
0.0
 11
6.2620697798
 21
4.5731017703
 31
0.0
 11
6.2621275529
 21
4.5613073001
 31
0.0
 11
6.2621730268
 21
4.5486474855
 31
0.0
 11
6.2622106184
 21
4.5351963693
 31
0.0
 11
6.2622440261
 21
4.5210247644
 31
0.0
 11
6.2622770746
 21
4.5062023414
 31
0.0
 11
6.262313671
 21
4.4907983403
 31
0.0
 11
6.2623577085
 21
4.4748818249
 31
0.0
 11
6.2624128457
 21
4.4585189977
 31
0.0
 11
6.2624823464
 21
4.4417743719
 31
0.0
 11
6.2625232401
 21
4.4332798651
 31
0.0
 11
6.2625685208
 21
4.4247152487
 31
0.0
 11
6.2626177973
 21
4.4160891094
 31
0.0
 11
6.2626703548
 21
4.4074100727
 31
0.0
 11
6.2627823231
 21
4.3899280649
 31
0.0
 11
6.2628975624
 21
4.3723406422
 31
0.0
 11
6.2630086204
 21
4.35472064
 31
0.0
 11
6.2631883763
 21
4.3196692314
 31
0.0
  0
SPLINE
  5
273
100
AcDbEntity
  8
0
100
AcDbSpline
 62
9
  6
CONTINUOUS
 70
0
 71
3
 72
11
 73
7
 74
5
 42
0.0000001
 43
0.0000001
 44
0.0000000001
 12
0.1102446807
 22
-0.0047499588
 32
0.0
 13
0.1100414834
 23
-0.0082051008
 33
0.0
 40
0.0
 40
0.0
 40
0.0
 40
0.0
 40
0.2551672956
 40
0.5061766114
 40
0.754099946
 40
1.0
 40
1.0
 40
1.0
 40
1.0
 10
6.1530480568
 20
4.3263479011
 30
0.0
 10
6.1624250025
 20
4.3259438897
 30
0.0
 10
6.1810220142
 20
4.3250450118
 30
0.0
 10
6.2087137776
 20
4.323446362
 30
0.0
 10
6.2360516951
 20
4.3216494013
 30
0.0
 10
6.2541686407
 20
4.3203417763
 30
0.0
 10
6.2631883763
 20
4.3196692314
 30
0.0
 11
6.1530480568
 21
4.3263479011
 31
0.0
 11
6.1811723923
 21
4.3249933626
 31
0.0
 11
6.2088248046
 21
4.3234028669
 31
0.0
 11
6.2361239228
 21
4.3216152209
 31
0.0
 11
6.2631883763
 21
4.3196692314
 31
0.0
  0
SPLINE
  5
274
100
AcDbEntity
  8
0
100
AcDbSpline
 62
9
  6
CONTINUOUS
 70
0
 71
3
 72
47
 73
43
 74
41
 42
0.0000001
 43
0.0000001
 44
0.0000000001
 12
0.5139018321
 22
0.0
 32
0.0
 13
0.1177992472
 23
0.5002183827
 33
0.0
 40
0.0
 40
0.0
 40
0.0
 40
0.0
 40
0.0315071812
 40
0.0472682967
 40
0.0630288096
 40
0.0787847579
 40
0.0945320115
 40
0.1102690012
 40
0.1259960229
 40
0.1574165597
 40
0.1887889973
 40
0.220104817
 40
0.2513682649
 40
0.2825812414
 40
0.2981686992
 40
0.3137424798
 40
0.3448546634
 40
0.3759325398
 40
0.4069838864
 40
0.4380142714
 40
0.4690375755
 40
0.5000687608
 40
0.5311211173
 40
0.5622071532
 40
0.5933391325
 40
0.6245284919
 40
0.6557837222
 40
0.6871054197
 40
0.7184939944
 40
0.7499495957
 40
0.7814530548
 40
0.812975573
 40
0.8287362767
 40
0.8444904458
 40
0.8759483105
 40
0.8916391333
 40
0.9072949191
 40
0.9229092127
 40
0.9384734545
 40
0.9539762345
 40
0.9694060797
 40
1.0
 40
1.0
 40
1.0
 40
1.0
 10
5.4461389367
 20
3.9943348726
 30
0.0
 10
5.4515361361
 20
3.9943348726
 30
0.0
 10
5.4596355
 20
3.9945624423
 30
0.0
 10
5.4704074875
 20
3.9953075336
 30
0.0
 10
5.4784698948
 20
3.9960843574
 30
0.0
 10
5.4865061942
 20
3.9970758757
 30
0.0
 10
5.4945094368
 20
3.9982792383
 30
0.0
 10
5.5024736303
 20
3.9996904747
 30
0.0
 10
5.513029741
 20
4.0018419616
 30
0.0
 10
5.5261039968
 20
4.0050269705
 30
0.0
 10
5.5415670368
 20
4.0096066808
 30
0.0
 10
5.5567691494
 20
4.014908045
 30
0.0
 10
5.5716844806
 20
4.0208950829
 30
0.0
 10
5.5838630991
 20
4.0264293431
 30
0.0
 10
5.5934416098
 20
4.031165463
 30
0.0
 10
5.6029009371
 20
4.0360981471
 30
0.0
 10
5.6145152444
 20
4.0426302287
 30
0.0
 10
5.6281093949
 20
4.051023497
 30
0.0
 10
5.6413506955
 20
4.0599376875
 30
0.0
 10
5.6542357505
 20
4.0693432474
 30
0.0
 10
5.6667559962
 20
4.0792235502
 30
0.0
 10
5.6789045807
 20
4.0895630561
 30
0.0
 10
5.6906754223
 20
4.100346418
 30
0.0
 10
5.7020616357
 20
4.1115596813
 30
0.0
 10
5.7130552453
 20
4.1231903662
 30
0.0
 10
5.7236483803
 20
4.1352254815
 30
0.0
 10
5.7338321248
 20
4.1476510107
 30
0.0
 10
5.7435871562
 20
4.1604589482
 30
0.0
 10
5.7528926296
 20
4.1736393028
 30
0.0
 10
5.7617250233
 20
4.1871785983
 30
0.0
 10
5.7700602846
 20
4.2010562319
 30
0.0
 10
5.7765702849
 20
4.2128825994
 30
0.0
 10
5.7815034458
 20
4.2224889068
 30
0.0
 10
5.7862443734
 20
4.2321791094
 30
0.0
 10
5.7906935699
 20
4.2419967478
 30
0.0
 10
5.794832928
 20
4.2519276329
 30
0.0
 10
5.7977732258
 20
4.259416129
 30
0.0
 10
5.8005463332
 20
4.2669450168
 30
0.0
 10
5.8031479138
 20
4.2745071686
 30
0.0
 10
5.8055751826
 20
4.282093982
 30
0.0
 10
5.8085658238
 20
4.2922008728
 30
0.0
 10
5.8105511711
 20
4.2998343689
 30
0.0
 10
5.8117524847
 20
4.3049355827
 30
0.0
 11
5.4461389367
 21
3.9943348726
 31
0.0
 11
5.4623242655
 21
3.994785408
 31
0.0
 11
5.4704046562
 21
3.9953438683
 31
0.0
 11
5.4784667138
 21
3.9961202715
 31
0.0
 11
5.4865028255
 21
3.9971114782
 31
0.0
 11
5.4945054787
 21
3.998314302
 31
0.0
 11
5.5024687969
 21
3.9997247859
 31
0.0
 11
5.5103882347
 21
4.0013383461
 31
0.0
 11
5.5260774425
 21
4.0051562875
 31
0.0
 11
5.5415370492
 21
4.00973131
 31
0.0
 11
5.5567340186
 21
4.0150270674
 31
0.0
 11
5.5716453103
 21
4.0210087697
 31
0.0
 11
5.5862499517
 21
4.0276419489
 31
0.0
 11
5.5934307254
 21
4.0311920712
 31
0.0
 11
5.6005274263
 21
4.0348922276
 31
0.0
 11
5.6144649836
 21
4.0427267721
 31
0.0
 11
5.6280563727
 21
4.0511140403
 31
0.0
 11
5.6412955432
 21
4.06002253
 31
0.0
 11
5.654176383
 21
4.0694234404
 31
0.0
 11
5.6666925327
 21
4.079298819
 31
0.0
 11
5.6788375713
 21
4.0896334358
 31
0.0
 11
5.6906050566
 21
4.1004121035
 31
0.0
 11
5.7019879649
 21
4.1116208269
 31
0.0
 11
5.7129786269
 21
4.1232469332
 31
0.0
 11
5.7235693398
 21
4.1352778188
 31
0.0
 11
5.7337500869
 21
4.1477013485
 31
0.0
 11
5.7435020706
 21
4.1605071663
 31
0.0
 11
5.7528044107
 21
4.173685338
 31
0.0
 11
5.7616357655
 21
4.1872248116
 31
0.0
 11
5.769970533
 21
4.2011042051
 31
0.0
 11
5.777780808
 21
4.2152965534
 31
0.0
 11
5.7814805296
 21
4.2225016366
 31
0.0
 11
5.7850381731
 21
4.2297741842
 31
0.0
 11
5.7917075717
 21
4.2445005856
 31
0.0
 11
5.7948093417
 21
4.251943686
 31
0.0
 11
5.7977491688
 21
4.2594328837
 31
0.0
 11
5.8005220816
 21
4.2669627552
 31
0.0
 11
5.8031238309
 21
4.2745262717
 31
0.0
 11
5.805551054
 21
4.2821144333
 31
0.0
 11
5.8078004429
 21
4.2897181193
 31
0.0
 11
5.8117524847
 21
4.3049355827
 31
0.0
  0
SPLINE
  5
275
100
AcDbEntity
  8
0
100
AcDbSpline
 62
9
  6
CONTINUOUS
 70
0
 71
3
 72
58
 73
54
 74
52
 42
0.0000001
 43
0.0000001
 44
0.0000000001
 12
0.0007762529
 22
-0.1956311498
 32
0.0
 13
0.1898215628
 23
-0.047327831
 33
0.0
 40
0.0
 40
0.0
 40
0.0
 40
0.0
 40
0.0989154554
 40
0.1956939956
 40
0.2897605204
 40
0.3805452665
 40
0.4674740472
 40
0.5499499647
 40
0.589330231
 40
0.6273740095
 40
0.6640086864
 40
0.6991616465
 40
0.7327600646
 40
0.7647302785
 40
0.794998417
 40
0.8234906094
 40
0.8501330964
 40
0.8748525629
 40
0.8975758052
 40
0.9081659666
 40
0.9182296214
 40
0.927757579
 40
0.9367404876
 40
0.9451689551
 40
0.9530335897
 40
0.9603250024
 40
0.9670338142
 40
0.9731506491
 40
0.9786661327
 40
0.9835708416
 40
0.9857911504
 40
0.9878551497
 40
0.989761631
 40
0.9915093865
 40
0.9930972098
 40
0.994523896
 40
0.9957882433
 40
0.9968890538
 40
0.9973777609
 40
0.9978251385
 40
0.9982310401
 40
0.998595321
 40
0.998917839
 40
0.9991984563
 40
0.9994370422
 40
0.9996334796
 40
0.9997876801
 40
0.9998489345
 40
0.9998996371
 40
0.9999398268
 40
0.9999696034
 40
0.999989258
 40
1.0
 40
1.0
 40
1.0
 40
1.0
 10
6.2631883763
 20
4.3196692314
 30
0.0
 10
6.2632139708
 20
4.3132189166
 30
0.0
 10
6.2632495793
 20
4.3004575725
 30
0.0
 10
6.2632621883
 20
4.2815620215
 30
0.0
 10
6.2632396314
 20
4.2631966932
 30
0.0
 10
6.2631893742
 20
4.2454737373
 30
0.0
 10
6.2631189013
 20
4.228506693
 30
0.0
 10
6.2630490444
 20
4.2148918161
 30
0.0
 10
6.2629908126
 20
4.2044647587
 30
0.0
 10
6.262947613
 20
4.1970270126
 30
0.0
 10
6.2629049639
 20
4.1898649345
 30
0.0
 10
6.2628636232
 20
4.1829927397
 30
0.0
 10
6.2628243553
 20
4.1764247117
 30
0.0
 10
6.2627874631
 20
4.1701752189
 30
0.0
 10
6.2627532419
 20
4.1642586976
 30
0.0
 10
6.262721987
 20
4.158689591
 30
0.0
 10
6.2626939961
 20
4.1534823057
 30
0.0
 10
6.2626694307
 20
4.148651206
 30
0.0
 10
6.2626515447
 20
4.1448668727
 30
0.0
 10
6.2626391604
 20
4.1420382429
 30
0.0
 10
6.2626310519
 20
4.140070079
 30
0.0
 10
6.2626239216
 20
4.1382067225
 30
0.0
 10
6.2626177944
 20
4.1364499951
 30
0.0
 10
6.2626126946
 20
4.1348017316
 30
0.0
 10
6.2626086465
 20
4.1332637695
 30
0.0
 10
6.2626056741
 20
4.1318379454
 30
0.0
 10
6.2626038043
 20
4.1305260952
 30
0.0
 10
6.2626030628
 20
4.1293300537
 30
0.0
 10
6.2626034763
 20
4.1282516592
 30
0.0
 10
6.2626048389
 20
4.1274273615
 30
0.0
 10
6.2626066223
 20
4.1268281401
 30
0.0
 10
6.2626082327
 20
4.1264244363
 30
0.0
 10
6.2626101654
 20
4.1260515499
 30
0.0
 10
6.2626124265
 20
4.1257097178
 30
0.0
 10
6.2626150213
 20
4.1253991768
 30
0.0
 10
6.2626179537
 20
4.1251201639
 30
0.0
 10
6.2626212285
 20
4.1248729157
 30
0.0
 10
6.2626243527
 20
4.1246868382
 30
0.0
 10
6.2626270869
 20
4.1245540384
 30
0.0
 10
6.2626291457
 20
4.1244665503
 30
0.0
 10
6.2626312945
 20
4.124387181
 30
0.0
 10
6.2626335335
 20
4.12431596
 30
0.0
 10
6.2626358616
 20
4.1242529164
 30
0.0
 10
6.2626382776
 20
4.1241980798
 30
0.0
 10
6.262640776
 20
4.1241514776
 30
0.0
 10
6.2626433546
 20
4.1241131406
 30
0.0
 10
6.2626456941
 20
4.1240863759
 30
0.0
 10
6.2626476955
 20
4.1240691381
 30
0.0
 10
6.2626491046
 20
4.1240593065
 30
0.0
 10
6.2626504965
 20
4.1240515833
 30
0.0
 10
6.2626519481
 20
4.1240458537
 30
0.0
 10
6.2626532425
 20
4.1240422704
 30
0.0
 10
6.2626545695
 20
4.1240404809
 30
0.0
 10
6.2626552492
 20
4.1240403115
 30
0.0
 11
6.2631883763
 21
4.3196692314
 31
0.0
 11
6.2632430462
 21
4.300318212
 31
0.0
 11
6.26325624
 21
4.2813851705
 31
0.0
 11
6.2632343508
 21
4.2629826962
 31
0.0
 11
6.2631846758
 21
4.2452223016
 31
0.0
 11
6.2631148522
 21
4.2282163338
 31
0.0
 11
6.2630329734
 21
4.2120815559
 31
0.0
 11
6.262990034
 21
4.2043776082
 31
0.0
 11
6.2629468939
 21
4.1969351265
 31
0.0
 11
6.2629043144
 21
4.1897683126
 31
0.0
 11
6.2628630567
 21
4.1828913682
 31
0.0
 11
6.2628238052
 21
4.1763185365
 31
0.0
 11
6.2627869356
 21
4.1700642262
 31
0.0
 11
6.2627527467
 21
4.1641428875
 31
0.0
 11
6.2627215375
 21
4.1585689707
 31
0.0
 11
6.2626935838
 21
4.1533569042
 31
0.0
 11
6.2626690699
 21
4.1485210307
 31
0.0
 11
6.2626481571
 21
4.1440756708
 31
0.0
 11
6.2626391016
 21
4.1420039089
 31
0.0
 11
6.2626310069
 21
4.1400351456
 31
0.0
 11
6.262623894
 21
4.1381711792
 31
0.0
 11
6.2626177873
 21
4.1364138393
 31
0.0
 11
6.2626127122
 21
4.1347649633
 31
0.0
 11
6.2626086938
 21
4.133226389
 31
0.0
 11
6.2626057582
 21
4.1317999533
 31
0.0
 11
6.2626039336
 21
4.1304874917
 31
0.0
 11
6.2626032489
 21
4.129290839
 31
0.0
 11
6.2626037333
 21
4.1282118302
 31
0.0
 11
6.2626054196
 21
4.1272523103
 31
0.0
 11
6.2626067286
 21
4.1268179473
 31
0.0
 11
6.2626083572
 21
4.1264141648
 31
0.0
 11
6.2626103119
 21
4.1260411999
 31
0.0
 11
6.2626125995
 21
4.1256992894
 31
0.0
 11
6.2626152265
 21
4.1253886704
 31
0.0
 11
6.2626181998
 21
4.1251095798
 31
0.0
 11
6.2626215259
 21
4.1248622545
 31
0.0
 11
6.2626252116
 21
4.1246469315
 31
0.0
 11
6.2626271913
 21
4.1245513449
 31
0.0
 11
6.2626292634
 21
4.1244638478
 31
0.0
 11
6.2626314287
 21
4.1243844697
 31
0.0
 11
6.2626336881
 21
4.1243132402
 31
0.0
 11
6.2626360424
 21
4.1242501891
 31
0.0
 11
6.2626384924
 21
4.1241953459
 31
0.0
 11
6.2626410389
 21
4.1241487402
 31
0.0
 11
6.2626436829
 21
4.1241104017
 31
0.0
 11
6.262646425
 21
4.1240803599
 31
0.0
 11
6.2626478332
 21
4.1240684596
 31
0.0
 11
6.2626492663
 21
4.1240586446
 31
0.0
 11
6.2626507243
 21
4.1240509185
 31
0.0
 11
6.2626522074
 21
4.1240452852
 31
0.0
 11
6.2626537156
 21
4.1240417483
 31
0.0
 11
6.2626552492
 21
4.1240403115
 31
0.0
  0
LINE
  5
276
100
AcDbEntity
  8
0
100
AcDbLine
 62
9
  6
CONTINUOUS
 10
6.4749167928
 20
4.6231953994
 11
6.4749173834
 21
4.6785225421
  0
SPLINE
  5
277
100
AcDbEntity
  8
0
100
AcDbSpline
 62
9
  6
CONTINUOUS
 70
0
 71
3
 72
20
 73
16
 74
14
 42
0.0000001
 43
0.0000001
 44
0.0000000001
 12
0.2113769033
 22
0.0567680925
 32
0.0
 13
0.2172675163
 23
0.0264128361
 33
0.0
 40
0.0
 40
0.0
 40
0.0
 40
0.0
 40
0.12694845
 40
0.2539514552
 40
0.3806780542
 40
0.4438344363
 40
0.5068002218
 40
0.5695385741
 40
0.6320154638
 40
0.6942003
 40
0.7560665916
 40
0.8175926435
 40
0.8787622894
 40
0.9395656622
 40
1.0
 40
1.0
 40
1.0
 40
1.0
 10
6.2620697798
 20
4.5731017703
 30
0.0
 10
6.2710144366
 20
4.5755039775
 30
0.0
 10
6.2888826516
 20
4.5804021171
 30
0.0
 10
6.315640328
 20
4.5878412855
 30
0.0
 10
6.3379335325
 20
4.593964544
 30
0.0
 10
6.3557575938
 20
4.5987174122
 30
0.0
 10
6.369094526
 20
4.6021779863
 30
0.0
 10
6.3824123064
 20
4.6055133036
 30
0.0
 10
6.3957083484
 20
4.6086982705
 30
0.0
 10
6.4089800698
 20
4.6117077962
 30
0.0
 10
6.4222248977
 20
4.6145167811
 30
0.0
 10
6.4354402563
 20
4.6171001164
 30
0.0
 10
6.4486236117
 20
4.6194326865
 30
0.0
 10
6.4617723061
 20
4.6214893472
 30
0.0
 10
6.4705399866
 20
4.6226633186
 30
0.0
 10
6.4749167928
 20
4.6231953994
 30
0.0
 11
6.2620697798
 21
4.5731017703
 31
0.0
 11
6.2888742925
 21
4.5804171958
 31
0.0
 11
6.3156636567
 21
4.5878327862
 31
0.0
 11
6.3424177711
 21
4.5951484428
 31
0.0
 11
6.3557749802
 21
4.5987060094
 31
0.0
 11
6.3691154193
 21
4.6021632469
 31
0.0
 11
6.3824364348
 21
4.6054950396
 31
0.0
 11
6.3957353733
 21
4.6086762716
 31
0.0
 11
6.4090095813
 21
4.6116818269
 31
0.0
 11
6.4222564054
 21
4.6144865898
 31
0.0
 11
6.4354731921
 21
4.6170654444
 31
0.0
 11
6.4486572878
 21
4.6193932747
 31
0.0
 11
6.4618060392
 21
4.621444965
 31
0.0
 11
6.4749167928
 21
4.6231953994
 31
0.0
  0
LINE
  5
278
100
AcDbEntity
  8
0
100
AcDbLine
 62
9
  6
CONTINUOUS
 10
6.4749117711
 20
4.6231947889
 11
6.4749153893
 21
4.3041579654
  0
SPLINE
  5
279
100
AcDbEntity
  8
0
100
AcDbSpline
 62
9
  6
CONTINUOUS
 70
0
 71
3
 72
14
 73
10
 74
8
 42
0.0000001
 43
0.0000001
 44
0.0000000001
 12
0.2117109391
 22
-0.0157859521
 32
0.0
 13
0.2119648129
 23
-0.0119010973
 33
0.0
 40
0.0
 40
0.0
 40
0.0
 40
0.0
 40
0.2457863674
 40
0.3698740261
 40
0.4946715165
 40
0.6201296159
 40
0.7462004169
 40
0.8728381509
 40
1.0
 40
1.0
 40
1.0
 40
1.0
 10
6.2631883763
 20
4.3196692314
 30
0.0
 10
6.2805335972
 20
4.3183759075
 30
0.0
 10
6.3066283672
 20
4.3163318057
 30
0.0
 10
6.3415246984
 20
4.3135629517
 30
0.0
 10
6.3679343419
 20
4.3114900424
 30
0.0
 10
6.3944887328
 20
4.309468427
 30
0.0
 10
6.4211805995
 20
4.3075389011
 30
0.0
 10
6.4480026297
 20
4.3057422655
 30
0.0
 10
6.4659307768
 20
4.3046624205
 30
0.0
 10
6.4749153893
 20
4.3041579654
 30
0.0
 11
6.2631883763
 21
4.3196692314
 31
0.0
 11
6.3152132873
 21
4.3156476638
 31
0.0
 11
6.3414749219
 21
4.3135706309
 31
0.0
 11
6.3678885365
 21
4.3115039991
 31
0.0
 11
6.3944467608
 21
4.3094885925
 31
0.0
 11
6.4211422246
 21
4.3075652353
 31
0.0
 11
6.4479675576
 21
4.3057747515
 31
0.0
 11
6.4749153893
 21
4.3041579654
 31
0.0
  0
LINE
  5
27A
100
AcDbEntity
  8
0
100
AcDbLine
 62
6
  6
CONTINUOUS
 10
6.4749146493
 20
4.3041580069
 11
6.4749173834
 21
4.0711174175
  0
SPLINE
  5
27B
100
AcDbEntity
  8
0
100
AcDbSpline
 62
9
  6
CONTINUOUS
 70
0
 71
3
 72
53
 73
49
 74
47
 42
0.0000001
 43
0.0000001
 44
0.0000000001
 12
0.3198501147
 22
-0.2098021703
 32
0.0
 13
-0.0873520261
 23
-0.3724119628
 33
0.0
 40
0.0
 40
0.0
 40
0.0
 40
0.0
 40
0.0636671973
 40
0.0954584434
 40
0.1272064307
 40
0.1430619995
 40
0.1589037528
 40
0.190543182
 40
0.2221235204
 40
0.2536431164
 40
0.2693801555
 40
0.2851015206
 40
0.300807076
 40
0.3164964365
 40
0.3478242123
 40
0.3790862909
 40
0.3946948932
 40
0.4102896655
 40
0.4258721983
 40
0.4414441279
 40
0.4570057285
 40
0.4725569144
 40
0.5036269545
 40
0.5346583332
 40
0.5501619546
 40
0.5656581754
 40
0.5966294042
 40
0.6275817666
 40
0.6585294459
 40
0.6740088733
 40
0.689494103
 40
0.7204791311
 40
0.7359814741
 40
0.7514903449
 40
0.7670067736
 40
0.7747684142
 40
0.7825325111
 40
0.7980682174
 40
0.8136141434
 40
0.8447286441
 40
0.8602937195
 40
0.8758580991
 40
0.8914167924
 40
0.9069659609
 40
0.9225046998
 40
0.9380321553
 40
0.9690471219
 40
1.0
 40
1.0
 40
1.0
 40
1.0
 10
5.6619631265
 20
4.6293502746
 30
0.0
 10
5.6687511133
 20
4.6248977692
 30
0.0
 10
5.6787421805
 20
4.6179305416
 30
0.0
 10
5.6916306301
 20
4.6080809695
 30
0.0
 10
5.6994909509
 20
4.601698729
 30
0.0
 10
5.7056553825
 20
4.5964597573
 30
0.0
 10
5.7117297184
 20
4.5911375389
 30
0.0
 10
5.7191604765
 20
4.5843227434
 30
0.0
 10
5.7278126326
 20
4.575890274
 30
0.0
 10
5.7347953652
 20
4.5686567947
 30
0.0
 10
5.7402382794
 20
4.5627524427
 30
0.0
 10
5.7442459638
 20
4.5582684589
 30
0.0
 10
5.7481801239
 20
4.5537278641
 30
0.0
 10
5.753321987
 20
4.5476019852
 30
0.0
 10
5.759553577
 20
4.5398027667
 30
0.0
 10
5.7655111805
 20
4.5318048136
 30
0.0
 10
5.7700968209
 20
4.5252921337
 30
0.0
 10
5.773441817
 20
4.5203522509
 30
0.0
 10
5.7766913202
 20
4.5153546077
 30
0.0
 10
5.7798422942
 20
4.5102992358
 30
0.0
 10
5.782892885
 20
4.5051872856
 30
0.0
 10
5.7868224918
 20
4.4983003924
 30
0.0
 10
5.7914745323
 20
4.4895569748
 30
0.0
 10
5.795768717
 20
4.4806389405
 30
0.0
 10
5.7989791633
 20
4.4734098818
 30
0.0
 10
5.8020359862
 20
4.4661228782
 30
0.0
 10
5.8055658574
 20
4.4569004928
 30
0.0
 10
5.8093118813
 20
4.4456629936
 30
0.0
 10
5.8120051879
 20
4.4361673336
 30
0.0
 10
5.8138903403
 20
4.4285008185
 30
0.0
 10
5.8155929624
 20
4.4207869177
 30
0.0
 10
5.8170163791
 20
4.413010454
 30
0.0
 10
5.8181506187
 20
4.4051866947
 30
0.0
 10
5.8188546891
 20
4.3992953921
 30
0.0
 10
5.8193169348
 20
4.3943708796
 30
0.0
 10
5.81961092
 20
4.3904236387
 30
0.0
 10
5.819853898
 20
4.3864704711
 30
0.0
 10
5.8200624652
 20
4.381521182
 30
0.0
 10
5.8202008418
 20
4.373591383
 30
0.0
 10
5.8200569429
 20
4.3656552262
 30
0.0
 10
5.8196529882
 20
4.3577285971
 30
0.0
 10
5.8192252543
 20
4.3517904845
 30
0.0
 10
5.8186784311
 20
4.345864273
 30
0.0
 10
5.8180171063
 20
4.3399530427
 30
0.0
 10
5.8172433285
 20
4.3340594929
 30
0.0
 10
5.8160654166
 20
4.3262314754
 30
0.0
 10
5.8143241785
 20
4.3165026206
 30
0.0
 10
5.8126537503
 20
4.3087779901
 30
0.0
 10
5.8117524847
 20
4.3049355827
 30
0.0
 11
5.6619631265
 21
4.6293502746
 31
0.0
 11
5.6819364108
 21
4.6154153532
 31
0.0
 11
5.6915981705
 21
4.6080305958
 31
0.0
 11
5.7010253539
 21
4.6003748611
 31
0.0
 11
5.7056467635
 21
4.5964470696
 31
0.0
 11
5.7102044967
 21
4.5924535791
 31
0.0
 11
5.7191238922
 21
4.5842731405
 31
0.0
 11
5.7277746507
 21
4.5758414764
 31
0.0
 11
5.7361481356
 21
4.5671666563
 31
0.0
 11
5.7402282017
 21
4.5627405845
 31
0.0
 11
5.7442357108
 21
4.5582567497
 31
0.0
 11
5.7481695241
 21
4.5537161202
 31
0.0
 11
5.7520275747
 21
4.5491190283
 31
0.0
 11
5.7595051565
 21
4.5397547574
 31
0.0
 11
5.7666458917
 21
4.5301624674
 31
0.0
 11
5.7700828842
 21
4.5252803516
 31
0.0
 11
5.7734271959
 21
4.5203406748
 31
0.0
 11
5.7766760037
 21
4.5153432513
 31
0.0
 11
5.7798265964
 21
4.510288113
 31
0.0
 11
5.7828768302
 21
4.5051763934
 31
0.0
 11
5.7858247412
 21
4.500009575
 31
0.0
 11
5.7914057388
 21
4.4895165722
 31
0.0
 11
5.7965538775
 21
4.4788209656
 31
0.0
 11
5.7989607149
 21
4.4734008924
 31
0.0
 11
5.8012533667
 21
4.4679346104
 31
0.0
 11
5.8054852657
 21
4.4568691385
 31
0.0
 11
5.8092264931
 21
4.4456358882
 31
0.0
 11
5.8124536861
 21
4.4342461778
 31
0.0
 11
5.8138672214
 21
4.4284961956
 31
0.0
 11
5.8151436663
 21
4.4227119624
 31
0.0
 11
5.8172754808
 21
4.4110528843
 31
0.0
 11
5.8181259876
 21
4.4051842475
 31
0.0
 11
5.8188296523
 21
4.3992936841
 31
0.0
 11
5.8193840437
 21
4.3933842983
 31
0.0
 11
5.8196045021
 21
4.3904235169
 31
0.0
 11
5.8197867572
 21
4.3874591972
 31
0.0
 11
5.8200379941
 21
4.3815218021
 31
0.0
 11
5.820142703
 21
4.3755761067
 31
0.0
 11
5.8199343485
 21
4.3636760322
 31
0.0
 11
5.819632191
 21
4.3577297619
 31
0.0
 11
5.8192053172
 21
4.3517914087
 31
0.0
 11
5.8186591679
 21
4.3458650197
 31
0.0
 11
5.8179981232
 21
4.3399540104
 31
0.0
 11
5.8172246858
 21
4.3340606782
 31
0.0
 11
5.8163411665
 21
4.3281872063
 31
0.0
 11
5.8142531251
 21
4.3165085756
 31
0.0
 11
5.8117524847
 21
4.3049355827
 31
0.0
  0
LINE
  5
27C
100
AcDbEntity
  8
0
100
AcDbLine
 62
6
  6
CONTINUOUS
 10
5.8006725232
 20
3.7203133884
 11
5.7999859607
 21
3.7184074904
  0
ENDSEC
  0
SECTION
  2
OBJECTS
  0
DICTIONARY
  5
C
100
AcDbDictionary
280
0
281
1
  3
ACAD_GROUP
350
D
  3
ACAD_MLINESTYLE
350
17
  3
ACAD_LAYOUT
350
1A
  3
ACAD_PLOTSETTINGS
350
19
  3
ACAD_PLOTSTYLENAME
350
E
  0
DICTIONARY
  5
D
102
{ACAD_REACTORS
330
C
102
}
100
AcDbDictionary
280
0
281
1
  0
ACDBDICTIONARYWDFLT
  5
E
102
{ACAD_REACTORS
330
C
102
}
100
AcDbDictionary
281
1
  3
Normal
350
F
100
AcDbDictionaryWithDefault
340
F
  0
DICTIONARY
  5
17
102
{ACAD_REACTORS
330
C
102
}
100
AcDbDictionary
280
0
281
1
  3
Standard
350
18
  0
DICTIONARY
  5
19
102
{ACAD_REACTORS
330
C
102
}
100
AcDbDictionary
281
1
  0
DICTIONARY
  5
1A
102
{ACAD_REACTORS
330
C
102
}
100
AcDbDictionary
281
1
  3
Model
350
27D
  3
Layout1
350
27E
  0
ACDBPLACEHOLDER
  5
F
102
{ACAD_REACTORS
330
E
102
}
  0
MLINESTYLE
  5
18
102
{ACAD_REACTORS
330
17
102
}
100
AcDbMlineStyle
  2
STANDARD
 70
0
  3

 62
256
 51
90.0
 52
90.0
 71
2
 49
0.5
 62
256
  6
BYLAYER
 49
-0.5
 62
256
  6
BYLAYER
  0
LAYOUT
  5
27D
102
{ACAD_REACTORS
330
1A
102
}
100
AcDbPlotSettings
  1

  2
none_device
  4
ISO_A4_(297.00_x_210.00_MM)
  6

 40
0.0
 41
0.0
 42
0.0
 43
0.0
 44
297.0
 45
210.0
 46
0.0
 47
0.0
 48
0.0
 49
0.0
140
0.0
141
0.0
142
1.0
143
1.0
 70
1024
 72
0
 73
0
 74
0
  7

 75
0
147
1.0
148
0.0
149
0.0
100
AcDbLayout
  1
Model
 70
0
 71
0
 10
0.0
 20
0.0
 11
11.6929133858
 21
8.2677165354
 12
0.0
 22
0.0
 32
0.0
 14
0.0
 24
0.0
 34
0.0
 15
0.0
 25
0.0
 35
0.0
146
0.0
 13
0.0
 23
0.0
 33
0.0
 16
1.0
 26
0.0
 36
0.0
 17
0.0
 27
1.0
 37
0.0
 76
0
330
203
345
0
346
0
  0
LAYOUT
  5
27E
102
{ACAD_REACTORS
330
1A
102
}
100
AcDbPlotSettings
  1

  2
none_device
  4
ISO_A4_(297.00_x_210.00_MM)
  6

 40
0.0
 41
0.0
 42
0.0
 43
0.0
 44
297.0
 45
210.0
 46
0.0
 47
0.0
 48
0.0
 49
0.0
140
0.0
141
0.0
142
1.0
143
1.0
 70
0
 72
0
 73
0
 74
0
  7

 75
0
147
1.0
148
0.0
149
0.0
100
AcDbLayout
  1
Layout1
 70
0
 71
1
 10
0.0
 20
0.0
 11
11.6929133858
 21
8.2677165354
 12
0.0
 22
0.0
 32
0.0
 14
0.0
 24
0.0
 34
0.0
 15
0.0
 25
0.0
 35
0.0
146
0.0
 13
0.0
 23
0.0
 33
0.0
 16
1.0
 26
0.0
 36
0.0
 17
0.0
 27
1.0
 37
0.0
 76
0
330
204
345
0
346
0
  0
ENDSEC
  0
EOF
