999
DXF file: 2-249a_right.dxf
999
Pro/ENGINEER 2018400 by Parametric Technology Corporation
  0
SECTION
  2
HEADER
  9
$ACADVER
  1
AC1027
  9
$DWGCODEPAGE
  3
ANSI_1252
  9
$EXTMAX
 10
11.0
 20
8.5
 30
0.0
  9
$EXTMIN
 10
0.0
 20
0.0
 30
0.0
  9
$LIMMIN
 10
0.0
 20
0.0
  9
$LIMMAX
 10
11.0
 20
8.5
  9
$VIEWCTR
 10
5.5
 20
4.25
  9
$VIEWSIZE
 40
8.5
  9
$CLAYER
  8
0
  9
$LTSCALE
 40
0.605
  9
$CELTYPE
  6
BYLAYER
  9
$DIMSCALE
 40
1.0
  9
$DIMASZ
 40
0.1
  9
$DIMEXO
 40
0.0625
  9
$DIMDLI
 40
0.418
  9
$DIMEXE
 40
0.125
  9
$DIMCEN
 40
0.099
  9
$DIMLFAC
 40
1.0
  9
$DIMBLK
  1
_FILLED
  9
$DIMALT
 70
1
  9
$DIMALTD
 70
2
  9
$DIMALTTD
 70
2
  9
$DIMALTF
 40
25.4
  9
$DIMTXT
 40
0.08
  9
$DIMTOL
 70
1
  9
$DIMLIM
 70
0
  9
$DIMTFAC
 40
1.0
  9
$DIMTP
 40
0.001
  9
$DIMTM
 40
0.001
  9
$DIMGAP
 40
0.09
  9
$DIMDSEP
 70
46
  9
$AUNITS
 70
0
  9
$PDMODE
 70
3
  9
$PDSIZE
 40
0.3125
  9
$HANDSEED
  5
356
  9
$TILEMODE
 70
1
  9
$MEASUREMENT
 70
0
  9
$INSUNITS
 70
1
  0
ENDSEC
  0
SECTION
  2
CLASSES
  0
CLASS
  1
ACDBDICTIONARYWDFLT
  2
AcDbDictionaryWithDefault
  3
AutoCAD 2000
 90
0
 91
1
280
0
281
0
  0
CLASS
  1
ACDBPLACEHOLDER
  2
AcDbPlaceHolder
  3
AutoCAD 2000
 90
0
 91
1
280
0
281
0
  0
CLASS
  1
LAYOUT
  2
AcDbLayout
  3
AutoCAD 2000
 90
0
 91
0
280
0
281
0
  0
ENDSEC
  0
SECTION
  2
TABLES
  0
TABLE
  2
VPORT
  5
8
100
AcDbSymbolTable
 70
2
  0
VPORT
  5
1F4
100
AcDbSymbolTableRecord
100
AcDbViewportTableRecord
  2
*ACTIVE
 70
0
 10
0.0
 20
0.0
 11
1.0
 21
1.0
 12
5.5
 22
4.25
 13
0.0
 23
0.0
 14
1.0
 24
1.0
 15
0.0
 25
0.0
 16
0.0
 26
0.0
 36
1.0
 17
0.0
 27
0.0
 37
0.0
 40
8.5
 41
1.2941176471
 42
50.0
 43
0.0
 44
0.0
 50
0.0
 51
0.0
 71
0
 72
100
 73
1
 74
1
 75
0
 76
0
 77
0
 78
0
  0
ENDTAB
  0
TABLE
  2
LTYPE
  5
5
100
AcDbSymbolTable
 70
6
  0
LTYPE
  5
14
100
AcDbSymbolTableRecord
100
AcDbLinetypeTableRecord
  2
BYBLOCK
 70
0
  3

 72
65
 73
0
 40
0.0
  0
LTYPE
  5
15
100
AcDbSymbolTableRecord
100
AcDbLinetypeTableRecord
  2
BYLAYER
 70
0
  3

 72
65
 73
0
 40
0.0
  0
LTYPE
  5
16
100
AcDbSymbolTableRecord
100
AcDbLinetypeTableRecord
  2
CONTINUOUS
 70
64
  3
Solid line
 72
65
 73
0
 40
0.0
  0
LTYPE
  5
1F5
100
AcDbSymbolTableRecord
100
AcDbLinetypeTableRecord
  2
CENTER
 70
64
  3
____ _ ____ _ ____ _ ____ _ ____ _ ____ _ ____
 72
65
 73
4
 40
0.6
 49
0.375
 74
0
 49
-0.075
 74
0
 49
0.075
 74
0
 49
-0.075
 74
0
  0
LTYPE
  5
1F6
100
AcDbSymbolTableRecord
100
AcDbLinetypeTableRecord
  2
HIDDEN
 70
64
  3
- - - - - - - - - - - - - - - - - - - -
 72
65
 73
2
 40
0.2
 49
0.1
 74
0
 49
-0.1
 74
0
  0
LTYPE
  5
1F7
100
AcDbSymbolTableRecord
100
AcDbLinetypeTableRecord
  2
PHANTOM
 70
64
  3
_____ _ _ _____ _ _ _____ _ _ _____
 72
65
 73
6
 40
0.8
 49
0.45
 74
0
 49
-0.05
 74
0
 49
0.1
 74
0
 49
-0.05
 74
0
 49
0.1
 74
0
 49
-0.05
 74
0
  0
LTYPE
  5
1F8
100
AcDbSymbolTableRecord
100
AcDbLinetypeTableRecord
  2
DOT
 70
64
  3
. . . . . . . . . . . . . . . . . . . .
 72
65
 73
2
 40
0.2
 49
0.1
 74
0
 49
-0.1
 74
0
  0
LTYPE
  5
1F9
100
AcDbSymbolTableRecord
100
AcDbLinetypeTableRecord
  2
DASHED
 70
64
  3
- - - - - - - - - - - - - - - - - - - -
 72
65
 73
2
 40
0.2
 49
0.1
 74
0
 49
-0.1
 74
0
  0
ENDTAB
  0
TABLE
  2
LAYER
  5
2
100
AcDbSymbolTable
 70
36
  0
LAYER
  5
10
100
AcDbSymbolTableRecord
100
AcDbLayerTableRecord
  2
0
 70
0
 62
7
  6
CONTINUOUS
370
-3
390
F
  0
LAYER
  5
1FA
100
AcDbSymbolTableRecord
100
AcDbLayerTableRecord
  2
DEFAULT_1
 70
0
 62
7
  6
CENTER
370
-3
390
F
  0
LAYER
  5
1FB
100
AcDbSymbolTableRecord
100
AcDbLayerTableRecord
  2
DEFAULT_2
 70
0
 62
8
  6
HIDDEN
370
-3
390
F
  0
LAYER
  5
1FC
100
AcDbSymbolTableRecord
100
AcDbLayerTableRecord
  2
DEFAULT_3
 70
0
 62
7
  6
PHANTOM
370
-3
390
F
  0
LAYER
  5
1FD
100
AcDbSymbolTableRecord
100
AcDbLayerTableRecord
  2
ALL_ASSEMBLY_MEMBERS
 70
0
 62
7
  6
CONTINUOUS
370
-3
390
F
  0
LAYER
  5
1FE
100
AcDbSymbolTableRecord
100
AcDbLayerTableRecord
  2
ALL_FEATURES
 70
0
 62
7
  6
CONTINUOUS
370
-3
390
F
  0
LAYER
  5
1FF
100
AcDbSymbolTableRecord
100
AcDbLayerTableRecord
  2
AXES_FEATURES
 70
0
 62
7
  6
CONTINUOUS
370
-3
390
F
  0
LAYER
  5
200
100
AcDbSymbolTableRecord
100
AcDbLayerTableRecord
  2
CHAMFER_FEATURES
 70
0
 62
7
  6
CONTINUOUS
370
-3
390
F
  0
LAYER
  5
201
100
AcDbSymbolTableRecord
100
AcDbLayerTableRecord
  2
CUT_FEATURES
 70
0
 62
7
  6
CONTINUOUS
370
-3
390
F
  0
LAYER
  5
202
100
AcDbSymbolTableRecord
100
AcDbLayerTableRecord
  2
DATUM_CURVES
 70
0
 62
7
  6
CONTINUOUS
370
-3
390
F
  0
LAYER
  5
203
100
AcDbSymbolTableRecord
100
AcDbLayerTableRecord
  2
DATUM_PLANES
 70
0
 62
7
  6
CONTINUOUS
370
-3
390
F
  0
LAYER
  5
204
100
AcDbSymbolTableRecord
100
AcDbLayerTableRecord
  2
DATUM_POINTS
 70
0
 62
7
  6
CONTINUOUS
370
-3
390
F
  0
LAYER
  5
205
100
AcDbSymbolTableRecord
100
AcDbLayerTableRecord
  2
DEFAULT_COORDINATE_SYSTEM
 70
0
 62
7
  6
CONTINUOUS
370
-3
390
F
  0
LAYER
  5
206
100
AcDbSymbolTableRecord
100
AcDbLayerTableRecord
  2
DEFAULT_DATUM_AXES
 70
0
 62
7
  6
CONTINUOUS
370
-3
390
F
  0
LAYER
  5
207
100
AcDbSymbolTableRecord
100
AcDbLayerTableRecord
  2
DEFAULT_DATUM_PLANES
 70
0
 62
7
  6
CONTINUOUS
370
-3
390
F
  0
LAYER
  5
208
100
AcDbSymbolTableRecord
100
AcDbLayerTableRecord
  2
DIMENSIONS
 70
0
 62
7
  6
CONTINUOUS
370
-3
390
F
  0
LAYER
  5
209
100
AcDbSymbolTableRecord
100
AcDbLayerTableRecord
  2
INTF_1
 70
0
 62
7
  6
CONTINUOUS
370
-3
390
F
  0
LAYER
  5
20A
100
AcDbSymbolTableRecord
100
AcDbLayerTableRecord
  2
POINTS
 70
0
 62
7
  6
CONTINUOUS
370
-3
390
F
  0
LAYER
  5
20B
100
AcDbSymbolTableRecord
100
AcDbLayerTableRecord
  2
PROTRUSION_FEATURES
 70
0
 62
7
  6
CONTINUOUS
370
-3
390
F
  0
LAYER
  5
20C
100
AcDbSymbolTableRecord
100
AcDbLayerTableRecord
  2
QUILT
 70
0
 62
7
  6
CONTINUOUS
370
-3
390
F
  0
LAYER
  5
20D
100
AcDbSymbolTableRecord
100
AcDbLayerTableRecord
  2
QUILTS
 70
0
 62
7
  6
CONTINUOUS
370
-3
390
F
  0
LAYER
  5
20E
100
AcDbSymbolTableRecord
100
AcDbLayerTableRecord
  2
REF_CURVES
 70
0
 62
7
  6
CONTINUOUS
370
-3
390
F
  0
LAYER
  5
20F
100
AcDbSymbolTableRecord
100
AcDbLayerTableRecord
  2
RGB(   0_   0_   0 )
 70
0
 62
7
  6
CONTINUOUS
370
-3
390
F
  0
LAYER
  5
210
100
AcDbSymbolTableRecord
100
AcDbLayerTableRecord
  2
ROUND_FEATURES
 70
0
 62
7
  6
CONTINUOUS
370
-3
390
F
  0
LAYER
  5
211
100
AcDbSymbolTableRecord
100
AcDbLayerTableRecord
  2
SHELL_FEATURES
 70
0
 62
7
  6
CONTINUOUS
370
-3
390
F
  0
LAYER
  5
212
100
AcDbSymbolTableRecord
100
AcDbLayerTableRecord
  2
SIZE_REF
 70
0
 62
7
  6
CONTINUOUS
370
-3
390
F
  0
LAYER
  5
213
100
AcDbSymbolTableRecord
100
AcDbLayerTableRecord
  2
SURFACE_FEATURES
 70
0
 62
7
  6
CONTINUOUS
370
-3
390
F
  0
ENDTAB
  0
TABLE
  2
STYLE
  5
3
100
AcDbSymbolTable
 70
1
  0
STYLE
  5
11
100
AcDbSymbolTableRecord
100
AcDbTextStyleTableRecord
  2
STANDARD
 70
0
 40
0.0
 41
0.8
 50
0.0
 71
0
 42
0.2
  3
txt
  4

  0
STYLE
  5
214
100
AcDbSymbolTableRecord
100
AcDbTextStyleTableRecord
  2
TEXTSTYLE_1
 70
0
 40
0.0
 41
0.8
 50
0.0
 71
0
 42
0.2
  3
gdt
  4

  0
ENDTAB
  0
TABLE
  2
VIEW
  5
6
100
AcDbSymbolTable
 70
0
  0
ENDTAB
  0
TABLE
  2
UCS
  5
7
100
AcDbSymbolTable
 70
0
  0
ENDTAB
  0
TABLE
  2
APPID
  5
9
100
AcDbSymbolTable
 70
1
  0
APPID
  5
215
100
AcDbSymbolTableRecord
100
AcDbRegAppTableRecord
  2
ACAD
 70
0
  0
ENDTAB
  0
TABLE
  2
BLOCK_RECORD
  5
1
100
AcDbSymbolTable
 70
0
  0
BLOCK_RECORD
  5
216
100
AcDbSymbolTableRecord
100
AcDbBlockTableRecord
  2
*Model_Space
  0
BLOCK_RECORD
  5
217
100
AcDbSymbolTableRecord
100
AcDbBlockTableRecord
  2
*Paper_Space
  0
BLOCK_RECORD
  5
218
100
AcDbSymbolTableRecord
100
AcDbBlockTableRecord
  2
_FILLED
  0
ENDTAB
  0
TABLE
  2
DIMSTYLE
  5
A
100
AcDbSymbolTable
 70
1
100
AcDbDimStyleTable
 71
0
  0
DIMSTYLE
105
219
100
AcDbSymbolTableRecord
100
AcDbDimStyleTableRecord
  2
STANDARD
 70
0
  3

  4

 40
1.0
 41
0.1
 42
0.0625
 43
0.38
 44
0.125
 45
0.0
 46
0.0
 47
0.001
 48
0.001
140
0.08
141
0.09
142
0.0
143
25.4
144
1.0
145
0.0
146
1.0
147
0.09
 71
1.0
 72
0.0
 73
1
 74
1
 75
0
 76
0
 77
0
 78
4
 79
1
170
1
171
2
172
0
173
0
174
0
175
0
176
0
177
0
178
0
270
2
179
3
271
3
272
3
273
2
274
2
275
0
280
0
281
0
282
0
283
1
284
4
285
0
286
0
287
3
288
0
340
11
278
46
341
218
342
218
343
218
344
218
  0
ENDTAB
  0
ENDSEC
  0
SECTION
  2
BLOCKS
  0
BLOCK
  5
20
100
AcDbEntity
  8
0
100
AcDbBlockBegin
  2
*Model_Space
 70
0
 10
0.0
 20
0.0
 30
0.0
  3
*Model_Space
  1

  0
ENDBLK
  5
21
100
AcDbEntity
  8
0
100
AcDbBlockEnd
  0
BLOCK
  5
1C
100
AcDbEntity
  8
0
100
AcDbBlockBegin
  2
*Paper_Space
 70
0
 10
0.0
 20
0.0
 30
0.0
  3
*Paper_Space
  1

  0
ENDBLK
  5
1D
100
AcDbEntity
  8
0
100
AcDbBlockEnd
  0
BLOCK
  5
21A
100
AcDbEntity
  8
0
100
AcDbBlockBegin
  2
_FILLED
 70
64
 10
0.0
 20
0.0
  3
_FILLED
  1

  0
SOLID
  5
21B
100
AcDbEntity
  8
0
  6
BYBLOCK
 62
0
100
AcDbTrace
 10
0.0
 20
0.0
 11
-1.0
 21
0.2
 12
-1.0
 22
-0.2
 13
-1.0
 23
-0.2
  0
ENDBLK
  5
21C
100
AcDbEntity
  8
0
  6
BYBLOCK
 62
0
100
AcDbBlockEnd
  0
ENDSEC
  0
SECTION
  2
ENTITIES
  0
MTEXT
  5
21D
100
AcDbEntity
  8
0
100
AcDbMText
 62
2
  6
CONTINUOUS
  7
STANDARD
 71
3
 72
1
 10
6.378470271
 20
2.3455751045
 30
0.0
 11
1.0
 21
0.0
 31
0.0
 73
2
 44
0.9
  1
SCALE  .500
 40
0.08
 41
0.704
  0
LINE
  5
21E
100
AcDbEntity
  8
0
100
AcDbLine
 62
7
  6
CONTINUOUS
 10
0.0
 20
0.0
 11
0.0
 21
8.5
  0
LINE
  5
21F
100
AcDbEntity
  8
0
100
AcDbLine
 62
7
  6
CONTINUOUS
 10
0.0
 20
0.0
 11
11.0
 21
0.0
  0
LINE
  5
220
100
AcDbEntity
  8
0
100
AcDbLine
 62
7
  6
CONTINUOUS
 10
0.0
 20
8.5
 11
11.0
 21
8.5
  0
LINE
  5
221
100
AcDbEntity
  8
0
100
AcDbLine
 62
7
  6
CONTINUOUS
 10
11.0
 20
0.0
 11
11.0
 21
8.5
  0
LINE
  5
222
100
AcDbEntity
  8
ALL_ASSEMBLY_MEMBERS
100
AcDbLine
 62
7
  6
CONTINUOUS
 10
3.6370624615
 20
3.5308269256
 11
3.6388302284
 21
3.5277650634
  0
LINE
  5
223
100
AcDbEntity
  8
ALL_ASSEMBLY_MEMBERS
100
AcDbLine
 62
7
  6
CONTINUOUS
 10
3.5820046894
 20
3.5455796111
 11
3.592680975
 21
3.5854240515
  0
LINE
  5
224
100
AcDbEntity
  8
ALL_ASSEMBLY_MEMBERS
100
AcDbLine
 62
7
  6
CONTINUOUS
 10
3.6088571653
 20
3.6457944156
 11
3.6195334509
 21
3.685638856
  0
LINE
  5
225
100
AcDbEntity
  8
ALL_ASSEMBLY_MEMBERS
100
AcDbLine
 62
7
  6
CONTINUOUS
 10
4.1517368422
 20
3.3903321504
 11
3.6388302284
 21
3.5277650634
  0
LINE
  5
226
100
AcDbEntity
  8
ALL_ASSEMBLY_MEMBERS
100
AcDbLine
 62
7
  6
CONTINUOUS
 10
4.2098564765
 20
3.3773472318
 11
3.5820046894
 21
3.5455796111
  0
LINE
  5
227
100
AcDbEntity
  8
ALL_ASSEMBLY_MEMBERS
100
AcDbLine
 62
7
  6
CONTINUOUS
 10
4.2215305984
 20
3.4169243027
 11
4.2205327621
 21
3.4171916722
  0
LINE
  5
228
100
AcDbEntity
  8
ALL_ASSEMBLY_MEMBERS
100
AcDbLine
 62
7
  6
CONTINUOUS
 10
4.219856011
 20
3.4173730071
 11
4.2185151308
 21
3.4177322948
  0
LINE
  5
229
100
AcDbEntity
  8
ALL_ASSEMBLY_MEMBERS
100
AcDbLine
 62
7
  6
CONTINUOUS
 10
4.211530463
 20
3.4196038309
 11
4.2100173749
 21
3.4200092617
  0
LINE
  5
22A
100
AcDbEntity
  8
ALL_ASSEMBLY_MEMBERS
100
AcDbLine
 62
7
  6
CONTINUOUS
 10
4.1967337446
 20
3.4235685997
 11
4.1950529555
 21
3.4240189658
  0
LINE
  5
22B
100
AcDbEntity
  8
ALL_ASSEMBLY_MEMBERS
100
AcDbLine
 62
7
  6
CONTINUOUS
 10
4.1757790874
 20
3.4291833831
 11
4.1739408129
 21
3.4296759473
  0
LINE
  5
22C
100
AcDbEntity
  8
ALL_ASSEMBLY_MEMBERS
100
AcDbLine
 62
7
  6
CONTINUOUS
 10
4.1491098676
 20
3.436329379
 11
4.1471309156
 21
3.4368596376
  0
LINE
  5
22D
100
AcDbEntity
  8
ALL_ASSEMBLY_MEMBERS
100
AcDbLine
 62
7
  6
CONTINUOUS
 10
4.1172992513
 20
3.444853008
 11
4.1151946696
 21
3.445416929
  0
LINE
  5
22E
100
AcDbEntity
  8
ALL_ASSEMBLY_MEMBERS
100
AcDbLine
 62
7
  6
CONTINUOUS
 10
4.0810269631
 20
3.4545721383
 11
4.0788127398
 21
3.4551654377
  0
LINE
  5
22F
100
AcDbEntity
  8
ALL_ASSEMBLY_MEMBERS
100
AcDbLine
 62
7
  6
CONTINUOUS
 10
4.0410629172
 20
3.4652804722
 11
4.0387605436
 21
3.4658973913
  0
LINE
  5
230
100
AcDbEntity
  8
ALL_ASSEMBLY_MEMBERS
100
AcDbLine
 62
7
  6
CONTINUOUS
 10
3.9982567819
 20
3.4767503415
 11
3.9958917232
 21
3.4773840571
  0
LINE
  5
231
100
AcDbEntity
  8
ALL_ASSEMBLY_MEMBERS
100
AcDbLine
 62
7
  6
CONTINUOUS
 10
3.9535219253
 20
3.4887370102
 11
3.9511199526
 21
3.4893806169
  0
LINE
  5
232
100
AcDbEntity
  8
ALL_ASSEMBLY_MEMBERS
100
AcDbLine
 62
7
  6
CONTINUOUS
 10
3.9078142487
 20
3.5009843453
 11
3.9053994883
 21
3.5016313784
  0
LINE
  5
233
100
AcDbEntity
  8
ALL_ASSEMBLY_MEMBERS
100
AcDbLine
 62
7
  6
CONTINUOUS
 10
3.8620930794
 20
3.5132352957
 11
3.859691107
 21
3.5138789022
  0
LINE
  5
234
100
AcDbEntity
  8
ALL_ASSEMBLY_MEMBERS
100
AcDbLine
 62
7
  6
CONTINUOUS
 10
3.817321331
 20
3.5252318495
 11
3.8149562731
 21
3.5258655649
  0
LINE
  5
235
100
AcDbEntity
  8
ALL_ASSEMBLY_MEMBERS
100
AcDbLine
 62
7
  6
CONTINUOUS
 10
3.7744525474
 20
3.5367185054
 11
3.772150175
 21
3.5373354243
  0
LINE
  5
236
100
AcDbEntity
  8
ALL_ASSEMBLY_MEMBERS
100
AcDbLine
 62
7
  6
CONTINUOUS
 10
3.7344004017
 20
3.5474504455
 11
3.73218618
 21
3.5480437445
  0
LINE
  5
237
100
AcDbEntity
  8
ALL_ASSEMBLY_MEMBERS
100
AcDbLine
 62
7
  6
CONTINUOUS
 10
3.6980185352
 20
3.5571989373
 11
3.6959240435
 21
3.5577601546
  0
LINE
  5
238
100
AcDbEntity
  8
ALL_ASSEMBLY_MEMBERS
100
AcDbLine
 62
7
  6
CONTINUOUS
 10
3.6660823637
 20
3.5657562087
 11
3.6641171944
 21
3.5662827742
  0
LINE
  5
239
100
AcDbEntity
  8
ALL_ASSEMBLY_MEMBERS
100
AcDbLine
 62
7
  6
CONTINUOUS
 10
3.6392725507
 20
3.5729398764
 11
3.6374342785
 21
3.5734324399
  0
LINE
  5
23A
100
AcDbEntity
  8
ALL_ASSEMBLY_MEMBERS
100
AcDbLine
 62
7
  6
CONTINUOUS
 10
3.6181605005
 20
3.5785968332
 11
3.6164797139
 21
3.5790471986
  0
LINE
  5
23B
100
AcDbEntity
  8
ALL_ASSEMBLY_MEMBERS
100
AcDbLine
 62
7
  6
CONTINUOUS
 10
3.6031961794
 20
3.582606511
 11
3.6016830939
 21
3.583011941
  0
LINE
  5
23C
100
AcDbEntity
  8
ALL_ASSEMBLY_MEMBERS
100
AcDbLine
 62
7
  6
CONTINUOUS
 10
3.5946985257
 20
3.5848834504
 11
3.5933640002
 21
3.5852410354
  0
LINE
  5
23D
100
AcDbEntity
  8
ALL_ASSEMBLY_MEMBERS
100
AcDbLine
 62
7
  6
CONTINUOUS
 10
3.592680975
 20
3.5854240515
 11
3.591696047
 21
3.5856879621
  0
LINE
  5
23E
100
AcDbEntity
  8
ALL_ASSEMBLY_MEMBERS
100
AcDbLine
 62
7
  6
CONTINUOUS
 10
4.2360244055
 20
3.4777454601
 11
4.2346913211
 21
3.478102659
  0
LINE
  5
23F
100
AcDbEntity
  8
ALL_ASSEMBLY_MEMBERS
100
AcDbLine
 62
7
  6
CONTINUOUS
 10
4.2277082015
 20
3.4799737802
 11
4.2261935652
 21
3.4803796258
  0
LINE
  5
240
100
AcDbEntity
  8
ALL_ASSEMBLY_MEMBERS
100
AcDbLine
 62
7
  6
CONTINUOUS
 10
4.1919434132
 20
3.4895569264
 11
4.1901170033
 21
3.4900463114
  0
LINE
  5
241
100
AcDbEntity
  8
ALL_ASSEMBLY_MEMBERS
100
AcDbLine
 62
7
  6
CONTINUOUS
 10
4.1652886263
 20
3.496699055
 11
4.163307106
 21
3.4972300018
  0
LINE
  5
242
100
AcDbEntity
  8
ALL_ASSEMBLY_MEMBERS
100
AcDbLine
 62
7
  6
CONTINUOUS
 10
4.0971888265
 20
3.5149463414
 11
4.0949889301
 21
3.5155358018
  0
LINE
  5
243
100
AcDbEntity
  8
ALL_ASSEMBLY_MEMBERS
100
AcDbLine
 62
7
  6
CONTINUOUS
 10
4.0572382216
 20
3.5256510737
 11
4.0549367339
 21
3.5262677555
  0
LINE
  5
244
100
AcDbEntity
  8
ALL_ASSEMBLY_MEMBERS
100
AcDbLine
 62
7
  6
CONTINUOUS
 10
4.0144219405
 20
3.5371236616
 11
4.0120679135
 21
3.5377544213
  0
LINE
  5
245
100
AcDbEntity
  8
ALL_ASSEMBLY_MEMBERS
100
AcDbLine
 62
7
  6
CONTINUOUS
 10
3.7141947255
 20
3.6175693014
 11
3.7121003289
 21
3.6181304933
  0
LINE
  5
246
100
AcDbEntity
  8
ALL_ASSEMBLY_MEMBERS
100
AcDbLine
 62
7
  6
CONTINUOUS
 10
3.6343366908
 20
3.6389671973
 11
3.6326727865
 21
3.6394130391
  0
LINE
  5
247
100
AcDbEntity
  8
ALL_ASSEMBLY_MEMBERS
100
AcDbLine
 62
7
  6
CONTINUOUS
 10
3.6088571653
 20
3.6457944156
 11
3.6078816512
 21
3.6460558038
  0
LINE
  5
248
100
AcDbEntity
  8
ALL_ASSEMBLY_MEMBERS
100
AcDbLine
 62
7
  6
CONTINUOUS
 10
3.6095338384
 20
3.6456131016
 11
3.610874716
 21
3.6452538145
  0
LINE
  5
249
100
AcDbEntity
  8
ALL_ASSEMBLY_MEMBERS
100
AcDbLine
 62
7
  6
CONTINUOUS
 10
3.6178592842
 20
3.6433823051
 11
3.6193723697
 21
3.6429768751
  0
LINE
  5
24A
100
AcDbEntity
  8
ALL_ASSEMBLY_MEMBERS
100
AcDbLine
 62
7
  6
CONTINUOUS
 10
3.6536104689
 20
3.6338028041
 11
3.655448741
 21
3.6333102405
  0
LINE
  5
24B
100
AcDbEntity
  8
ALL_ASSEMBLY_MEMBERS
100
AcDbLine
 62
7
  6
CONTINUOUS
 10
3.6802796041
 20
3.6266568308
 11
3.682258554
 21
3.6261265728
  0
LINE
  5
24C
100
AcDbEntity
  8
ALL_ASSEMBLY_MEMBERS
100
AcDbLine
 62
7
  6
CONTINUOUS
 10
3.7483623703
 20
3.6084141086
 11
3.750576592
 21
3.6078208097
  0
LINE
  5
24D
100
AcDbEntity
  8
ALL_ASSEMBLY_MEMBERS
100
AcDbLine
 62
7
  6
CONTINUOUS
 10
3.7883263653
 20
3.5977057884
 11
3.7906287377
 21
3.5970888696
  0
LINE
  5
24E
100
AcDbEntity
  8
ALL_ASSEMBLY_MEMBERS
100
AcDbLine
 62
7
  6
CONTINUOUS
 10
3.8311324634
 20
3.586235929
 11
3.8334975213
 21
3.5856022136
  0
LINE
  5
24F
100
AcDbEntity
  8
ALL_ASSEMBLY_MEMBERS
100
AcDbLine
 62
7
  6
CONTINUOUS
 10
3.8758672974
 20
3.5742492664
 11
3.8782692697
 21
3.5736056598
  0
LINE
  5
250
100
AcDbEntity
  8
ALL_ASSEMBLY_MEMBERS
100
AcDbLine
 62
7
  6
CONTINUOUS
 10
3.9215756786
 20
3.5620017425
 11
3.923990439
 21
3.5613547094
  0
LINE
  5
251
100
AcDbEntity
  8
ALL_ASSEMBLY_MEMBERS
100
AcDbLine
 62
7
  6
CONTINUOUS
 10
3.9672961429
 20
3.549750981
 11
3.9696981156
 21
3.5491073744
  0
LINE
  5
252
100
AcDbEntity
  8
ALL_ASSEMBLY_MEMBERS
100
AcDbLine
 62
7
  6
CONTINUOUS
 10
4.1313708599
 20
3.5057872931
 11
4.133465353
 21
3.5052260754
  0
LINE
  5
253
100
AcDbEntity
  8
ALL_ASSEMBLY_MEMBERS
100
AcDbLine
 62
7
  6
CONTINUOUS
 10
4.2112291458
 20
3.4843893299
 11
4.2129099349
 21
3.4839389638
  0
LINE
  5
254
100
AcDbEntity
  8
ALL_ASSEMBLY_MEMBERS
100
AcDbLine
 62
7
  6
CONTINUOUS
 10
4.2367089524
 20
3.4775620363
 11
4.2377067887
 21
3.4772946669
  0
LINE
  5
255
100
AcDbEntity
  8
ALL_ASSEMBLY_MEMBERS
100
AcDbLine
 62
7
  6
CONTINUOUS
 10
4.2098564765
 20
3.3773472318
 11
4.2205327621
 21
3.4171916722
  0
LINE
  5
256
100
AcDbEntity
  8
ALL_ASSEMBLY_MEMBERS
100
AcDbLine
 62
7
  6
CONTINUOUS
 10
4.2367089524
 20
3.4775620363
 11
4.247385238
 21
3.5174064766
  0
LWPOLYLINE
  5
257
100
AcDbEntity
  8
ALL_ASSEMBLY_MEMBERS
100
AcDbPolyline
 62
7
  6
CONTINUOUS
 90
33
 70
0
 10
4.2464676599
 20
3.5176523409
 10
4.2525671061
 20
3.537963712
 10
4.2614120951
 20
3.5626360513
 10
4.271534214
 20
3.586465419
 10
4.2828008211
 20
3.6093037232
 10
4.2951644358
 20
3.6311883258
 10
4.308711179
 20
3.6523163845
 10
4.3234055029
 20
3.6726229323
 10
4.3391928853
 20
3.692048366
 10
4.356209062
 20
3.7107501083
 10
4.3744275993
 20
3.7286502779
 10
4.393819996
 20
3.7456695413
 10
4.4145843962
 20
3.7618950841
 10
4.4367407452
 20
3.7772183793
 10
4.4602431558
 20
3.7914819679
 10
4.4852284083
 20
3.8046204366
 10
4.5117251067
 20
3.8164633229
 10
4.5396286119
 20
3.8267657911
 10
4.5688739041
 20
3.8352976747
 10
4.5993160543
 20
3.8419972226
 10
4.6307995701
 20
3.8474348814
 10
4.6632222661
 20
3.8523633838
 10
4.6964717697
 20
3.8571015869
 10
4.7305767808
 20
3.8616064351
 10
4.7657284072
 20
3.8658531939
 10
4.8019031135
 20
3.8698124698
 10
4.8391149935
 20
3.8734606705
 10
4.8776121083
 20
3.8767830785
 10
4.9173838256
 20
3.8797333867
 10
4.9584516656
 20
3.8822701762
 10
5.0011195877
 20
3.884362796
 10
5.0454896155
 20
3.8859559044
 10
5.0571361909
 20
3.8862759942
  0
LINE
  5
258
100
AcDbEntity
  8
ALL_ASSEMBLY_MEMBERS
100
AcDbLine
 62
7
  6
CONTINUOUS
 10
4.247385238
 20
3.5174064766
 11
3.6195334509
 21
3.685638856
  0
LINE
  5
259
100
AcDbEntity
  8
ALL_ASSEMBLY_MEMBERS
100
AcDbLine
 62
7
  6
CONTINUOUS
 10
6.5708150314
 20
3.4812678691
 11
6.5702085012
 21
3.4812678691
  0
LINE
  5
25A
100
AcDbEntity
  8
ALL_ASSEMBLY_MEMBERS
100
AcDbLine
 62
7
  6
CONTINUOUS
 10
6.5702085012
 20
3.5037678691
 11
6.5639010869
 21
3.5037678691
  0
LINE
  5
25B
100
AcDbEntity
  8
ALL_ASSEMBLY_MEMBERS
100
AcDbLine
 62
7
  6
CONTINUOUS
 10
5.1099246991
 20
3.8872161867
 11
5.1390103409
 21
3.8873770864
  0
LWPOLYLINE
  5
25C
100
AcDbEntity
  8
ALL_ASSEMBLY_MEMBERS
100
AcDbPolyline
 62
7
  6
CONTINUOUS
 90
19
 70
0
 10
5.1099246991
 20
3.8872161867
 10
5.1949403769
 20
3.8869738112
 10
5.2916193169
 20
3.8840625799
 10
5.3886466403
 20
3.8783120547
 10
5.4872911693
 20
3.869547807
 10
5.5861049949
 20
3.8578041135
 10
5.6797153295
 20
3.8438831484
 10
5.7659118618
 20
3.8287009051
 10
5.8468570172
 20
3.8119927826
 10
5.9237308309
 20
3.7929829265
 10
5.9957641182
 20
3.7720455672
 10
6.0636313644
 20
3.7493573007
 10
6.1306606807
 20
3.7240553166
 10
6.1978669374
 20
3.6957031478
 10
6.2639992243
 20
3.6647347081
 10
6.3288641149
 20
3.6312242071
 10
6.3923381311
 20
3.5952432917
 10
6.4543573635
 20
3.5568362114
 10
6.5068220574
 20
3.521658276
  0
LINE
  5
25D
100
AcDbEntity
  8
ALL_ASSEMBLY_MEMBERS
100
AcDbLine
 62
7
  6
CONTINUOUS
 10
6.5068232358
 20
4.090017869
 11
6.5638993592
 21
4.090382234
  0
LINE
  5
25E
100
AcDbEntity
  8
ALL_ASSEMBLY_MEMBERS
100
AcDbLine
 62
7
  6
CONTINUOUS
 10
4.1547987044
 20
3.3920999174
 11
4.1517368422
 21
3.3903321504
  0
LWPOLYLINE
  5
25F
100
AcDbEntity
  8
ALL_ASSEMBLY_MEMBERS
100
AcDbPolyline
 62
7
  6
CONTINUOUS
 90
26
 70
0
 10
4.6334197385
 20
4.2562430425
 10
4.6199864846
 20
4.2560358663
 10
4.5573558654
 20
4.2554313442
 10
4.4972359375
 20
4.2538099682
 10
4.4394185815
 20
4.2489585259
 10
4.3840995117
 20
4.2411935979
 10
4.331370807
 20
4.2309738532
 10
4.2808513112
 20
4.2184734299
 10
4.2328875034
 20
4.2040420443
 10
4.1872210183
 20
4.1878825458
 10
4.1425949375
 20
4.1696909545
 10
4.0987942936
 20
4.1493834745
 10
4.0561994515
 20
4.1271413386
 10
4.0145329373
 20
4.1028184726
 10
3.9737264213
 20
4.076325234
 10
3.9340642527
 20
4.0477968567
 10
3.8958113633
 20
4.0174047023
 10
3.8590889617
 20
3.9852447039
 10
3.8239489102
 20
3.9513765052
 10
3.7905191652
 20
3.9159595835
 10
3.7588627257
 20
3.8790991658
 10
3.7290403722
 20
3.8408957754
 10
3.7011449063
 20
3.8015055972
 10
3.6752216228
 20
3.7610447031
 10
3.6512923497
 20
3.7195866924
 10
3.6319006173
 20
3.6823250837
  0
LWPOLYLINE
  5
260
100
AcDbEntity
  8
ALL_ASSEMBLY_MEMBERS
100
AcDbPolyline
 62
7
  6
CONTINUOUS
 90
24
 70
0
 10
6.5068224076
 20
4.6583777828
 10
6.448693648
 20
4.6195531171
 10
6.3835037577
 20
4.5795881676
 10
6.3167203958
 20
4.5422910538
 10
6.2483950475
 20
4.5077032197
 10
6.1786912801
 20
4.4759257703
 10
6.1078980372
 20
4.4470837695
 10
6.0376210999
 20
4.4216768787
 10
5.9665476346
 20
4.3990808901
 10
5.890437499
 20
4.3782523958
 10
5.8077097429
 20
4.3595845916
 10
5.7199472149
 20
4.3440621919
 10
5.6276814563
 20
4.3308393281
 10
5.5288678263
 20
4.3181233342
 10
5.4259134092
 20
4.3060823504
 10
5.3262327992
 20
4.2956664594
 10
5.231978767
 20
4.2869143249
 10
5.141057695
 20
4.2794876133
 10
5.054579482
 20
4.2733479802
 10
4.9733749769
 20
4.268399003
 10
4.8966501401
 20
4.2644485415
 10
4.8230747156
 20
4.2613215892
 10
4.7524435819
 20
4.2589246406
 10
4.7244766862
 20
4.2581410686
  0
LINE
  5
261
100
AcDbEntity
  8
ALL_ASSEMBLY_MEMBERS
100
AcDbLine
 62
7
  6
CONTINUOUS
 10
6.5702085012
 20
4.6762678691
 11
6.5639009729
 21
4.6762678691
  0
LINE
  5
262
100
AcDbEntity
  8
ALL_ASSEMBLY_MEMBERS
100
AcDbLine
 62
7
  6
CONTINUOUS
 10
6.5708150314
 20
4.6987678691
 11
6.5702085012
 21
4.6987678691
  0
LINE
  5
263
100
AcDbEntity
  8
ALL_ASSEMBLY_MEMBERS
100
AcDbLine
 62
7
  6
CONTINUOUS
 10
6.5702085012
 20
3.4812678691
 11
6.5702085012
 21
4.6987678691
  0
LINE
  5
264
100
AcDbEntity
  8
ALL_ASSEMBLY_MEMBERS
100
AcDbLine
 62
7
  6
CONTINUOUS
 10
6.5708150314
 20
4.6987678691
 11
6.5708150314
 21
3.4812678691
  0
LINE
  5
265
100
AcDbEntity
  8
ALL_ASSEMBLY_MEMBERS
100
AcDbLine
 62
7
  6
CONTINUOUS
 10
6.580102744
 20
4.4925767351
 11
6.580102744
 21
4.490275588
  0
LINE
  5
266
100
AcDbEntity
  8
ALL_ASSEMBLY_MEMBERS
100
AcDbLine
 62
7
  6
CONTINUOUS
 10
6.580102744
 20
4.4406779764
 11
6.580102744
 21
4.4341724326
  0
LINE
  5
267
100
AcDbEntity
  8
ALL_ASSEMBLY_MEMBERS
100
AcDbLine
 62
7
  6
CONTINUOUS
 10
6.580102744
 20
4.3845977143
 11
6.580102744
 21
4.3746069926
  0
LINE
  5
268
100
AcDbEntity
  8
ALL_ASSEMBLY_MEMBERS
100
AcDbLine
 62
7
  6
CONTINUOUS
 10
6.580102744
 20
4.3249847713
 11
6.580102744
 21
4.3122422385
  0
LINE
  5
269
100
AcDbEntity
  8
ALL_ASSEMBLY_MEMBERS
100
AcDbLine
 62
7
  6
CONTINUOUS
 10
6.580102744
 20
4.2626167408
 11
6.580102744
 21
4.2475859739
  0
LINE
  5
26A
100
AcDbEntity
  8
ALL_ASSEMBLY_MEMBERS
100
AcDbLine
 62
7
  6
CONTINUOUS
 10
6.580102744
 20
4.1979673451
 11
6.580102744
 21
4.1816452681
  0
LINE
  5
26B
100
AcDbEntity
  8
ALL_ASSEMBLY_MEMBERS
100
AcDbLine
 62
7
  6
CONTINUOUS
 10
6.580102744
 20
4.1319913253
 11
6.580102744
 21
4.1147851329
  0
LINE
  5
26C
100
AcDbEntity
  8
ALL_ASSEMBLY_MEMBERS
100
AcDbLine
 62
7
  6
CONTINUOUS
 10
6.580102744
 20
4.0652221069
 11
6.580102744
 21
4.048088514
  0
LINE
  5
26D
100
AcDbEntity
  8
ALL_ASSEMBLY_MEMBERS
100
AcDbLine
 62
7
  6
CONTINUOUS
 10
6.580102744
 20
3.998424839
 11
6.580102744
 21
3.9820236069
  0
LINE
  5
26E
100
AcDbEntity
  8
ALL_ASSEMBLY_MEMBERS
100
AcDbLine
 62
7
  6
CONTINUOUS
 10
6.580102744
 20
3.9324149121
 11
6.580102744
 21
3.9174875798
  0
LINE
  5
26F
100
AcDbEntity
  8
ALL_ASSEMBLY_MEMBERS
100
AcDbLine
 62
7
  6
CONTINUOUS
 10
6.580102744
 20
3.8677920882
 11
6.580102744
 21
3.8550162625
  0
LINE
  5
270
100
AcDbEntity
  8
ALL_ASSEMBLY_MEMBERS
100
AcDbLine
 62
7
  6
CONTINUOUS
 10
6.580102744
 20
3.8054303999
 11
6.580102744
 21
3.7954342937
  0
LINE
  5
271
100
AcDbEntity
  8
ALL_ASSEMBLY_MEMBERS
100
AcDbLine
 62
7
  6
CONTINUOUS
 10
6.580102744
 20
3.7457919608
 11
6.580102744
 21
3.7393916035
  0
LINE
  5
272
100
AcDbEntity
  8
ALL_ASSEMBLY_MEMBERS
100
AcDbLine
 62
7
  6
CONTINUOUS
 10
6.580102744
 20
3.6897815136
 11
6.580102744
 21
3.6874712811
  0
LINE
  5
273
100
AcDbEntity
  8
ALL_ASSEMBLY_MEMBERS
100
AcDbLine
 62
7
  6
CONTINUOUS
 10
6.6296157793
 20
4.7783733138
 11
6.6296157794
 21
3.4016624244
  0
LINE
  5
274
100
AcDbEntity
  8
ALL_ASSEMBLY_MEMBERS
100
AcDbLine
 62
7
  6
CONTINUOUS
 10
6.6327085012
 20
3.3912678691
 11
6.6327085012
 21
4.7887678691
  0
LINE
  5
275
100
AcDbEntity
  8
ALL_ASSEMBLY_MEMBERS
100
AcDbLine
 62
7
  6
CONTINUOUS
 10
6.7152085012
 20
3.3787678691
 11
6.7152085012
 21
4.8012678691
  0
ARC
  5
276
100
AcDbEntity
  8
ALL_ASSEMBLY_MEMBERS
100
AcDbCircle
 62
7
  6
CONTINUOUS
 10
5.1429093775
 20
0.5528278226
 40
3.3345515068
100
AcDbArc
 50
90.5667669793
 51
91.4739564477
  0
ARC
  5
277
100
AcDbEntity
  8
ALL_ASSEMBLY_MEMBERS
100
AcDbCircle
 62
7
  6
CONTINUOUS
 10
3.8677788914
 20
3.5440641676
 40
0.03125
100
AcDbArc
 50
207.4591723004
 51
255.0
  0
ARC
  5
278
100
AcDbEntity
  8
ALL_ASSEMBLY_MEMBERS
100
AcDbCircle
 62
7
  6
CONTINUOUS
 10
3.8677788914
 20
3.5440641676
 40
0.03125
100
AcDbArc
 50
75.0
 51
122.5408276996
  0
ARC
  5
279
100
AcDbEntity
  8
ALL_ASSEMBLY_MEMBERS
100
AcDbCircle
 62
7
  6
CONTINUOUS
 10
3.8230451389
 20
3.5560505404
 40
0.03125
100
AcDbArc
 50
204.3956150602
 51
255.0
  0
ARC
  5
27A
100
AcDbEntity
  8
ALL_ASSEMBLY_MEMBERS
100
AcDbCircle
 62
7
  6
CONTINUOUS
 10
3.8230451389
 20
3.5560505404
 40
0.03125
100
AcDbArc
 50
75.0
 51
125.6043849398
  0
ARC
  5
27B
100
AcDbEntity
  8
ALL_ASSEMBLY_MEMBERS
100
AcDbCircle
 62
7
  6
CONTINUOUS
 10
3.780239008
 20
3.5675204086
 40
0.03125
100
AcDbArc
 50
198.845987436
 51
255.0
  0
ARC
  5
27C
100
AcDbEntity
  8
ALL_ASSEMBLY_MEMBERS
100
AcDbCircle
 62
7
  6
CONTINUOUS
 10
3.780239008
 20
3.5675204086
 40
0.03125
100
AcDbArc
 50
75.0
 51
131.154012564
  0
ARC
  5
27D
100
AcDbEntity
  8
ALL_ASSEMBLY_MEMBERS
100
AcDbCircle
 62
7
  6
CONTINUOUS
 10
3.7402728366
 20
3.578229312
 40
0.03125
100
AcDbArc
 50
188.2000116267
 51
255.0
  0
ARC
  5
27E
100
AcDbEntity
  8
ALL_ASSEMBLY_MEMBERS
100
AcDbCircle
 62
7
  6
CONTINUOUS
 10
3.7402728366
 20
3.578229312
 40
0.03125
100
AcDbArc
 50
75.0
 51
141.7999883733
  0
ARC
  5
27F
100
AcDbEntity
  8
ALL_ASSEMBLY_MEMBERS
100
AcDbCircle
 62
7
  6
CONTINUOUS
 10
3.7039984335
 20
3.587949009
 40
0.03125
100
AcDbArc
 50
75.0
 51
255.0
  0
ARC
  5
280
100
AcDbEntity
  8
ALL_ASSEMBLY_MEMBERS
100
AcDbCircle
 62
7
  6
CONTINUOUS
 10
3.6721889242
 20
3.5964723413
 40
0.03125
100
AcDbArc
 50
75.0
 51
255.0
  0
ARC
  5
281
100
AcDbEntity
  8
ALL_ASSEMBLY_MEMBERS
100
AcDbCircle
 62
7
  6
CONTINUOUS
 10
3.6455222726
 20
3.6036176491
 40
0.03125
100
AcDbArc
 50
75.0
 51
255.0
  0
ARC
  5
282
100
AcDbEntity
  8
ALL_ASSEMBLY_MEMBERS
100
AcDbCircle
 62
7
  6
CONTINUOUS
 10
3.6245668316
 20
3.6092326426
 40
0.03125
100
AcDbArc
 50
75.0
 51
255.0
  0
ARC
  5
283
100
AcDbEntity
  8
ALL_ASSEMBLY_MEMBERS
100
AcDbCircle
 62
7
  6
CONTINUOUS
 10
3.6097692299
 20
3.613197648
 40
0.03125
100
AcDbArc
 50
75.0
 51
255.0
  0
ARC
  5
284
100
AcDbEntity
  8
ALL_ASSEMBLY_MEMBERS
100
AcDbCircle
 62
7
  6
CONTINUOUS
 10
3.6014448523
 20
3.6154281583
 40
0.03125
100
AcDbArc
 50
75.0
 51
255.0
  0
ARC
  5
285
100
AcDbEntity
  8
ALL_ASSEMBLY_MEMBERS
100
AcDbCircle
 62
7
  6
CONTINUOUS
 10
3.5997711184
 20
3.6158766339
 40
0.03125
100
AcDbArc
 50
75.0
 51
255.0
  0
ARC
  5
286
100
AcDbEntity
  8
ALL_ASSEMBLY_MEMBERS
100
AcDbCircle
 62
7
  6
CONTINUOUS
 10
4.229618835
 20
3.4471094469
 40
0.03125
100
AcDbArc
 50
255.0
 51
75.0
  0
ARC
  5
287
100
AcDbEntity
  8
ALL_ASSEMBLY_MEMBERS
100
AcDbCircle
 62
7
  6
CONTINUOUS
 10
4.2279449972
 20
3.4475579504
 40
0.03125
100
AcDbArc
 50
255.0
 51
75.0
  0
ARC
  5
288
100
AcDbEntity
  8
ALL_ASSEMBLY_MEMBERS
100
AcDbCircle
 62
7
  6
CONTINUOUS
 10
4.2196205173
 20
3.449788488
 40
0.03125
100
AcDbArc
 50
255.0
 51
75.0
  0
ARC
  5
289
100
AcDbEntity
  8
ALL_ASSEMBLY_MEMBERS
100
AcDbCircle
 62
7
  6
CONTINUOUS
 10
4.2048228172
 20
3.4537535198
 40
0.03125
100
AcDbArc
 50
255.0
 51
75.0
  0
ARC
  5
28A
100
AcDbEntity
  8
ALL_ASSEMBLY_MEMBERS
100
AcDbCircle
 62
7
  6
CONTINUOUS
 10
4.1838672838
 20
3.4593685381
 40
0.03125
100
AcDbArc
 50
255.0
 51
75.0
  0
ARC
  5
28B
100
AcDbEntity
  8
ALL_ASSEMBLY_MEMBERS
100
AcDbCircle
 62
7
  6
CONTINUOUS
 10
4.1572005476
 20
3.4665138685
 40
0.03125
100
AcDbArc
 50
255.0
 51
75.0
  0
ARC
  5
28C
100
AcDbEntity
  8
ALL_ASSEMBLY_MEMBERS
100
AcDbCircle
 62
7
  6
CONTINUOUS
 10
4.1253909634
 20
3.4750372209
 40
0.03125
100
AcDbArc
 50
255.0
 51
75.0
  0
ARC
  5
28D
100
AcDbEntity
  8
ALL_ASSEMBLY_MEMBERS
100
AcDbCircle
 62
7
  6
CONTINUOUS
 10
4.0891164968
 20
3.484756935
 40
0.03125
100
AcDbArc
 50
255.0
 51
321.7997439713
  0
ARC
  5
28E
100
AcDbEntity
  8
ALL_ASSEMBLY_MEMBERS
100
AcDbCircle
 62
7
  6
CONTINUOUS
 10
4.0891164968
 20
3.484756935
 40
0.03125
100
AcDbArc
 50
8.2002560287
 51
75.0
  0
ARC
  5
28F
100
AcDbEntity
  8
ALL_ASSEMBLY_MEMBERS
100
AcDbCircle
 62
7
  6
CONTINUOUS
 10
4.0491502744
 20
3.495465852
 40
0.03125
100
AcDbArc
 50
255.0
 51
311.1538985275
  0
ARC
  5
290
100
AcDbEntity
  8
ALL_ASSEMBLY_MEMBERS
100
AcDbCircle
 62
7
  6
CONTINUOUS
 10
4.0491502744
 20
3.495465852
 40
0.03125
100
AcDbArc
 50
18.8461014725
 51
75.0
  0
ARC
  5
291
100
AcDbEntity
  8
ALL_ASSEMBLY_MEMBERS
100
AcDbCircle
 62
7
  6
CONTINUOUS
 10
4.0063441064
 20
3.5069357301
 40
0.03125
100
AcDbArc
 50
255.0
 51
305.6043212655
  0
ARC
  5
292
100
AcDbEntity
  8
ALL_ASSEMBLY_MEMBERS
100
AcDbCircle
 62
7
  6
CONTINUOUS
 10
4.0063441064
 20
3.5069357301
 40
0.03125
100
AcDbArc
 50
24.3956787345
 51
75.0
  0
ARC
  5
293
100
AcDbEntity
  8
ALL_ASSEMBLY_MEMBERS
100
AcDbCircle
 62
7
  6
CONTINUOUS
 10
3.9616103313
 20
3.518922109
 40
0.03125
100
AcDbArc
 50
255.0
 51
302.5407943354
  0
ARC
  5
294
100
AcDbEntity
  8
ALL_ASSEMBLY_MEMBERS
100
AcDbCircle
 62
7
  6
CONTINUOUS
 10
3.9616103313
 20
3.518922109
 40
0.03125
100
AcDbArc
 50
27.4592056646
 51
75.0
  0
ARC
  5
295
100
AcDbEntity
  8
ALL_ASSEMBLY_MEMBERS
100
AcDbCircle
 62
7
  6
CONTINUOUS
 10
3.915902371
 20
3.5311695201
 40
0.03125
100
AcDbArc
 50
255.0
 51
301.1521230372
  0
ARC
  5
296
100
AcDbEntity
  8
ALL_ASSEMBLY_MEMBERS
100
AcDbCircle
 62
7
  6
CONTINUOUS
 10
3.915902371
 20
3.5311695201
 40
0.03125
100
AcDbArc
 50
28.8478769628
 51
75.0
  0
ARC
  5
297
100
AcDbEntity
  8
ALL_ASSEMBLY_MEMBERS
100
AcDbCircle
 62
7
  6
CONTINUOUS
 10
3.9134875564
 20
3.5318165677
 40
0.03125
100
AcDbArc
 50
208.8468959001
 51
255.0
  0
ARC
  5
298
100
AcDbEntity
  8
ALL_ASSEMBLY_MEMBERS
100
AcDbCircle
 62
7
  6
CONTINUOUS
 10
3.9134875564
 20
3.5318165677
 40
0.03125
100
AcDbArc
 50
75.0
 51
121.1531040999
  0
ARC
  5
299
100
AcDbEntity
  8
ALL_ASSEMBLY_MEMBERS
100
AcDbCircle
 62
7
  6
CONTINUOUS
 10
3.8246878122
 20
3.5560049988
 40
0.0310807451
100
AcDbArc
 50
28.8019212281
 51
32.0951738923
  0
ARC
  5
29A
100
AcDbEntity
  8
ALL_ASSEMBLY_MEMBERS
100
AcDbCircle
 62
7
  6
CONTINUOUS
 10
3.8244905068
 20
3.5552686435
 40
0.0310807446
100
AcDbArc
 50
297.9047124114
 51
301.1980788185
  0
ARC
  5
29B
100
AcDbEntity
  8
ALL_ASSEMBLY_MEMBERS
100
AcDbCircle
 62
7
  6
CONTINUOUS
 10
4.0047000063
 20
3.5069805937
 40
0.0310791778
100
AcDbArc
 50
208.8020815639
 51
212.1425184181
  0
ARC
  5
29C
100
AcDbEntity
  8
ALL_ASSEMBLY_MEMBERS
100
AcDbCircle
 62
7
  6
CONTINUOUS
 10
4.5022873157
 20
12.7375118776
 40
8.4822811914
100
AcDbArc
 50
270.8858032817
 51
271.5010076774
  0
ARC
  5
29D
100
AcDbEntity
  8
ALL_ASSEMBLY_MEMBERS
100
AcDbCircle
 62
7
  6
CONTINUOUS
 10
6.2996660696
 20
3.1653635864
 40
0.4086511383
100
AcDbArc
 50
37.4100809742
 51
37.6978845516
  0
ARC
  5
29E
100
AcDbEntity
  8
ALL_ASSEMBLY_MEMBERS
100
AcDbCircle
 62
7
  6
CONTINUOUS
 10
6.3960498884
 20
3.2735363715
 40
0.2751720519
100
AcDbArc
 50
34.5139243214
 51
35.3250117883
  0
ARC
  5
29F
100
AcDbEntity
  8
ALL_ASSEMBLY_MEMBERS
100
AcDbCircle
 62
7
  6
CONTINUOUS
 10
6.4318435584
 20
3.3655191889
 40
0.2220226698
100
AcDbArc
 50
32.3794328339
 51
33.2397561482
  0
ARC
  5
2A0
100
AcDbEntity
  8
ALL_ASSEMBLY_MEMBERS
100
AcDbCircle
 62
7
  6
CONTINUOUS
 10
6.4477601573
 20
3.4144669926
 40
0.201215206
100
AcDbArc
 50
32.5769453693
 51
32.9097754615
  0
ARC
  5
2A1
100
AcDbEntity
  8
ALL_ASSEMBLY_MEMBERS
100
AcDbCircle
 62
7
  6
CONTINUOUS
 10
6.4758602654
 20
3.4753519001
 40
0.1670841539
100
AcDbArc
 50
32.3971744205
 51
32.8419803911
  0
ARC
  5
2A2
100
AcDbEntity
  8
ALL_ASSEMBLY_MEMBERS
100
AcDbCircle
 62
7
  6
CONTINUOUS
 10
6.2523602126
 20
5.0510698752
 40
0.4683388596
100
AcDbArc
 50
322.3187198219
 51
322.5381687778
  0
ARC
  5
2A3
100
AcDbEntity
  8
ALL_ASSEMBLY_MEMBERS
100
AcDbCircle
 62
7
  6
CONTINUOUS
 10
6.4010440478
 20
4.8699036732
 40
0.2625015717
100
AcDbArc
 50
326.0459235682
 51
326.9233369474
  0
ARC
  5
2A4
100
AcDbEntity
  8
ALL_ASSEMBLY_MEMBERS
100
AcDbCircle
 62
7
  6
CONTINUOUS
 10
6.4239875134
 20
4.819589079
 40
0.2313738288
100
AcDbArc
 50
326.7693583987
 51
327.5403873823
  0
ARC
  5
2A5
100
AcDbEntity
  8
ALL_ASSEMBLY_MEMBERS
100
AcDbCircle
 62
7
  6
CONTINUOUS
 10
6.4476024171
 20
4.7656709436
 40
0.2014031584
100
AcDbArc
 50
327.1037677176
 51
327.3970116147
  0
ARC
  5
2A6
100
AcDbEntity
  8
ALL_ASSEMBLY_MEMBERS
100
AcDbCircle
 62
7
  6
CONTINUOUS
 10
6.4770221438
 20
4.7039392964
 40
0.1657041964
100
AcDbArc
 50
327.1564383078
 51
327.8191005488
  0
ARC
  5
2A7
100
AcDbEntity
  8
ALL_ASSEMBLY_MEMBERS
100
AcDbCircle
 62
7
  6
CONTINUOUS
 10
6.7152085012
 20
3.6572678691
 40
0.2785
100
AcDbArc
 50
252.7687036317
 51
270.0
  0
ARC
  5
2A8
100
AcDbEntity
  8
ALL_ASSEMBLY_MEMBERS
100
AcDbCircle
 62
7
  6
CONTINUOUS
 10
6.5639006581
 20
3.6037682524
 40
0.1000001902
100
AcDbArc
 50
235.1952825867
 51
270.000245687
  0
ARC
  5
2A9
100
AcDbEntity
  8
ALL_ASSEMBLY_MEMBERS
100
AcDbCircle
 62
7
  6
CONTINUOUS
 10
6.623477468
 20
4.0900178691
 40
0.05
100
AcDbArc
 50
137.9740502081
 51
222.0266022949
  0
ARC
  5
2AA
100
AcDbEntity
  8
ALL_ASSEMBLY_MEMBERS
100
AcDbCircle
 62
7
  6
CONTINUOUS
 10
6.623477468
 20
4.0232520208
 40
0.05
100
AcDbArc
 50
137.9701292332
 51
222.5998885542
  0
ARC
  5
2AB
100
AcDbEntity
  8
ALL_ASSEMBLY_MEMBERS
100
AcDbCircle
 62
7
  6
CONTINUOUS
 10
6.623477468
 20
3.9572176731
 40
0.05
100
AcDbArc
 50
138.6642898239
 51
223.8025461979
  0
ARC
  5
2AC
100
AcDbEntity
  8
ALL_ASSEMBLY_MEMBERS
100
AcDbCircle
 62
7
  6
CONTINUOUS
 10
6.623477468
 20
3.8926383121
 40
0.05
100
AcDbArc
 50
139.7801445666
 51
225.7403214517
  0
ARC
  5
2AD
100
AcDbEntity
  8
ALL_ASSEMBLY_MEMBERS
100
AcDbCircle
 62
7
  6
CONTINUOUS
 10
6.623477468
 20
3.8302214828
 40
0.05
100
AcDbArc
 50
141.3740179975
 51
228.628162986
  0
ARC
  5
2AE
100
AcDbEntity
  8
ALL_ASSEMBLY_MEMBERS
100
AcDbCircle
 62
7
  6
CONTINUOUS
 10
6.623477468
 20
3.7706510371
 40
0.05
100
AcDbArc
 50
143.4395565306
 51
232.8713209402
  0
ARC
  5
2AF
100
AcDbEntity
  8
ALL_ASSEMBLY_MEMBERS
100
AcDbCircle
 62
7
  6
CONTINUOUS
 10
6.623477468
 20
3.7145796413
 40
0.05
100
AcDbArc
 50
145.8913564031
 51
239.355660812
  0
ARC
  5
2B0
100
AcDbEntity
  8
ALL_ASSEMBLY_MEMBERS
100
AcDbCircle
 62
7
  6
CONTINUOUS
 10
6.623477468
 20
3.6626216253
 40
0.05
100
AcDbArc
 50
148.6785238887
 51
250.7570358461
  0
ARC
  5
2B1
100
AcDbEntity
  8
ALL_ASSEMBLY_MEMBERS
100
AcDbCircle
 62
7
  6
CONTINUOUS
 10
6.623477468
 20
3.6153462519
 40
0.05
100
AcDbArc
 50
151.7560589988
 51
263.8643093664
  0
ARC
  5
2B2
100
AcDbEntity
  8
ALL_ASSEMBLY_MEMBERS
100
AcDbCircle
 62
7
  6
CONTINUOUS
 10
6.623477468
 20
3.5732714801
 40
0.05
100
AcDbArc
 50
155.0730968109
 51
267.2663574021
  0
ARC
  5
2B3
100
AcDbEntity
  8
ALL_ASSEMBLY_MEMBERS
100
AcDbCircle
 62
7
  6
CONTINUOUS
 10
6.623477468
 20
3.5368582899
 40
0.05
100
AcDbArc
 50
158.5897526549
 51
270.2576490171
  0
ARC
  5
2B4
100
AcDbEntity
  8
ALL_ASSEMBLY_MEMBERS
100
AcDbCircle
 62
7
  6
CONTINUOUS
 10
6.623477468
 20
3.5065056318
 40
0.05
100
AcDbArc
 50
162.3046973498
 51
272.7124970941
  0
ARC
  5
2B5
100
AcDbEntity
  8
ALL_ASSEMBLY_MEMBERS
100
AcDbCircle
 62
7
  6
CONTINUOUS
 10
6.623477468
 20
3.4825460559
 40
0.05
100
AcDbArc
 50
166.137079003
 51
274.6125171974
  0
ARC
  5
2B6
100
AcDbEntity
  8
ALL_ASSEMBLY_MEMBERS
100
AcDbCircle
 62
7
  6
CONTINUOUS
 10
6.623477468
 20
3.4652420682
 40
0.05
100
AcDbArc
 50
170.1337327443
 51
275.9700821669
  0
ARC
  5
2B7
100
AcDbEntity
  8
ALL_ASSEMBLY_MEMBERS
100
AcDbCircle
 62
7
  6
CONTINUOUS
 10
6.623477468
 20
3.454783255
 40
0.05
100
AcDbArc
 50
173.9863007849
 51
276.7814532667
  0
ARC
  5
2B8
100
AcDbEntity
  8
ALL_ASSEMBLY_MEMBERS
100
AcDbCircle
 62
7
  6
CONTINUOUS
 10
6.6234774866
 20
3.4512841723
 40
0.05
100
AcDbArc
 50
177.9113512939
 51
277.0517927181
  0
ARC
  5
2B9
100
AcDbEntity
  8
ALL_ASSEMBLY_MEMBERS
100
AcDbCircle
 62
7
  6
CONTINUOUS
 10
6.5708150314
 20
3.4712678691
 40
0.01
100
AcDbArc
 50
74.2735988552
 51
90.0
  0
ARC
  5
2BA
100
AcDbEntity
  8
ALL_ASSEMBLY_MEMBERS
100
AcDbCircle
 62
7
  6
CONTINUOUS
 10
6.6227085012
 20
3.3944312759
 40
0.01
100
AcDbArc
 50
0.0
 51
46.3122502782
  0
ARC
  5
2BB
100
AcDbEntity
  8
ALL_ASSEMBLY_MEMBERS
100
AcDbCircle
 62
7
  6
CONTINUOUS
 10
6.7152085012
 20
4.5227678691
 40
0.2785
100
AcDbArc
 50
90.0
 51
107.2312963683
  0
ARC
  5
2BC
100
AcDbEntity
  8
ALL_ASSEMBLY_MEMBERS
100
AcDbCircle
 62
7
  6
CONTINUOUS
 10
6.5639010112
 20
4.5762678296
 40
0.0999999395
100
AcDbArc
 50
90.0000219451
 51
124.8048436736
  0
ARC
  5
2BD
100
AcDbEntity
  8
ALL_ASSEMBLY_MEMBERS
100
AcDbCircle
 62
7
  6
CONTINUOUS
 10
6.623477468
 20
4.728751533
 40
0.05
100
AcDbArc
 50
82.9482235284
 51
181.7771561518
  0
ARC
  5
2BE
100
AcDbEntity
  8
ALL_ASSEMBLY_MEMBERS
100
AcDbCircle
 62
7
  6
CONTINUOUS
 10
6.623477468
 20
4.7252524832
 40
0.05
100
AcDbArc
 50
83.2185643665
 51
185.8220743435
  0
ARC
  5
2BF
100
AcDbEntity
  8
ALL_ASSEMBLY_MEMBERS
100
AcDbCircle
 62
7
  6
CONTINUOUS
 10
6.623477468
 20
4.71479367
 40
0.05
100
AcDbArc
 50
84.030929633
 51
190.0630428248
  0
ARC
  5
2C0
100
AcDbEntity
  8
ALL_ASSEMBLY_MEMBERS
100
AcDbCircle
 62
7
  6
CONTINUOUS
 10
6.623477468
 20
4.6974896824
 40
0.05
100
AcDbArc
 50
85.387329879
 51
193.9066784884
  0
ARC
  5
2C1
100
AcDbEntity
  8
ALL_ASSEMBLY_MEMBERS
100
AcDbCircle
 62
7
  6
CONTINUOUS
 10
6.623477468
 20
4.6735301064
 40
0.05
100
AcDbArc
 50
87.2855945659
 51
197.7255993751
  0
ARC
  5
2C2
100
AcDbEntity
  8
ALL_ASSEMBLY_MEMBERS
100
AcDbCircle
 62
7
  6
CONTINUOUS
 10
6.623477468
 20
4.6431774483
 40
0.05
100
AcDbArc
 50
89.7418418609
 51
201.3850075335
  0
ARC
  5
2C3
100
AcDbEntity
  8
ALL_ASSEMBLY_MEMBERS
100
AcDbCircle
 62
7
  6
CONTINUOUS
 10
6.623477468
 20
4.6067642581
 40
0.05
100
AcDbArc
 50
92.7206475856
 51
204.9576289061
  0
ARC
  5
2C4
100
AcDbEntity
  8
ALL_ASSEMBLY_MEMBERS
100
AcDbCircle
 62
7
  6
CONTINUOUS
 10
6.623477468
 20
4.5646894863
 40
0.05
100
AcDbArc
 50
96.1341755435
 51
208.2634774931
  0
ARC
  5
2C5
100
AcDbEntity
  8
ALL_ASSEMBLY_MEMBERS
100
AcDbCircle
 62
7
  6
CONTINUOUS
 10
6.623477468
 20
4.5174141129
 40
0.05
100
AcDbArc
 50
109.1475663767
 51
211.3490004262
  0
ARC
  5
2C6
100
AcDbEntity
  8
ALL_ASSEMBLY_MEMBERS
100
AcDbCircle
 62
7
  6
CONTINUOUS
 10
6.623477468
 20
4.4654560969
 40
0.05
100
AcDbArc
 50
120.6468135897
 51
214.1485301224
  0
ARC
  5
2C7
100
AcDbEntity
  8
ALL_ASSEMBLY_MEMBERS
100
AcDbCircle
 62
7
  6
CONTINUOUS
 10
6.623477468
 20
4.4093847011
 40
0.05
100
AcDbArc
 50
127.1277952736
 51
216.581349912
  0
ARC
  5
2C8
100
AcDbEntity
  8
ALL_ASSEMBLY_MEMBERS
100
AcDbCircle
 62
7
  6
CONTINUOUS
 10
6.623477468
 20
4.3498142554
 40
0.05
100
AcDbArc
 50
131.3722538921
 51
218.6790590228
  0
ARC
  5
2C9
100
AcDbEntity
  8
ALL_ASSEMBLY_MEMBERS
100
AcDbCircle
 62
7
  6
CONTINUOUS
 10
6.623477468
 20
4.2873974261
 40
0.05
100
AcDbArc
 50
134.2625104421
 51
220.2770224774
  0
ARC
  5
2CA
100
AcDbEntity
  8
ALL_ASSEMBLY_MEMBERS
100
AcDbCircle
 62
7
  6
CONTINUOUS
 10
6.623477468
 20
4.2228180652
 40
0.05
100
AcDbArc
 50
136.2015631472
 51
221.1701889004
  0
ARC
  5
2CB
100
AcDbEntity
  8
ALL_ASSEMBLY_MEMBERS
100
AcDbCircle
 62
7
  6
CONTINUOUS
 10
6.623477468
 20
4.1567837174
 40
0.05
100
AcDbArc
 50
137.4015162733
 51
222.0293692576
  0
ARC
  5
2CC
100
AcDbEntity
  8
ALL_ASSEMBLY_MEMBERS
100
AcDbCircle
 62
7
  6
CONTINUOUS
 10
6.5708150314
 20
4.7087678691
 40
0.01
100
AcDbArc
 50
270.0
 51
285.8864638696
  0
ARC
  5
2CD
100
AcDbEntity
  8
ALL_ASSEMBLY_MEMBERS
100
AcDbCircle
 62
7
  6
CONTINUOUS
 10
6.6227085012
 20
4.7856044623
 40
0.01
100
AcDbArc
 50
313.6877493532
 51
360.0
  0
SPLINE
  5
2CE
100
AcDbEntity
  8
ALL_ASSEMBLY_MEMBERS
100
AcDbSpline
 62
7
  6
CONTINUOUS
 70
0
 71
3
 72
13
 73
9
 74
0
 42
0.0000001
 43
0.0000001
 44
0.0000000001
 40
0.0
 40
0.0
 40
0.0
 40
0.0
 40
0.1194361016
 40
0.2400977458
 40
0.3621698302
 40
0.4858960822
 40
0.738815086
 40
1.0
 40
1.0
 40
1.0
 40
1.0
 10
4.0949889301
 20
3.5155358018
 30
0.0
 10
4.0942076292
 20
3.5157451508
 30
0.0
 10
4.0926121482
 20
3.5160784037
 30
0.0
 10
4.0901664899
 20
3.5163166938
 30
0.0
 10
4.0876799835
 20
3.5162913439
 30
0.0
 10
4.0843193769
 20
3.5159052779
 30
0.0
 10
4.0801246437
 20
3.5147556042
 30
0.0
 10
4.0769836085
 20
3.5132011141
 30
0.0
 10
4.075474258
 20
3.5122788158
 30
0.0
  0
SPLINE
  5
2CF
100
AcDbEntity
  8
ALL_ASSEMBLY_MEMBERS
100
AcDbSpline
 62
7
  6
CONTINUOUS
 70
0
 71
3
 72
14
 73
10
 74
0
 42
0.0000001
 43
0.0000001
 44
0.0000000001
 40
0.0
 40
0.0
 40
0.0
 40
0.0
 40
0.2837244186
 40
0.4158604726
 40
0.5419230468
 40
0.6625071909
 40
0.7783878054
 40
0.8905191161
 40
1.0
 40
1.0
 40
1.0
 40
1.0
 10
4.1664172393
 20
3.4366461006
 30
0.0
 10
4.166871813
 20
3.4357575896
 30
0.0
 10
4.1676307674
 20
3.4344971686
 30
0.0
 10
4.1688237634
 20
3.4330075624
 30
0.0
 10
4.1697536716
 20
3.4320500877
 30
0.0
 10
4.1707345343
 20
3.4312312166
 30
0.0
 10
4.171761761
 20
3.4305562058
 30
0.0
 10
4.1728286923
 20
3.4300288473
 30
0.0
 10
4.1735688202
 20
3.4297756224
 30
0.0
 10
4.1739408129
 20
3.4296759473
 30
0.0
  0
SPLINE
  5
2D0
100
AcDbEntity
  8
ALL_ASSEMBLY_MEMBERS
100
AcDbSpline
 62
7
  6
CONTINUOUS
 70
0
 71
3
 72
11
 73
7
 74
0
 42
0.0000001
 43
0.0000001
 44
0.0000000001
 40
0.0
 40
0.0
 40
0.0
 40
0.0
 40
0.2439545047
 40
0.4915255707
 40
0.7434753266
 40
1.0
 40
1.0
 40
1.0
 40
1.0
 10
4.0549367339
 20
3.5262677555
 30
0.0
 10
4.0531636457
 20
3.526742853
 30
0.0
 10
4.0494769576
 20
3.5273169851
 30
0.0
 10
4.0438531733
 20
3.5270096519
 30
0.0
 10
4.0383148799
 20
3.5255581693
 30
0.0
 10
4.0348486183
 20
3.523873566
 30
0.0
 10
4.0331995347
 20
3.5228704343
 30
0.0
  0
SPLINE
  5
2D1
100
AcDbEntity
  8
ALL_ASSEMBLY_MEMBERS
100
AcDbSpline
 62
7
  6
CONTINUOUS
 70
0
 71
3
 72
13
 73
9
 74
0
 42
0.0000001
 43
0.0000001
 44
0.0000000001
 40
0.0
 40
0.0
 40
0.0
 40
0.0
 40
0.1167008923
 40
0.2350407834
 40
0.3554459424
 40
0.4783409854
 40
0.7326644592
 40
1.0
 40
1.0
 40
1.0
 40
1.0
 10
3.6980185352
 20
3.5571989373
 30
0.0
 10
3.6986747861
 20
3.5570230954
 30
0.0
 10
3.7000185574
 20
3.5567464932
 30
0.0
 10
3.702083726
 20
3.5565616835
 30
0.0
 10
3.7041929295
 20
3.5566076382
 30
0.0
 10
3.7070707806
 20
3.556979228
 30
0.0
 10
3.7106983551
 20
3.5580349221
 30
0.0
 10
3.7134222335
 20
3.5594184587
 30
0.0
 10
3.7147465951
 20
3.5602359593
 30
0.0
  0
SPLINE
  5
2D2
100
AcDbEntity
  8
ALL_ASSEMBLY_MEMBERS
100
AcDbSpline
 62
7
  6
CONTINUOUS
 70
0
 71
3
 72
11
 73
7
 74
0
 42
0.0000001
 43
0.0000001
 44
0.0000000001
 40
0.0
 40
0.0
 40
0.0
 40
0.0
 40
0.2470075119
 40
0.4959598109
 40
0.74700214
 40
1.0
 40
1.0
 40
1.0
 40
1.0
 10
4.0120679135
 20
3.5377544213
 30
0.0
 10
4.0101477079
 20
3.5382689388
 30
0.0
 10
4.0061727962
 20
3.5389017756
 30
0.0
 10
4.0001276786
 20
3.5386172682
 30
0.0
 10
3.9942150752
 20
3.5371195518
 30
0.0
 10
3.990529107
 20
3.5353522984
 30
0.0
 10
3.9887878763
 20
3.5342968179
 30
0.0
  0
SPLINE
  5
2D3
100
AcDbEntity
  8
ALL_ASSEMBLY_MEMBERS
100
AcDbSpline
 62
7
  6
CONTINUOUS
 70
0
 71
3
 72
11
 73
7
 74
0
 42
0.0000001
 43
0.0000001
 44
0.0000000001
 40
0.0
 40
0.0
 40
0.0
 40
0.0
 40
0.2490662604
 40
0.4988498478
 40
0.7492195075
 40
1.0
 40
1.0
 40
1.0
 40
1.0
 10
3.8620930794
 20
3.5132352957
 30
0.0
 10
3.864093125
 20
3.5126993851
 30
0.0
 10
3.8682201144
 20
3.5120319387
 30
0.0
 10
3.8744839244
 20
3.5122932476
 30
0.0
 10
3.880583921
 20
3.5138000288
 30
0.0
 10
3.884378319
 20
3.5155987344
 30
0.0
 10
3.8861637979
 20
3.5166751487
 30
0.0
  0
SPLINE
  5
2D4
100
AcDbEntity
  8
ALL_ASSEMBLY_MEMBERS
100
AcDbSpline
 62
7
  6
CONTINUOUS
 70
0
 71
3
 72
11
 73
7
 74
0
 42
0.0000001
 43
0.0000001
 44
0.0000000001
 40
0.0
 40
0.0
 40
0.0
 40
0.0
 40
0.2490640237
 40
0.4988400223
 40
0.7492122961
 40
1.0
 40
1.0
 40
1.0
 40
1.0
 10
3.9672961429
 20
3.549750981
 30
0.0
 10
3.9652961572
 20
3.5502868756
 30
0.0
 10
3.96116934
 20
3.550954309
 30
0.0
 10
3.9549057224
 20
3.5506930796
 30
0.0
 10
3.9488058126
 20
3.5491864244
 30
0.0
 10
3.9450113842
 20
3.5473877955
 30
0.0
 10
3.9432258731
 20
3.5463114031
 30
0.0
  0
SPLINE
  5
2D5
100
AcDbEntity
  8
ALL_ASSEMBLY_MEMBERS
100
AcDbSpline
 62
7
  6
CONTINUOUS
 70
0
 71
3
 72
13
 73
9
 74
0
 42
0.0000001
 43
0.0000001
 44
0.0000000001
 40
0.0
 40
0.0
 40
0.0
 40
0.0
 40
0.1194365817
 40
0.240100199
 40
0.3621751341
 40
0.4859036981
 40
0.7388224907
 40
1.0
 40
1.0
 40
1.0
 40
1.0
 10
3.7344004017
 20
3.5474504455
 30
0.0
 10
3.7351817147
 20
3.5472410933
 30
0.0
 10
3.7367772321
 20
3.5469078403
 30
0.0
 10
3.7392229548
 20
3.5466695518
 30
0.0
 10
3.7417095385
 20
3.5466949137
 30
0.0
 10
3.7450702132
 20
3.5470810292
 30
0.0
 10
3.749264941
 20
3.5482307669
 30
0.0
 10
3.7524059595
 20
3.5497852645
 30
0.0
 10
3.7539152719
 20
3.5507075678
 30
0.0
  0
SPLINE
  5
2D6
100
AcDbEntity
  8
ALL_ASSEMBLY_MEMBERS
100
AcDbSpline
 62
7
  6
CONTINUOUS
 70
0
 71
3
 72
14
 73
10
 74
0
 42
0.0000001
 43
0.0000001
 44
0.0000000001
 40
0.0
 40
0.0
 40
0.0
 40
0.0
 40
0.2947883339
 40
0.4291642501
 40
0.5554887405
 40
0.6745452799
 40
0.7873901064
 40
0.8953532277
 40
1.0
 40
1.0
 40
1.0
 40
1.0
 10
4.190270313
 20
3.4287946393
 30
0.0
 10
4.1905659806
 20
3.4281774554
 30
0.0
 10
4.191053335
 20
3.42730266
 30
0.0
 10
4.1918212466
 20
3.426264884
 30
0.0
 10
4.1924112365
 20
3.425607739
 30
0.0
 10
4.1930310192
 20
3.4250506058
 30
0.0
 10
4.193678497
 20
3.4245960221
 30
0.0
 10
4.1943505761
 20
3.4242459441
 30
0.0
 10
4.1948182962
 20
3.4240818425
 30
0.0
 10
4.1950529555
 20
3.4240189658
 30
0.0
  0
SPLINE
  5
2D7
100
AcDbEntity
  8
ALL_ASSEMBLY_MEMBERS
100
AcDbSpline
 62
7
  6
CONTINUOUS
 70
0
 71
3
 72
15
 73
11
 74
0
 42
0.0000001
 43
0.0000001
 44
0.0000000001
 40
0.0
 40
0.0
 40
0.0
 40
0.0
 40
0.1187275768
 40
0.242724072
 40
0.3704038523
 40
0.4999780743
 40
0.6295549701
 40
0.7572474848
 40
0.8812477317
 40
1.0
 40
1.0
 40
1.0
 40
1.0
 10
4.1200469147
 20
3.4892141802
 30
0.0
 10
4.1201892686
 20
3.4882256947
 30
0.0
 10
4.120360334
 20
3.4861861631
 30
0.0
 10
4.1202911753
 20
3.4830662401
 30
0.0
 10
4.1199051938
 20
3.4798775671
 30
0.0
 10
4.1192093134
 20
3.4766941288
 30
0.0
 10
4.1182200521
 20
3.4735892417
 30
0.0
 10
4.1169606168
 20
3.4706343009
 30
0.0
 10
4.1154597289
 20
3.4678978639
 30
0.0
 10
4.1142922197
 20
3.4662165345
 30
0.0
 10
4.1136744223
 20
3.4654316081
 30
0.0
  0
SPLINE
  5
2D8
100
AcDbEntity
  8
ALL_ASSEMBLY_MEMBERS
100
AcDbSpline
 62
7
  6
CONTINUOUS
 70
0
 71
3
 72
11
 73
7
 74
0
 42
0.0000001
 43
0.0000001
 44
0.0000000001
 40
0.0
 40
0.0
 40
0.0
 40
0.0
 40
0.250780313
 40
0.5011498228
 40
0.7509337978
 40
1.0
 40
1.0
 40
1.0
 40
1.0
 10
3.8973951969
 20
3.5585913004
 30
0.0
 10
3.8963871347
 20
3.5604162408
 30
0.0
 10
3.8940004444
 20
3.5638711624
 30
0.0
 10
3.8894710834
 20
3.5682260726
 30
0.0
 10
3.8841771183
 20
3.5715842794
 30
0.0
 10
3.8802693149
 20
3.5730697493
 30
0.0
 10
3.8782692697
 20
3.5736056598
 30
0.0
  0
SPLINE
  5
2D9
100
AcDbEntity
  8
ALL_ASSEMBLY_MEMBERS
100
AcDbSpline
 62
7
  6
CONTINUOUS
 70
0
 71
3
 72
11
 73
7
 74
0
 42
0.0000001
 43
0.0000001
 44
0.0000000001
 40
0.0
 40
0.0
 40
0.0
 40
0.0
 40
0.2439568163
 40
0.4915339758
 40
0.7434831312
 40
1.0
 40
1.0
 40
1.0
 40
1.0
 10
3.7744525474
 20
3.5367185054
 30
0.0
 10
3.7762256566
 20
3.5362434023
 30
0.0
 10
3.7799124186
 20
3.5356692676
 30
0.0
 10
3.7855362769
 20
3.5359766348
 30
0.0
 10
3.791074551
 20
3.5374281705
 30
0.0
 10
3.7945407607
 20
3.5391127541
 30
0.0
 10
3.7961897916
 20
3.5401158684
 30
0.0
  0
SPLINE
  5
2DA
100
AcDbEntity
  8
ALL_ASSEMBLY_MEMBERS
100
AcDbSpline
 62
7
  6
CONTINUOUS
 70
0
 71
3
 72
11
 73
7
 74
0
 42
0.0000001
 43
0.0000001
 44
0.0000000001
 40
0.0
 40
0.0
 40
0.0
 40
0.0
 40
0.2565247629
 40
0.5084745316
 40
0.7560454632
 40
1.0
 40
1.0
 40
1.0
 40
1.0
 10
4.0216342379
 20
3.4797081566
 30
0.0
 10
4.0225608207
 20
3.4780148768
 30
0.0
 10
4.0247203901
 20
3.4748228363
 30
0.0
 10
4.0287909515
 20
3.4707966694
 30
0.0
 10
4.0335076245
 20
3.4677186198
 30
0.0
 10
4.0369874553
 20
3.4663724889
 30
0.0
 10
4.0387605436
 20
3.4658973913
 30
0.0
  0
SPLINE
  5
2DB
100
AcDbEntity
  8
ALL_ASSEMBLY_MEMBERS
100
AcDbSpline
 62
7
  6
CONTINUOUS
 70
0
 71
3
 72
12
 73
8
 74
0
 42
0.0000001
 43
0.0000001
 44
0.0000000001
 40
0.0
 40
0.0
 40
0.0
 40
0.0
 40
0.2471370063
 40
0.4960874175
 40
0.7469290902
 40
0.8732519388
 40
1.0
 40
1.0
 40
1.0
 40
1.0
 10
3.817321331
 20
3.5252318495
 30
0.0
 10
3.8191004859
 20
3.5247551264
 30
0.0
 10
3.8227737939
 20
3.5241416929
 30
0.0
 10
3.8283696495
 20
3.5242783985
 30
0.0
 10
3.8329612385
 20
3.525263987
 30
0.0
 10
3.8364933465
 20
3.52655221
 30
0.0
 10
3.838201558
 20
3.5273596395
 30
0.0
 10
3.839036373
 20
3.527801746
 30
0.0
  0
SPLINE
  5
2DC
100
AcDbEntity
  8
ALL_ASSEMBLY_MEMBERS
100
AcDbSpline
 62
7
  6
CONTINUOUS
 70
0
 71
3
 72
13
 73
9
 74
0
 42
0.0000001
 43
0.0000001
 44
0.0000000001
 40
0.0
 40
0.0
 40
0.0
 40
0.0
 40
0.3091902707
 40
0.5730712133
 40
0.6902177025
 40
0.7991588636
 40
0.9016890903
 40
1.0
 40
1.0
 40
1.0
 40
1.0
 10
4.2076662297
 20
3.4226429823
 30
0.0
 10
4.2078131495
 20
3.4222972132
 30
0.0
 10
4.2081202939
 20
3.4216699997
 30
0.0
 10
4.2086054437
 20
3.4209790208
 30
0.0
 10
4.2090260229
 20
3.4205557298
 30
0.0
 10
4.2093423871
 20
3.4203100193
 30
0.0
 10
4.2096714399
 20
3.4201243209
 30
0.0
 10
4.2099019904
 20
3.4200401788
 30
0.0
 10
4.2100173749
 20
3.4200092617
 30
0.0
  0
SPLINE
  5
2DD
100
AcDbEntity
  8
ALL_ASSEMBLY_MEMBERS
100
AcDbSpline
 62
7
  6
CONTINUOUS
 70
0
 71
3
 72
11
 73
7
 74
0
 42
0.0000001
 43
0.0000001
 44
0.0000000001
 40
0.0
 40
0.0
 40
0.0
 40
0.0
 40
0.2507877775
 40
0.5011600846
 40
0.7509359469
 40
1.0
 40
1.0
 40
1.0
 40
1.0
 10
3.9319942765
 20
3.5043945136
 30
0.0
 10
3.9330023785
 20
3.5025695744
 30
0.0
 10
3.9353891361
 20
3.4991147013
 30
0.0
 10
3.9399184855
 20
3.4947599451
 30
0.0
 10
3.9452123223
 20
3.4914019056
 30
0.0
 10
3.9491199666
 20
3.4899165115
 30
0.0
 10
3.9511199526
 20
3.4893806169
 30
0.0
  0
SPLINE
  5
2DE
100
AcDbEntity
  8
ALL_ASSEMBLY_MEMBERS
100
AcDbSpline
 62
7
  6
CONTINUOUS
 70
0
 71
3
 72
12
 73
8
 74
0
 42
0.0000001
 43
0.0000001
 44
0.0000000001
 40
0.0
 40
0.0
 40
0.0
 40
0.0
 40
0.1267480477
 40
0.2530708571
 40
0.5039124724
 40
0.7528629619
 40
1.0
 40
1.0
 40
1.0
 40
1.0
 10
3.8510183839
 20
3.5725190448
 30
0.0
 10
3.8505164664
 20
3.5733193309
 30
0.0
 10
3.8494408267
 20
3.574872697
 30
0.0
 10
3.8470260417
 20
3.5777543962
 30
0.0
 10
3.8435423977
 20
3.5809037485
 30
0.0
 10
3.8387645863
 20
3.5838200792
 30
0.0
 10
3.8352766813
 20
3.5851254892
 30
0.0
 10
3.8334975213
 20
3.5856022136
 30
0.0
  0
SPLINE
  5
2DF
100
AcDbEntity
  8
ALL_ASSEMBLY_MEMBERS
100
AcDbSpline
 62
7
  6
CONTINUOUS
 70
0
 71
3
 72
13
 73
9
 74
0
 42
0.0000001
 43
0.0000001
 44
0.0000000001
 40
0.0
 40
0.0
 40
0.0
 40
0.0
 40
0.3345095248
 40
0.6052181702
 40
0.7192894804
 40
0.8212792505
 40
0.913713238
 40
1.0
 40
1.0
 40
1.0
 40
1.0
 10
4.2179188853
 20
3.4185999027
 30
0.0
 10
4.2179545353
 20
3.4184835344
 30
0.0
 10
4.2180282206
 20
3.4182756073
 30
0.0
 10
4.2181498981
 20
3.4180420153
 30
0.0
 10
4.218258085
 20
3.4179012102
 30
0.0
 10
4.2183387972
 20
3.4178225202
 30
0.0
 10
4.2184238495
 20
3.4177648808
 30
0.0
 10
4.2184848063
 20
3.4177404203
 30
0.0
 10
4.2185151308
 20
3.4177322948
 30
0.0
  0
SPLINE
  5
2E0
100
AcDbEntity
  8
ALL_ASSEMBLY_MEMBERS
100
AcDbSpline
 62
7
  6
CONTINUOUS
 70
0
 71
3
 72
20
 73
16
 74
0
 42
0.0000001
 43
0.0000001
 44
0.0000000001
 40
0.0
 40
0.0
 40
0.0
 40
0.0
 40
0.0515173934
 40
0.1070180577
 40
0.166233631
 40
0.2287481385
 40
0.2940344588
 40
0.3614741207
 40
0.4999674731
 40
0.6384706685
 40
0.7711428218
 40
0.8336763267
 40
0.8929141158
 40
0.9484521109
 40
1.0
 40
1.0
 40
1.0
 40
1.0
 10
4.0787249062
 20
3.5055603921
 30
0.0
 10
4.0789265874
 20
3.5049697202
 30
0.0
 10
4.079274619
 20
3.5037178518
 30
0.0
 10
4.0796274473
 20
3.5017325391
 30
0.0
 10
4.0798252578
 20
3.4995921473
 30
0.0
 10
4.0798650833
 20
3.4973248428
 30
0.0
 10
4.0797451511
 20
3.4949606976
 30
0.0
 10
4.079370823
 20
3.4916943884
 30
0.0
 10
4.0785204134
 20
3.4875981529
 30
0.0
 10
4.0769612967
 20
3.4828754329
 30
0.0
 10
4.0752427291
 20
3.4792023493
 30
0.0
 10
4.0736545277
 20
3.4765575704
 30
0.0
 10
4.0724121961
 20
3.4748022141
 30
0.0
 10
4.0711138327
 20
3.4732579954
 30
0.0
 10
4.0701856016
 20
3.4723475803
 30
0.0
 10
4.0697153494
 20
3.4719366147
 30
0.0
  0
SPLINE
  5
2E1
100
AcDbEntity
  8
ALL_ASSEMBLY_MEMBERS
100
AcDbSpline
 62
7
  6
CONTINUOUS
 70
0
 71
3
 72
11
 73
7
 74
0
 42
0.0000001
 43
0.0000001
 44
0.0000000001
 40
0.0
 40
0.0
 40
0.0
 40
0.0
 40
0.256516826
 40
0.5084659074
 40
0.756043142
 40
1.0
 40
1.0
 40
1.0
 40
1.0
 10
3.8077550619
 20
3.583278045
 30
0.0
 10
3.8068285165
 20
3.5849712826
 30
0.0
 10
3.8046689833
 20
3.588163279
 30
0.0
 10
3.8005984654
 20
3.5921894827
 30
0.0
 10
3.7958817449
 20
3.5952676001
 30
0.0
 10
3.7924018472
 20
3.5966137663
 30
0.0
 10
3.7906287377
 20
3.5970888696
 30
0.0
  0
SPLINE
  5
2E2
100
AcDbEntity
  8
ALL_ASSEMBLY_MEMBERS
100
AcDbSpline
 62
7
  6
CONTINUOUS
 70
0
 71
3
 72
15
 73
11
 74
0
 42
0.0000001
 43
0.0000001
 44
0.0000000001
 40
0.0
 40
0.0
 40
0.0
 40
0.0
 40
0.1187283023
 40
0.2427167028
 40
0.3704022321
 40
0.4999769501
 40
0.6295560714
 40
0.7572405025
 40
0.8812542306
 40
1.0
 40
1.0
 40
1.0
 40
1.0
 10
3.7157148154
 20
3.5975545727
 30
0.0
 10
3.7150971863
 20
3.5967697876
 30
0.0
 10
3.7139299548
 20
3.5950886787
 30
0.0
 10
3.7124290281
 20
3.592352721
 30
0.0
 10
3.7111697512
 20
3.589397953
 30
0.0
 10
3.71018023
 20
3.5862932324
 30
0.0
 10
3.7094844562
 20
3.5831097508
 30
0.0
 10
3.7090981999
 20
3.5799209303
 30
0.0
 10
3.7090290292
 20
3.5768007143
 30
0.0
 10
3.7091999887
 20
3.5747608921
 30
0.0
 10
3.7093424747
 20
3.5737722847
 30
0.0
  0
SPLINE
  5
2E3
100
AcDbEntity
  8
ALL_ASSEMBLY_MEMBERS
100
AcDbSpline
 62
7
  6
CONTINUOUS
 70
0
 71
3
 72
13
 73
9
 74
0
 42
0.0000001
 43
0.0000001
 44
0.0000000001
 40
0.0
 40
0.0
 40
0.0
 40
0.0
 40
0.2611775627
 40
0.5140964071
 40
0.6378249886
 40
0.7598998958
 40
0.8805634503
 40
1.0
 40
1.0
 40
1.0
 40
1.0
 10
3.7658484039
 20
3.5952426243
 30
0.0
 10
3.7650024525
 20
3.5967960189
 30
0.0
 10
3.7630594992
 20
3.5997127631
 30
0.0
 10
3.7600016265
 20
3.6028058294
 30
0.0
 10
3.7572842539
 20
3.6048205521
 30
0.0
 10
3.7551434908
 20
3.606085808
 30
0.0
 10
3.7529062894
 20
3.607102305
 30
0.0
 10
3.7513579048
 20
3.6076114576
 30
0.0
 10
3.750576592
 20
3.6078208097
 30
0.0
  0
SPLINE
  5
2E4
100
AcDbEntity
  8
ALL_ASSEMBLY_MEMBERS
100
AcDbSpline
 62
7
  6
CONTINUOUS
 70
0
 71
3
 72
13
 73
9
 74
0
 42
0.0000001
 43
0.0000001
 44
0.0000000001
 40
0.0
 40
0.0
 40
0.0
 40
0.0
 40
0.2611848343
 40
0.5141038288
 40
0.6378300071
 40
0.7599020935
 40
0.8805638389
 40
1.0
 40
1.0
 40
1.0
 40
1.0
 10
4.0635410288
 20
3.4677434104
 30
0.0
 10
4.064387015
 20
3.4661900013
 30
0.0
 10
4.0663299864
 20
3.4632732557
 30
0.0
 10
4.0693878942
 20
3.4601802418
 30
0.0
 10
4.0721052311
 20
3.4581655942
 30
0.0
 10
4.0742459349
 20
3.4569003875
 30
0.0
 10
4.0764830835
 20
3.4558839229
 30
0.0
 10
4.0780314384
 20
3.4553747868
 30
0.0
 10
4.0788127398
 20
3.4551654377
 30
0.0
  0
SPLINE
  5
2E5
100
AcDbEntity
  8
ALL_ASSEMBLY_MEMBERS
100
AcDbSpline
 62
7
  6
CONTINUOUS
 70
0
 71
3
 72
13
 73
9
 74
0
 42
0.0000001
 43
0.0000001
 44
0.0000000001
 40
0.0
 40
0.0
 40
0.0
 40
0.0
 40
0.2673354599
 40
0.5216588908
 40
0.6445539741
 40
0.7649591807
 40
0.8832990997
 40
1.0
 40
1.0
 40
1.0
 40
1.0
 10
3.7271631386
 20
3.6065751347
 30
0.0
 10
3.7264249583
 20
3.6079452912
 30
0.0
 10
3.7247577793
 20
3.6105054075
 30
0.0
 10
3.7221440552
 20
3.6132334518
 30
0.0
 10
3.7198375581
 20
3.6149941838
 30
0.0
 10
3.7180339113
 20
3.6160885838
 30
0.0
 10
3.7161530177
 20
3.6169611183
 30
0.0
 10
3.7148509764
 20
3.6173934595
 30
0.0
 10
3.7141947255
 20
3.6175693014
 30
0.0
  0
SPLINE
  5
2E6
100
AcDbEntity
  8
ALL_ASSEMBLY_MEMBERS
100
AcDbSpline
 62
7
  6
CONTINUOUS
 70
0
 71
3
 72
13
 73
9
 74
0
 42
0.0000001
 43
0.0000001
 44
0.0000000001
 40
0.0
 40
0.0
 40
0.0
 40
0.0
 40
0.2748162192
 40
0.5308072675
 40
0.6526728457
 40
0.7710432397
 40
0.8865762583
 40
1.0
 40
1.0
 40
1.0
 40
1.0
 10
3.6925847447
 20
3.6170375321
 30
0.0
 10
3.6919790287
 20
3.6181823491
 30
0.0
 10
3.6906365576
 20
3.6203089287
 30
0.0
 10
3.6885404758
 20
3.622588456
 30
0.0
 10
3.6867048363
 20
3.6240440469
 30
0.0
 10
3.6852816162
 20
3.6249374588
 30
0.0
 10
3.683800693
 20
3.6256432485
 30
0.0
 10
3.6827748947
 20
3.6259882197
 30
0.0
 10
3.682258554
 20
3.6261265728
 30
0.0
  0
SPLINE
  5
2E7
100
AcDbEntity
  8
ALL_ASSEMBLY_MEMBERS
100
AcDbSpline
 62
7
  6
CONTINUOUS
 70
0
 71
3
 72
30
 73
26
 74
0
 42
0.0000001
 43
0.0000001
 44
0.0000000001
 40
0.0
 40
0.0
 40
0.0
 40
0.0
 40
0.0143718052
 40
0.0312872579
 40
0.0508525072
 40
0.0730995556
 40
0.0979843748
 40
0.1254152331
 40
0.1552786584
 40
0.1874121602
 40
0.2577292026
 40
0.3346357073
 40
0.4160963495
 40
0.4998756056
 40
0.5836610175
 40
0.6651317152
 40
0.7420706042
 40
0.8124280293
 40
0.8744683075
 40
0.9019327288
 40
0.9268494166
 40
0.9491141011
 40
0.9686945669
 40
0.9856220605
 40
1.0
 40
1.0
 40
1.0
 40
1.0
 10
3.8509694653
 20
3.5704080405
 30
0.0
 10
3.850794357
 20
3.5702964121
 30
0.0
 10
3.8504361169
 20
3.5700172815
 30
0.0
 10
3.8499158988
 20
3.5694968055
 30
0.0
 10
3.8493725931
 20
3.5688437073
 30
0.0
 10
3.8488097201
 20
3.5680607023
 30
0.0
 10
3.8482304058
 20
3.5671517875
 30
0.0
 10
3.847638423
 20
3.5661220479
 30
0.0
 10
3.8470381011
 20
3.5649774796
 30
0.0
 10
3.8462065248
 20
3.5632556445
 30
0.0
 10
3.8451839626
 20
3.5608728677
 30
0.0
 10
3.8440232844
 20
3.5577780798
 30
0.0
 10
3.8429294742
 20
3.5544536381
 30
0.0
 10
3.8419339918
 20
3.5509949957
 30
0.0
 10
3.8410662159
 20
3.5475019506
 30
0.0
 10
3.8403510796
 20
3.5440753624
 30
0.0
 10
3.8398077616
 20
3.5408136944
 30
0.0
 10
3.839451088
 20
3.5378088631
 30
0.0
 10
3.839309144
 20
3.5355013565
 30
0.0
 10
3.8393056074
 20
3.5338475967
 30
0.0
 10
3.839352582
 20
3.5327695756
 30
0.0
 10
3.839448593
 20
3.5318090995
 30
0.0
 10
3.8395925999
 20
3.5309711976
 30
0.0
 10
3.8397829146
 20
3.5302598487
 30
0.0
 10
3.8399537015
 20
3.5298387512
 30
0.0
 10
3.8400495776
 20
3.529654446
 30
0.0
  0
SPLINE
  5
2E8
100
AcDbEntity
  8
ALL_ASSEMBLY_MEMBERS
100
AcDbSpline
 62
7
  6
CONTINUOUS
 70
0
 71
3
 72
25
 73
21
 74
0
 42
0.0000001
 43
0.0000001
 44
0.0000000001
 40
0.0
 40
0.0
 40
0.0
 40
0.0
 40
0.0425796052
 40
0.0920618516
 40
0.1482480589
 40
0.2105356828
 40
0.2780331268
 40
0.3496299715
 40
0.4240369633
 40
0.4998768385
 40
0.5757196627
 40
0.6501396643
 40
0.7217441241
 40
0.7892675593
 40
0.8515871899
 40
0.9078144348
 40
0.9334462751
 40
0.9573613017
 40
0.979540079
 40
1.0
 40
1.0
 40
1.0
 40
1.0
 10
4.0348039503
 20
3.5198431058
 30
0.0
 10
4.0350465546
 20
3.5193082105
 30
0.0
 10
4.0354557594
 20
3.5180990686
 30
0.0
 10
4.0358470199
 20
3.5160879883
 30
0.0
 10
4.0360525422
 20
3.5137768313
 30
0.0
 10
4.0360664587
 20
3.5112092152
 30
0.0
 10
4.0358869564
 20
3.5084351635
 30
0.0
 10
4.0355157386
 20
3.5055119376
 30
0.0
 10
4.0349605931
 20
3.5025010764
 30
0.0
 10
4.034232163
 20
3.499467186
 30
0.0
 10
4.0333462634
 20
3.4964753105
 30
0.0
 10
4.0323222086
 20
3.4935896816
 30
0.0
 10
4.0311818047
 20
3.4908719219
 30
0.0
 10
4.0299505724
 20
3.488378548
 30
0.0
 10
4.0286541064
 20
3.486160802
 30
0.0
 10
4.0275096854
 20
3.4845301926
 30
0.0
 10
4.0265773757
 20
3.4834069539
 30
0.0
 10
4.025900817
 20
3.4826841019
 30
0.0
 10
4.0252285552
 20
3.4820577971
 30
0.0
 10
4.0247668461
 20
3.4816920075
 30
0.0
 10
4.0245373757
 20
3.4815277112
 30
0.0
  0
SPLINE
  5
2E9
100
AcDbEntity
  8
ALL_ASSEMBLY_MEMBERS
100
AcDbSpline
 62
7
  6
CONTINUOUS
 70
0
 71
3
 72
14
 73
10
 74
0
 42
0.0000001
 43
0.0000001
 44
0.0000000001
 40
0.0
 40
0.0
 40
0.0
 40
0.0
 40
0.2837210071
 40
0.4158577785
 40
0.5419223479
 40
0.6625083605
 40
0.778389682
 40
0.8905204907
 40
1.0
 40
1.0
 40
1.0
 40
1.0
 10
3.6629723428
 20
3.6263399724
 30
0.0
 10
3.6625177736
 20
3.6272284836
 30
0.0
 10
3.6617588396
 20
3.6284889233
 30
0.0
 10
3.6605658386
 20
3.6299785476
 30
0.0
 10
3.6596359206
 20
3.6309360537
 30
0.0
 10
3.6586550414
 20
3.6317549513
 30
0.0
 10
3.6576277978
 20
3.6324299723
 30
0.0
 10
3.6565608618
 20
3.6329573389
 30
0.0
 10
3.6558207329
 20
3.6332105656
 30
0.0
 10
3.655448741
 20
3.6333102405
 30
0.0
  0
SPLINE
  5
2EA
100
AcDbEntity
  8
ALL_ASSEMBLY_MEMBERS
100
AcDbSpline
 62
7
  6
CONTINUOUS
 70
0
 71
3
 72
14
 73
10
 74
0
 42
0.0000001
 43
0.0000001
 44
0.0000000001
 40
0.0
 40
0.0
 40
0.0
 40
0.0
 40
0.2947957982
 40
0.4291752295
 40
0.5555018697
 40
0.6745581189
 40
0.7874003306
 40
0.8953589825
 40
1.0
 40
1.0
 40
1.0
 40
1.0
 10
3.6391199228
 20
3.6341902388
 30
0.0
 10
3.6388242458
 20
3.6348075903
 30
0.0
 10
3.6383368556
 20
3.6356826269
 30
0.0
 10
3.6375688588
 20
3.6367207016
 30
0.0
 10
3.6369787942
 20
3.6373780363
 30
0.0
 10
3.6363589218
 20
3.637935319
 30
0.0
 10
3.6357113507
 20
3.6383900183
 30
0.0
 10
3.6350391748
 20
3.6387401779
 30
0.0
 10
3.6345713845
 20
3.6389043114
 30
0.0
 10
3.6343366908
 20
3.6389671973
 30
0.0
  0
SPLINE
  5
2EB
100
AcDbEntity
  8
ALL_ASSEMBLY_MEMBERS
100
AcDbSpline
 62
7
  6
CONTINUOUS
 70
0
 71
3
 72
13
 73
9
 74
0
 42
0.0000001
 43
0.0000001
 44
0.0000000001
 40
0.0
 40
0.0
 40
0.0
 40
0.0
 40
0.2673437727
 40
0.5216652206
 40
0.6445572801
 40
0.7649598619
 40
0.8832987781
 40
1.0
 40
1.0
 40
1.0
 40
1.0
 10
4.102226547
 20
3.4564105361
 30
0.0
 10
4.1029647617
 20
3.4550404062
 30
0.0
 10
4.1046319392
 20
3.4524803745
 30
0.0
 10
4.1072456579
 20
3.4497524828
 30
0.0
 10
4.1095520716
 20
3.4479918872
 30
0.0
 10
4.1113556321
 20
3.4468975655
 30
0.0
 10
4.1132364477
 20
3.4460250844
 30
0.0
 10
4.1145384402
 20
3.4455927651
 30
0.0
 10
4.1151946696
 20
3.445416929
 30
0.0
  0
SPLINE
  5
2EC
100
AcDbEntity
  8
ALL_ASSEMBLY_MEMBERS
100
AcDbSpline
 62
7
  6
CONTINUOUS
 70
0
 71
3
 72
13
 73
9
 74
0
 42
0.0000001
 43
0.0000001
 44
0.0000000001
 40
0.0
 40
0.0
 40
0.0
 40
0.0
 40
0.3091912049
 40
0.5730728265
 40
0.6902190439
 40
0.7991598842
 40
0.9016896842
 40
1.0
 40
1.0
 40
1.0
 40
1.0
 10
3.6217234109
 20
3.6403433481
 30
0.0
 10
3.6215764937
 20
3.6406890943
 30
0.0
 10
3.6212693584
 20
3.6413162667
 30
0.0
 10
3.6207842228
 20
3.6420071941
 30
0.0
 10
3.6203636609
 20
3.6424304504
 30
0.0
 10
3.620047314
 20
3.6426761407
 30
0.0
 10
3.6197182816
 20
3.6428618242
 30
0.0
 10
3.6194877463
 20
3.64294596
 30
0.0
 10
3.6193723697
 20
3.6429768751
 30
0.0
  0
LINE
  5
2ED
100
AcDbEntity
  8
ALL_ASSEMBLY_MEMBERS
100
AcDbLine
 62
7
  6
CONTINUOUS
 10
3.5946985257
 20
3.5848834504
 11
3.5952475313
 21
3.5850214487
  0
LINE
  5
2EE
100
AcDbEntity
  8
ALL_ASSEMBLY_MEMBERS
100
AcDbLine
 62
7
  6
CONTINUOUS
 10
3.5952475313
 20
3.5850214487
 11
3.5956488775
 21
3.5853368871
  0
SPLINE
  5
2EF
100
AcDbEntity
  8
ALL_ASSEMBLY_MEMBERS
100
AcDbSpline
 62
7
  6
CONTINUOUS
 70
0
 71
3
 72
13
 73
9
 74
0
 42
0.0000001
 43
0.0000001
 44
0.0000000001
 40
0.0
 40
0.0
 40
0.0
 40
0.0
 40
0.334525419
 40
0.6052390618
 40
0.7193087206
 40
0.8212941603
 40
0.9137214821
 40
1.0
 40
1.0
 40
1.0
 40
1.0
 10
3.6114710283
 20
3.6443859448
 30
0.0
 10
3.6114353766
 20
3.6445023495
 30
0.0
 10
3.6113616867
 20
3.6447103398
 30
0.0
 10
3.6112399973
 20
3.6449440057
 30
0.0
 10
3.6111317969
 20
3.6450848544
 30
0.0
 10
3.6110510748
 20
3.645163567
 30
0.0
 10
3.6109660111
 20
3.6452212218
 30
0.0
 10
3.610905045
 20
3.6452456879
 30
0.0
 10
3.610874716
 20
3.6452538145
 30
0.0
  0
SPLINE
  5
2F0
100
AcDbEntity
  8
ALL_ASSEMBLY_MEMBERS
100
AcDbSpline
 62
7
  6
CONTINUOUS
 70
0
 71
3
 72
27
 73
23
 74
0
 42
0.0000001
 43
0.0000001
 44
0.0000000001
 40
0.0
 40
0.0
 40
0.0
 40
0.0
 40
0.0204456645
 40
0.0426043214
 40
0.0664958659
 40
0.0921029819
 40
0.1482810251
 40
0.2105573733
 40
0.2780557548
 40
0.3496429229
 40
0.4240518612
 40
0.4998896583
 40
0.5757319871
 40
0.650145142
 40
0.7217560616
 40
0.7892735164
 40
0.8515961293
 40
0.9078160621
 40
0.9334524144
 40
0.9573687721
 40
0.9795414929
 40
1.0
 40
1.0
 40
1.0
 40
1.0
 10
3.8048518567
 20
3.5814585515
 30
0.0
 10
3.8046225377
 20
3.5812943549
 30
0.0
 10
3.8041611692
 20
3.5809288521
 30
0.0
 10
3.8034893677
 20
3.5803031537
 30
0.0
 10
3.8028133145
 20
3.5795810454
 30
0.0
 10
3.8018816762
 20
3.5784588928
 30
0.0
 10
3.8007378804
 20
3.5768296953
 30
0.0
 10
3.7994417303
 20
3.5746134803
 30
0.0
 10
3.7982106147
 20
3.5721211976
 30
0.0
 10
3.7970699113
 20
3.5694041877
 30
0.0
 10
3.7960456228
 20
3.566518953
 30
0.0
 10
3.7951591867
 20
3.5635272536
 30
0.0
 10
3.7944304277
 20
3.5604932173
 30
0.0
 10
3.7938746204
 20
3.5574819874
 30
0.0
 10
3.79350302
 20
3.5545580954
 30
0.0
 10
3.7933229665
 20
3.5517829439
 30
0.0
 10
3.7933363404
 20
3.5492140708
 30
0.0
 10
3.7935127179
 20
3.5472296526
 30
0.0
 10
3.7937582628
 20
3.5457906542
 30
0.0
 10
3.7939825792
 20
3.5448262658
 30
0.0
 10
3.7942517884
 20
3.5439478232
 30
0.0
 10
3.7944687287
 20
3.5434002597
 30
0.0
 10
3.7945852994
 20
3.5431432403
 30
0.0
  0
SPLINE
  5
2F1
100
AcDbEntity
  8
ALL_ASSEMBLY_MEMBERS
100
AcDbSpline
 62
7
  6
CONTINUOUS
 70
0
 71
3
 72
31
 73
27
 74
0
 42
0.0000001
 43
0.0000001
 44
0.0000000001
 40
0.0
 40
0.0
 40
0.0
 40
0.0
 40
0.0143718841
 40
0.0312862332
 40
0.0508543056
 40
0.0731048201
 40
0.0979891642
 40
0.1254260906
 40
0.1552918956
 40
0.1874248683
 40
0.2577485884
 40
0.3346564589
 40
0.4161133535
 40
0.499890071
 40
0.583671721
 40
0.6651441395
 40
0.7420725557
 40
0.8124281147
 40
0.8445896811
 40
0.874480554
 40
0.9019387939
 40
0.9268500017
 40
0.9491191896
 40
0.9686987263
 40
0.9856227181
 40
1.0
 40
1.0
 40
1.0
 40
1.0
 10
3.9893396724
 20
3.5333319609
 30
0.0
 10
3.9894354889
 20
3.5331477204
 30
0.0
 10
3.9896061028
 20
3.5327268524
 30
0.0
 10
3.9897964627
 20
3.5320159843
 30
0.0
 10
3.9899403899
 20
3.531178634
 30
0.0
 10
3.9900363584
 20
3.5302190037
 30
0.0
 10
3.9900837196
 20
3.5291420615
 30
0.0
 10
3.9900813549
 20
3.5279541581
 30
0.0
 10
3.9900289847
 20
3.526662643
 30
0.0
 10
3.9898882645
 20
3.5247555507
 30
0.0
 10
3.9895823477
 20
3.52218059
 30
0.0
 10
3.9890399325
 20
3.5189200176
 30
0.0
 10
3.9883251932
 20
3.515494046
 30
0.0
 10
3.9874578233
 20
3.5120011676
 30
0.0
 10
3.9864627194
 20
3.5085422823
 30
0.0
 10
3.9853690426
 20
3.5052172041
 30
0.0
 10
3.9842084368
 20
3.5021212286
 30
0.0
 10
3.9831855791
 20
3.4997371529
 30
0.0
 10
3.9823537055
 20
3.498013926
 30
0.0
 10
3.9817529587
 20
3.4968682085
 30
0.0
 10
3.9811605021
 20
3.4958373703
 30
0.0
 10
3.9805807202
 20
3.494927437
 30
0.0
 10
3.9800174368
 20
3.4941435933
 30
0.0
 10
3.9794737598
 20
3.4934899395
 30
0.0
 10
3.9789532528
 20
3.4929691639
 30
0.0
 10
3.9785948914
 20
3.4926898495
 30
0.0
 10
3.9784197234
 20
3.4925781627
 30
0.0
  0
SPLINE
  5
2F2
100
AcDbEntity
  8
ALL_ASSEMBLY_MEMBERS
100
AcDbSpline
 62
7
  6
CONTINUOUS
 70
0
 71
3
 72
13
 73
9
 74
0
 42
0.0000001
 43
0.0000001
 44
0.0000000001
 40
0.0
 40
0.0
 40
0.0
 40
0.0
 40
0.0983103132
 40
0.2008401079
 40
0.3097809427
 40
0.4269271569
 40
0.6908087659
 40
1.0
 40
1.0
 40
1.0
 40
1.0
 10
3.6031961794
 20
3.582606511
 30
0.0
 10
3.6033115561
 20
3.5825755958
 30
0.0
 10
3.6035532737
 20
3.582533192
 30
0.0
 10
3.6039310662
 20
3.5825294824
 30
0.0
 10
3.6043278762
 20
3.5825840832
 30
0.0
 10
3.6049037222
 20
3.5827403534
 30
0.0
 10
3.6056693263
 20
3.5830961469
 30
0.0
 10
3.6062488999
 20
3.5834857271
 30
0.0
 10
3.6065490073
 20
3.5837116939
 30
0.0
  0
LINE
  5
2F3
100
AcDbEntity
  8
ALL_ASSEMBLY_MEMBERS
100
AcDbLine
 62
7
  6
CONTINUOUS
 10
4.2346913211
 20
3.478102659
 11
4.2341442859
 21
3.4779658855
  0
LINE
  5
2F4
100
AcDbEntity
  8
ALL_ASSEMBLY_MEMBERS
100
AcDbLine
 62
7
  6
CONTINUOUS
 10
4.2341442859
 20
3.4779658855
 11
4.2337411626
 21
3.4776494198
  0
SPLINE
  5
2F5
100
AcDbEntity
  8
ALL_ASSEMBLY_MEMBERS
100
AcDbSpline
 62
7
  6
CONTINUOUS
 70
0
 71
3
 72
37
 73
33
 74
0
 42
0.0000001
 43
0.0000001
 44
0.0000000001
 40
0.0
 40
0.0
 40
0.0
 40
0.0
 40
0.0028694224
 40
0.0066262132
 40
0.0113289623
 40
0.0170042964
 40
0.0313025913
 40
0.0495057182
 40
0.0715373725
 40
0.0972567505
 40
0.1264842837
 40
0.1590036551
 40
0.1945479052
 40
0.2328333138
 40
0.3162673653
 40
0.4063725512
 40
0.4998862061
 40
0.5934066824
 40
0.6835276032
 40
0.76699471
 40
0.8052966734
 40
0.840872898
 40
0.8734202482
 40
0.9026734597
 40
0.9284225295
 40
0.9504704562
 40
0.9686858278
 40
0.9829919034
 40
0.9886690136
 40
0.9933728939
 40
0.9971303113
 40
1.0
 40
1.0
 40
1.0
 40
1.0
 10
3.9432743423
 20
3.5462471334
 30
0.0
 10
3.9432944105
 20
3.5462106243
 30
0.0
 10
3.9433272473
 20
3.5461191779
 30
0.0
 10
3.9433587651
 20
3.545957566
 30
0.0
 10
3.9433787132
 20
3.5457530394
 30
0.0
 10
3.9433901435
 20
3.545394806
 30
0.0
 10
3.9433677555
 20
3.544840387
 30
0.0
 10
3.9432959118
 20
3.5440517689
 30
0.0
 10
3.9431755179
 20
3.5431016044
 30
0.0
 10
3.9430072728
 20
3.5419966149
 30
0.0
 10
3.9427918091
 20
3.5407450367
 30
0.0
 10
3.942530545
 20
3.5393567937
 30
0.0
 10
3.9422254857
 20
3.53784311
 30
0.0
 10
3.9417495284
 20
3.5356099193
 30
0.0
 10
3.9410639888
 20
3.5326116353
 30
0.0
 10
3.940140063
 20
3.5288458488
 30
0.0
 10
3.9391254799
 20
3.5249519414
 30
0.0
 10
3.9380572266
 20
3.5210721775
 30
0.0
 10
3.9369743912
 20
3.5173481326
 30
0.0
 10
3.9360688436
 20
3.5144078099
 30
0.0
 10
3.9353640853
 20
3.5122347011
 30
0.0
 10
3.9348711913
 20
3.5107701924
 30
0.0
 10
3.9344029786
 20
3.509436112
 30
0.0
 10
3.9339633728
 20
3.5082433449
 30
0.0
 10
3.9335563197
 20
3.5072012593
 30
0.0
 10
3.9331851968
 20
3.5063174064
 30
0.0
 10
3.9328529135
 20
3.5055980302
 30
0.0
 10
3.9325949694
 20
3.5051064014
 30
0.0
 10
3.9324058736
 20
3.5048017444
 30
0.0
 10
3.9322863106
 20
3.5046345475
 30
0.0
 10
3.932178196
 20
3.5045103192
 30
0.0
 10
3.9321040287
 20
3.5044475302
 30
0.0
 10
3.9320683922
 20
3.5044259429
 30
0.0
  0
SPLINE
  5
2F6
100
AcDbEntity
  8
ALL_ASSEMBLY_MEMBERS
100
AcDbSpline
 62
7
  6
CONTINUOUS
 70
0
 71
3
 72
13
 73
9
 74
0
 42
0.0000001
 43
0.0000001
 44
0.0000000001
 40
0.0
 40
0.0
 40
0.0
 40
0.0
 40
0.2748230477
 40
0.5308112778
 40
0.6526741565
 40
0.7710427079
 40
0.886575425
 40
1.0
 40
1.0
 40
1.0
 40
1.0
 10
4.1368049031
 20
3.4459483148
 30
0.0
 10
4.1374106323
 20
3.4448035095
 30
0.0
 10
4.1387531115
 20
3.4426769949
 30
0.0
 10
4.1408491803
 20
3.4403975653
 30
0.0
 10
4.1426847662
 20
3.4389420696
 30
0.0
 10
4.1441079318
 20
3.4380487035
 30
0.0
 10
4.1455888129
 20
3.4373429467
 30
0.0
 10
4.1466145856
 20
3.4369979878
 30
0.0
 10
4.1471309156
 20
3.4368596376
 30
0.0
  0
SPLINE
  5
2F7
100
AcDbEntity
  8
ALL_ASSEMBLY_MEMBERS
100
AcDbSpline
 62
7
  6
CONTINUOUS
 70
0
 71
3
 72
13
 73
9
 74
0
 42
0.0000001
 43
0.0000001
 44
0.0000000001
 40
0.0
 40
0.0
 40
0.0
 40
0.0
 40
0.0983110045
 40
0.2008412843
 40
0.3097824623
 40
0.4269289489
 40
0.6908098781
 40
1.0
 40
1.0
 40
1.0
 40
1.0
 10
4.2261935652
 20
3.4803796258
 30
0.0
 10
4.2260781813
 20
3.4804105428
 30
0.0
 10
4.2258364488
 20
3.4804529489
 30
0.0
 10
4.2254586334
 20
3.4804566563
 30
0.0
 10
4.2250618008
 20
3.4804020477
 30
0.0
 10
4.2244859258
 20
3.4802457585
 30
0.0
 10
4.2237202881
 20
3.4798899315
 30
0.0
 10
4.223140689
 20
3.4795003244
 30
0.0
 10
4.2228405695
 20
3.4792743414
 30
0.0
  0
SPLINE
  5
2F8
100
AcDbEntity
  8
ALL_ASSEMBLY_MEMBERS
100
AcDbSpline
 62
7
  6
CONTINUOUS
 70
0
 71
3
 72
14
 73
10
 74
0
 42
0.0000001
 43
0.0000001
 44
0.0000000001
 40
0.0
 40
0.0
 40
0.0
 40
0.0
 40
0.1046410257
 40
0.2125996754
 40
0.3254418733
 40
0.4444980955
 40
0.5708246993
 40
0.7052041097
 40
1.0
 40
1.0
 40
1.0
 40
1.0
 10
3.6181605005
 20
3.5785968332
 30
0.0
 10
3.6183951942
 20
3.5785339472
 30
0.0
 10
3.6188823794
 20
3.5784421958
 30
0.0
 10
3.6196395806
 20
3.5784093549
 30
0.0
 10
3.6204277433
 20
3.5784793505
 30
0.0
 10
3.6212432098
 20
3.5786520354
 30
0.0
 10
3.622082888
 20
3.5789262715
 30
0.0
 10
3.6232670304
 20
3.5794412723
 30
0.0
 10
3.6241266411
 20
3.5799553814
 30
0.0
 10
3.6246913809
 20
3.5803421852
 30
0.0
  0
SPLINE
  5
2F9
100
AcDbEntity
  8
ALL_ASSEMBLY_MEMBERS
100
AcDbSpline
 62
7
  6
CONTINUOUS
 70
0
 71
3
 72
37
 73
33
 74
0
 42
0.0000001
 43
0.0000001
 44
0.0000000001
 40
0.0
 40
0.0
 40
0.0
 40
0.0
 40
0.0028694205
 40
0.0066262624
 40
0.0113287427
 40
0.0170031366
 40
0.031300985
 40
0.0495038576
 40
0.0715298662
 40
0.097250046
 40
0.1264723082
 40
0.158988582
 40
0.1945335457
 40
0.2328114685
 40
0.3162508435
 40
0.4063581083
 40
0.4998775252
 40
0.5934030108
 40
0.683525275
 40
0.7669951708
 40
0.8052998466
 40
0.8408770441
 40
0.8734176914
 40
0.9026765827
 40
0.9284269361
 40
0.9504694068
 40
0.968686732
 40
0.9829927825
 40
0.9886691227
 40
0.9933728137
 40
0.9971303071
 40
1.0
 40
1.0
 40
1.0
 40
1.0
 10
3.8861153329
 20
3.5167394352
 30
0.0
 10
3.8860952734
 20
3.5167759481
 30
0.0
 10
3.8860624539
 20
3.5168673987
 30
0.0
 10
3.8860309469
 20
3.5170290056
 30
0.0
 10
3.8860109964
 20
3.5172335107
 30
0.0
 10
3.8859995277
 20
3.517591712
 30
0.0
 10
3.8860219041
 20
3.5181460987
 30
0.0
 10
3.8860937484
 20
3.5189346084
 30
0.0
 10
3.8862140891
 20
3.5198846871
 30
0.0
 10
3.8863823637
 20
3.5209895024
 30
0.0
 10
3.8865977492
 20
3.5222409578
 30
0.0
 10
3.8868589848
 20
3.5236290665
 30
0.0
 10
3.8871640306
 20
3.5251425767
 30
0.0
 10
3.887639893
 20
3.527375722
 30
0.0
 10
3.8883254656
 20
3.5303739386
 30
0.0
 10
3.8892494243
 20
3.5341398378
 30
0.0
 10
3.890263993
 20
3.5380338632
 30
0.0
 10
3.8913322404
 20
3.5419137329
 30
0.0
 10
3.8924151572
 20
3.5456378161
 30
0.0
 10
3.8933207
 20
3.5485781834
 30
0.0
 10
3.8940254676
 20
3.5507513424
 30
0.0
 10
3.894518302
 20
3.5522157946
 30
0.0
 10
3.8949865966
 20
3.5535498172
 30
0.0
 10
3.8954261511
 20
3.5547425808
 30
0.0
 10
3.8958331642
 20
3.5557846839
 30
0.0
 10
3.8962043232
 20
3.5566684669
 30
0.0
 10
3.8965365528
 20
3.5573877943
 30
0.0
 10
3.8967945161
 20
3.557879422
 30
0.0
 10
3.8969836296
 20
3.558184043
 30
0.0
 10
3.8971031847
 20
3.5583512245
 30
0.0
 10
3.8972112877
 20
3.5584754559
 30
0.0
 10
3.8972854422
 20
3.5585382577
 30
0.0
 10
3.8973210731
 20
3.5585598529
 30
0.0
  0
SPLINE
  5
2FA
100
AcDbEntity
  8
ALL_ASSEMBLY_MEMBERS
100
AcDbSpline
 62
7
  6
CONTINUOUS
 70
0
 71
3
 72
14
 73
10
 74
0
 42
0.0000001
 43
0.0000001
 44
0.0000000001
 40
0.0
 40
0.0
 40
0.0
 40
0.0
 40
0.1046466507
 40
0.2126096493
 40
0.3254543913
 40
0.4445109232
 40
0.5708354751
 40
0.7052114863
 40
1.0
 40
1.0
 40
1.0
 40
1.0
 10
4.2112291458
 20
3.4843893299
 30
0.0
 10
4.2109944858
 20
3.4844522069
 30
0.0
 10
4.2105073759
 20
3.4845439511
 30
0.0
 10
4.2097502969
 20
3.4845768139
 30
0.0
 10
4.20896227
 20
3.4845068706
 30
0.0
 10
4.2081469527
 20
3.4843342685
 30
0.0
 10
4.2073074305
 20
3.4840601566
 30
0.0
 10
4.2061235065
 20
3.4835453676
 30
0.0
 10
4.2052640441
 20
3.4830314458
 30
0.0
 10
4.2046993946
 20
3.4826447798
 30
0.0
  0
SPLINE
  5
2FB
100
AcDbEntity
  8
ALL_ASSEMBLY_MEMBERS
100
AcDbSpline
 62
7
  6
CONTINUOUS
 70
0
 71
3
 72
22
 73
18
 74
0
 42
0.0000001
 43
0.0000001
 44
0.0000000001
 40
0.0
 40
0.0
 40
0.0
 40
0.0
 40
0.0515033266
 40
0.1069970116
 40
0.1661971472
 40
0.22870689
 40
0.3613454483
 40
0.4302459113
 40
0.4998875186
 40
0.5695321649
 40
0.6384346835
 40
0.7058721375
 40
0.7711681306
 40
0.8336894865
 40
0.8929254671
 40
0.9484516954
 40
1.0
 40
1.0
 40
1.0
 40
1.0
 10
3.7596738558
 20
3.5910496744
 30
0.0
 10
3.7592039582
 20
3.590639017
 30
0.0
 10
3.7582764342
 20
3.5897292177
 30
0.0
 10
3.7569787227
 20
3.5881861779
 30
0.0
 10
3.7557367593
 20
3.5864318037
 30
0.0
 10
3.7541488141
 20
3.583787959
 30
0.0
 10
3.7527879294
 20
3.5808808192
 30
0.0
 10
3.751662893
 20
3.5777923576
 30
0.0
 10
3.750939122
 20
3.5753742178
 30
0.0
 10
3.7503567157
 20
3.5729183917
 30
0.0
 10
3.7499228629
 20
3.5704590193
 30
0.0
 10
3.7496447555
 20
3.5680301725
 30
0.0
 10
3.7495241399
 20
3.5656656894
 30
0.0
 10
3.7495638804
 20
3.5633976571
 30
0.0
 10
3.7497614468
 20
3.5612563716
 30
0.0
 10
3.7501143213
 20
3.5592698613
 30
0.0
 10
3.7504628786
 20
3.5580172922
 30
0.0
 10
3.7506645482
 20
3.5574261466
 30
0.0
  0
SPLINE
  5
2FC
100
AcDbEntity
  8
ALL_ASSEMBLY_MEMBERS
100
AcDbSpline
 62
7
  6
CONTINUOUS
 70
0
 71
3
 72
14
 73
10
 74
0
 42
0.0000001
 43
0.0000001
 44
0.0000000001
 40
0.0
 40
0.0
 40
0.0
 40
0.0
 40
0.1094808439
 40
0.2216121062
 40
0.3374927079
 40
0.4580768975
 40
0.584139536
 40
0.7162756255
 40
1.0
 40
1.0
 40
1.0
 40
1.0
 10
4.1901170033
 20
3.4900463114
 30
0.0
 10
4.1897450105
 20
3.4901459866
 30
0.0
 10
4.1889774284
 20
3.4902967516
 30
0.0
 10
4.1877897593
 20
3.4903735115
 30
0.0
 10
4.186562649
 20
3.490302548
 30
0.0
 10
4.1853037605
 20
3.4900838156
 30
0.0
 10
4.184019698
 20
3.4897195717
 30
0.0
 10
4.182241729
 20
3.4890260325
 30
0.0
 10
4.1809542443
 20
3.4883139522
 30
0.0
 10
4.1801163162
 20
3.4877717656
 30
0.0
  0
SPLINE
  5
2FD
100
AcDbEntity
  8
ALL_ASSEMBLY_MEMBERS
100
AcDbSpline
 62
7
  6
CONTINUOUS
 70
0
 71
3
 72
14
 73
10
 74
0
 42
0.0000001
 43
0.0000001
 44
0.0000000001
 40
0.0
 40
0.0
 40
0.0
 40
0.0
 40
0.1094795271
 40
0.2216103364
 40
0.3374916372
 40
0.4580776104
 40
0.5841421445
 40
0.7162789164
 40
1.0
 40
1.0
 40
1.0
 40
1.0
 10
3.6392725507
 20
3.5729398764
 30
0.0
 10
3.6396445422
 20
3.5728402016
 30
0.0
 10
3.6404121253
 20
3.5726894379
 30
0.0
 10
3.6415998011
 20
3.5726126827
 30
0.0
 10
3.6428269293
 20
3.5726836458
 30
0.0
 10
3.6440858429
 20
3.5729023916
 30
0.0
 10
3.6453699273
 20
3.5732666561
 30
0.0
 10
3.6471479073
 20
3.5739602068
 30
0.0
 10
3.6484353825
 20
3.5746723113
 30
0.0
 10
3.6492733063
 20
3.5752144992
 30
0.0
  0
SPLINE
  5
2FE
100
AcDbEntity
  8
ALL_ASSEMBLY_MEMBERS
100
AcDbSpline
 62
7
  6
CONTINUOUS
 70
0
 71
3
 72
13
 73
9
 74
0
 42
0.0000001
 43
0.0000001
 44
0.0000000001
 40
0.0
 40
0.0
 40
0.0
 40
0.0
 40
0.1134245458
 40
0.2289572303
 40
0.3473257984
 40
0.4691887453
 40
0.7251770496
 40
1.0
 40
1.0
 40
1.0
 40
1.0
 10
4.163307106
 20
3.4972300018
 30
0.0
 10
4.1627907759
 20
3.497368352
 30
0.0
 10
4.1617299513
 20
3.4975824953
 30
0.0
 10
4.1600945919
 20
3.4977117327
 30
0.0
 10
4.1584154104
 20
3.4976496373
 30
0.0
 10
4.1560979972
 20
3.4973069335
 30
0.0
 10
4.1531430324
 20
3.4963809234
 30
0.0
 10
4.1509171538
 20
3.4952105465
 30
0.0
 10
4.1498201744
 20
3.4945219805
 30
0.0
  0
SPLINE
  5
2FF
100
AcDbEntity
  8
ALL_ASSEMBLY_MEMBERS
100
AcDbSpline
 62
7
  6
CONTINUOUS
 70
0
 71
3
 72
12
 73
8
 74
0
 42
0.0000001
 43
0.0000001
 44
0.0000000001
 40
0.0
 40
0.0
 40
0.0
 40
0.0
 40
0.126751362
 40
0.2530767151
 40
0.5039164028
 40
0.752861889
 40
1.0
 40
1.0
 40
1.0
 40
1.0
 10
3.9783844166
 20
3.4904456298
 30
0.0
 10
3.9788864368
 20
3.4896466464
 30
0.0
 10
3.9799620769
 20
3.4880958488
 30
0.0
 10
3.9823760579
 20
3.485219023
 30
0.0
 10
3.9858573517
 20
3.4820751714
 30
0.0
 10
3.9906305751
 20
3.4791637531
 30
0.0
 10
3.9941145771
 20
3.477860242
 30
0.0
 10
3.9958917232
 20
3.4773840571
 30
0.0
  0
SPLINE
  5
300
100
AcDbEntity
  8
ALL_ASSEMBLY_MEMBERS
100
AcDbSpline
 62
7
  6
CONTINUOUS
 70
0
 71
3
 72
13
 73
9
 74
0
 42
0.0000001
 43
0.0000001
 44
0.0000000001
 40
0.0
 40
0.0
 40
0.0
 40
0.0
 40
0.1167011968
 40
0.2350400895
 40
0.3554427071
 40
0.4783348435
 40
0.7326563334
 40
1.0
 40
1.0
 40
1.0
 40
1.0
 10
4.1313708599
 20
3.5057872931
 30
0.0
 10
4.1307146304
 20
3.5059631293
 30
0.0
 10
4.129370912
 20
3.5062397262
 30
0.0
 10
4.1273058366
 20
3.5064245432
 30
0.0
 10
4.1251967453
 20
3.5063786125
 30
0.0
 10
4.1223190326
 20
3.5060070982
 30
0.0
 10
4.1186915388
 20
3.504951533
 30
0.0
 10
4.1159677045
 20
3.5035680683
 30
0.0
 10
4.1146433271
 20
3.5027506079
 30
0.0
  0
SPLINE
  5
301
100
AcDbEntity
  8
ALL_ASSEMBLY_MEMBERS
100
AcDbSpline
 62
7
  6
CONTINUOUS
 70
0
 71
3
 72
13
 73
9
 74
0
 42
0.0000001
 43
0.0000001
 44
0.0000000001
 40
0.0
 40
0.0
 40
0.0
 40
0.0
 40
0.1134237367
 40
0.2289567328
 40
0.3473270845
 40
0.4691926169
 40
0.7251836777
 40
1.0
 40
1.0
 40
1.0
 40
1.0
 10
3.6660823637
 20
3.5657562087
 30
0.0
 10
3.6665987044
 20
3.5656178556
 30
0.0
 10
3.6676595573
 20
3.5654037102
 30
0.0
 10
3.669294969
 20
3.5652744804
 30
0.0
 10
3.6709742193
 20
3.5653365878
 30
0.0
 10
3.673291725
 20
3.5656793463
 30
0.0
 10
3.6762467492
 20
3.5666054344
 30
0.0
 10
3.6784726537
 20
3.5677758709
 30
0.0
 10
3.6795696281
 20
3.5684644539
 30
0.0
  0
SPLINE
  5
302
100
AcDbEntity
  8
ALL_ASSEMBLY_MEMBERS
100
AcDbSpline
 62
7
  6
CONTINUOUS
 70
0
 71
3
 72
12
 73
8
 74
0
 42
0.0000001
 43
0.0000001
 44
0.0000000001
 40
0.0
 40
0.0
 40
0.0
 40
0.0
 40
0.1070931124
 40
0.220151757
 40
0.4628614659
 40
0.724737159
 40
1.0
 40
1.0
 40
1.0
 40
1.0
 10
6.5932978263
 20
4.4492492214
 30
0.0
 10
6.5939974088
 20
4.4497784966
 30
0.0
 10
6.5954894209
 20
4.4507966336
 30
0.0
 10
6.5987933359
 20
4.452663592
 30
0.0
 10
6.6034751728
 20
4.4546303476
 30
0.0
 10
6.6096430696
 20
4.4563432823
 30
0.0
 10
6.6139975498
 20
4.4570415744
 30
0.0
 10
6.6162392705
 20
4.4572838859
 30
0.0
  0
SPLINE
  5
303
100
AcDbEntity
  8
ALL_ASSEMBLY_MEMBERS
100
AcDbSpline
 62
7
  6
CONTINUOUS
 70
0
 71
3
 72
11
 73
7
 74
0
 42
0.0000001
 43
0.0000001
 44
0.0000000001
 40
0.0
 40
0.0
 40
0.0
 40
0.0
 40
0.2342847234
 40
0.4805592996
 40
0.7368413763
 40
1.0
 40
1.0
 40
1.0
 40
1.0
 10
6.5979922734
 20
3.6715623575
 30
0.0
 10
6.5992892593
 20
3.6707937449
 30
0.0
 10
6.6020511411
 20
3.669384371
 30
0.0
 10
6.6064920371
 20
3.66769972
 30
0.0
 10
6.6112585117
 20
3.6664214339
 30
0.0
 10
6.6145588957
 20
3.6658586149
 30
0.0
 10
6.6162392705
 20
3.6656487394
 30
0.0
  0
SPLINE
  5
304
100
AcDbEntity
  8
ALL_ASSEMBLY_MEMBERS
100
AcDbSpline
 62
7
  6
CONTINUOUS
 70
0
 71
3
 72
9
 73
5
 74
0
 42
0.0000001
 43
0.0000001
 44
0.0000000001
 40
0.0
 40
0.0
 40
0.0
 40
0.0
 40
0.4951418095
 40
1.0
 40
1.0
 40
1.0
 40
1.0
 10
6.6069987302
 20
3.6154151665
 30
0.0
 10
6.6084811816
 20
3.6148969772
 30
0.0
 10
6.6115317556
 20
3.6140072097
 30
0.0
 10
6.6146535836
 20
3.6134176322
 30
0.0
 10
6.6162392705
 20
3.6131951035
 30
0.0
  0
SPLINE
  5
305
100
AcDbEntity
  8
ALL_ASSEMBLY_MEMBERS
100
AcDbSpline
 62
7
  6
CONTINUOUS
 70
0
 71
3
 72
15
 73
11
 74
0
 42
0.0000001
 43
0.0000001
 44
0.0000000001
 40
0.0
 40
0.0
 40
0.0
 40
0.0
 40
0.1227101925
 40
0.2374065396
 40
0.3480369034
 40
0.4594225098
 40
0.5765722935
 40
0.7038255031
 40
0.8443492559
 40
1.0
 40
1.0
 40
1.0
 40
1.0
 10
6.6181332852
 20
3.5656327417
 30
0.0
 10
6.6189402007
 20
3.5655452908
 30
0.0
 10
6.6205225057
 20
3.5655146181
 30
0.0
 10
6.6227990071
 20
3.5659738638
 30
0.0
 10
6.6248300845
 20
3.5669459364
 30
0.0
 10
6.6265547398
 20
3.568419059
 30
0.0
 10
6.627924444
 20
3.5703593953
 30
0.0
 10
6.6289108626
 20
3.5727253251
 30
0.0
 10
6.6294994232
 20
3.5754763427
 30
0.0
 10
6.6296157841
 20
3.5774390132
 30
0.0
 10
6.6296157793
 20
3.5784685319
 30
0.0
  0
SPLINE
  5
306
100
AcDbEntity
  8
ALL_ASSEMBLY_MEMBERS
100
AcDbSpline
 62
7
  6
CONTINUOUS
 70
0
 71
3
 72
15
 73
11
 74
0
 42
0.0000001
 43
0.0000001
 44
0.0000000001
 40
0.0
 40
0.0
 40
0.0
 40
0.0
 40
0.0966908589
 40
0.2026464324
 40
0.3176254002
 40
0.441070843
 40
0.5721718617
 40
0.7099218297
 40
0.8530775697
 40
1.0
 40
1.0
 40
1.0
 40
1.0
 10
6.5904305606
 20
4.3873356964
 30
0.0
 10
6.5910998516
 20
4.3879250959
 30
0.0
 10
6.5925911016
 20
4.3890615184
 30
0.0
 10
6.5951101524
 20
4.3905661797
 30
0.0
 10
6.5979811509
 20
4.3919346354
 30
0.0
 10
6.6011694813
 20
4.3931482702
 30
0.0
 10
6.604636482
 20
4.3941930911
 30
0.0
 10
6.6083397006
 20
4.3950562742
 30
0.0
 10
6.6122305982
 20
4.3957255029
 30
0.0
 10
6.6148896118
 20
4.3960353238
 30
0.0
 10
6.6162392705
 20
4.3961569296
 30
0.0
  0
SPLINE
  5
307
100
AcDbEntity
  8
ALL_ASSEMBLY_MEMBERS
100
AcDbSpline
 62
7
  6
CONTINUOUS
 70
0
 71
3
 72
16
 73
12
 74
0
 42
0.0000001
 43
0.0000001
 44
0.0000000001
 40
0.0
 40
0.0
 40
0.0
 40
0.0
 40
0.1252001724
 40
0.2415251441
 40
0.3528755543
 40
0.4641300829
 40
0.5804419471
 40
0.7063847922
 40
0.7741718768
 40
0.8455796735
 40
1.0
 40
1.0
 40
1.0
 40
1.0
 10
6.6210928249
 20
3.5233284495
 30
0.0
 10
6.621711577
 20
3.523296916
 30
0.0
 10
6.6229144115
 20
3.5233350202
 30
0.0
 10
6.6246250715
 20
3.5237493335
 30
0.0
 10
6.626132554
 20
3.524522817
 30
0.0
 10
6.6273995553
 20
3.5256484048
 30
0.0
 10
6.6283968236
 20
3.5271044157
 30
0.0
 10
6.6289767449
 20
3.5285362099
 30
0.0
 10
6.629305055
 20
3.5298076631
 30
0.0
 10
6.6295519211
 20
3.5312408944
 30
0.0
 10
6.6296157834
 20
3.5323611027
 30
0.0
 10
6.6296157793
 20
3.5331252543
 30
0.0
  0
SPLINE
  5
308
100
AcDbEntity
  8
ALL_ASSEMBLY_MEMBERS
100
AcDbSpline
 62
7
  6
CONTINUOUS
 70
0
 71
3
 72
16
 73
12
 74
0
 42
0.0000001
 43
0.0000001
 44
0.0000000001
 40
0.0
 40
0.0
 40
0.0
 40
0.0
 40
0.1271097173
 40
0.2446210391
 40
0.3565074491
 40
0.4677047037
 40
0.583452974
 40
0.7084703658
 40
0.7757140679
 40
0.8465628924
 40
1.0
 40
1.0
 40
1.0
 40
1.0
 10
6.6237023084
 20
3.4868588084
 30
0.0
 10
6.6241436426
 20
3.4868600841
 30
0.0
 10
6.624995477
 20
3.4869289082
 30
0.0
 10
6.626194855
 20
3.4872696559
 30
0.0
 10
6.6272402794
 20
3.4878460887
 30
0.0
 10
6.6281110196
 20
3.4886544758
 30
0.0
 10
6.6287912738
 20
3.489682051
 30
0.0
 10
6.62918451
 20
3.4906840868
 30
0.0
 10
6.629406357
 20
3.4915710391
 30
0.0
 10
6.6295729581
 20
3.492570374
 30
0.0
 10
6.629615782
 20
3.4933508894
 30
0.0
 10
6.6296157793
 20
3.4938836366
 30
0.0
  0
SPLINE
  5
309
100
AcDbEntity
  8
ALL_ASSEMBLY_MEMBERS
100
AcDbSpline
 62
7
  6
CONTINUOUS
 70
0
 71
3
 72
15
 73
11
 74
0
 42
0.0000001
 43
0.0000001
 44
0.0000000001
 40
0.0
 40
0.0
 40
0.0
 40
0.0
 40
0.1286685002
 40
0.2471193458
 40
0.3594147268
 40
0.4705651935
 40
0.5858764796
 40
0.7101942698
 40
0.8473577917
 40
1.0
 40
1.0
 40
1.0
 40
1.0
 10
6.6258436825
 20
3.4565616553
 30
0.0
 10
6.6261313477
 20
3.45657521
 30
0.0
 10
6.6266835049
 20
3.4566424
 30
0.0
 10
6.6274549487
 20
3.4568889718
 30
0.0
 10
6.6281213525
 20
3.4572788558
 30
0.0
 10
6.6286724276
 20
3.457809972
 30
0.0
 10
6.6291003435
 20
3.458475831
 30
0.0
 10
6.6294031025
 20
3.4592683423
 30
0.0
 10
6.6295811396
 20
3.4601816285
 30
0.0
 10
6.6296157819
 20
3.4608312952
 30
0.0
 10
6.6296157793
 20
3.4611729372
 30
0.0
  0
SPLINE
  5
30A
100
AcDbEntity
  8
ALL_ASSEMBLY_MEMBERS
100
AcDbSpline
 62
7
  6
CONTINUOUS
 70
0
 71
3
 72
15
 73
11
 74
0
 42
0.0000001
 43
0.0000001
 44
0.0000000001
 40
0.0
 40
0.0
 40
0.0
 40
0.0
 40
0.0841466775
 40
0.1813962851
 40
0.2917861648
 40
0.414528381
 40
0.5484347929
 40
0.6919550513
 40
0.8432753805
 40
1.0
 40
1.0
 40
1.0
 40
1.0
 10
6.5885802847
 20
4.3232048812
 30
0.0
 10
6.5891706895
 20
4.3237799078
 30
0.0
 10
6.5905730505
 20
4.3248872761
 30
0.0
 10
6.5930492508
 20
4.3263262014
 30
0.0
 10
6.596012094
 20
4.3276401991
 30
0.0
 10
6.5994145602
 20
4.3288113509
 30
0.0
 10
6.6032052358
 20
4.3298186693
 30
0.0
 10
6.6073242087
 20
4.330647765
 30
0.0
 10
6.6117031316
 20
4.3312823467
 30
0.0
 10
6.6147081334
 20
4.33156695
 30
0.0
 10
6.6162392705
 20
4.3316758497
 30
0.0
  0
SPLINE
  5
30B
100
AcDbEntity
  8
ALL_ASSEMBLY_MEMBERS
100
AcDbSpline
 62
7
  6
CONTINUOUS
 70
0
 71
3
 72
15
 73
11
 74
0
 42
0.0000001
 43
0.0000001
 44
0.0000000001
 40
0.0
 40
0.0
 40
0.0
 40
0.0
 40
0.1299548882
 40
0.2491426755
 40
0.3617318927
 40
0.4728053429
 40
0.5877634826
 40
0.7115258819
 40
0.848001284
 40
1.0
 40
1.0
 40
1.0
 40
1.0
 10
6.6274983024
 20
3.4327079893
 30
0.0
 10
6.6276624037
 20
3.4327211686
 30
0.0
 10
6.6279760714
 20
3.4327689622
 30
0.0
 10
6.6284118029
 20
3.4329200246
 30
0.0
 10
6.6287857444
 20
3.4331481819
 30
0.0
 10
6.6290931237
 20
3.4334529693
 30
0.0
 10
6.6293308985
 20
3.4338310291
 30
0.0
 10
6.6294983826
 20
3.4342787953
 30
0.0
 10
6.6295967239
 20
3.4347936609
 30
0.0
 10
6.6296157813
 20
3.4351596672
 30
0.0
 10
6.6296157793
 20
3.4353522225
 30
0.0
  0
SPLINE
  5
30C
100
AcDbEntity
  8
ALL_ASSEMBLY_MEMBERS
100
AcDbSpline
 62
7
  6
CONTINUOUS
 70
0
 71
3
 72
12
 73
8
 74
0
 42
0.0000001
 43
0.0000001
 44
0.0000000001
 40
0.0
 40
0.0
 40
0.0
 40
0.0
 40
0.2501884681
 40
0.3632949422
 40
0.4746651874
 40
0.7123045848
 40
1.0
 40
1.0
 40
1.0
 40
1.0
 10
6.6286779249
 20
3.4155132517
 30
0.0
 10
6.6288180998
 20
3.4155279391
 30
0.0
 10
6.6290229663
 20
3.4155772693
 30
0.0
 10
6.6292508041
 20
3.4157210029
 30
0.0
 10
6.6294355856
 20
3.4159077366
 30
0.0
 10
6.6295890282
 20
3.4162436012
 30
0.0
 10
6.6296157818
 20
3.4165420898
 30
0.0
 10
6.6296157793
 20
3.4167041613
 30
0.0
  0
SPLINE
  5
30D
100
AcDbEntity
  8
ALL_ASSEMBLY_MEMBERS
100
AcDbSpline
 62
7
  6
CONTINUOUS
 70
0
 71
3
 72
18
 73
14
 74
0
 42
0.0000001
 43
0.0000001
 44
0.0000000001
 40
0.0
 40
0.0
 40
0.0
 40
0.0
 40
0.0323309895
 40
0.0689490218
 40
0.1100582627
 40
0.1557244114
 40
0.2059369897
 40
0.2606156577
 40
0.3826100679
 40
0.5199739998
 40
0.6704913316
 40
0.8315934311
 40
1.0
 40
1.0
 40
1.0
 40
1.0
 10
6.5873885868
 20
4.2574242336
 30
0.0
 10
6.5876133662
 20
4.2576588743
 30
0.0
 10
6.5881327306
 20
4.2581213676
 30
0.0
 10
6.5890398677
 20
4.2587572076
 30
0.0
 10
6.5901168346
 20
4.2593749141
 30
0.0
 10
6.5913586067
 20
4.2599716698
 30
0.0
 10
6.5927599256
 20
4.2605445745
 30
0.0
 10
6.5949122507
 20
4.2612999223
 30
0.0
 10
6.5979554462
 20
4.2621492091
 30
0.0
 10
6.6019880868
 20
4.2629998443
 30
0.0
 10
6.6064479576
 20
4.2636983064
 30
0.0
 10
6.6112444651
 20
4.2642286403
 30
0.0
 10
6.614548974
 20
4.2644602898
 30
0.0
 10
6.6162392705
 20
4.2645471144
 30
0.0
  0
LINE
  5
30E
100
AcDbEntity
  8
ALL_ASSEMBLY_MEMBERS
100
AcDbLine
 62
7
  6
CONTINUOUS
 10
6.629381595
 20
3.4051330657
 11
6.6296157793
 21
3.4054330655
  0
SPLINE
  5
30F
100
AcDbEntity
  8
ALL_ASSEMBLY_MEMBERS
100
AcDbSpline
 62
7
  6
CONTINUOUS
 70
0
 71
3
 72
19
 73
15
 74
0
 42
0.0000001
 43
0.0000001
 44
0.0000000001
 40
0.0
 40
0.0
 40
0.0
 40
0.0
 40
0.0224012712
 40
0.050451398
 40
0.0845567947
 40
0.1248085829
 40
0.1711328457
 40
0.2233915462
 40
0.2813745131
 40
0.3447678084
 40
0.4864056405
 40
0.6452847392
 40
0.817917113
 40
1.0
 40
1.0
 40
1.0
 40
1.0
 10
6.5866717671
 20
4.19062654
 30
0.0
 10
6.5868245256
 20
4.1907930971
 30
0.0
 10
6.5872231342
 20
4.1911172775
 30
0.0
 10
6.5879642434
 20
4.1915429155
 30
0.0
 10
6.5889115293
 20
4.1919592998
 30
0.0
 10
6.5900605861
 20
4.1923640518
 30
0.0
 10
6.5914061583
 20
4.1927551305
 30
0.0
 10
6.5929410927
 20
4.1931295557
 30
0.0
 10
6.594656765
 20
4.1934847691
 30
0.0
 10
6.5972698788
 20
4.1939475524
 30
0.0
 10
6.6009078246
 20
4.1944515135
 30
0.0
 10
6.6056578908
 20
4.194931806
 30
0.0
 10
6.610827426
 20
4.1952943429
 30
0.0
 10
6.6144031649
 20
4.1954491951
 30
0.0
 10
6.6162392705
 20
4.1955062002
 30
0.0
  0
SPLINE
  5
310
100
AcDbEntity
  8
ALL_ASSEMBLY_MEMBERS
100
AcDbSpline
 62
7
  6
CONTINUOUS
 70
0
 71
3
 72
9
 73
5
 74
0
 42
0.0000001
 43
0.0000001
 44
0.0000000001
 40
0.0
 40
0.0
 40
0.0
 40
0.0
 40
0.4952098278
 40
1.0
 40
1.0
 40
1.0
 40
1.0
 10
6.6070773442
 20
4.5646479693
 30
0.0
 10
6.6085479943
 20
4.5651589714
 30
0.0
 10
6.6115729559
 20
4.5660369518
 30
0.0
 10
6.614667652
 20
4.5666200803
 30
0.0
 10
6.6162392705
 20
4.5668406347
 30
0.0
  0
SPLINE
  5
311
100
AcDbEntity
  8
ALL_ASSEMBLY_MEMBERS
100
AcDbSpline
 62
7
  6
CONTINUOUS
 70
0
 71
3
 72
23
 73
19
 74
0
 42
0.0000001
 43
0.0000001
 44
0.0000000001
 40
0.0
 40
0.0
 40
0.0
 40
0.0
 40
0.004379633
 40
0.010577878
 40
0.0187297268
 40
0.0288819483
 40
0.0410494644
 40
0.0552333414
 40
0.0896111993
 40
0.1318227732
 40
0.1815881511
 40
0.2386123658
 40
0.3025161736
 40
0.3728322584
 40
0.4490868752
 40
0.6173442813
 40
0.8027908707
 40
1.0
 40
1.0
 40
1.0
 40
1.0
 10
6.58633582
 20
4.0565440917
 30
0.0
 10
6.586364959
 20
4.0565113242
 30
0.0
 10
6.5864537139
 20
4.056449849
 30
0.0
 10
6.5866244897
 20
4.0563725859
 30
0.0
 10
6.5868576306
 20
4.0562946897
 30
0.0
 10
6.5871526938
 20
4.0562169348
 30
0.0
 10
6.5875099796
 20
4.056139434
 30
0.0
 10
6.5881081058
 20
4.0560297733
 30
0.0
 10
6.5890078704
 20
4.0558997134
 30
0.0
 10
6.5902647718
 20
4.055755292
 30
0.0
 10
6.5917501801
 20
4.0556160516
 30
0.0
 10
6.5934540764
 20
4.0554832566
 30
0.0
 10
6.5953647891
 20
4.055358038
 30
0.0
 10
6.597468886
 20
4.0552411924
 30
0.0
 10
6.6006175498
 20
4.0550930352
 30
0.0
 10
6.6049197424
 20
4.0549386352
 30
0.0
 10
6.6104340139
 20
4.0548033302
 30
0.0
 10
6.6142648826
 20
4.0547467121
 30
0.0
 10
6.6162392705
 20
4.0547262045
 30
0.0
  0
SPLINE
  5
312
100
AcDbEntity
  8
ALL_ASSEMBLY_MEMBERS
100
AcDbSpline
 62
7
  6
CONTINUOUS
 70
0
 71
3
 72
23
 73
19
 74
0
 42
0.0000001
 43
0.0000001
 44
0.0000000001
 40
0.0
 40
0.0
 40
0.0
 40
0.0
 40
0.0043715385
 40
0.0105611025
 40
0.018704503
 40
0.0288487713
 40
0.0410089302
 40
0.0551860895
 40
0.0895525764
 40
0.131755732
 40
0.1815155575
 40
0.2385369884
 40
0.3024408076
 40
0.3727595176
 40
0.4490191519
 40
0.6172930093
 40
0.8027629198
 40
1.0
 40
1.0
 40
1.0
 40
1.0
 10
6.5863354428
 20
4.1234912213
 30
0.0
 10
6.5863644514
 20
4.1235239973
 30
0.0
 10
6.5864530011
 20
4.1235855016
 30
0.0
 10
6.5866234983
 20
4.1236627709
 30
0.0
 10
6.5868563778
 20
4.1237406803
 30
0.0
 10
6.5871511973
 20
4.1238184476
 30
0.0
 10
6.5875082616
 20
4.1238959631
 30
0.0
 10
6.5881061355
 20
4.1240056515
 30
0.0
 10
6.5890056455
 20
4.1241357408
 30
0.0
 10
6.5902623118
 20
4.1242801932
 30
0.0
 10
6.5917475769
 20
4.1244194657
 30
0.0
 10
6.5934514192
 20
4.1245522932
 30
0.0
 10
6.5953621644
 20
4.124677543
 30
0.0
 10
6.597466376
 20
4.1247944185
 30
0.0
 10
6.6006153387
 20
4.1249426158
 30
0.0
 10
6.6049180594
 20
4.1250970557
 30
0.0
 10
6.6104331119
 20
4.1252323934
 30
0.0
 10
6.6142645657
 20
4.1252890228
 30
0.0
 10
6.6162392705
 20
4.1253095338
 30
0.0
  0
LINE
  5
313
100
AcDbEntity
  8
ALL_ASSEMBLY_MEMBERS
100
AcDbLine
 62
7
  6
CONTINUOUS
 10
6.6296157794
 20
3.4016624271
 11
6.6265693203
 21
3.4048784661
  0
SPLINE
  5
314
100
AcDbEntity
  8
ALL_ASSEMBLY_MEMBERS
100
AcDbSpline
 62
7
  6
CONTINUOUS
 70
0
 71
3
 72
17
 73
13
 74
0
 42
0.0000001
 43
0.0000001
 44
0.0000000001
 40
0.0
 40
0.0
 40
0.0
 40
0.0
 40
0.0194431262
 40
0.0443251385
 40
0.074994015
 40
0.1116056859
 40
0.2027924584
 40
0.3177879798
 40
0.4559802165
 40
0.6164917285
 40
0.7982391857
 40
1.0
 40
1.0
 40
1.0
 40
1.0
 10
6.6296157793
 20
3.4054335086
 30
0.0
 10
6.6296157809
 20
3.4054972824
 30
0.0
 10
6.6295949823
 20
3.4056424211
 30
0.0
 10
6.6295249097
 20
3.405878523
 30
0.0
 10
6.6294119632
 20
3.4061593286
 30
0.0
 10
6.6291868306
 20
3.4066280567
 30
0.0
 10
6.6287908413
 20
3.4073199456
 30
0.0
 10
6.6281811617
 20
3.4082710184
 30
0.0
 10
6.6274114002
 20
3.4093887468
 30
0.0
 10
6.6264893328
 20
3.4106668007
 30
0.0
 10
6.6254238767
 20
3.4120982467
 30
0.0
 10
6.6246628045
 20
3.4130998205
 30
0.0
 10
6.6242608328
 20
3.4136255297
 30
0.0
  0
SPLINE
  5
315
100
AcDbEntity
  8
ALL_ASSEMBLY_MEMBERS
100
AcDbSpline
 62
7
  6
CONTINUOUS
 70
0
 71
3
 72
17
 73
13
 74
0
 42
0.0000001
 43
0.0000001
 44
0.0000000001
 40
0.0
 40
0.0
 40
0.0
 40
0.0
 40
0.028041085
 40
0.0605189792
 40
0.0976649265
 40
0.1396012706
 40
0.237968309
 40
0.3555124788
 40
0.4915666309
 40
0.6451504062
 40
0.8150757107
 40
1.0
 40
1.0
 40
1.0
 40
1.0
 10
6.6296157793
 20
3.416705046
 30
0.0
 10
6.6296157811
 20
3.4168412537
 30
0.0
 10
6.629592094
 20
3.4171352799
 30
0.0
 10
6.6295024664
 20
3.4176017318
 30
0.0
 10
6.6293565866
 20
3.4181241474
 30
0.0
 10
6.6290717781
 20
3.4189381419
 30
0.0
 10
6.6285669707
 20
3.4200861779
 30
0.0
 10
6.6277803169
 20
3.4216047757
 30
0.0
 10
6.6267923257
 20
3.4233187994
 30
0.0
 10
6.6256156943
 20
3.425216122
 30
0.0
 10
6.6242648245
 20
3.427283803
 30
0.0
 10
6.6232972071
 20
3.4287103204
 30
0.0
 10
6.6227884984
 20
3.4294506457
 30
0.0
  0
SPLINE
  5
316
100
AcDbEntity
  8
ALL_ASSEMBLY_MEMBERS
100
AcDbSpline
 62
7
  6
CONTINUOUS
 70
0
 71
3
 72
18
 73
14
 74
0
 42
0.0000001
 43
0.0000001
 44
0.0000000001
 40
0.0
 40
0.0
 40
0.0
 40
0.0
 40
0.0319860006
 40
0.0682018019
 40
0.1088033016
 40
0.1538527503
 40
0.2571986654
 40
0.3775945943
 40
0.4438128284
 40
0.5137914992
 40
0.6641694429
 40
0.8268873245
 40
1.0
 40
1.0
 40
1.0
 40
1.0
 10
6.6296157793
 20
3.4353535378
 30
0.0
 10
6.6296157815
 20
3.4356112774
 30
0.0
 10
6.6295776346
 20
3.4361610027
 30
0.0
 10
6.6294297685
 20
3.4370261632
 30
0.0
 10
6.6291885563
 20
3.4379789391
 30
0.0
 10
6.6287224931
 20
3.4394295881
 30
0.0
 10
6.6278994268
 20
3.4414362195
 30
0.0
 10
6.6268690415
 20
3.4435343732
 30
0.0
 10
6.6258923538
 20
3.4453568966
 30
0.0
 10
6.6247587132
 20
3.4473688368
 30
0.0
 10
6.6231702336
 20
3.4500161616
 30
0.0
 10
6.6210676719
 20
3.4533223182
 30
0.0
 10
6.6195719481
 20
3.4555776414
 30
0.0
 10
6.6187931601
 20
3.4567349214
 30
0.0
  0
SPLINE
  5
317
100
AcDbEntity
  8
ALL_ASSEMBLY_MEMBERS
100
AcDbSpline
 62
7
  6
CONTINUOUS
 70
0
 71
3
 72
15
 73
11
 74
0
 42
0.0000001
 43
0.0000001
 44
0.0000000001
 40
0.0
 40
0.0
 40
0.0
 40
0.0
 40
0.079061483
 40
0.1724691818
 40
0.2802529772
 40
0.4017878959
 40
0.5359932211
 40
0.6814991436
 40
0.8367285465
 40
1.0
 40
1.0
 40
1.0
 40
1.0
 10
6.6296157793
 20
3.461174669
 30
0.0
 10
6.6296157837
 20
3.4618506955
 30
0.0
 10
6.6294633582
 20
3.4633254116
 30
0.0
 10
6.628906339
 20
3.465660074
 30
0.0
 10
6.6280137178
 20
3.468274737
 30
0.0
 10
6.6268034131
 20
3.471139787
 30
0.0
 10
6.6252991349
 20
3.4742247916
 30
0.0
 10
6.6235299067
 20
3.4774969793
 30
0.0
 10
6.6215284615
 20
3.4809233615
 30
0.0
 10
6.6200936679
 20
3.4832384729
 30
0.0
 10
6.619346191
 20
3.4844175853
 30
0.0
  0
SPLINE
  5
318
100
AcDbEntity
  8
ALL_ASSEMBLY_MEMBERS
100
AcDbSpline
 62
7
  6
CONTINUOUS
 70
0
 71
3
 72
15
 73
11
 74
0
 42
0.0000001
 43
0.0000001
 44
0.0000000001
 40
0.0
 40
0.0
 40
0.0
 40
0.0
 40
0.0857976717
 40
0.1846425697
 40
0.296212128
 40
0.4195628987
 40
0.5533307073
 40
0.6958787708
 40
0.8453906519
 40
1.0
 40
1.0
 40
1.0
 40
1.0
 10
6.6296157793
 20
3.4938856028
 30
0.0
 10
6.6296157844
 20
3.4947937379
 30
0.0
 10
6.6294348282
 20
3.4967486242
 30
0.0
 10
6.6287562508
 20
3.4998148173
 30
0.0
 10
6.6276694234
 20
3.5031807666
 30
0.0
 10
6.6262016645
 20
3.5067994395
 30
0.0
 10
6.624388471
 20
3.5106235272
 30
0.0
 10
6.6222719979
 20
3.5146043539
 30
0.0
 10
6.6198987322
 20
3.5186943415
 30
0.0
 10
6.6181990994
 20
3.5214286183
 30
0.0
 10
6.6173179977
 20
3.5228076493
 30
0.0
  0
SPLINE
  5
319
100
AcDbEntity
  8
ALL_ASSEMBLY_MEMBERS
100
AcDbSpline
 62
7
  6
CONTINUOUS
 70
0
 71
3
 72
15
 73
11
 74
0
 42
0.0000001
 43
0.0000001
 44
0.0000000001
 40
0.0
 40
0.0
 40
0.0
 40
0.0
 40
0.0929121847
 40
0.1970514179
 40
0.3118746677
 40
0.4363400001
 40
0.5690596982
 40
0.7084194607
 40
0.8526649227
 40
1.0
 40
1.0
 40
1.0
 40
1.0
 10
6.6296157793
 20
3.5331277575
 30
0.0
 10
6.6296157841
 20
3.5341980937
 30
0.0
 10
6.629435229
 20
3.5364690992
 30
0.0
 10
6.6287366777
 20
3.539998906
 30
0.0
 10
6.6276145107
 20
3.5437975287
 30
0.0
 10
6.6260985782
 20
3.5478092473
 30
0.0
 10
6.6242273255
 20
3.5519790742
 30
0.0
 10
6.6220459251
 20
3.5562521655
 30
0.0
 10
6.619603929
 20
3.5605757768
 30
0.0
 10
6.6178478438
 20
3.5634399831
 30
0.0
 10
6.6169384974
 20
3.5648731095
 30
0.0
  0
SPLINE
  5
31A
100
AcDbEntity
  8
ALL_ASSEMBLY_MEMBERS
100
AcDbSpline
 62
7
  6
CONTINUOUS
 70
0
 71
3
 72
15
 73
11
 74
0
 42
0.0000001
 43
0.0000001
 44
0.0000000001
 40
0.0
 40
0.0
 40
0.0
 40
0.0
 40
0.1162828313
 40
0.2272692715
 40
0.3368621925
 40
0.4494552024
 40
0.5692375229
 40
0.6995968229
 40
0.8428067685
 40
1.0
 40
1.0
 40
1.0
 40
1.0
 10
6.6162392705
 20
3.6131951035
 30
0.0
 10
6.617164824
 20
3.6131219794
 30
0.0
 10
6.6189956623
 20
3.6131566108
 30
0.0
 10
6.6216262674
 20
3.613828875
 30
0.0
 10
6.623985021
 20
3.6151199175
 30
0.0
 10
6.6259972419
 20
3.6170056147
 30
0.0
 10
6.6276060624
 20
3.6194419486
 30
0.0
 10
6.6287734227
 20
3.6223778057
 30
0.0
 10
6.6294748156
 20
3.6257592194
 30
0.0
 10
6.629615783
 20
3.628161898
 30
0.0
 10
6.6296157794
 20
3.6294169768
 30
0.0
  0
SPLINE
  5
31B
100
AcDbEntity
  8
ALL_ASSEMBLY_MEMBERS
100
AcDbSpline
 62
7
  6
CONTINUOUS
 70
0
 71
3
 72
15
 73
11
 74
0
 42
0.0000001
 43
0.0000001
 44
0.0000000001
 40
0.0
 40
0.0
 40
0.0
 40
0.0
 40
0.0990912331
 40
0.2079198788
 40
0.3257223494
 40
0.4513168683
 40
0.5832378152
 40
0.7198323489
 40
0.8593575257
 40
1.0
 40
1.0
 40
1.0
 40
1.0
 10
6.6296157793
 20
3.5784713816
 30
0.0
 10
6.6296157842
 20
3.5797150429
 30
0.0
 10
6.6294288916
 20
3.5823259146
 30
0.0
 10
6.6286895746
 20
3.586352665
 30
0.0
 10
6.6275000768
 20
3.5906156897
 30
0.0
 10
6.6258943577
 20
3.5950479702
 30
0.0
 10
6.6239159214
 20
3.5995845236
 30
0.0
 10
6.6216154032
 20
3.6041623571
 30
0.0
 10
6.6190480827
 20
3.6087214842
 30
0.0
 10
6.6171964246
 20
3.6117119865
 30
0.0
 10
6.6162392705
 20
3.6131951035
 30
0.0
  0
SPLINE
  5
31C
100
AcDbEntity
  8
ALL_ASSEMBLY_MEMBERS
100
AcDbSpline
 62
7
  6
CONTINUOUS
 70
0
 71
3
 72
15
 73
11
 74
0
 42
0.0000001
 43
0.0000001
 44
0.0000000001
 40
0.0
 40
0.0
 40
0.0
 40
0.0
 40
0.1078305237
 40
0.2148689268
 40
0.3244457952
 40
0.4397541025
 40
0.5634583366
 40
0.6974745157
 40
0.8428906209
 40
1.0
 40
1.0
 40
1.0
 40
1.0
 10
6.6162392705
 20
3.6656487394
 30
0.0
 10
6.6171815643
 20
3.6657273217
 30
0.0
 10
6.6190501006
 20
3.6660852949
 30
0.0
 10
6.6216715241
 20
3.667252428
 30
0.0
 10
6.6240104473
 20
3.6690263407
 30
0.0
 10
6.6260035323
 20
3.6713728762
 30
0.0
 10
6.6276018942
 20
3.6742481667
 30
0.0
 10
6.6287671263
 20
3.6776019775
 30
0.0
 10
6.6294709898
 20
3.6813769395
 30
0.0
 10
6.6296157839
 20
3.6840333919
 30
0.0
 10
6.6296157793
 20
3.6854110826
 30
0.0
  0
SPLINE
  5
31D
100
AcDbEntity
  8
ALL_ASSEMBLY_MEMBERS
100
AcDbSpline
 62
7
  6
CONTINUOUS
 70
0
 71
3
 72
15
 73
11
 74
0
 42
0.0000001
 43
0.0000001
 44
0.0000000001
 40
0.0
 40
0.0
 40
0.0
 40
0.0
 40
0.1049203884
 40
0.2179912036
 40
0.3383155307
 40
0.4646726926
 40
0.5956251184
 40
0.7295950986
 40
0.8649471752
 40
1.0
 40
1.0
 40
1.0
 40
1.0
 10
6.6296157793
 20
3.6294199862
 30
0.0
 10
6.6296157854
 20
3.6307875175
 30
0.0
 10
6.6294337174
 20
3.6336303341
 30
0.0
 10
6.6286978519
 20
3.6379842619
 30
0.0
 10
6.6275106719
 20
3.6425260644
 30
0.0
 10
6.6259063928
 20
3.6471836533
 30
0.0
 10
6.6239287972
 20
3.6518881066
 30
0.0
 10
6.6216287568
 20
3.6565738736
 30
0.0
 10
6.6190617345
 20
3.6611794904
 30
0.0
 10
6.6172011054
 20
3.6641744772
 30
0.0
 10
6.6162392705
 20
3.6656487394
 30
0.0
  0
SPLINE
  5
31E
100
AcDbEntity
  8
ALL_ASSEMBLY_MEMBERS
100
AcDbSpline
 62
7
  6
CONTINUOUS
 70
0
 71
3
 72
15
 73
11
 74
0
 42
0.0000001
 43
0.0000001
 44
0.0000000001
 40
0.0
 40
0.0
 40
0.0
 40
0.0
 40
0.1031135283
 40
0.2087576142
 40
0.3193962702
 40
0.4371066775
 40
0.5634080203
 40
0.6992162642
 40
0.8448364449
 40
1.0
 40
1.0
 40
1.0
 40
1.0
 10
6.6162392705
 20
3.7227518523
 30
0.0
 10
6.617197931
 20
3.7229866104
 30
0.0
 10
6.6190937145
 20
3.7236732569
 30
0.0
 10
6.6216996469
 20
3.725312336
 30
0.0
 10
6.6240216787
 20
3.7275396231
 30
0.0
 10
6.6260029616
 20
3.7303178938
 30
0.0
 10
6.6275962001
 20
3.7336026751
 30
0.0
 10
6.6287613056
 20
3.737341018
 30
0.0
 10
6.6294676542
 20
3.7414705396
 30
0.0
 10
6.6296157851
 20
3.7443527837
 30
0.0
 10
6.6296157793
 20
3.7458379842
 30
0.0
  0
SPLINE
  5
31F
100
AcDbEntity
  8
ALL_ASSEMBLY_MEMBERS
100
AcDbSpline
 62
7
  6
CONTINUOUS
 70
0
 71
3
 72
14
 73
10
 74
0
 42
0.0000001
 43
0.0000001
 44
0.0000000001
 40
0.0
 40
0.0
 40
0.0
 40
0.0
 40
0.1102332569
 40
0.2271579789
 40
0.3497698238
 40
0.4768180036
 40
0.6068932764
 40
0.7384896747
 40
1.0
 40
1.0
 40
1.0
 40
1.0
 10
6.6296157793
 20
3.6854142614
 30
0.0
 10
6.6296157841
 20
3.6868907805
 30
0.0
 10
6.6294378146
 20
3.6899350916
 30
0.0
 10
6.628705072
 20
3.6945686107
 30
0.0
 10
6.6275201855
 20
3.6993394846
 30
0.0
 10
6.6259174759
 20
3.7041713472
 30
0.0
 10
6.6239408492
 20
3.7089925275
 30
0.0
 10
6.6208819709
 20
3.7153008654
 30
0.0
 10
6.6181829735
 20
3.7198378134
 30
0.0
 10
6.6162392705
 20
3.7227518523
 30
0.0
  0
SPLINE
  5
320
100
AcDbEntity
  8
ALL_ASSEMBLY_MEMBERS
100
AcDbSpline
 62
7
  6
CONTINUOUS
 70
0
 71
3
 72
15
 73
11
 74
0
 42
0.0000001
 43
0.0000001
 44
0.0000000001
 40
0.0
 40
0.0
 40
0.0
 40
0.0
 40
0.1011472925
 40
0.2070177239
 40
0.3192264947
 40
0.4389476352
 40
0.5668762092
 40
0.7032416879
 40
0.847824999
 40
1.0
 40
1.0
 40
1.0
 40
1.0
 10
6.6162392705
 20
3.7838788086
 30
0.0
 10
6.617211091
 20
3.7842711181
 30
0.0
 10
6.6191223726
 20
3.7852803892
 30
0.0
 10
6.6217134591
 20
3.7873646304
 30
0.0
 10
6.6240238776
 20
3.7900162146
 30
0.0
 10
6.6259986529
 20
3.793196014
 30
0.0
 10
6.6275898664
 20
3.7968567779
 30
0.0
 10
6.6287558957
 20
3.8009413398
 30
0.0
 10
6.6294647494
 20
3.8053822606
 30
0.0
 10
6.629615784
 20
3.8084599399
 30
0.0
 10
6.6296157793
 20
3.8100366717
 30
0.0
  0
SPLINE
  5
321
100
AcDbEntity
  8
ALL_ASSEMBLY_MEMBERS
100
AcDbSpline
 62
7
  6
CONTINUOUS
 70
0
 71
3
 72
14
 73
10
 74
0
 42
0.0000001
 43
0.0000001
 44
0.0000000001
 40
0.0
 40
0.0
 40
0.0
 40
0.0
 40
0.1151454463
 40
0.235610798
 40
0.3603052163
 40
0.4879591111
 40
0.6171973319
 40
0.7465904997
 40
1.0
 40
1.0
 40
1.0
 40
1.0
 10
6.6296157793
 20
3.745841897
 30
0.0
 10
6.6296157843
 20
3.7474112683
 30
0.0
 10
6.6294412707
 20
3.750624249
 30
0.0
 10
6.6287113607
 20
3.7554866922
 30
0.0
 10
6.6275286796
 20
3.7604343555
 30
0.0
 10
6.6259276092
 20
3.7653875614
 30
0.0
 10
6.6239520944
 20
3.7702725771
 30
0.0
 10
6.6209091331
 20
3.7765568412
 30
0.0
 10
6.6182008108
 20
3.7810360374
 30
0.0
 10
6.6162392705
 20
3.7838788086
 30
0.0
  0
SPLINE
  5
322
100
AcDbEntity
  8
ALL_ASSEMBLY_MEMBERS
100
AcDbSpline
 62
7
  6
CONTINUOUS
 70
0
 71
3
 72
13
 73
9
 74
0
 42
0.0000001
 43
0.0000001
 44
0.0000000001
 40
0.0
 40
0.0
 40
0.0
 40
0.0
 40
0.1011905562
 40
0.2083879444
 40
0.3224804974
 40
0.4439643801
 40
0.7087252078
 40
1.0
 40
1.0
 40
1.0
 40
1.0
 10
6.6162392705
 20
3.8483598885
 30
0.0
 10
6.6172200559
 20
3.8489072314
 30
0.0
 10
6.6191380152
 20
3.8502251122
 30
0.0
 10
6.6217179944
 20
3.8527269252
 30
0.0
 10
6.6240212779
 20
3.8557728372
 30
0.0
 10
6.6267261134
 20
3.8606409474
 30
0.0
 10
6.6290446029
 20
3.8678763125
 30
0.0
 10
6.6296157906
 20
3.8740689666
 30
0.0
 10
6.6296157793
 20
3.8773020041
 30
0.0
  0
SPLINE
  5
323
100
AcDbEntity
  8
ALL_ASSEMBLY_MEMBERS
100
AcDbSpline
 62
7
  6
CONTINUOUS
 70
0
 71
3
 72
13
 73
9
 74
0
 42
0.0000001
 43
0.0000001
 44
0.0000000001
 40
0.0
 40
0.0
 40
0.0
 40
0.0
 40
0.2433514224
 40
0.3700064554
 40
0.4982338576
 40
0.7538848677
 40
0.8788021072
 40
1.0
 40
1.0
 40
1.0
 40
1.0
 10
6.6296157793
 20
3.8100402603
 30
0.0
 10
6.6296157889
 20
3.8133818786
 30
0.0
 10
6.6290890702
 20
3.8184735292
 30
0.0
 10
6.6275365956
 20
3.8251407596
 30
0.0
 10
6.6254064703
 20
3.831826671
 30
0.0
 10
6.6225454879
 20
3.8382318293
 30
0.0
 10
6.6190995865
 20
3.8442023088
 30
0.0
 10
6.6172142294
 20
3.8470111201
 30
0.0
 10
6.6162392705
 20
3.8483598885
 30
0.0
  0
SPLINE
  5
324
100
AcDbEntity
  8
ALL_ASSEMBLY_MEMBERS
100
AcDbSpline
 62
7
  6
CONTINUOUS
 70
0
 71
3
 72
13
 73
9
 74
0
 42
0.0000001
 43
0.0000001
 44
0.0000000001
 40
0.0
 40
0.0
 40
0.0
 40
0.0
 40
0.1024149972
 40
0.2114367124
 40
0.3273780791
 40
0.450232529
 40
0.71478768
 40
1.0
 40
1.0
 40
1.0
 40
1.0
 10
6.6162392705
 20
3.9154886238
 30
0.0
 10
6.6172250475
 20
3.9161849101
 30
0.0
 10
6.619143986
 20
3.9177923977
 30
0.0
 10
6.6217167561
 20
3.92068282
 30
0.0
 10
6.6240159069
 20
3.9240901416
 30
0.0
 10
6.6267078569
 20
3.9293901587
 30
0.0
 10
6.6290250065
 20
3.9370406222
 30
0.0
 10
6.6296157868
 20
3.9435381345
 30
0.0
 10
6.6296157794
 20
3.9468991503
 30
0.0
  0
SPLINE
  5
325
100
AcDbEntity
  8
ALL_ASSEMBLY_MEMBERS
100
AcDbSpline
 62
7
  6
CONTINUOUS
 70
0
 71
3
 72
12
 73
8
 74
0
 42
0.0000001
 43
0.0000001
 44
0.0000000001
 40
0.0
 40
0.0
 40
0.0
 40
0.0
 40
0.250950275
 40
0.5079280863
 40
0.7608193141
 40
0.8827214962
 40
1.0
 40
1.0
 40
1.0
 40
1.0
 10
6.6296157793
 20
3.8773061853
 30
0.0
 10
6.6296157888
 20
3.8807455551
 30
0.0
 10
6.6289286671
 20
3.8877192958
 30
0.0
 10
6.6261521429
 20
3.8978132732
 30
0.0
 10
6.6225722836
 20
3.9057386934
 30
0.0
 10
6.6191109285
 20
3.9115323555
 30
0.0
 10
6.6172181469
 20
3.9142137258
 30
0.0
 10
6.6162392705
 20
3.9154886238
 30
0.0
  0
SPLINE
  5
326
100
AcDbEntity
  8
ALL_ASSEMBLY_MEMBERS
100
AcDbSpline
 62
7
  6
CONTINUOUS
 70
0
 71
3
 72
13
 73
9
 74
0
 42
0.0000001
 43
0.0000001
 44
0.0000000001
 40
0.0
 40
0.0
 40
0.0
 40
0.0
 40
0.215289841
 40
0.3331127308
 40
0.4571511056
 40
0.5867906706
 40
0.721216438
 40
1.0
 40
1.0
 40
1.0
 40
1.0
 10
6.6162392705
 20
3.984529538
 30
0.0
 10
6.6182738653
 20
3.9862525556
 30
0.0
 10
6.6210385148
 20
3.9893927893
 30
0.0
 10
6.6240078746
 20
3.9942192032
 30
0.0
 10
6.6259785594
 20
3.9983877065
 30
0.0
 10
6.6275704559
 20
4.0029317285
 30
0.0
 10
6.6291501348
 20
4.0094743882
 30
0.0
 10
6.6296157869
 20
4.0146110726
 30
0.0
 10
6.6296157794
 20
4.0180635315
 30
0.0
  0
SPLINE
  5
327
100
AcDbEntity
  8
ALL_ASSEMBLY_MEMBERS
100
AcDbSpline
 62
7
  6
CONTINUOUS
 70
0
 71
3
 72
13
 73
9
 74
0
 42
0.0000001
 43
0.0000001
 44
0.0000000001
 40
0.0
 40
0.0
 40
0.0
 40
0.0
 40
0.2581557142
 40
0.5171300656
 40
0.6439701622
 40
0.7674133259
 40
0.8864088496
 40
1.0
 40
1.0
 40
1.0
 40
1.0
 10
6.6296157793
 20
3.9469026242
 30
0.0
 10
6.6296157887
 20
3.9504024089
 30
0.0
 10
6.6289492121
 20
3.9574259077
 30
0.0
 10
6.6266290992
 20
3.9658866239
 30
0.0
 10
6.6239826913
 20
3.9722704871
 30
0.0
 10
6.6216862255
 20
3.9767258245
 30
0.0
 10
6.6191213759
 20
3.9808209282
 30
0.0
 10
6.6172216633
 20
3.9833436533
 30
0.0
 10
6.6162392705
 20
3.984529538
 30
0.0
  0
SPLINE
  5
328
100
AcDbEntity
  8
ALL_ASSEMBLY_MEMBERS
100
AcDbSpline
 62
7
  6
CONTINUOUS
 70
0
 71
3
 72
13
 73
9
 74
0
 42
0.0000001
 43
0.0000001
 44
0.0000000001
 40
0.0
 40
0.0
 40
0.0
 40
0.0
 40
0.1071441778
 40
0.2207944691
 40
0.3404757315
 40
0.4655269059
 40
0.7279408831
 40
1.0
 40
1.0
 40
1.0
 40
1.0
 10
6.6162392705
 20
4.0547262045
 30
0.0
 10
6.6172264689
 20
4.0556917929
 30
0.0
 10
6.6191384378
 20
4.0578097107
 30
0.0
 10
6.6217045967
 20
4.0613789674
 30
0.0
 10
6.624000746
 20
4.0653963492
 30
0.0
 10
6.6266693238
 20
4.0713730786
 30
0.0
 10
6.6289873889
 20
4.0796058982
 30
0.0
 10
6.629615786
 20
4.0865100747
 30
0.0
 10
6.6296157794
 20
4.0900164721
 30
0.0
  0
SPLINE
  5
329
100
AcDbEntity
  8
ALL_ASSEMBLY_MEMBERS
100
AcDbSpline
 62
7
  6
CONTINUOUS
 70
0
 71
3
 72
13
 73
9
 74
0
 42
0.0000001
 43
0.0000001
 44
0.0000000001
 40
0.0
 40
0.0
 40
0.0
 40
0.0
 40
0.2651926402
 40
0.5260058438
 40
0.6519843512
 40
0.7735384014
 40
0.8897913781
 40
1.0
 40
1.0
 40
1.0
 40
1.0
 10
6.6296157793
 20
4.0180670635
 30
0.0
 10
6.6296157886
 20
4.021589247
 30
0.0
 10
6.6289685097
 20
4.0285896982
 30
0.0
 10
6.6266494072
 20
4.0369819383
 30
0.0
 10
6.6239919565
 20
4.0431970979
 30
0.0
 10
6.6216959036
 20
4.0474563947
 30
0.0
 10
6.6191307912
 20
4.0513092811
 30
0.0
 10
6.6172245587
 20
4.0536437245
 30
0.0
 10
6.6162392705
 20
4.0547262045
 30
0.0
  0
SPLINE
  5
32A
100
AcDbEntity
  8
ALL_ASSEMBLY_MEMBERS
100
AcDbSpline
 62
7
  6
CONTINUOUS
 70
0
 71
3
 72
13
 73
9
 74
0
 42
0.0000001
 43
0.0000001
 44
0.0000000001
 40
0.0
 40
0.0
 40
0.0
 40
0.0
 40
0.1102025983
 40
0.2264487896
 40
0.3480024844
 40
0.4739827002
 40
0.7348014138
 40
1.0
 40
1.0
 40
1.0
 40
1.0
 10
6.6162392705
 20
4.1253095338
 30
0.0
 10
6.6172244897
 20
4.1263919379
 30
0.0
 10
6.619130605
 20
4.1287261965
 30
0.0
 10
6.6216956002
 20
4.132578864
 30
0.0
 10
6.6239916543
 20
4.1368379924
 30
0.0
 10
6.6266491742
 20
4.1430531104
 30
0.0
 10
6.6289683744
 20
4.1514453605
 30
0.0
 10
6.6296157915
 20
4.1584458505
 30
0.0
 10
6.6296157793
 20
4.1619680586
 30
0.0
  0
SPLINE
  5
32B
100
AcDbEntity
  8
ALL_ASSEMBLY_MEMBERS
100
AcDbSpline
 62
7
  6
CONTINUOUS
 70
0
 71
3
 72
13
 73
9
 74
0
 42
0.0000001
 43
0.0000001
 44
0.0000000001
 40
0.0
 40
0.0
 40
0.0
 40
0.0
 40
0.2720501755
 40
0.5344586126
 40
0.659508955
 40
0.7791932151
 40
0.892846603
 40
1.0
 40
1.0
 40
1.0
 40
1.0
 10
6.6296157793
 20
4.0900201844
 30
0.0
 10
6.6296157903
 20
4.0935263834
 30
0.0
 10
6.6289872402
 20
4.1004301962
 30
0.0
 10
6.6266693061
 20
4.1086626174
 30
0.0
 10
6.6240008597
 20
4.1146391905
 30
0.0
 10
6.6217047335
 20
4.1186565365
 30
0.0
 10
6.619138564
 20
4.1222259004
 30
0.0
 10
6.6172265304
 20
4.1243438852
 30
0.0
 10
6.6162392705
 20
4.1253095338
 30
0.0
  0
SPLINE
  5
32C
100
AcDbEntity
  8
ALL_ASSEMBLY_MEMBERS
100
AcDbSpline
 62
7
  6
CONTINUOUS
 70
0
 71
3
 72
13
 73
9
 74
0
 42
0.0000001
 43
0.0000001
 44
0.0000000001
 40
0.0
 40
0.0
 40
0.0
 40
0.0
 40
0.113584937
 40
0.2325736338
 40
0.3560166973
 40
0.4828587694
 40
0.7418388852
 40
1.0
 40
1.0
 40
1.0
 40
1.0
 10
6.6162392705
 20
4.1955062002
 30
0.0
 10
6.6172216174
 20
4.1966920295
 30
0.0
 10
6.6191212548
 20
4.199214621
 30
0.0
 10
6.6216860368
 20
4.2033096015
 30
0.0
 10
6.6239825373
 20
4.2077648903
 30
0.0
 10
6.6266290312
 20
4.2141488901
 30
0.0
 10
6.6289492466
 20
4.2226098414
 30
0.0
 10
6.6296157871
 20
4.2296335533
 30
0.0
 10
6.6296157794
 20
4.2331334391
 30
0.0
  0
SPLINE
  5
32D
100
AcDbEntity
  8
ALL_ASSEMBLY_MEMBERS
100
AcDbSpline
 62
7
  6
CONTINUOUS
 70
0
 71
3
 72
13
 73
9
 74
0
 42
0.0000001
 43
0.0000001
 44
0.0000000001
 40
0.0
 40
0.0
 40
0.0
 40
0.0
 40
0.2787777125
 40
0.4132008381
 40
0.5428376007
 40
0.6668743583
 40
0.7846977281
 40
1.0
 40
1.0
 40
1.0
 40
1.0
 10
6.6296157793
 20
4.1619725372
 30
0.0
 10
6.6296157884
 20
4.1654248927
 30
0.0
 10
6.6291501055
 20
4.1705614217
 30
0.0
 10
6.6275704855
 20
4.1771038875
 30
0.0
 10
6.625978651
 20
4.1816477928
 30
0.0
 10
6.624008028
 20
4.1858162246
 30
0.0
 10
6.6210386839
 20
4.1906427519
 30
0.0
 10
6.6182739646
 20
4.1937830985
 30
0.0
 10
6.6162392705
 20
4.1955062002
 30
0.0
  0
SPLINE
  5
32E
100
AcDbEntity
  8
ALL_ASSEMBLY_MEMBERS
100
AcDbSpline
 62
7
  6
CONTINUOUS
 70
0
 71
3
 72
12
 73
8
 74
0
 42
0.0000001
 43
0.0000001
 44
0.0000000001
 40
0.0
 40
0.0
 40
0.0
 40
0.0
 40
0.1172721657
 40
0.2391674384
 40
0.4920608035
 40
0.749044485
 40
1.0
 40
1.0
 40
1.0
 40
1.0
 10
6.6162392705
 20
4.2645471144
 30
0.0
 10
6.6172181015
 20
4.2658219533
 30
0.0
 10
6.6191108068
 20
4.2685031853
 30
0.0
 10
6.6225721239
 20
4.2742967528
 30
0.0
 10
6.6261520717
 20
4.282222221
 30
0.0
 10
6.6289286981
 20
4.29231645
 30
0.0
 10
6.6296157872
 20
4.299290401
 30
0.0
 10
6.6296157794
 20
4.3027298689
 30
0.0
  0
SPLINE
  5
32F
100
AcDbEntity
  8
ALL_ASSEMBLY_MEMBERS
100
AcDbSpline
 62
7
  6
CONTINUOUS
 70
0
 71
3
 72
13
 73
9
 74
0
 42
0.0000001
 43
0.0000001
 44
0.0000000001
 40
0.0
 40
0.0
 40
0.0
 40
0.0
 40
0.2852062628
 40
0.5497560431
 40
0.6726089642
 40
0.7885509071
 40
0.8975791461
 40
1.0
 40
1.0
 40
1.0
 40
1.0
 10
6.6296157793
 20
4.2331371186
 30
0.0
 10
6.6296157893
 20
4.2364980126
 30
0.0
 10
6.6290249313
 20
4.2429952842
 30
0.0
 10
6.6267078833
 20
4.2506454842
 30
0.0
 10
6.6240160253
 20
4.2559453626
 30
0.0
 10
6.6217169226
 20
4.2593527221
 30
0.0
 10
6.6191440934
 20
4.2622432197
 30
0.0
 10
6.6172250891
 20
4.2638507987
 30
0.0
 10
6.6162392705
 20
4.2645471144
 30
0.0
  0
SPLINE
  5
330
100
AcDbEntity
  8
ALL_ASSEMBLY_MEMBERS
100
AcDbSpline
 62
7
  6
CONTINUOUS
 70
0
 71
3
 72
13
 73
9
 74
0
 42
0.0000001
 43
0.0000001
 44
0.0000000001
 40
0.0
 40
0.0
 40
0.0
 40
0.0
 40
0.1211914227
 40
0.246101669
 40
0.5017551035
 40
0.6299857246
 40
0.7566435182
 40
1.0
 40
1.0
 40
1.0
 40
1.0
 10
6.6162392705
 20
4.3316758497
 30
0.0
 10
6.6172141845
 20
4.333024556
 30
0.0
 10
6.6190994653
 20
4.3358332255
 30
0.0
 10
6.6225453283
 20
4.3418036102
 30
0.0
 10
6.6254063699
 20
4.3482087785
 30
0.0
 10
6.6275365629
 20
4.354894844
 30
0.0
 10
6.6290890969
 20
4.3615622695
 30
0.0
 10
6.6296157873
 20
4.3666540693
 30
0.0
 10
6.6296157794
 20
4.3699957816
 30
0.0
  0
SPLINE
  5
331
100
AcDbEntity
  8
ALL_ASSEMBLY_MEMBERS
100
AcDbSpline
 62
7
  6
CONTINUOUS
 70
0
 71
3
 72
14
 73
10
 74
0
 42
0.0000001
 43
0.0000001
 44
0.0000000001
 40
0.0
 40
0.0
 40
0.0
 40
0.0
 40
0.2911324374
 40
0.4273103462
 40
0.556233226
 40
0.6776587412
 40
0.7916982977
 40
0.898851551
 40
1.0
 40
1.0
 40
1.0
 40
1.0
 10
6.6296157793
 20
4.3027332466
 30
0.0
 10
6.6296157882
 20
4.3059662671
 30
0.0
 10
6.6291746619
 20
4.3107365003
 30
0.0
 10
6.6275835559
 20
4.316715983
 30
0.0
 10
6.6259927848
 20
4.3207149841
 30
0.0
 10
6.6240214562
 20
4.324262523
 30
0.0
 10
6.6217183154
 20
4.3273084836
 30
0.0
 10
6.6191381889
 20
4.329810473
 30
0.0
 10
6.617220122
 20
4.3311284699
 30
0.0
 10
6.6162392705
 20
4.3316758497
 30
0.0
  0
SPLINE
  5
332
100
AcDbEntity
  8
ALL_ASSEMBLY_MEMBERS
100
AcDbSpline
 62
7
  6
CONTINUOUS
 70
0
 71
3
 72
14
 73
10
 74
0
 42
0.0000001
 43
0.0000001
 44
0.0000000001
 40
0.0
 40
0.0
 40
0.0
 40
0.0
 40
0.2533970605
 40
0.3827880032
 40
0.5120286235
 40
0.6396862827
 40
0.7643835835
 40
0.8848513283
 40
1.0
 40
1.0
 40
1.0
 40
1.0
 10
6.6162392705
 20
4.3961569296
 30
0.0
 10
6.6182007312
 20
4.3989995854
 30
0.0
 10
6.6209089906
 20
4.4034786361
 30
0.0
 10
6.6239519257
 20
4.4097627926
 30
0.0
 10
6.6259275182
 20
4.4146478828
 30
0.0
 10
6.6275286596
 20
4.4196012427
 30
0.0
 10
6.6287113825
 20
4.4245490669
 30
0.0
 10
6.6294413129
 20
4.4294116687
 30
0.0
 10
6.6296157833
 20
4.4326247552
 30
0.0
 10
6.6296157793
 20
4.4341941837
 30
0.0
  0
SPLINE
  5
333
100
AcDbEntity
  8
ALL_ASSEMBLY_MEMBERS
100
AcDbSpline
 62
7
  6
CONTINUOUS
 70
0
 71
3
 72
15
 73
11
 74
0
 42
0.0000001
 43
0.0000001
 44
0.0000000001
 40
0.0
 40
0.0
 40
0.0
 40
0.0
 40
0.1521721847
 40
0.2967523091
 40
0.4331153926
 40
0.5610415068
 40
0.6807613153
 40
0.7929706432
 40
0.8988472235
 40
1.0
 40
1.0
 40
1.0
 40
1.0
 10
6.6296157793
 20
4.369999026
 30
0.0
 10
6.6296157839
 20
4.3715757304
 30
0.0
 10
6.6294647604
 20
4.3746533511
 30
0.0
 10
6.6287559346
 20
4.3790941931
 30
0.0
 10
6.6275899576
 20
4.383178687
 30
0.0
 10
6.62599881
 20
4.3868394149
 30
0.0
 10
6.624024089
 20
4.3900192105
 30
0.0
 10
6.6217136976
 20
4.3926708995
 30
0.0
 10
6.6191225204
 20
4.3947552386
 30
0.0
 10
6.6172111448
 20
4.3957645984
 30
0.0
 10
6.6162392705
 20
4.3961569296
 30
0.0
  0
SPLINE
  5
334
100
AcDbEntity
  8
ALL_ASSEMBLY_MEMBERS
100
AcDbSpline
 62
7
  6
CONTINUOUS
 70
0
 71
3
 72
14
 73
10
 74
0
 42
0.0000001
 43
0.0000001
 44
0.0000000001
 40
0.0
 40
0.0
 40
0.0
 40
0.0
 40
0.2614955233
 40
0.3930921013
 40
0.5231696449
 40
0.65022117
 40
0.7728360276
 40
0.8897640319
 40
1.0
 40
1.0
 40
1.0
 40
1.0
 10
6.6162392705
 20
4.4572838859
 30
0.0
 10
6.6181828401
 20
4.4601977249
 30
0.0
 10
6.620881715
 20
4.4647344407
 30
0.0
 10
6.6239405476
 20
4.4710425231
 30
0.0
 10
6.6259172218
 20
4.4758637004
 30
0.0
 10
6.6275199964
 20
4.4806955984
 30
0.0
 10
6.628704956
 20
4.4854665274
 30
0.0
 10
6.6294377448
 20
4.4901001024
 30
0.0
 10
6.6296157856
 20
4.4931444548
 30
0.0
 10
6.6296157793
 20
4.4946209925
 30
0.0
  0
SPLINE
  5
335
100
AcDbEntity
  8
ALL_ASSEMBLY_MEMBERS
100
AcDbSpline
 62
7
  6
CONTINUOUS
 70
0
 71
3
 72
15
 73
11
 74
0
 42
0.0000001
 43
0.0000001
 44
0.0000000001
 40
0.0
 40
0.0
 40
0.0
 40
0.0
 40
0.1551629721
 40
0.3007762501
 40
0.4365815558
 40
0.5628812224
 40
0.6805912223
 40
0.7912325903
 40
0.8968784937
 40
1.0
 40
1.0
 40
1.0
 40
1.0
 10
6.6296157793
 20
4.434197258
 30
0.0
 10
6.6296157838
 20
4.4356824784
 30
0.0
 10
6.6294677096
 20
4.4385647026
 30
0.0
 10
6.6287614001
 20
4.4426942019
 30
0.0
 10
6.6275963964
 20
4.4464325301
 30
0.0
 10
6.6260032342
 20
4.4497173614
 30
0.0
 10
6.6240220224
 20
4.4524957654
 30
0.0
 10
6.6216999529
 20
4.4547231501
 30
0.0
 10
6.6190939334
 20
4.4563624171
 30
0.0
 10
6.6171980217
 20
4.4570491056
 30
0.0
 10
6.6162392705
 20
4.4572838859
 30
0.0
  0
SPLINE
  5
336
100
AcDbEntity
  8
ALL_ASSEMBLY_MEMBERS
100
AcDbSpline
 62
7
  6
CONTINUOUS
 70
0
 71
3
 72
15
 73
11
 74
0
 42
0.0000001
 43
0.0000001
 44
0.0000000001
 40
0.0
 40
0.0
 40
0.0
 40
0.0
 40
0.1350462265
 40
0.2703913421
 40
0.404362329
 40
0.5353175658
 40
0.6616782123
 40
0.7820051696
 40
0.8950783576
 40
1.0
 40
1.0
 40
1.0
 40
1.0
 10
6.6162392705
 20
4.5143869988
 30
0.0
 10
6.6172010736
 20
4.5158612123
 30
0.0
 10
6.6190616472
 20
4.5188560909
 30
0.0
 10
6.6216286314
 20
4.5234616366
 30
0.0
 10
6.6239287151
 20
4.5281474284
 30
0.0
 10
6.625906382
 20
4.5328520427
 30
0.0
 10
6.6275107235
 20
4.5375098162
 30
0.0
 10
6.6286979255
 20
4.5420518031
 30
0.0
 10
6.6294337958
 20
4.5464058875
 30
0.0
 10
6.6296157833
 20
4.5492488
 30
0.0
 10
6.6296157794
 20
4.5506163692
 30
0.0
  0
SPLINE
  5
337
100
AcDbEntity
  8
ALL_ASSEMBLY_MEMBERS
100
AcDbSpline
 62
7
  6
CONTINUOUS
 70
0
 71
3
 72
15
 73
11
 74
0
 42
0.0000001
 43
0.0000001
 44
0.0000000001
 40
0.0
 40
0.0
 40
0.0
 40
0.0
 40
0.1571065513
 40
0.302519583
 40
0.4365335762
 40
0.560235544
 40
0.6755425214
 40
0.7851196059
 40
0.8921639203
 40
1.0
 40
1.0
 40
1.0
 40
1.0
 10
6.6296157793
 20
4.4946246189
 30
0.0
 10
6.6296157838
 20
4.4960022864
 30
0.0
 10
6.6294710005
 20
4.4986586902
 30
0.0
 10
6.6287671645
 20
4.5024335892
 30
0.0
 10
6.6276019852
 20
4.5057873509
 30
0.0
 10
6.6260036902
 20
4.5086626249
 30
0.0
 10
6.6240106626
 20
4.5110091701
 30
0.0
 10
6.6216717612
 20
4.5127831899
 30
0.0
 10
6.6190502459
 20
4.5139503854
 30
0.0
 10
6.617181614
 20
4.5143084124
 30
0.0
 10
6.6162392705
 20
4.5143869988
 30
0.0
  0
SPLINE
  5
338
100
AcDbEntity
  8
ALL_ASSEMBLY_MEMBERS
100
AcDbSpline
 62
7
  6
CONTINUOUS
 70
0
 71
3
 72
15
 73
11
 74
0
 42
0.0000001
 43
0.0000001
 44
0.0000000001
 40
0.0
 40
0.0
 40
0.0
 40
0.0
 40
0.1406351079
 40
0.2801526703
 40
0.416748001
 40
0.5486716895
 40
0.6742697954
 40
0.7920752199
 40
0.9009067394
 40
1.0
 40
1.0
 40
1.0
 40
1.0
 10
6.6162392705
 20
4.5668406347
 30
0.0
 10
6.6171963742
 20
4.5683236735
 30
0.0
 10
6.6190479408
 20
4.5713140099
 30
0.0
 10
6.6216151802
 20
4.5758729761
 30
0.0
 10
6.6239157081
 20
4.5804507454
 30
0.0
 10
6.6258942018
 20
4.5849873699
 30
0.0
 10
6.6274999844
 20
4.5894197497
 30
0.0
 10
6.6286895349
 20
4.5936828813
 30
0.0
 10
6.6294288812
 20
4.5977097254
 30
0.0
 10
6.6296157842
 20
4.6003206577
 30
0.0
 10
6.6296157793
 20
4.601564344
 30
0.0
  0
SPLINE
  5
339
100
AcDbEntity
  8
ALL_ASSEMBLY_MEMBERS
100
AcDbSpline
 62
7
  6
CONTINUOUS
 70
0
 71
3
 72
15
 73
11
 74
0
 42
0.0000001
 43
0.0000001
 44
0.0000000001
 40
0.0
 40
0.0
 40
0.0
 40
0.0
 40
0.1571899315
 40
0.3003965447
 40
0.4307535749
 40
0.5505336655
 40
0.6631253593
 40
0.7727183638
 40
0.8837110217
 40
1.0
 40
1.0
 40
1.0
 40
1.0
 10
6.6296157793
 20
4.5506190083
 30
0.0
 10
6.6296157838
 20
4.5518740476
 30
0.0
 10
6.6294747899
 20
4.5542766467
 30
0.0
 10
6.6287734099
 20
4.5576579512
 30
0.0
 10
6.6276060889
 20
4.560593719
 30
0.0
 10
6.6259973342
 20
4.563030003
 30
0.0
 10
6.62398518
 20
4.564915682
 30
0.0
 10
6.6216264561
 20
4.5662068059
 30
0.0
 10
6.6189957807
 20
4.5668790975
 30
0.0
 10
6.6171648632
 20
4.5669137619
 30
0.0
 10
6.6162392705
 20
4.5668406347
 30
0.0
  0
SPLINE
  5
33A
100
AcDbEntity
  8
ALL_ASSEMBLY_MEMBERS
100
AcDbSpline
 62
7
  6
CONTINUOUS
 70
0
 71
3
 72
15
 73
11
 74
0
 42
0.0000001
 43
0.0000001
 44
0.0000000001
 40
0.0
 40
0.0
 40
0.0
 40
0.0
 40
0.1474949813
 40
0.2917453201
 40
0.4310176378
 40
0.5636062468
 40
0.6879520422
 40
0.8027176721
 40
0.9069063406
 40
1.0
 40
1.0
 40
1.0
 40
1.0
 10
6.6172693309
 20
4.6156862102
 30
0.0
 10
6.6181579978
 20
4.6170985887
 30
0.0
 10
6.6198728522
 20
4.6199196619
 30
0.0
 10
6.6222550939
 20
4.6241758602
 30
0.0
 10
6.6243800424
 20
4.6283785484
 30
0.0
 10
6.6262005651
 20
4.6324771876
 30
0.0
 10
6.6276737938
 20
4.6364191567
 30
0.0
 10
6.6287633599
 20
4.6401518503
 30
0.0
 10
6.6294410494
 20
4.6436219992
 30
0.0
 10
6.6296157832
 20
4.6458549544
 30
0.0
 10
6.6296157794
 20
4.6469081759
 30
0.0
  0
SPLINE
  5
33B
100
AcDbEntity
  8
ALL_ASSEMBLY_MEMBERS
100
AcDbSpline
 62
7
  6
CONTINUOUS
 70
0
 71
3
 72
15
 73
11
 74
0
 42
0.0000001
 43
0.0000001
 44
0.0000000001
 40
0.0
 40
0.0
 40
0.0
 40
0.0
 40
0.1556499471
 40
0.2961729014
 40
0.4234270609
 40
0.5405768954
 40
0.6519616259
 40
0.7625905168
 40
0.8772850531
 40
1.0
 40
1.0
 40
1.0
 40
1.0
 10
6.6296157793
 20
4.6015669553
 30
0.0
 10
6.6296157834
 20
4.6025964138
 30
0.0
 10
6.6294994741
 20
4.6045589696
 30
0.0
 10
6.6289110223
 20
4.6073098502
 30
0.0
 10
6.6279247868
 20
4.6096757051
 30
0.0
 10
6.6265553065
 20
4.6116160385
 30
0.0
 10
6.6248309171
 20
4.6130892564
 30
0.0
 10
6.622800091
 20
4.614061504
 30
0.0
 10
6.6205237588
 20
4.6145210266
 30
0.0
 10
6.6189415128
 20
4.6144904908
 30
0.0
 10
6.6181346002
 20
4.6144031231
 30
0.0
  0
SPLINE
  5
33C
100
AcDbEntity
  8
ALL_ASSEMBLY_MEMBERS
100
AcDbSpline
 62
7
  6
CONTINUOUS
 70
0
 71
3
 72
19
 73
15
 74
0
 42
0.0000001
 43
0.0000001
 44
0.0000000001
 40
0.0
 40
0.0
 40
0.0
 40
0.0
 40
0.0224097897
 40
0.0504683918
 40
0.0845813858
 40
0.1248394209
 40
0.1711684577
 40
0.2234304357
 40
0.2814151072
 40
0.3448085663
 40
0.4864425161
 40
0.6453127843
 40
0.8179324474
 40
1.0
 40
1.0
 40
1.0
 40
1.0
 10
6.5866725961
 20
3.9894082948
 30
0.0
 10
6.5868254992
 20
3.989241766
 30
0.0
 10
6.5872243448
 20
3.9889176518
 30
0.0
 10
6.5879657372
 20
3.9884920818
 30
0.0
 10
6.588913252
 20
3.9880757678
 30
0.0
 10
6.5900624796
 20
3.9876710854
 30
0.0
 10
6.5914081632
 20
3.9872800776
 30
0.0
 10
6.5929431503
 20
3.9869057233
 30
0.0
 10
6.5946588175
 20
3.9865505786
 30
0.0
 10
6.5972718187
 20
3.9860878913
 30
0.0
 10
6.6009095005
 20
3.9855840327
 30
0.0
 10
6.6056591245
 20
3.9851038337
 30
0.0
 10
6.6108280816
 20
3.9847413644
 30
0.0
 10
6.6144033936
 20
3.984586536
 30
0.0
 10
6.6162392705
 20
3.984529538
 30
0.0
  0
SPLINE
  5
33D
100
AcDbEntity
  8
ALL_ASSEMBLY_MEMBERS
100
AcDbSpline
 62
7
  6
CONTINUOUS
 70
0
 71
3
 72
15
 73
11
 74
0
 42
0.0000001
 43
0.0000001
 44
0.0000000001
 40
0.0
 40
0.0
 40
0.0
 40
0.0
 40
0.1545792436
 40
0.3040900516
 40
0.4466565557
 40
0.5804500882
 40
0.7038228152
 40
0.8154010576
 40
0.9142357839
 40
1.0
 40
1.0
 40
1.0
 40
1.0
 10
6.6172693309
 20
4.6571519564
 30
0.0
 10
6.6181534085
 20
4.6585342446
 30
0.0
 10
6.6198590065
 20
4.6612752323
 30
0.0
 10
6.6222410254
 20
4.6653755728
 30
0.0
 10
6.6243658422
 20
4.6693670407
 30
0.0
 10
6.6261865632
 20
4.6732016924
 30
0.0
 10
6.627660653
 20
4.6768304616
 30
0.0
 10
6.6287523046
 20
4.6802056875
 30
0.0
 10
6.6294339714
 20
4.6832800006
 30
0.0
 10
6.6296157833
 20
4.6852399965
 30
0.0
 10
6.6296157794
 20
4.6861503662
 30
0.0
  0
SPLINE
  5
33E
100
AcDbEntity
  8
ALL_ASSEMBLY_MEMBERS
100
AcDbSpline
 62
7
  6
CONTINUOUS
 70
0
 71
3
 72
16
 73
12
 74
0
 42
0.0000001
 43
0.0000001
 44
0.0000000001
 40
0.0
 40
0.0
 40
0.0
 40
0.0
 40
0.1544320233
 40
0.2258481558
 40
0.2936459029
 40
0.4196140734
 40
0.5359480795
 40
0.6472132944
 40
0.7585556284
 40
0.8748510738
 40
1.0
 40
1.0
 40
1.0
 40
1.0
 10
6.6296157793
 20
4.6469102634
 30
0.0
 10
6.6296157827
 20
4.6476739028
 30
0.0
 10
6.6295520306
 20
4.6487933711
 30
0.0
 10
6.6293055364
 20
4.6502257175
 30
0.0
 10
6.6289777166
 20
4.65149651
 30
0.0
 10
6.6283986418
 20
4.6529276931
 30
0.0
 10
6.6274028383
 20
4.6543834222
 30
0.0
 10
6.6261376631
 20
4.6555093003
 30
0.0
 10
6.6246322275
 20
4.6562836755
 30
0.0
 10
6.6229237181
 20
4.6566994026
 30
0.0
 10
6.6217222197
 20
4.6567387293
 30
0.0
 10
6.6211041504
 20
4.6567078611
 30
0.0
  0
SPLINE
  5
33F
100
AcDbEntity
  8
ALL_ASSEMBLY_MEMBERS
100
AcDbSpline
 62
7
  6
CONTINUOUS
 70
0
 71
3
 72
18
 73
14
 74
0
 42
0.0000001
 43
0.0000001
 44
0.0000000001
 40
0.0
 40
0.0
 40
0.0
 40
0.0
 40
0.0323425105
 40
0.0689716292
 40
0.110090694
 40
0.155765046
 40
0.2059840273
 40
0.2606670835
 40
0.3826641223
 40
0.5200230656
 40
0.670528756
 40
0.8316139358
 40
1.0
 40
1.0
 40
1.0
 40
1.0
 10
6.587391068
 20
3.9226089161
 30
0.0
 10
6.5876160397
 20
3.9223743527
 30
0.0
 10
6.5881357368
 20
3.9219120233
 30
0.0
 10
6.5890432589
 20
3.9212763995
 30
0.0
 10
6.5901205129
 20
3.9206589067
 30
0.0
 10
6.5913624765
 20
3.9200623635
 30
0.0
 10
6.5927638926
 20
3.9194896699
 30
0.0
 10
6.5949161772
 20
3.9187346205
 30
0.0
 10
6.5979590928
 20
3.9178856633
 30
0.0
 10
6.6019911566
 20
3.9170353531
 30
0.0
 10
6.6064501833
 20
3.9163371532
 30
0.0
 10
6.6112456385
 20
3.9158070088
 30
0.0
 10
6.6145493804
 20
3.9155754275
 30
0.0
 10
6.6162392705
 20
3.9154886238
 30
0.0
  0
SPLINE
  5
340
100
AcDbEntity
  8
ALL_ASSEMBLY_MEMBERS
100
AcDbSpline
 62
7
  6
CONTINUOUS
 70
0
 71
3
 72
15
 73
11
 74
0
 42
0.0000001
 43
0.0000001
 44
0.0000000001
 40
0.0
 40
0.0
 40
0.0
 40
0.0
 40
0.163256396
 40
0.3185267568
 40
0.4641008328
 40
0.5983754975
 40
0.7199548557
 40
0.8277360018
 40
0.921077329
 40
1.0
 40
1.0
 40
1.0
 40
1.0
 10
6.6192138032
 20
4.6954095941
 30
0.0
 10
6.6199698386
 20
4.6965990441
 30
0.0
 10
6.6214215164
 20
4.6989348065
 30
0.0
 10
6.6234474372
 20
4.7023920781
 30
0.0
 10
6.6252393566
 20
4.7056944626
 30
0.0
 10
6.6267636975
 20
4.7088081976
 30
0.0
 10
6.6279906526
 20
4.7116997644
 30
0.0
 10
6.6288958742
 20
4.7143380267
 30
0.0
 10
6.6294609474
 20
4.7166926959
 30
0.0
 10
6.6296157832
 20
4.7181798207
 30
0.0
 10
6.6296157793
 20
4.7188611591
 30
0.0
  0
SPLINE
  5
341
100
AcDbEntity
  8
ALL_ASSEMBLY_MEMBERS
100
AcDbSpline
 62
7
  6
CONTINUOUS
 70
0
 71
3
 72
16
 73
12
 74
0
 42
0.0000001
 43
0.0000001
 44
0.0000000001
 40
0.0
 40
0.0
 40
0.0
 40
0.0
 40
0.1534423687
 40
0.2242862755
 40
0.2915279076
 40
0.4165466171
 40
0.5322946673
 40
0.6434919864
 40
0.7553788932
 40
0.8728906884
 40
1.0
 40
1.0
 40
1.0
 40
1.0
 10
6.6296157793
 20
4.6861524364
 30
0.0
 10
6.6296157829
 20
4.6866851625
 30
0.0
 10
6.6295729507
 20
4.687465624
 30
0.0
 10
6.6294063032
 20
4.6884648678
 30
0.0
 10
6.6291845049
 20
4.6893517418
 30
0.0
 10
6.6287912669
 20
4.6903536917
 30
0.0
 10
6.628111053
 20
4.6913811828
 30
0.0
 10
6.6272404158
 20
4.6921895485
 30
0.0
 10
6.6261950969
 20
4.6927659989
 30
0.0
 10
6.6249958182
 20
4.6931067734
 30
0.0
 10
6.6241440505
 20
4.6931756198
 30
0.0
 10
6.6237027503
 20
4.6931769272
 30
0.0
  0
SPLINE
  5
342
100
AcDbEntity
  8
ALL_ASSEMBLY_MEMBERS
100
AcDbSpline
 62
7
  6
CONTINUOUS
 70
0
 71
3
 72
11
 73
7
 74
0
 42
0.0000001
 43
0.0000001
 44
0.0000000001
 40
0.0
 40
0.0
 40
0.0
 40
0.0
 40
0.2342817685
 40
0.4805556024
 40
0.7368388477
 40
1.0
 40
1.0
 40
1.0
 40
1.0
 10
6.597990416
 20
4.5084722799
 30
0.0
 10
6.5992874839
 20
4.5092410469
 30
0.0
 10
6.6020495865
 20
4.5106507037
 30
0.0
 10
6.6064909126
 20
4.5123356769
 30
0.0
 10
6.6112579175
 20
4.5136141943
 30
0.0
 10
6.6145586919
 20
4.5141770979
 30
0.0
 10
6.6162392705
 20
4.5143869988
 30
0.0
  0
SPLINE
  5
343
100
AcDbEntity
  8
ALL_ASSEMBLY_MEMBERS
100
AcDbSpline
 62
7
  6
CONTINUOUS
 70
0
 71
3
 72
15
 73
11
 74
0
 42
0.0000001
 43
0.0000001
 44
0.0000000001
 40
0.0
 40
0.0
 40
0.0
 40
0.0
 40
0.0841553358
 40
0.1814116453
 40
0.2918054421
 40
0.4145485958
 40
0.5484531317
 40
0.6919690574
 40
0.8432830589
 40
1.0
 40
1.0
 40
1.0
 40
1.0
 10
6.5885820557
 20
3.8568291326
 30
0.0
 10
6.5891725941
 20
3.8562542208
 30
0.0
 10
6.5905751281
 20
3.8551470842
 30
0.0
 10
6.5930514335
 20
3.8537084493
 30
0.0
 10
6.5960142199
 20
3.852394723
 30
0.0
 10
6.599416481
 20
3.8512238182
 30
0.0
 10
6.603206818
 20
3.8502167129
 30
0.0
 10
6.6073253397
 20
3.8493877891
 30
0.0
 10
6.6117037233
 20
3.848753331
 30
0.0
 10
6.6147083369
 20
3.8484687738
 30
0.0
 10
6.6162392705
 20
3.8483598885
 30
0.0
  0
SPLINE
  5
344
100
AcDbEntity
  8
ALL_ASSEMBLY_MEMBERS
100
AcDbSpline
 62
7
  6
CONTINUOUS
 70
0
 71
3
 72
16
 73
12
 74
0
 42
0.0000001
 43
0.0000001
 44
0.0000000001
 40
0.0
 40
0.0
 40
0.0
 40
0.0
 40
0.1729835495
 40
0.3347967851
 40
0.4838896187
 40
0.6188706362
 40
0.7385608855
 40
0.842092124
 40
0.9290916575
 40
0.9664994248
 40
1.0
 40
1.0
 40
1.0
 40
1.0
 10
6.6210048978
 20
4.7266406297
 30
0.0
 10
6.6216388386
 20
4.7276155181
 30
0.0
 10
6.6228505236
 20
4.729512365
 30
0.0
 10
6.6245413876
 20
4.732291699
 30
0.0
 10
6.6260255179
 20
4.7348965921
 30
0.0
 10
6.627279681
 20
4.7373046509
 30
0.0
 10
6.628284063
 20
4.7394948463
 30
0.0
 10
6.6290221844
 20
4.7414471588
 30
0.0
 10
6.629425782
 20
4.7429299595
 30
0.0
 10
6.6295868115
 20
4.7439802506
 30
0.0
 10
6.629615781
 20
4.7444570839
 30
0.0
 10
6.6296157793
 20
4.744682291
 30
0.0
  0
SPLINE
  5
345
100
AcDbEntity
  8
ALL_ASSEMBLY_MEMBERS
100
AcDbSpline
 62
7
  6
CONTINUOUS
 70
0
 71
3
 72
15
 73
11
 74
0
 42
0.0000001
 43
0.0000001
 44
0.0000000001
 40
0.0
 40
0.0
 40
0.0
 40
0.0
 40
0.1526493231
 40
0.2898206095
 40
0.4141465813
 40
0.5294655008
 40
0.6406193344
 40
0.752911234
 40
0.8713502331
 40
1.0
 40
1.0
 40
1.0
 40
1.0
 10
6.6296157793
 20
4.7188626487
 30
0.0
 10
6.6296157815
 20
4.7192042301
 30
0.0
 10
6.6295811658
 20
4.7198537843
 30
0.0
 10
6.6294032223
 20
4.7207669264
 30
0.0
 10
6.6291006171
 20
4.7215593475
 30
0.0
 10
6.6286728932
 20
4.7222251643
 30
0.0
 10
6.6281220817
 20
4.7227563268
 30
0.0
 10
6.6274559617
 20
4.7231462976
 30
0.0
 10
6.6266848466
 20
4.723393047
 30
0.0
 10
6.6261328987
 20
4.7234603711
 30
0.0
 10
6.6258453437
 20
4.723474002
 30
0.0
  0
SPLINE
  5
346
100
AcDbEntity
  8
ALL_ASSEMBLY_MEMBERS
100
AcDbSpline
 62
7
  6
CONTINUOUS
 70
0
 71
3
 72
17
 73
13
 74
0
 42
0.0000001
 43
0.0000001
 44
0.0000000001
 40
0.0
 40
0.0
 40
0.0
 40
0.0
 40
0.1855608961
 40
0.3568610387
 40
0.5120574629
 40
0.6494825885
 40
0.7677075301
 40
0.8656567493
 40
0.9068600061
 40
0.9428879527
 40
0.9738508184
 40
1.0
 40
1.0
 40
1.0
 40
1.0
 10
6.6205686927
 20
4.7474051924
 30
0.0
 10
6.6212276387
 20
4.7483369187
 30
0.0
 10
6.6224871099
 20
4.7501343019
 30
0.0
 10
6.6242587188
 20
4.7527380318
 30
0.0
 10
6.6258161514
 20
4.7551288403
 30
0.0
 10
6.6271342103
 20
4.7572851817
 30
0.0
 10
6.6281903308
 20
4.7591868476
 30
0.0
 10
6.6288742184
 20
4.7606165972
 30
0.0
 10
6.6292621709
 20
4.7616222661
 30
0.0
 10
6.6294604166
 20
4.7622581576
 30
0.0
 10
6.6295826085
 20
4.7628185802
 30
0.0
 10
6.6296157816
 20
4.7631698215
 30
0.0
 10
6.6296157793
 20
4.7633306382
 30
0.0
  0
SPLINE
  5
347
100
AcDbEntity
  8
ALL_ASSEMBLY_MEMBERS
100
AcDbSpline
 62
7
  6
CONTINUOUS
 70
0
 71
3
 72
15
 73
11
 74
0
 42
0.0000001
 43
0.0000001
 44
0.0000000001
 40
0.0
 40
0.0
 40
0.0
 40
0.0
 40
0.1520020805
 40
0.2884803634
 40
0.4122433718
 40
0.5272016641
 40
0.6382750246
 40
0.7508638035
 40
0.8700480111
 40
1.0
 40
1.0
 40
1.0
 40
1.0
 10
6.6296157793
 20
4.7446834004
 30
0.0
 10
6.629615781
 20
4.7448759591
 30
0.0
 10
6.6295967291
 20
4.7452419713
 30
0.0
 10
6.6294984105
 20
4.745756848
 30
0.0
 10
6.6293309393
 20
4.7462046214
 30
0.0
 10
6.629093188
 20
4.7465826941
 30
0.0
 10
6.6287858248
 20
4.7468874956
 30
0.0
 10
6.6284118988
 20
4.747115663
 30
0.0
 10
6.6279761893
 20
4.7472667562
 30
0.0
 10
6.627662531
 20
4.7473145547
 30
0.0
 10
6.6274984344
 20
4.7473277374
 30
0.0
  0
SPLINE
  5
348
100
AcDbEntity
  8
ALL_ASSEMBLY_MEMBERS
100
AcDbSpline
 62
7
  6
CONTINUOUS
 70
0
 71
3
 72
15
 73
11
 74
0
 42
0.0000001
 43
0.0000001
 44
0.0000000001
 40
0.0
 40
0.0
 40
0.0
 40
0.0
 40
0.0966916361
 40
0.2026477842
 40
0.317627078
 40
0.4410725972
 40
0.5721734523
 40
0.7099230446
 40
0.8530782332
 40
1.0
 40
1.0
 40
1.0
 40
1.0
 10
6.5904308335
 20
3.7926998014
 30
0.0
 10
6.5911001326
 20
3.792110418
 30
0.0
 10
6.5925913912
 20
3.7909740274
 30
0.0
 10
6.5951104395
 20
3.7894694075
 30
0.0
 10
6.5979814197
 20
3.7881009899
 30
0.0
 10
6.6011697173
 20
3.7868873895
 30
0.0
 10
6.6046366726
 20
3.7858425978
 30
0.0
 10
6.608339835
 20
3.7849794382
 30
0.0
 10
6.6122306679
 20
3.7843102266
 30
0.0
 10
6.6148896356
 20
3.7840004123
 30
0.0
 10
6.6162392705
 20
3.7838788086
 30
0.0
  0
SPLINE
  5
349
100
AcDbEntity
  8
ALL_ASSEMBLY_MEMBERS
100
AcDbSpline
 62
7
  6
CONTINUOUS
 70
0
 71
3
 72
17
 73
13
 74
0
 42
0.0000001
 43
0.0000001
 44
0.0000000001
 40
0.0
 40
0.0
 40
0.0
 40
0.0
 40
0.2018393789
 40
0.3837115934
 40
0.5443559082
 40
0.6826539362
 40
0.797695575
 40
0.8888392248
 40
0.9253881776
 40
0.9559630775
 40
0.9807175902
 40
1.0
 40
1.0
 40
1.0
 40
1.0
 10
6.6241082585
 20
4.7662108262
 30
0.0
 10
6.6245210503
 20
4.7667498444
 30
0.0
 10
6.6253028645
 20
4.7677768134
 30
0.0
 10
6.6263979171
 20
4.7692443773
 30
0.0
 10
6.6273461862
 20
4.7705545979
 30
0.0
 10
6.6281382322
 20
4.7717001673
 30
0.0
 10
6.6287658181
 20
4.7726744146
 30
0.0
 10
6.6291736833
 20
4.7733826916
 30
0.0
 10
6.6294056915
 20
4.7738620795
 30
0.0
 10
6.6295220513
 20
4.7741488037
 30
0.0
 10
6.629594263
 20
4.7743894731
 30
0.0
 10
6.6296157813
 20
4.7745373287
 30
0.0
 10
6.6296157793
 20
4.7746021886
 30
0.0
  0
SPLINE
  5
34A
100
AcDbEntity
  8
ALL_ASSEMBLY_MEMBERS
100
AcDbSpline
 62
7
  6
CONTINUOUS
 70
0
 71
3
 72
12
 73
8
 74
0
 42
0.0000001
 43
0.0000001
 44
0.0000000001
 40
0.0
 40
0.0
 40
0.0
 40
0.0
 40
0.2876737702
 40
0.5252781836
 40
0.6366393212
 40
0.7497495267
 40
1.0
 40
1.0
 40
1.0
 40
1.0
 10
6.6296157793
 20
4.7633314996
 30
0.0
 10
6.6296157814
 20
4.7634936501
 30
0.0
 10
6.6295890182
 20
4.7637922778
 30
0.0
 10
6.6294354267
 20
4.7641282777
 30
0.0
 10
6.6292504673
 20
4.7643150148
 30
0.0
 10
6.6290223938
 20
4.7644587216
 30
0.0
 10
6.6288173424
 20
4.7645079577
 30
0.0
 10
6.6286770455
 20
4.7645225771
 30
0.0
  0
LINE
  5
34B
100
AcDbEntity
  8
ALL_ASSEMBLY_MEMBERS
100
AcDbLine
 62
7
  6
CONTINUOUS
 10
6.6265656442
 20
4.7751533317
 11
6.6296157793
 21
4.7783733138
  0
LINE
  5
34C
100
AcDbEntity
  8
ALL_ASSEMBLY_MEMBERS
100
AcDbLine
 62
7
  6
CONTINUOUS
 10
6.6296157793
 20
4.7746026337
 11
6.62938158
 21
4.7749026748
  0
SPLINE
  5
34D
100
AcDbEntity
  8
ALL_ASSEMBLY_MEMBERS
100
AcDbSpline
 62
7
  6
CONTINUOUS
 70
0
 71
3
 72
12
 73
8
 74
0
 42
0.0000001
 43
0.0000001
 44
0.0000000001
 40
0.0
 40
0.0
 40
0.0
 40
0.0
 40
0.1070920805
 40
0.2201500067
 40
0.4628592291
 40
0.7247356169
 40
1.0
 40
1.0
 40
1.0
 40
1.0
 10
6.5932972111
 20
3.7307869822
 30
0.0
 10
6.5939967936
 20
3.7302576754
 30
0.0
 10
6.5954888154
 20
3.729239477
 30
0.0
 10
6.598792782
 20
3.7273724047
 30
0.0
 10
6.603474739
 20
3.7254055298
 30
0.0
 10
6.6096428328
 20
3.7236924978
 30
0.0
 10
6.6139974671
 20
3.7229941728
 30
0.0
 10
6.6162392705
 20
3.7227518523
 30
0.0
  0
SPLINE
  5
34E
100
AcDbEntity
  8
ALL_ASSEMBLY_MEMBERS
100
AcDbSpline
 62
7
  6
CONTINUOUS
 70
0
 71
3
 72
40
 73
36
 74
0
 42
0.0000001
 43
0.0000001
 44
0.0000000001
 40
0.0
 40
0.0
 40
0.0
 40
0.0
 40
0.0624694866
 40
0.0937223675
 40
0.1249702304
 40
0.156209859
 40
0.1874418418
 40
0.2186740699
 40
0.2499134543
 40
0.3123940249
 40
0.3436737823
 40
0.374960115
 40
0.4062359575
 40
0.4374888803
 40
0.4531071734
 40
0.4687185869
 40
0.4843240296
 40
0.4999261258
 40
0.515534653
 40
0.5311565704
 40
0.5467914811
 40
0.5624334126
 40
0.5702540742
 40
0.5780729469
 40
0.5937054789
 40
0.6093327069
 40
0.6249566281
 40
0.6562026385
 40
0.6874549777
 40
0.7187114571
 40
0.749967682
 40
0.812475253
 40
0.8749833746
 40
0.9374917403
 40
1.0
 40
1.0
 40
1.0
 40
1.0
 10
4.2464676612
 20
3.5176523406
 30
0.0
 10
4.251795491
 20
3.5370425718
 30
0.0
 10
4.2617622104
 20
3.5656431873
 30
0.0
 10
4.2787155893
 20
3.602145591
 30
0.0
 10
4.2932243394
 20
3.6286311255
 30
0.0
 10
4.3094620311
 20
3.6540831273
 30
0.0
 10
4.3273772679
 20
3.6783777299
 30
0.0
 10
4.3468795675
 20
3.7014190948
 30
0.0
 10
4.3748554032
 20
3.7303487294
 30
0.0
 10
4.4056511962
 20
3.7564624223
 30
0.0
 10
4.4387907131
 20
3.7793489752
 30
0.0
 10
4.4647493625
 20
3.7948439698
 30
0.0
 10
4.4916759751
 20
3.8085646091
 30
0.0
 10
4.5148325192
 20
3.8184470617
 30
0.0
 10
4.5337197224
 20
3.825371412
 30
0.0
 10
4.5480510836
 20
3.8300619248
 30
0.0
 10
4.5625344148
 20
3.8342412578
 30
0.0
 10
4.5771596948
 20
3.8378883336
 30
0.0
 10
4.5918982233
 20
3.8410669406
 30
0.0
 10
4.6067220146
 20
3.8438735273
 30
0.0
 10
4.6216068839
 20
3.8463972683
 30
0.0
 10
4.6340415958
 20
3.8483405621
 30
0.0
 10
4.6439980636
 20
3.8498449179
 30
0.0
 10
4.653954319
 20
3.8513303673
 30
0.0
 10
4.6664013112
 20
3.8531508056
 30
0.0
 10
4.6813429876
 20
3.8552746265
 30
0.0
 10
4.7012723903
 20
3.8580216251
 30
0.0
 10
4.7262070266
 20
3.8612896483
 30
0.0
 10
4.756167077
 20
3.8649269442
 30
0.0
 10
4.7861626946
 20
3.8682879009
 30
0.0
 10
4.8261955199
 20
3.8724087019
 30
0.0
 10
4.8763025144
 20
3.876887546
 30
0.0
 10
4.9365176689
 20
3.8811682353
 30
0.0
 10
4.9968004872
 20
3.8843590068
 30
0.0
 10
5.0370214933
 20
3.8857584088
 30
0.0
 10
5.0571361909
 20
3.8862759942
 30
0.0
  0
SPLINE
  5
34F
100
AcDbEntity
  8
ALL_ASSEMBLY_MEMBERS
100
AcDbSpline
 62
7
  6
CONTINUOUS
 70
0
 71
3
 72
51
 73
47
 74
0
 42
0.0000001
 43
0.0000001
 44
0.0000000001
 40
0.0
 40
0.0
 40
0.0
 40
0.0
 40
0.0981714917
 40
0.147012417
 40
0.1955059381
 40
0.2909741326
 40
0.3836668107
 40
0.4726695728
 40
0.5570804636
 40
0.5973014425
 40
0.6360633973
 40
0.6732725872
 40
0.7088380482
 40
0.7426694423
 40
0.7746861565
 40
0.8048151217
 40
0.8329835825
 40
0.8591248555
 40
0.88318224
 40
0.905099913
 40
0.9248257092
 40
0.9423212675
 40
0.9575514532
 40
0.9643060926
 40
0.970482332
 40
0.9760779405
 40
0.9810907397
 40
0.9855185531
 40
0.9893592078
 40
0.992610539
 40
0.9940146393
 40
0.9952709543
 40
0.9963794759
 40
0.9973401947
 40
0.9981531004
 40
0.9988181816
 40
0.9990952842
 40
0.9993354261
 40
0.9995386053
 40
0.9997048203
 40
0.9998340692
 40
0.99992635
 40
0.9999586268
 40
0.9999816609
 40
0.999995452
 40
1.0
 40
1.0
 40
1.0
 40
1.0
 10
6.5068232358
 20
4.090017869
 30
0.0
 10
6.506866625
 20
4.1086168651
 30
0.0
 10
6.5069611057
 20
4.1364689017
 30
0.0
 10
6.5070915025
 20
4.1735081818
 30
0.0
 10
6.5072026402
 20
4.2100353742
 30
0.0
 10
6.5073072424
 20
4.2548705324
 30
0.0
 10
6.5074270687
 20
4.3073803381
 30
0.0
 10
6.5075421789
 20
4.3577952896
 30
0.0
 10
6.5076225241
 20
4.3982692943
 30
0.0
 10
6.5076445787
 20
4.4292250154
 30
0.0
 10
6.5076312991
 20
4.4512381561
 30
0.0
 10
6.5075998425
 20
4.4723692635
 30
0.0
 10
6.5075630702
 20
4.4925662422
 30
0.0
 10
6.5075370935
 20
4.511779499
 30
0.0
 10
6.5075194632
 20
4.5299627943
 30
0.0
 10
6.5074955351
 20
4.547073214
 30
0.0
 10
6.507451175
 20
4.5630704671
 30
0.0
 10
6.5073798381
 20
4.5779173193
 30
0.0
 10
6.5072975733
 20
4.5915798474
 30
0.0
 10
6.507217167
 20
4.604026921
 30
0.0
 10
6.5071525496
 20
4.6152309
 30
0.0
 10
6.5070997783
 20
4.6251679487
 30
0.0
 10
6.5070608179
 20
4.63264759
 30
0.0
 10
6.5070310684
 20
4.6379827521
 30
0.0
 10
6.5070100438
 20
4.6414926186
 30
0.0
 10
6.5069892303
 20
4.6446724804
 30
0.0
 10
6.506968406
 20
4.6475210868
 30
0.0
 10
6.5069473644
 20
4.6500371975
 30
0.0
 10
6.5069259206
 20
4.6522195727
 30
0.0
 10
6.5069067094
 20
4.6538290834
 30
0.0
 10
6.5068906281
 20
4.6549489763
 30
0.0
 10
6.5068792916
 20
4.6556629293
 30
0.0
 10
6.5068683271
 20
4.6562928758
 30
0.0
 10
6.5068579904
 20
4.656838815
 30
0.0
 10
6.5068485343
 20
4.6573007401
 30
0.0
 10
6.5068412185
 20
4.6576331757
 30
0.0
 10
6.5068360074
 20
4.6578571024
 30
0.0
 10
6.5068327296
 20
4.6579935736
 30
0.0
 10
6.5068298419
 20
4.6581089498
 30
0.0
 10
6.5068274569
 20
4.6582035756
 30
0.0
 10
6.5068253918
 20
4.6582765312
 30
0.0
 10
6.5068242982
 20
4.6583255889
 30
0.0
 10
6.5068231889
 20
4.6583522084
 30
0.0
 10
6.5068233123
 20
4.6583674784
 30
0.0
 10
6.5068221762
 20
4.6583714681
 30
0.0
 10
6.5068229818
 20
4.6583788979
 30
0.0
 10
6.5068225645
 20
4.6583781441
 30
0.0
  0
SPLINE
  5
350
100
AcDbEntity
  8
ALL_ASSEMBLY_MEMBERS
100
AcDbSpline
 62
7
  6
CONTINUOUS
 70
0
 71
3
 72
54
 73
50
 74
0
 42
0.0000001
 43
0.0000001
 44
0.0000000001
 40
0.0
 40
0.0
 40
0.0
 40
0.0
 40
0.0980161836
 40
0.1467568966
 40
0.1951351645
 40
0.290336859
 40
0.3827372252
 40
0.471456335
 40
0.5556289068
 40
0.5957570194
 40
0.6344481087
 40
0.6716109447
 40
0.7071568259
 40
0.7409976756
 40
0.7730529512
 40
0.8032475331
 40
0.8315064249
 40
0.8577604734
 40
0.881949749
 40
0.9040151616
 40
0.9239008992
 40
0.9415623414
 40
0.9495457514
 40
0.9569572374
 40
0.9637915643
 40
0.9700446375
 40
0.9757134242
 40
0.980794931
 40
0.9852861642
 40
0.9891841312
 40
0.9909097054
 40
0.9924858454
 40
0.9939123003
 40
0.9951889749
 40
0.9963157838
 40
0.9972926415
 40
0.9981194615
 40
0.9987961574
 40
0.9990781815
 40
0.9993226419
 40
0.9995295277
 40
0.999698828
 40
0.9998305322
 40
0.9998822826
 40
0.9999246301
 40
0.9999575739
 40
0.9999811134
 40
0.9999952498
 40
1.0
 40
1.0
 40
1.0
 40
1.0
 10
6.5638993592
 20
4.0903822344
 30
0.0
 10
6.5638000464
 20
4.1095244733
 30
0.0
 10
6.5636613086
 20
4.1381856639
 30
0.0
 10
6.5634634535
 20
4.1762949214
 30
0.0
 10
6.5632458536
 20
4.2138543954
 30
0.0
 10
6.5629504484
 20
4.2599402536
 30
0.0
 10
6.5626574183
 20
4.3139048174
 30
0.0
 10
6.5624614711
 20
4.3657158423
 30
0.0
 10
6.5623836644
 20
4.4073184137
 30
0.0
 10
6.5623489429
 20
4.4391505808
 30
0.0
 10
6.5623288994
 20
4.4618017889
 30
0.0
 10
6.5623248673
 20
4.4835581004
 30
0.0
 10
6.562348192
 20
4.5043671595
 30
0.0
 10
6.5624140677
 20
4.5241786254
 30
0.0
 10
6.5625162478
 20
4.5429448091
 30
0.0
 10
6.5626355398
 20
4.5606207075
 30
0.0
 10
6.5627532823
 20
4.577163612
 30
0.0
 10
6.5628592829
 20
4.5925337381
 30
0.0
 10
6.5629653494
 20
4.6066942508
 30
0.0
 10
6.5630800647
 20
4.6196109328
 30
0.0
 10
6.5632128492
 20
4.6312524881
 30
0.0
 10
6.5633340604
 20
4.6401437625
 30
0.0
 10
6.5634310895
 20
4.6465989151
 30
0.0
 10
6.5634996374
 20
4.650939727
 30
0.0
 10
6.5635651689
 20
4.6549426098
 30
0.0
 10
6.563626665
 20
4.6586051647
 30
0.0
 10
6.5636833695
 20
4.6619254269
 30
0.0
 10
6.5637344868
 20
4.6649016481
 30
0.0
 10
6.5637792325
 20
4.6675320878
 30
0.0
 10
6.5638117766
 20
4.6695072288
 30
0.0
 10
6.5638337112
 20
4.6709131509
 30
0.0
 10
6.5638473658
 20
4.6718364584
 30
0.0
 10
6.5638589102
 20
4.6726721173
 30
0.0
 10
6.5638685628
 20
4.6734200396
 30
0.0
 10
6.5638765104
 20
4.6740801703
 30
0.0
 10
6.5638829461
 20
4.6746524561
 30
0.0
 10
6.5638880614
 20
4.6751368448
 30
0.0
 10
6.5638915645
 20
4.6754855412
 30
0.0
 10
6.5638938888
 20
4.6757205115
 30
0.0
 10
6.5638953176
 20
4.6758637277
 30
0.0
 10
6.5638965485
 20
4.6759849432
 30
0.0
 10
6.563897646
 20
4.6760841004
 30
0.0
 10
6.5638984243
 20
4.6761530517
 30
0.0
 10
6.5638991227
 20
4.6761970495
 30
0.0
 10
6.5638993639
 20
4.6762220604
 30
0.0
 10
6.5639001512
 20
4.6762408342
 30
0.0
 10
6.563899563
 20
4.6762558085
 30
0.0
 10
6.5639015068
 20
4.6762620048
 30
0.0
 10
6.5639000453
 20
4.6762678532
 30
0.0
 10
6.5639009729
 20
4.6762678691
 30
0.0
  0
SPLINE
  5
351
100
AcDbEntity
  8
ALL_ASSEMBLY_MEMBERS
100
AcDbSpline
 62
7
  6
CONTINUOUS
 70
0
 71
3
 72
54
 73
50
 74
0
 42
0.0000001
 43
0.0000001
 44
0.0000000001
 40
0.0
 40
0.0
 40
0.0
 40
0.0
 40
0.0000048161
 40
0.0000190231
 40
0.0000426479
 40
0.0000756924
 40
0.0001181559
 40
0.0001700368
 40
0.0003020433
 40
0.0004716959
 40
0.0006789778
 40
0.0009238718
 40
0.0012063607
 40
0.0018840545
 40
0.0027119213
 40
0.0036898236
 40
0.0048176245
 40
0.0060951874
 40
0.0075223764
 40
0.0090990562
 40
0.0108250921
 40
0.0147245594
 40
0.0192181846
 40
0.0243025565
 40
0.0299742486
 40
0.0362298325
 40
0.0430658794
 40
0.0504789512
 40
0.0584648317
 40
0.076132852
 40
0.0960249923
 40
0.1180959319
 40
0.1422929258
 40
0.1685546837
 40
0.196819428
 40
0.2270207744
 40
0.2590830815
 40
0.2929295939
 40
0.3656494759
 40
0.4043445973
 40
0.4444753781
 40
0.528650148
 40
0.6173647886
 40
0.7097546163
 40
0.757051066
 40
0.8049356285
 40
0.8532988504
 40
0.9020225423
 40
1.0
 40
1.0
 40
1.0
 40
1.0
 10
6.5639010869
 20
3.5037678691
 30
0.0
 10
6.5639001486
 20
3.5037679492
 30
0.0
 10
6.5639015521
 20
3.5037736883
 30
0.0
 10
6.5638997985
 20
3.5037800882
 30
0.0
 10
6.5639005643
 20
3.5037950476
 30
0.0
 10
6.5639001454
 20
3.5038139461
 30
0.0
 10
6.5639003646
 20
3.5038390437
 30
0.0
 10
6.5639005305
 20
3.5038832139
 30
0.0
 10
6.5639011388
 20
3.5039524013
 30
0.0
 10
6.5639020853
 20
3.5040518887
 30
0.0
 10
6.5639033843
 20
3.5041734829
 30
0.0
 10
6.5639049719
 20
3.5043171265
 30
0.0
 10
6.5639076261
 20
3.5045527525
 30
0.0
 10
6.5639115595
 20
3.5049023629
 30
0.0
 10
6.5639168153
 20
3.5053879488
 30
0.0
 10
6.5639226553
 20
3.5059615464
 30
0.0
 10
6.5639288742
 20
3.5066230778
 30
0.0
 10
6.5639352667
 20
3.5073724642
 30
0.0
 10
6.5639416272
 20
3.5082096271
 30
0.0
 10
6.5639477461
 20
3.5091344879
 30
0.0
 10
6.5639556524
 20
3.5105427738
 30
0.0
 10
6.5639634131
 20
3.5125214443
 30
0.0
 10
6.5639699955
 20
3.5151568065
 30
0.0
 10
6.5639752339
 20
3.5181387112
 30
0.0
 10
6.5639800121
 20
3.5214651487
 30
0.0
 10
6.5639852852
 20
3.5251341066
 30
0.0
 10
6.5639919777
 20
3.5291435704
 30
0.0
 10
6.5640011004
 20
3.5334913709
 30
0.0
 10
6.5640179517
 20
3.5399572324
 30
0.0
 10
6.5640469068
 20
3.5488632142
 30
0.0
 10
6.5640921394
 20
3.5605233338
 30
0.0
 10
6.5641496196
 20
3.5734600821
 30
0.0
 10
6.564214853
 20
3.5876423164
 30
0.0
 10
6.5642778338
 20
3.603035704
 30
0.0
 10
6.5643284984
 20
3.6196032306
 30
0.0
 10
6.5643623973
 20
3.6373050337
 30
0.0
 10
6.5643936836
 20
3.6560982942
 30
0.0
 10
6.5644490521
 20
3.6832055604
 30
0.0
 10
6.5645425073
 20
3.7116097052
 30
0.0
 10
6.5646128594
 20
3.7412427394
 30
0.0
 10
6.5646497135
 20
3.773115717
 30
0.0
 10
6.5646380063
 20
3.8147694846
 30
0.0
 10
6.5646045409
 20
3.8666419122
 30
0.0
 10
6.5645557554
 20
3.9113031805
 30
0.0
 10
6.5644915935
 20
3.9479805435
 30
0.0
 10
6.5644223978
 20
3.9760489597
 30
0.0
 10
6.5643246766
 20
4.0043963768
 30
0.0
 10
6.5641513276
 20
4.042538683
 30
0.0
 10
6.5639965094
 20
4.0712240651
 30
0.0
 10
6.5638993592
 20
4.0903822344
 30
0.0
  0
SPLINE
  5
352
100
AcDbEntity
  8
ALL_ASSEMBLY_MEMBERS
100
AcDbSpline
 62
7
  6
CONTINUOUS
 70
0
 71
3
 72
55
 73
51
 74
0
 42
0.0000001
 43
0.0000001
 44
0.0000000001
 40
0.0
 40
0.0
 40
0.0
 40
0.0
 40
0.0160673927
 40
0.0321493685
 40
0.0482118867
 40
0.064237139
 40
0.080225099
 40
0.0961795635
 40
0.1120986542
 40
0.1279771184
 40
0.1438146531
 40
0.1596364942
 40
0.17546047
 40
0.1912869758
 40
0.2071071234
 40
0.2229338999
 40
0.2387809642
 40
0.2546536826
 40
0.2864697164
 40
0.3024197823
 40
0.3183964389
 40
0.3343985291
 40
0.3504228102
 40
0.3584417815
 40
0.3664642058
 40
0.3744893004
 40
0.382515272
 40
0.3865277552
 40
0.3905396716
 40
0.3985655049
 40
0.4065970123
 40
0.4146322683
 40
0.4226675668
 40
0.4307010425
 40
0.4467643027
 40
0.4628258796
 40
0.4788859198
 40
0.4949424157
 40
0.5109946416
 40
0.5430861814
 40
0.5751573625
 40
0.6072038474
 40
0.6392235263
 40
0.6712134548
 40
0.7031447687
 40
0.7663673893
 40
0.8282114939
 40
0.8881228197
 40
0.9455567275
 40
1.0
 40
1.0
 40
1.0
 40
1.0
 10
3.9391841373
 20
3.5999887127
 30
0.0
 10
3.9430385746
 20
3.6143736682
 30
0.0
 10
3.9516481771
 20
3.6429258711
 30
0.0
 10
3.9673436513
 20
3.6848001837
 30
0.0
 10
3.9859263349
 20
3.72543977
 30
0.0
 10
4.0074804497
 20
3.7644930137
 30
0.0
 10
4.0320869389
 20
3.8015819671
 30
0.0
 10
4.0595228286
 20
3.8365012254
 30
0.0
 10
4.0895642714
 20
3.8690665436
 30
0.0
 10
4.1219922047
 20
3.8990979746
 30
0.0
 10
4.1566197125
 20
3.9264148682
 30
0.0
 10
4.1931266461
 20
3.9510618308
 30
0.0
 10
4.2312209186
 20
3.9731453889
 30
0.0
 10
4.2706285866
 20
3.9927754967
 30
0.0
 10
4.311112687
 20
4.0100732279
 30
0.0
 10
4.3524759159
 20
4.0251914945
 30
0.0
 10
4.3945628989
 20
4.0383144295
 30
0.0
 10
4.4515115718
 20
4.0533665847
 30
0.0
 10
4.5093951827
 20
4.0650272814
 30
0.0
 10
4.5678165716
 20
4.073867673
 30
0.0
 10
4.6119245259
 20
4.0792125131
 30
0.0
 10
4.6562267337
 20
4.0833735711
 30
0.0
 10
4.6932584575
 20
4.0859395101
 30
0.0
 10
4.7229385058
 20
4.0875025533
 30
0.0
 10
4.7452256812
 20
4.088441647
 30
0.0
 10
4.7675274781
 20
4.0891598514
 30
0.0
 10
4.7861194321
 20
4.0895777247
 30
0.0
 10
4.8009944281
 20
4.0898014829
 30
0.0
 10
4.8158702326
 20
4.0899505604
 30
0.0
 10
4.8344717908
 20
4.0900297515
 30
0.0
 10
4.8568025237
 20
4.0900437955
 30
0.0
 10
4.8791420239
 20
4.0900251159
 30
0.0
 10
4.9014833449
 20
4.0900063601
 30
0.0
 10
4.931265601
 20
4.0900036017
 30
0.0
 10
4.9684871767
 20
4.0900203058
 30
0.0
 10
5.0131483473
 20
4.0900264344
 30
0.0
 10
5.0578032468
 20
4.0900169213
 30
0.0
 10
5.1024494798
 20
4.0900131323
 30
0.0
 10
5.1619548464
 20
4.0900162837
 30
0.0
 10
5.2363037618
 20
4.0900186009
 30
0.0
 10
5.3254772935
 20
4.0900178336
 30
0.0
 10
5.4145842193
 20
4.0900176588
 30
0.0
 10
5.5036158345
 20
4.0900178918
 30
0.0
 10
5.5925407011
 20
4.0900178749
 30
0.0
 10
5.7103866724
 20
4.0900178622
 30
0.0
 10
5.8559036164
 20
4.0900178726
 30
0.0
 10
6.0273544246
 20
4.0900178679
 30
0.0
 10
6.1934398423
 20
4.0900178696
 30
0.0
 10
6.3526656426
 20
4.0900178688
 30
0.0
 10
6.4563613669
 20
4.0900178691
 30
0.0
 10
6.5068232624
 20
4.0900178691
 30
0.0
  0
SPLINE
  5
353
100
AcDbEntity
  8
ALL_ASSEMBLY_MEMBERS
100
AcDbSpline
 62
7
  6
CONTINUOUS
 70
0
 71
3
 72
52
 73
48
 74
0
 42
0.0000001
 43
0.0000001
 44
0.0000000001
 40
0.0
 40
0.0
 40
0.0
 40
0.0
 40
0.0000046699
 40
0.0000187785
 40
0.0000423241
 40
0.000075305
 40
0.0001177192
 40
0.0001695648
 40
0.0003015421
 40
0.0004712216
 40
0.0006785877
 40
0.0009236251
 40
0.0012063182
 40
0.0018846106
 40
0.0027133424
 40
0.0036923919
 40
0.0048216383
 40
0.006100961
 40
0.0075302404
 40
0.0091093575
 40
0.010838194
 40
0.0147444152
 40
0.0192463763
 40
0.0243406772
 40
0.0300238996
 40
0.0362926217
 40
0.0431434204
 40
0.0505728625
 40
0.0585766912
 40
0.076284692
 40
0.0962210976
 40
0.1183392142
 40
0.1425849131
 40
0.1688952027
 40
0.1972065562
 40
0.2274510555
 40
0.293430196
 40
0.3661901564
 40
0.4048905852
 40
0.4450151685
 40
0.5291452019
 40
0.6177789558
 40
0.7100612791
 40
0.8051219002
 40
0.8534270575
 40
0.9020981305
 40
1.0
 40
1.0
 40
1.0
 40
1.0
 10
6.506822434
 20
3.5216578686
 30
0.0
 10
6.5068231836
 20
3.5216573987
 30
0.0
 10
6.5068215547
 20
3.5216642656
 30
0.0
 10
6.5068233897
 20
3.5216690712
 30
0.0
 10
6.5068226879
 20
3.5216842856
 30
0.0
 10
6.5068234394
 20
3.5217022157
 30
0.0
 10
6.5068236805
 20
3.521726633
 30
0.0
 10
6.50682445
 20
3.5217693388
 30
0.0
 10
6.5068254219
 20
3.5218364016
 30
0.0
 10
6.5068268353
 20
3.5219327848
 30
0.0
 10
6.506828436
 20
3.5220506452
 30
0.0
 10
6.5068302391
 20
3.522189895
 30
0.0
 10
6.5068330327
 20
3.5224183655
 30
0.0
 10
6.5068368194
 20
3.5227574114
 30
0.0
 10
6.5068414713
 20
3.5232283846
 30
0.0
 10
6.5068462601
 20
3.5237847943
 30
0.0
 10
6.506850976
 20
3.5244265736
 30
0.0
 10
6.5068554096
 20
3.5251536543
 30
0.0
 10
6.5068593519
 20
3.5259659686
 30
0.0
 10
6.5068625905
 20
3.5268634486
 30
0.0
 10
6.5068658434
 20
3.5282301962
 30
0.0
 10
6.5068665728
 20
3.5301506921
 30
0.0
 10
6.5068630864
 20
3.5327087838
 30
0.0
 10
6.5068562307
 20
3.5356035287
 30
0.0
 10
6.5068468107
 20
3.5388329868
 30
0.0
 10
6.5068357011
 20
3.5423952161
 30
0.0
 10
6.5068237512
 20
3.5462882718
 30
0.0
 10
6.5068118784
 20
3.5505100515
 30
0.0
 10
6.5067964954
 20
3.5567887645
 30
0.0
 10
6.5067796755
 20
3.5654369692
 30
0.0
 10
6.5067642984
 20
3.5767591821
 30
0.0
 10
6.5067549889
 20
3.5893199918
 30
0.0
 10
6.5067487451
 20
3.603088358
 30
0.0
 10
6.506736986
 20
3.6180300526
 30
0.0
 10
6.5067112404
 20
3.6341082275
 30
0.0
 10
6.5066517972
 20
3.6577017488
 30
0.0
 10
6.5065769808
 20
3.6897162253
 30
0.0
 10
6.5065852259
 20
3.7233327952
 30
0.0
 10
6.5065885817
 20
3.752051105
 30
0.0
 10
6.5065729144
 20
3.7829235164
 30
0.0
 10
6.5065317985
 20
3.8232559557
 30
0.0
 10
6.5065299622
 20
3.8734698945
 30
0.0
 10
6.5065804165
 20
3.9257546437
 30
0.0
 10
6.5066526971
 20
3.9703989565
 30
0.0
 10
6.5067011988
 20
4.0067809897
 30
0.0
 10
6.5067397864
 20
4.0437013167
 30
0.0
 10
6.5067777291
 20
4.0714700672
 30
0.0
 10
6.5068232084
 20
4.0900178688
 30
0.0
  0
ENDSEC
  0
SECTION
  2
OBJECTS
  0
DICTIONARY
  5
C
100
AcDbDictionary
280
0
281
1
  3
ACAD_GROUP
350
D
  3
ACAD_MLINESTYLE
350
17
  3
ACAD_LAYOUT
350
1A
  3
ACAD_PLOTSETTINGS
350
19
  3
ACAD_PLOTSTYLENAME
350
E
  0
DICTIONARY
  5
D
102
{ACAD_REACTORS
330
C
102
}
100
AcDbDictionary
280
0
281
1
  0
ACDBDICTIONARYWDFLT
  5
E
102
{ACAD_REACTORS
330
C
102
}
100
AcDbDictionary
281
1
  3
Normal
350
F
100
AcDbDictionaryWithDefault
340
F
  0
DICTIONARY
  5
17
102
{ACAD_REACTORS
330
C
102
}
100
AcDbDictionary
280
0
281
1
  3
Standard
350
18
  0
DICTIONARY
  5
19
102
{ACAD_REACTORS
330
C
102
}
100
AcDbDictionary
281
1
  0
DICTIONARY
  5
1A
102
{ACAD_REACTORS
330
C
102
}
100
AcDbDictionary
281
1
  3
Model
350
354
  3
Layout1
350
355
  0
ACDBPLACEHOLDER
  5
F
102
{ACAD_REACTORS
330
E
102
}
  0
MLINESTYLE
  5
18
102
{ACAD_REACTORS
330
17
102
}
100
AcDbMlineStyle
  2
STANDARD
 70
0
  3

 62
256
 51
90.0
 52
90.0
 71
2
 49
0.5
 62
256
  6
BYLAYER
 49
-0.5
 62
256
  6
BYLAYER
  0
LAYOUT
  5
354
102
{ACAD_REACTORS
330
1A
102
}
100
AcDbPlotSettings
  1

  2
none_device
  4
ANSI_A_(11.00_x_8.50_Inches)
  6

 40
0.0
 41
0.0
 42
0.0
 43
0.0
 44
279.4
 45
215.9
 46
0.0
 47
0.0
 48
0.0
 49
0.0
140
0.0
141
0.0
142
1.0
143
1.0
 70
1024
 72
0
 73
0
 74
0
  7

 75
0
147
1.0
148
0.0
149
0.0
100
AcDbLayout
  1
Model
 70
0
 71
0
 10
0.0
 20
0.0
 11
11.0
 21
8.5
 12
0.0
 22
0.0
 32
0.0
 14
0.0
 24
0.0
 34
0.0
 15
0.0
 25
0.0
 35
0.0
146
0.0
 13
0.0
 23
0.0
 33
0.0
 16
1.0
 26
0.0
 36
0.0
 17
0.0
 27
1.0
 37
0.0
 76
0
330
216
345
0
346
0
  0
LAYOUT
  5
355
102
{ACAD_REACTORS
330
1A
102
}
100
AcDbPlotSettings
  1

  2
none_device
  4
ANSI_A_(11.00_x_8.50_Inches)
  6

 40
0.0
 41
0.0
 42
0.0
 43
0.0
 44
279.4
 45
215.9
 46
0.0
 47
0.0
 48
0.0
 49
0.0
140
0.0
141
0.0
142
1.0
143
1.0
 70
0
 72
0
 73
0
 74
0
  7

 75
0
147
1.0
148
0.0
149
0.0
100
AcDbLayout
  1
Layout1
 70
0
 71
1
 10
0.0
 20
0.0
 11
11.0
 21
8.5
 12
0.0
 22
0.0
 32
0.0
 14
0.0
 24
0.0
 34
0.0
 15
0.0
 25
0.0
 35
0.0
146
0.0
 13
0.0
 23
0.0
 33
0.0
 16
1.0
 26
0.0
 36
0.0
 17
0.0
 27
1.0
 37
0.0
 76
0
330
217
345
0
346
0
  0
ENDSEC
  0
EOF
