999
DXF file: 2-260_Front.dxf
999
Pro/ENGINEER 2023134 by Parametric Technology Corporation
  0
SECTION
  2
HEADER
  9
$ACADVER
  1
AC1032
  9
$DWGCODEPAGE
  3
ANSI_1252
  9
$EXTMAX
 10
11.0
 20
8.5
 30
0.0
  9
$EXTMIN
 10
0.0
 20
0.0
 30
0.0
  9
$LIMMIN
 10
0.0
 20
0.0
  9
$LIMMAX
 10
11.0
 20
8.5
  9
$VIEWCTR
 10
5.5
 20
4.25
  9
$VIEWSIZE
 40
8.5
  9
$CLAYER
  8
0
  9
$LTSCALE
 40
0.605
  9
$CELTYPE
  6
BYLAYER
  9
$DIMSCALE
 40
1.0
  9
$DIMASZ
 40
0.1
  9
$DIMEXO
 40
0.0625
  9
$DIMDLI
 40
0.418
  9
$DIMEXE
 40
0.125
  9
$DIMCEN
 40
0.099
  9
$DIMLFAC
 40
1.0
  9
$DIMBLK
  1
_FILLED
  9
$DIMALT
 70
1
  9
$DIMALTD
 70
2
  9
$DIMALTTD
 70
2
  9
$DIMALTF
 40
25.4
  9
$DIMTXT
 40
0.08
  9
$DIMTOL
 70
1
  9
$DIMLIM
 70
0
  9
$DIMTFAC
 40
1.0
  9
$DIMTP
 40
0.001
  9
$DIMTM
 40
0.001
  9
$DIMGAP
 40
0.09
  9
$DIMDSEP
 70
46
  9
$AUNITS
 70
0
  9
$PDMODE
 70
3
  9
$PDSIZE
 40
0.3125
  9
$HANDSEED
  5
35D
  9
$TILEMODE
 70
1
  9
$MEASUREMENT
 70
0
  9
$INSUNITS
 70
1
  0
ENDSEC
  0
SECTION
  2
CLASSES
  0
CLASS
  1
ACDBDICTIONARYWDFLT
  2
AcDbDictionaryWithDefault
  3
AutoCAD 2000
 90
0
 91
1
280
0
281
0
  0
CLASS
  1
ACDBPLACEHOLDER
  2
AcDbPlaceHolder
  3
AutoCAD 2000
 90
0
 91
1
280
0
281
0
  0
CLASS
  1
LAYOUT
  2
AcDbLayout
  3
AutoCAD 2000
 90
0
 91
0
280
0
281
0
  0
ENDSEC
  0
SECTION
  2
TABLES
  0
TABLE
  2
VPORT
  5
8
100
AcDbSymbolTable
 70
2
  0
VPORT
  5
1F4
100
AcDbSymbolTableRecord
100
AcDbViewportTableRecord
  2
*ACTIVE
 70
0
 10
0.0
 20
0.0
 11
1.0
 21
1.0
 12
5.5
 22
4.25
 13
0.0
 23
0.0
 14
1.0
 24
1.0
 15
0.0
 25
0.0
 16
0.0
 26
0.0
 36
1.0
 17
0.0
 27
0.0
 37
0.0
 40
8.5
 41
1.2941176471
 42
50.0
 43
0.0
 44
0.0
 50
0.0
 51
0.0
 71
0
 72
100
 73
1
 74
1
 75
0
 76
0
 77
0
 78
0
  0
ENDTAB
  0
TABLE
  2
LTYPE
  5
5
100
AcDbSymbolTable
 70
6
  0
LTYPE
  5
14
100
AcDbSymbolTableRecord
100
AcDbLinetypeTableRecord
  2
BYBLOCK
 70
0
  3

 72
65
 73
0
 40
0.0
  0
LTYPE
  5
15
100
AcDbSymbolTableRecord
100
AcDbLinetypeTableRecord
  2
BYLAYER
 70
0
  3

 72
65
 73
0
 40
0.0
  0
LTYPE
  5
16
100
AcDbSymbolTableRecord
100
AcDbLinetypeTableRecord
  2
CONTINUOUS
 70
64
  3
Solid line
 72
65
 73
0
 40
0.0
  0
LTYPE
  5
1F5
100
AcDbSymbolTableRecord
100
AcDbLinetypeTableRecord
  2
CENTER
 70
64
  3
____ _ ____ _ ____ _ ____ _ ____ _ ____ _ ____
 72
65
 73
4
 40
0.6
 49
0.375
 74
0
 49
-0.075
 74
0
 49
0.075
 74
0
 49
-0.075
 74
0
  0
LTYPE
  5
1F6
100
AcDbSymbolTableRecord
100
AcDbLinetypeTableRecord
  2
HIDDEN
 70
64
  3
- - - - - - - - - - - - - - - - - - - -
 72
65
 73
2
 40
0.2
 49
0.1
 74
0
 49
-0.1
 74
0
  0
LTYPE
  5
1F7
100
AcDbSymbolTableRecord
100
AcDbLinetypeTableRecord
  2
PHANTOM
 70
64
  3
_____ _ _ _____ _ _ _____ _ _ _____
 72
65
 73
6
 40
0.8
 49
0.45
 74
0
 49
-0.05
 74
0
 49
0.1
 74
0
 49
-0.05
 74
0
 49
0.1
 74
0
 49
-0.05
 74
0
  0
LTYPE
  5
1F8
100
AcDbSymbolTableRecord
100
AcDbLinetypeTableRecord
  2
DOT
 70
64
  3
. . . . . . . . . . . . . . . . . . . .
 72
65
 73
2
 40
0.2
 49
0.1
 74
0
 49
-0.1
 74
0
  0
LTYPE
  5
1F9
100
AcDbSymbolTableRecord
100
AcDbLinetypeTableRecord
  2
DASHED
 70
64
  3
- - - - - - - - - - - - - - - - - - - -
 72
65
 73
2
 40
0.2
 49
0.1
 74
0
 49
-0.1
 74
0
  0
ENDTAB
  0
TABLE
  2
LAYER
  5
2
100
AcDbSymbolTable
 70
36
  0
LAYER
  5
10
100
AcDbSymbolTableRecord
100
AcDbLayerTableRecord
  2
0
 70
0
 62
7
  6
CONTINUOUS
370
-3
390
F
  0
LAYER
  5
1FA
100
AcDbSymbolTableRecord
100
AcDbLayerTableRecord
  2
DEFAULT_1
 70
0
 62
7
  6
CENTER
370
-3
390
F
  0
LAYER
  5
1FB
100
AcDbSymbolTableRecord
100
AcDbLayerTableRecord
  2
DEFAULT_2
 70
0
 62
8
  6
HIDDEN
370
-3
390
F
  0
LAYER
  5
1FC
100
AcDbSymbolTableRecord
100
AcDbLayerTableRecord
  2
DEFAULT_3
 70
0
 62
7
  6
PHANTOM
370
-3
390
F
  0
LAYER
  5
1FD
100
AcDbSymbolTableRecord
100
AcDbLayerTableRecord
  2
DEFAULT_COORDINATE_SYSTEM
 70
0
 62
7
  6
CONTINUOUS
370
-3
390
F
  0
LAYER
  5
1FE
100
AcDbSymbolTableRecord
100
AcDbLayerTableRecord
  2
DEFAULT_DATUM_AXES
 70
0
 62
7
  6
CONTINUOUS
370
-3
390
F
  0
LAYER
  5
1FF
100
AcDbSymbolTableRecord
100
AcDbLayerTableRecord
  2
DEFAULT_DATUM_CURVES
 70
0
 62
7
  6
CONTINUOUS
370
-3
390
F
  0
LAYER
  5
200
100
AcDbSymbolTableRecord
100
AcDbLayerTableRecord
  2
DEFAULT_DATUM_PLANES
 70
0
 62
7
  6
CONTINUOUS
370
-3
390
F
  0
ENDTAB
  0
TABLE
  2
STYLE
  5
3
100
AcDbSymbolTable
 70
1
  0
STYLE
  5
11
100
AcDbSymbolTableRecord
100
AcDbTextStyleTableRecord
  2
STANDARD
 70
0
 40
0.0
 41
0.8
 50
0.0
 71
0
 42
0.2
  3
txt
  4

  0
STYLE
  5
201
100
AcDbSymbolTableRecord
100
AcDbTextStyleTableRecord
  2
TEXTSTYLE_1
 70
0
 40
0.0
 41
0.8
 50
0.0
 71
0
 42
0.2
  3
gdt
  4

  0
ENDTAB
  0
TABLE
  2
VIEW
  5
6
100
AcDbSymbolTable
 70
0
  0
ENDTAB
  0
TABLE
  2
UCS
  5
7
100
AcDbSymbolTable
 70
0
  0
ENDTAB
  0
TABLE
  2
APPID
  5
9
100
AcDbSymbolTable
 70
1
  0
APPID
  5
202
100
AcDbSymbolTableRecord
100
AcDbRegAppTableRecord
  2
ACAD
 70
0
  0
ENDTAB
  0
TABLE
  2
BLOCK_RECORD
  5
1
100
AcDbSymbolTable
 70
0
  0
BLOCK_RECORD
  5
203
100
AcDbSymbolTableRecord
100
AcDbBlockTableRecord
  2
*Model_Space
  0
BLOCK_RECORD
  5
204
100
AcDbSymbolTableRecord
100
AcDbBlockTableRecord
  2
*Paper_Space
  0
BLOCK_RECORD
  5
205
100
AcDbSymbolTableRecord
100
AcDbBlockTableRecord
  2
_FILLED
  0
ENDTAB
  0
TABLE
  2
DIMSTYLE
  5
A
100
AcDbSymbolTable
 70
1
100
AcDbDimStyleTable
 71
0
  0
DIMSTYLE
105
206
100
AcDbSymbolTableRecord
100
AcDbDimStyleTableRecord
  2
STANDARD
 70
0
  3

  4

 40
1.0
 41
0.1
 42
0.0625
 43
0.38
 44
0.125
 45
0.0
 46
0.0
 47
0.001
 48
0.001
140
0.08
141
0.09
142
0.0
143
25.4
144
1.0
145
0.0
146
1.0
147
0.09
 71
1
 72
0
 73
1
 74
1
 75
0
 76
0
 77
0
 78
4
 79
1
170
1
171
2
172
0
173
0
174
0
175
0
176
0
177
0
178
0
270
2
179
3
271
3
272
3
273
2
274
2
275
0
280
0
281
0
282
0
283
1
284
4
285
0
286
0
287
3
288
0
340
11
278
46
341
205
342
205
343
205
344
205
  0
ENDTAB
  0
ENDSEC
  0
SECTION
  2
BLOCKS
  0
BLOCK
  5
20
100
AcDbEntity
  8
0
100
AcDbBlockBegin
  2
*Model_Space
 70
0
 10
0.0
 20
0.0
 30
0.0
  3
*Model_Space
  1

  0
ENDBLK
  5
21
100
AcDbEntity
  8
0
100
AcDbBlockEnd
  0
BLOCK
  5
1C
100
AcDbEntity
  8
0
100
AcDbBlockBegin
  2
*Paper_Space
 70
0
 10
0.0
 20
0.0
 30
0.0
  3
*Paper_Space
  1

  0
ENDBLK
  5
1D
100
AcDbEntity
  8
0
100
AcDbBlockEnd
  0
BLOCK
  5
207
100
AcDbEntity
  8
0
100
AcDbBlockBegin
  2
_FILLED
 70
64
 10
0.0
 20
0.0
  3
_FILLED
  1

  0
SOLID
  5
208
100
AcDbEntity
  8
0
  6
BYBLOCK
 62
0
100
AcDbTrace
 10
0.0
 20
0.0
 11
-1.0
 21
0.2
 12
-1.0
 22
-0.2
 13
-1.0
 23
-0.2
  0
ENDBLK
  5
209
100
AcDbEntity
  8
0
  6
BYBLOCK
 62
0
100
AcDbBlockEnd
  0
ENDSEC
  0
SECTION
  2
ENTITIES
  0
MTEXT
  5
20A
100
AcDbEntity
  8
0
100
AcDbMText
 62
2
  6
CONTINUOUS
  7
STANDARD
 71
2
 72
1
 10
5.5481627747
 20
1.6626800803
 30
0.0
 11
1.0
 21
0.0
 31
0.0
 73
2
 44
0.9
  1
SCALE 2.000
 40
0.08
 41
0.704
  0
LINE
  5
20B
100
AcDbEntity
  8
0
100
AcDbLine
 62
7
  6
CONTINUOUS
 10
0.0
 20
0.0
 11
0.0
 21
8.5
  0
LINE
  5
20C
100
AcDbEntity
  8
0
100
AcDbLine
 62
7
  6
CONTINUOUS
 10
0.0
 20
0.0
 11
11.0
 21
0.0
  0
LINE
  5
20D
100
AcDbEntity
  8
0
100
AcDbLine
 62
7
  6
CONTINUOUS
 10
0.0
 20
8.5
 11
11.0
 21
8.5
  0
LINE
  5
20E
100
AcDbEntity
  8
0
100
AcDbLine
 62
7
  6
CONTINUOUS
 10
11.0
 20
0.0
 11
11.0
 21
8.5
  0
LINE
  5
20F
100
AcDbEntity
  8
0
100
AcDbLine
 62
7
  6
CONTINUOUS
 10
3.5508317308
 20
2.1684802176
 11
7.4888317308
 21
2.1684802176
  0
LINE
  5
210
100
AcDbEntity
  8
0
100
AcDbLine
 62
7
  6
CONTINUOUS
 10
3.5508317308
 20
4.7920802176
 11
3.5508317308
 21
2.1684802176
  0
LINE
  5
211
100
AcDbEntity
  8
0
100
AcDbLine
 62
7
  6
CONTINUOUS
 10
5.2576368173
 20
7.1112616821
 11
5.2598317308
 21
7.1134565956
  0
LINE
  5
212
100
AcDbEntity
  8
0
100
AcDbLine
 62
7
  6
CONTINUOUS
 10
4.1758323729
 20
5.4360802176
 11
4.1618317308
 21
5.4220795784
  0
LINE
  5
213
100
AcDbEntity
  8
0
100
AcDbLine
 62
7
  6
CONTINUOUS
 10
3.5648317308
 20
4.8060802176
 11
3.5508317308
 21
4.7920802176
  0
LINE
  5
214
100
AcDbEntity
  8
0
100
AcDbLine
 62
7
  6
CONTINUOUS
 10
5.1661309434
 20
6.4047951782
 11
5.1261309434
 21
6.3647951782
  0
LINE
  5
215
100
AcDbEntity
  8
0
100
AcDbLine
 62
7
  6
CONTINUOUS
 10
4.8698317308
 20
6.0884802176
 11
4.7419908885
 21
6.029476752
  0
LINE
  5
216
100
AcDbEntity
  8
0
100
AcDbLine
 62
7
  6
CONTINUOUS
 10
4.7420357782
 20
6.0293930449
 11
4.7400335332
 21
6.0284802176
  0
LINE
  5
217
100
AcDbEntity
  8
0
100
AcDbLine
 62
7
  6
CONTINUOUS
 10
4.1618317308
 20
5.4220795784
 11
4.1618317308
 21
4.8060802176
  0
LINE
  5
218
100
AcDbEntity
  8
0
100
AcDbLine
 62
7
  6
CONTINUOUS
 10
5.7758317308
 20
6.4835353357
 11
5.7820266442
 21
6.4897302492
  0
LINE
  5
219
100
AcDbEntity
  8
0
100
AcDbLine
 62
7
  6
CONTINUOUS
 10
4.7398317308
 20
6.0284802176
 11
4.7398317308
 21
5.4360802176
  0
LINE
  5
21A
100
AcDbEntity
  8
0
100
AcDbLine
 62
7
  6
CONTINUOUS
 10
4.7400335332
 20
6.0284802176
 11
4.7400335332
 21
5.4684802176
  0
LINE
  5
21B
100
AcDbEntity
  8
0
100
AcDbLine
 62
7
  6
CONTINUOUS
 10
4.7424508275
 20
6.0284802176
 11
4.7424508275
 21
5.4684802176
  0
LINE
  5
21C
100
AcDbEntity
  8
0
100
AcDbLine
 62
7
  6
CONTINUOUS
 10
4.7461598711
 20
6.0284802176
 11
4.7461598711
 21
5.4684802176
  0
LINE
  5
21D
100
AcDbEntity
  8
0
100
AcDbLine
 62
7
  6
CONTINUOUS
 10
4.7533852696
 20
6.0284802176
 11
4.7533852696
 21
5.4684802176
  0
LINE
  5
21E
100
AcDbEntity
  8
0
100
AcDbLine
 62
7
  6
CONTINUOUS
 10
4.7607627199
 20
6.0284802176
 11
4.7607627199
 21
5.4684802176
  0
LINE
  5
21F
100
AcDbEntity
  8
0
100
AcDbLine
 62
7
  6
CONTINUOUS
 10
4.7727170595
 20
6.0284802176
 11
4.7727170595
 21
5.4684802176
  0
LINE
  5
220
100
AcDbEntity
  8
0
100
AcDbLine
 62
7
  6
CONTINUOUS
 10
4.7836820876
 20
6.0284802176
 11
4.7836820876
 21
5.4684802176
  0
LINE
  5
221
100
AcDbEntity
  8
0
100
AcDbLine
 62
7
  6
CONTINUOUS
 10
4.8002343942
 20
6.0284802176
 11
4.8002343942
 21
5.4684802176
  0
LINE
  5
222
100
AcDbEntity
  8
0
100
AcDbLine
 62
7
  6
CONTINUOUS
 10
4.8146668648
 20
6.0284802176
 11
4.8146668648
 21
5.4684802176
  0
LINE
  5
223
100
AcDbEntity
  8
0
100
AcDbLine
 62
7
  6
CONTINUOUS
 10
4.8356357878
 20
6.0284802176
 11
4.8356357878
 21
5.4684802176
  0
LINE
  5
224
100
AcDbEntity
  8
0
100
AcDbLine
 62
7
  6
CONTINUOUS
 10
4.8494564627
 20
5.4220802176
 11
4.8494564627
 21
4.8060802176
  0
LINE
  5
225
100
AcDbEntity
  8
0
100
AcDbLine
 62
7
  6
CONTINUOUS
 10
4.8533775759
 20
6.0284802176
 11
4.8533775759
 21
5.4684802176
  0
LINE
  5
226
100
AcDbEntity
  8
0
100
AcDbLine
 62
7
  6
CONTINUOUS
 10
4.8698317308
 20
6.1684802176
 11
4.8698317308
 21
6.0884802176
  0
LINE
  5
227
100
AcDbEntity
  8
0
100
AcDbLine
 62
7
  6
CONTINUOUS
 10
4.8785333754
 20
6.0284802176
 11
4.8785333754
 21
5.4684802176
  0
LINE
  5
228
100
AcDbEntity
  8
0
100
AcDbLine
 62
7
  6
CONTINUOUS
 10
4.8993900981
 20
6.0284802176
 11
4.8993900981
 21
5.4684802176
  0
LINE
  5
229
100
AcDbEntity
  8
0
100
AcDbLine
 62
7
  6
CONTINUOUS
 10
4.9284571619
 20
6.0284802176
 11
4.9284571619
 21
5.4684802176
  0
LINE
  5
22A
100
AcDbEntity
  8
0
100
AcDbLine
 62
7
  6
CONTINUOUS
 10
4.9363317308
 20
6.1884802176
 11
4.9363317308
 21
6.2244802176
  0
LINE
  5
22B
100
AcDbEntity
  8
0
100
AcDbLine
 62
7
  6
CONTINUOUS
 10
4.9522003087
 20
6.0284802176
 11
4.9522003087
 21
5.4684802176
  0
LINE
  5
22C
100
AcDbEntity
  8
0
100
AcDbLine
 62
7
  6
CONTINUOUS
 10
4.984860172
 20
6.0284802176
 11
4.984860172
 21
5.4684802176
  0
LINE
  5
22D
100
AcDbEntity
  8
0
100
AcDbLine
 62
7
  6
CONTINUOUS
 10
5.011229608
 20
6.0284802176
 11
5.011229608
 21
5.4684802176
  0
LINE
  5
22E
100
AcDbEntity
  8
0
100
AcDbLine
 62
7
  6
CONTINUOUS
 10
5.0471244424
 20
6.0284802176
 11
5.0471244424
 21
5.4684802176
  0
LINE
  5
22F
100
AcDbEntity
  8
0
100
AcDbLine
 62
7
  6
CONTINUOUS
 10
5.0758312585
 20
6.0284802176
 11
5.0758312585
 21
5.4684802176
  0
LINE
  5
230
100
AcDbEntity
  8
0
100
AcDbLine
 62
7
  6
CONTINUOUS
 10
5.1145677928
 20
6.0284802176
 11
5.1145677928
 21
5.4684802176
  0
LINE
  5
231
100
AcDbEntity
  8
0
100
AcDbLine
 62
7
  6
CONTINUOUS
 10
5.1261309434
 20
6.3647951782
 11
5.1261309434
 21
6.2473148633
  0
LINE
  5
232
100
AcDbEntity
  8
0
100
AcDbLine
 62
7
  6
CONTINUOUS
 10
5.1452974712
 20
6.0284802176
 11
5.1452974712
 21
5.4684802176
  0
LINE
  5
233
100
AcDbEntity
  8
0
100
AcDbLine
 62
7
  6
CONTINUOUS
 10
5.1840340054
 20
6.0470995816
 11
5.1840340054
 21
5.4684802176
  0
LINE
  5
234
100
AcDbEntity
  8
0
100
AcDbLine
 62
7
  6
CONTINUOUS
 10
5.1864512997
 20
6.0284802176
 11
5.1864512997
 21
5.4684802176
  0
LINE
  5
235
100
AcDbEntity
  8
0
100
AcDbLine
 62
7
  6
CONTINUOUS
 10
5.2188671595
 20
6.0284802176
 11
5.2188671595
 21
5.4684802176
  0
LINE
  5
236
100
AcDbEntity
  8
0
100
AcDbLine
 62
7
  6
CONTINUOUS
 10
5.2245561402
 20
6.2473148633
 11
5.2245561402
 21
6.2444802176
  0
LINE
  5
237
100
AcDbEntity
  8
0
100
AcDbLine
 62
7
  6
CONTINUOUS
 10
5.2246938014
 20
6.5245061081
 11
5.2246938014
 21
7.0764858232
  0
LINE
  5
238
100
AcDbEntity
  8
0
100
AcDbLine
 62
7
  6
CONTINUOUS
 10
5.2289589281
 20
6.5245061081
 11
5.2289589281
 21
7.0764858232
  0
LINE
  5
239
100
AcDbEntity
  8
0
100
AcDbLine
 62
7
  6
CONTINUOUS
 10
5.2493188316
 20
6.5245061081
 11
5.2493188316
 21
7.0764858232
  0
LINE
  5
23A
100
AcDbEntity
  8
0
100
AcDbLine
 62
7
  6
CONTINUOUS
 10
5.2547619939
 20
6.0470995816
 11
5.2547619939
 21
5.4684802176
  0
LINE
  5
23B
100
AcDbEntity
  8
0
100
AcDbLine
 62
7
  6
CONTINUOUS
 10
5.2616967113
 20
6.5245061081
 11
5.2616967113
 21
7.0764858232
  0
LINE
  5
23C
100
AcDbEntity
  8
0
100
AcDbLine
 62
7
  6
CONTINUOUS
 10
5.2619873924
 20
6.0284802176
 11
5.2619873924
 21
5.4684802176
  0
LINE
  5
23D
100
AcDbEntity
  8
0
100
AcDbLine
 62
7
  6
CONTINUOUS
 10
5.2638317308
 20
6.4835353357
 11
5.2638317308
 21
6.4047951782
  0
LINE
  5
23E
100
AcDbEntity
  8
0
100
AcDbLine
 62
7
  6
CONTINUOUS
 10
5.2957342787
 20
6.0284802176
 11
5.2957342787
 21
5.4684802176
  0
LINE
  5
23F
100
AcDbEntity
  8
0
100
AcDbLine
 62
7
  6
CONTINUOUS
 10
5.3004235491
 20
6.5245061081
 11
5.3004235491
 21
7.0764858232
  0
LINE
  5
240
100
AcDbEntity
  8
0
100
AcDbLine
 62
7
  6
CONTINUOUS
 10
5.3197025488
 20
6.5245061081
 11
5.3197025488
 21
7.0764858232
  0
LINE
  5
241
100
AcDbEntity
  8
0
100
AcDbLine
 62
7
  6
CONTINUOUS
 10
5.3283941419
 20
6.0470995816
 11
5.3283941419
 21
5.4684802176
  0
LINE
  5
242
100
AcDbEntity
  8
0
100
AcDbLine
 62
7
  6
CONTINUOUS
 10
5.3403484816
 20
6.0284802176
 11
5.3403484816
 21
5.4684802176
  0
LINE
  5
243
100
AcDbEntity
  8
0
100
AcDbLine
 62
7
  6
CONTINUOUS
 10
5.3657174274
 20
6.4897302492
 11
5.3657174274
 21
7.1112616821
  0
LINE
  5
244
100
AcDbEntity
  8
0
100
AcDbLine
 62
7
  6
CONTINUOUS
 10
5.3730054682
 20
6.5245061081
 11
5.3730054682
 21
7.0764858232
  0
LINE
  5
245
100
AcDbEntity
  8
0
100
AcDbLine
 62
7
  6
CONTINUOUS
 10
5.3750566565
 20
6.0284802176
 11
5.3750566565
 21
5.4684802176
  0
LINE
  5
246
100
AcDbEntity
  8
0
100
AcDbLine
 62
7
  6
CONTINUOUS
 10
5.397298425
 20
6.5245061081
 11
5.397298425
 21
7.0764858232
  0
LINE
  5
247
100
AcDbEntity
  8
0
100
AcDbLine
 62
7
  6
CONTINUOUS
 10
5.4041237202
 20
6.0470995816
 11
5.4041237202
 21
5.4684802176
  0
LINE
  5
248
100
AcDbEntity
  8
0
100
AcDbLine
 62
7
  6
CONTINUOUS
 10
5.4206760268
 20
6.0284802176
 11
5.4206760268
 21
5.4684802176
  0
LINE
  5
249
100
AcDbEntity
  8
0
100
AcDbLine
 62
7
  6
CONTINUOUS
 10
5.4388090467
 20
6.4897302492
 11
5.4388090467
 21
7.1112616821
  0
LINE
  5
24A
100
AcDbEntity
  8
0
100
AcDbLine
 62
7
  6
CONTINUOUS
 10
5.4559652202
 20
6.0284802176
 11
5.4559652202
 21
5.4684802176
  0
LINE
  5
24B
100
AcDbEntity
  8
0
100
AcDbLine
 62
7
  6
CONTINUOUS
 10
5.4599597648
 20
6.5245061081
 11
5.4599597648
 21
7.0764858232
  0
LINE
  5
24C
100
AcDbEntity
  8
0
100
AcDbLine
 62
7
  6
CONTINUOUS
 10
5.4811210197
 20
6.0470995816
 11
5.4811210197
 21
5.4684802176
  0
LINE
  5
24D
100
AcDbEntity
  8
0
100
AcDbLine
 62
7
  6
CONTINUOUS
 10
5.4868887149
 20
6.5245061081
 11
5.4868887149
 21
7.0764858232
  0
LINE
  5
24E
100
AcDbEntity
  8
0
100
AcDbLine
 62
7
  6
CONTINUOUS
 10
5.5020899427
 20
6.0284802176
 11
5.5020899427
 21
5.4684802176
  0
LINE
  5
24F
100
AcDbEntity
  8
0
100
AcDbLine
 62
7
  6
CONTINUOUS
 10
5.5198317308
 20
6.4897302492
 11
5.5198317308
 21
7.1112616821
  0
LINE
  5
250
100
AcDbEntity
  8
0
100
AcDbLine
 62
7
  6
CONTINUOUS
 10
5.5375735189
 20
6.0284802176
 11
5.5375735189
 21
5.4684802176
  0
LINE
  5
251
100
AcDbEntity
  8
0
100
AcDbLine
 62
7
  6
CONTINUOUS
 10
5.5527747467
 20
6.5245061081
 11
5.5527747467
 21
7.0764858232
  0
LINE
  5
252
100
AcDbEntity
  8
0
100
AcDbLine
 62
7
  6
CONTINUOUS
 10
5.5585424418
 20
6.0470995816
 11
5.5585424418
 21
5.4684802176
  0
LINE
  5
253
100
AcDbEntity
  8
0
100
AcDbLine
 62
7
  6
CONTINUOUS
 10
5.5797036967
 20
6.5245061081
 11
5.5797036967
 21
7.0764858232
  0
LINE
  5
254
100
AcDbEntity
  8
0
100
AcDbLine
 62
7
  6
CONTINUOUS
 10
5.5836982413
 20
6.0284802176
 11
5.5836982413
 21
5.4684802176
  0
LINE
  5
255
100
AcDbEntity
  8
0
100
AcDbLine
 62
7
  6
CONTINUOUS
 10
5.6008544149
 20
6.4897302492
 11
5.6008544149
 21
7.1112616821
  0
LINE
  5
256
100
AcDbEntity
  8
0
100
AcDbLine
 62
7
  6
CONTINUOUS
 10
5.6189874347
 20
6.0284802176
 11
5.6189874347
 21
5.4684802176
  0
LINE
  5
257
100
AcDbEntity
  8
0
100
AcDbLine
 62
7
  6
CONTINUOUS
 10
5.6355397413
 20
6.0470995816
 11
5.6355397413
 21
5.4684802176
  0
LINE
  5
258
100
AcDbEntity
  8
0
100
AcDbLine
 62
7
  6
CONTINUOUS
 10
5.6423650365
 20
6.5245061081
 11
5.6423650365
 21
7.0764858232
  0
LINE
  5
259
100
AcDbEntity
  8
0
100
AcDbLine
 62
7
  6
CONTINUOUS
 10
5.6646068051
 20
6.0284802176
 11
5.6646068051
 21
5.4684802176
  0
LINE
  5
25A
100
AcDbEntity
  8
0
100
AcDbLine
 62
7
  6
CONTINUOUS
 10
5.6666579933
 20
6.5245061081
 11
5.6666579933
 21
7.0764858232
  0
LINE
  5
25B
100
AcDbEntity
  8
0
100
AcDbLine
 62
7
  6
CONTINUOUS
 10
5.6739460341
 20
6.4897302492
 11
5.6739460341
 21
7.1112616821
  0
LINE
  5
25C
100
AcDbEntity
  8
0
100
AcDbLine
 62
7
  6
CONTINUOUS
 10
5.69931498
 20
6.0284802176
 11
5.69931498
 21
5.4684802176
  0
LINE
  5
25D
100
AcDbEntity
  8
0
100
AcDbLine
 62
7
  6
CONTINUOUS
 10
5.7112693196
 20
6.0470995816
 11
5.7112693196
 21
5.4684802176
  0
LINE
  5
25E
100
AcDbEntity
  8
0
100
AcDbLine
 62
7
  6
CONTINUOUS
 10
5.7199609127
 20
6.5245061081
 11
5.7199609127
 21
7.0764858232
  0
LINE
  5
25F
100
AcDbEntity
  8
0
100
AcDbLine
 62
7
  6
CONTINUOUS
 10
5.7392399124
 20
6.5245061081
 11
5.7392399124
 21
7.0764858232
  0
LINE
  5
260
100
AcDbEntity
  8
0
100
AcDbLine
 62
7
  6
CONTINUOUS
 10
5.7439291828
 20
6.0284802176
 11
5.7439291828
 21
5.4684802176
  0
LINE
  5
261
100
AcDbEntity
  8
0
100
AcDbLine
 62
7
  6
CONTINUOUS
 10
3.5508317308
 20
4.7920802176
 11
7.4888317308
 21
4.7920802176
  0
LINE
  5
262
100
AcDbEntity
  8
0
100
AcDbLine
 62
7
  6
CONTINUOUS
 10
3.5648317308
 20
4.8060802176
 11
7.4748317308
 21
4.8060802176
  0
LINE
  5
263
100
AcDbEntity
  8
0
100
AcDbLine
 62
7
  6
CONTINUOUS
 10
5.7758317308
 20
6.4835353357
 11
5.7758317308
 21
6.4047951782
  0
LINE
  5
264
100
AcDbEntity
  8
0
100
AcDbLine
 62
7
  6
CONTINUOUS
 10
5.7776760692
 20
6.0284802176
 11
5.7776760692
 21
5.4684802176
  0
LINE
  5
265
100
AcDbEntity
  8
0
100
AcDbLine
 62
7
  6
CONTINUOUS
 10
5.7779667502
 20
6.5245061081
 11
5.7779667502
 21
7.0764858232
  0
LINE
  5
266
100
AcDbEntity
  8
0
100
AcDbLine
 62
7
  6
CONTINUOUS
 10
5.7849014676
 20
6.0470995816
 11
5.7849014676
 21
5.4684802176
  0
LINE
  5
267
100
AcDbEntity
  8
0
100
AcDbLine
 62
7
  6
CONTINUOUS
 10
5.7903446299
 20
6.5245061081
 11
5.7903446299
 21
7.0764858232
  0
LINE
  5
268
100
AcDbEntity
  8
0
100
AcDbLine
 62
7
  6
CONTINUOUS
 10
5.8107045334
 20
6.5245061081
 11
5.8107045334
 21
7.0764858232
  0
LINE
  5
269
100
AcDbEntity
  8
0
100
AcDbLine
 62
7
  6
CONTINUOUS
 10
5.8149696601
 20
6.5245061081
 11
5.8149696601
 21
7.0764858232
  0
LINE
  5
26A
100
AcDbEntity
  8
0
100
AcDbLine
 62
7
  6
CONTINUOUS
 10
5.8151073213
 20
6.2473148633
 11
5.8151073213
 21
6.2444802176
  0
LINE
  5
26B
100
AcDbEntity
  8
0
100
AcDbLine
 62
7
  6
CONTINUOUS
 10
5.820796302
 20
6.0284802176
 11
5.820796302
 21
5.4684802176
  0
LINE
  5
26C
100
AcDbEntity
  8
0
100
AcDbLine
 62
7
  6
CONTINUOUS
 10
5.8532121618
 20
6.0284802176
 11
5.8532121618
 21
5.4684802176
  0
LINE
  5
26D
100
AcDbEntity
  8
0
100
AcDbLine
 62
7
  6
CONTINUOUS
 10
5.8556294561
 20
6.0470995816
 11
5.8556294561
 21
5.4684802176
  0
LINE
  5
26E
100
AcDbEntity
  8
0
100
AcDbLine
 62
7
  6
CONTINUOUS
 10
5.8943659904
 20
6.0284802176
 11
5.8943659904
 21
5.4684802176
  0
LINE
  5
26F
100
AcDbEntity
  8
0
100
AcDbLine
 62
7
  6
CONTINUOUS
 10
5.9135325182
 20
6.3647951782
 11
5.9135325182
 21
6.2473148633
  0
LINE
  5
270
100
AcDbEntity
  8
0
100
AcDbLine
 62
7
  6
CONTINUOUS
 10
5.9250956688
 20
6.0284802176
 11
5.9250956688
 21
5.4684802176
  0
LINE
  5
271
100
AcDbEntity
  8
0
100
AcDbLine
 62
7
  6
CONTINUOUS
 10
5.963832203
 20
6.0284802176
 11
5.963832203
 21
5.4684802176
  0
LINE
  5
272
100
AcDbEntity
  8
0
100
AcDbLine
 62
7
  6
CONTINUOUS
 10
5.9925390191
 20
6.0284802176
 11
5.9925390191
 21
5.4684802176
  0
LINE
  5
273
100
AcDbEntity
  8
0
100
AcDbLine
 62
7
  6
CONTINUOUS
 10
6.0284338535
 20
6.0284802176
 11
6.0284338535
 21
5.4684802176
  0
LINE
  5
274
100
AcDbEntity
  8
0
100
AcDbLine
 62
7
  6
CONTINUOUS
 10
6.0548032896
 20
6.0284802176
 11
6.0548032896
 21
5.4684802176
  0
LINE
  5
275
100
AcDbEntity
  8
0
100
AcDbLine
 62
7
  6
CONTINUOUS
 10
6.0874631528
 20
6.0284802176
 11
6.0874631528
 21
5.4684802176
  0
LINE
  5
276
100
AcDbEntity
  8
0
100
AcDbLine
 62
7
  6
CONTINUOUS
 10
6.1033317308
 20
6.1884802176
 11
6.1033317308
 21
6.2244802176
  0
LINE
  5
277
100
AcDbEntity
  8
0
100
AcDbLine
 62
7
  6
CONTINUOUS
 10
6.1112062996
 20
6.0284802176
 11
6.1112062996
 21
5.4684802176
  0
LINE
  5
278
100
AcDbEntity
  8
0
100
AcDbLine
 62
7
  6
CONTINUOUS
 10
6.1402733634
 20
6.0284802176
 11
6.1402733634
 21
5.4684802176
  0
LINE
  5
279
100
AcDbEntity
  8
0
100
AcDbLine
 62
7
  6
CONTINUOUS
 10
6.1611300862
 20
6.0284802176
 11
6.1611300862
 21
5.4684802176
  0
LINE
  5
27A
100
AcDbEntity
  8
0
100
AcDbLine
 62
7
  6
CONTINUOUS
 10
6.1698317308
 20
6.1684802176
 11
6.1698317308
 21
6.0884802176
  0
LINE
  5
27B
100
AcDbEntity
  8
0
100
AcDbLine
 62
7
  6
CONTINUOUS
 10
6.1862858857
 20
6.0284802176
 11
6.1862858857
 21
5.4684802176
  0
LINE
  5
27C
100
AcDbEntity
  8
0
100
AcDbLine
 62
7
  6
CONTINUOUS
 10
6.1902069988
 20
5.4220802176
 11
6.1902069988
 21
4.8060802176
  0
LINE
  5
27D
100
AcDbEntity
  8
0
100
AcDbLine
 62
7
  6
CONTINUOUS
 10
6.2040276737
 20
6.0284802176
 11
6.2040276737
 21
5.4684802176
  0
LINE
  5
27E
100
AcDbEntity
  8
0
100
AcDbLine
 62
7
  6
CONTINUOUS
 10
6.2249965967
 20
6.0284802176
 11
6.2249965967
 21
5.4684802176
  0
LINE
  5
27F
100
AcDbEntity
  8
0
100
AcDbLine
 62
7
  6
CONTINUOUS
 10
6.2394290674
 20
6.0284802176
 11
6.2394290674
 21
5.4684802176
  0
LINE
  5
280
100
AcDbEntity
  8
0
100
AcDbLine
 62
7
  6
CONTINUOUS
 10
6.2559813739
 20
6.0284802176
 11
6.2559813739
 21
5.4684802176
  0
LINE
  5
281
100
AcDbEntity
  8
0
100
AcDbLine
 62
7
  6
CONTINUOUS
 10
6.266946402
 20
6.0284802176
 11
6.266946402
 21
5.4684802176
  0
LINE
  5
282
100
AcDbEntity
  8
0
100
AcDbLine
 62
7
  6
CONTINUOUS
 10
6.2789007416
 20
6.0284802176
 11
6.2789007416
 21
5.4684802176
  0
LINE
  5
283
100
AcDbEntity
  8
0
100
AcDbLine
 62
7
  6
CONTINUOUS
 10
6.286278192
 20
6.0284802176
 11
6.286278192
 21
5.4684802176
  0
LINE
  5
284
100
AcDbEntity
  8
0
100
AcDbLine
 62
7
  6
CONTINUOUS
 10
6.2935035904
 20
6.0284802176
 11
6.2935035904
 21
5.4684802176
  0
LINE
  5
285
100
AcDbEntity
  8
0
100
AcDbLine
 62
7
  6
CONTINUOUS
 10
6.2972126341
 20
6.0284802176
 11
6.2972126341
 21
5.4684802176
  0
LINE
  5
286
100
AcDbEntity
  8
0
100
AcDbLine
 62
7
  6
CONTINUOUS
 10
6.2996299284
 20
6.0284802176
 11
6.2996299284
 21
5.4684802176
  0
LINE
  5
287
100
AcDbEntity
  8
0
100
AcDbLine
 62
7
  6
CONTINUOUS
 10
6.2998317308
 20
6.0284802176
 11
6.2998317308
 21
5.4360802176
  0
LINE
  5
288
100
AcDbEntity
  8
0
100
AcDbLine
 62
7
  6
CONTINUOUS
 10
6.8778317308
 20
5.4220795784
 11
6.1902069988
 21
5.4220802176
  0
LINE
  5
289
100
AcDbEntity
  8
0
100
AcDbLine
 62
7
  6
CONTINUOUS
 10
4.8494564627
 20
5.4220802176
 11
4.1618317308
 21
5.4220795784
  0
LINE
  5
28A
100
AcDbEntity
  8
0
100
AcDbLine
 62
7
  6
CONTINUOUS
 10
4.1758323729
 20
5.4360802176
 11
6.8638310886
 21
5.4360802176
  0
LINE
  5
28B
100
AcDbEntity
  8
0
100
AcDbLine
 62
7
  6
CONTINUOUS
 10
6.2996299284
 20
5.4684802176
 11
6.2972126341
 21
5.4684802176
  0
LINE
  5
28C
100
AcDbEntity
  8
0
100
AcDbLine
 62
7
  6
CONTINUOUS
 10
6.2935035904
 20
5.4684802176
 11
6.286278192
 21
5.4684802176
  0
LINE
  5
28D
100
AcDbEntity
  8
0
100
AcDbLine
 62
7
  6
CONTINUOUS
 10
6.2789007416
 20
5.4684802176
 11
6.266946402
 21
5.4684802176
  0
LINE
  5
28E
100
AcDbEntity
  8
0
100
AcDbLine
 62
7
  6
CONTINUOUS
 10
6.2559813739
 20
5.4684802176
 11
6.2394290674
 21
5.4684802176
  0
LINE
  5
28F
100
AcDbEntity
  8
0
100
AcDbLine
 62
7
  6
CONTINUOUS
 10
6.2249965967
 20
5.4684802176
 11
6.2040276737
 21
5.4684802176
  0
LINE
  5
290
100
AcDbEntity
  8
0
100
AcDbLine
 62
7
  6
CONTINUOUS
 10
6.1862858857
 20
5.4684802176
 11
6.1611300862
 21
5.4684802176
  0
LINE
  5
291
100
AcDbEntity
  8
0
100
AcDbLine
 62
7
  6
CONTINUOUS
 10
6.1402733634
 20
5.4684802176
 11
6.1112062996
 21
5.4684802176
  0
LINE
  5
292
100
AcDbEntity
  8
0
100
AcDbLine
 62
7
  6
CONTINUOUS
 10
6.0874631528
 20
5.4684802176
 11
6.0548032896
 21
5.4684802176
  0
LINE
  5
293
100
AcDbEntity
  8
0
100
AcDbLine
 62
7
  6
CONTINUOUS
 10
6.0284338535
 20
5.4684802176
 11
5.9925390191
 21
5.4684802176
  0
LINE
  5
294
100
AcDbEntity
  8
0
100
AcDbLine
 62
7
  6
CONTINUOUS
 10
5.963832203
 20
5.4684802176
 11
5.9250956688
 21
5.4684802176
  0
LINE
  5
295
100
AcDbEntity
  8
0
100
AcDbLine
 62
7
  6
CONTINUOUS
 10
5.8943659904
 20
5.4684802176
 11
5.8532121618
 21
5.4684802176
  0
LINE
  5
296
100
AcDbEntity
  8
0
100
AcDbLine
 62
7
  6
CONTINUOUS
 10
5.820796302
 20
5.4684802176
 11
5.7776760692
 21
5.4684802176
  0
LINE
  5
297
100
AcDbEntity
  8
0
100
AcDbLine
 62
7
  6
CONTINUOUS
 10
5.7439291828
 20
5.4684802176
 11
5.69931498
 21
5.4684802176
  0
LINE
  5
298
100
AcDbEntity
  8
0
100
AcDbLine
 62
7
  6
CONTINUOUS
 10
5.6646068051
 20
5.4684802176
 11
5.6189874347
 21
5.4684802176
  0
LINE
  5
299
100
AcDbEntity
  8
0
100
AcDbLine
 62
7
  6
CONTINUOUS
 10
5.5836982413
 20
5.4684802176
 11
5.5375735189
 21
5.4684802176
  0
LINE
  5
29A
100
AcDbEntity
  8
0
100
AcDbLine
 62
7
  6
CONTINUOUS
 10
5.5020899427
 20
5.4684802176
 11
5.4559652202
 21
5.4684802176
  0
LINE
  5
29B
100
AcDbEntity
  8
0
100
AcDbLine
 62
7
  6
CONTINUOUS
 10
5.4206760268
 20
5.4684802176
 11
5.3750566565
 21
5.4684802176
  0
LINE
  5
29C
100
AcDbEntity
  8
0
100
AcDbLine
 62
7
  6
CONTINUOUS
 10
5.3403484816
 20
5.4684802176
 11
5.2957342787
 21
5.4684802176
  0
LINE
  5
29D
100
AcDbEntity
  8
0
100
AcDbLine
 62
7
  6
CONTINUOUS
 10
5.2619873924
 20
5.4684802176
 11
5.2188671595
 21
5.4684802176
  0
LINE
  5
29E
100
AcDbEntity
  8
0
100
AcDbLine
 62
7
  6
CONTINUOUS
 10
5.1864512997
 20
5.4684802176
 11
5.1452974712
 21
5.4684802176
  0
LINE
  5
29F
100
AcDbEntity
  8
0
100
AcDbLine
 62
7
  6
CONTINUOUS
 10
5.1145677928
 20
5.4684802176
 11
5.0758312585
 21
5.4684802176
  0
LINE
  5
2A0
100
AcDbEntity
  8
0
100
AcDbLine
 62
7
  6
CONTINUOUS
 10
5.0471244424
 20
5.4684802176
 11
5.011229608
 21
5.4684802176
  0
LINE
  5
2A1
100
AcDbEntity
  8
0
100
AcDbLine
 62
7
  6
CONTINUOUS
 10
4.984860172
 20
5.4684802176
 11
4.9522003087
 21
5.4684802176
  0
LINE
  5
2A2
100
AcDbEntity
  8
0
100
AcDbLine
 62
7
  6
CONTINUOUS
 10
4.9284571619
 20
5.4684802176
 11
4.8993900981
 21
5.4684802176
  0
LINE
  5
2A3
100
AcDbEntity
  8
0
100
AcDbLine
 62
7
  6
CONTINUOUS
 10
4.8785333754
 20
5.4684802176
 11
4.8533775759
 21
5.4684802176
  0
LINE
  5
2A4
100
AcDbEntity
  8
0
100
AcDbLine
 62
7
  6
CONTINUOUS
 10
4.8356357878
 20
5.4684802176
 11
4.8146668648
 21
5.4684802176
  0
LINE
  5
2A5
100
AcDbEntity
  8
0
100
AcDbLine
 62
7
  6
CONTINUOUS
 10
4.8002343942
 20
5.4684802176
 11
4.7836820876
 21
5.4684802176
  0
LINE
  5
2A6
100
AcDbEntity
  8
0
100
AcDbLine
 62
7
  6
CONTINUOUS
 10
4.7727170595
 20
5.4684802176
 11
4.7607627199
 21
5.4684802176
  0
LINE
  5
2A7
100
AcDbEntity
  8
0
100
AcDbLine
 62
7
  6
CONTINUOUS
 10
4.7533852696
 20
5.4684802176
 11
4.7461598711
 21
5.4684802176
  0
LINE
  5
2A8
100
AcDbEntity
  8
0
100
AcDbLine
 62
7
  6
CONTINUOUS
 10
4.7424508275
 20
5.4684802176
 11
4.7400335332
 21
5.4684802176
  0
LINE
  5
2A9
100
AcDbEntity
  8
0
100
AcDbLine
 62
7
  6
CONTINUOUS
 10
5.2638317308
 20
6.4835353357
 11
5.2576368173
 21
6.4897302492
  0
LINE
  5
2AA
100
AcDbEntity
  8
0
100
AcDbLine
 62
7
  6
CONTINUOUS
 10
6.8778317308
 20
5.4220795784
 11
6.8778317308
 21
4.8060802176
  0
LINE
  5
2AB
100
AcDbEntity
  8
0
100
AcDbLine
 62
7
  6
CONTINUOUS
 10
6.2972126341
 20
6.0284802176
 11
6.2935035904
 21
6.0284802176
  0
LINE
  5
2AC
100
AcDbEntity
  8
0
100
AcDbLine
 62
7
  6
CONTINUOUS
 10
6.2998317308
 20
6.0284802176
 11
6.2996299284
 21
6.0284802176
  0
LINE
  5
2AD
100
AcDbEntity
  8
0
100
AcDbLine
 62
7
  6
CONTINUOUS
 10
6.286278192
 20
6.0284802176
 11
6.2789007416
 21
6.0284802176
  0
LINE
  5
2AE
100
AcDbEntity
  8
0
100
AcDbLine
 62
7
  6
CONTINUOUS
 10
6.266946402
 20
6.0284802176
 11
6.2559813739
 21
6.0284802176
  0
LINE
  5
2AF
100
AcDbEntity
  8
0
100
AcDbLine
 62
7
  6
CONTINUOUS
 10
6.2394290674
 20
6.0284802176
 11
6.2249965967
 21
6.0284802176
  0
LINE
  5
2B0
100
AcDbEntity
  8
0
100
AcDbLine
 62
7
  6
CONTINUOUS
 10
6.2040276737
 20
6.0284802176
 11
6.1862858857
 21
6.0284802176
  0
LINE
  5
2B1
100
AcDbEntity
  8
0
100
AcDbLine
 62
7
  6
CONTINUOUS
 10
6.1611300862
 20
6.0284802176
 11
6.1402733634
 21
6.0284802176
  0
LINE
  5
2B2
100
AcDbEntity
  8
0
100
AcDbLine
 62
7
  6
CONTINUOUS
 10
6.1112062996
 20
6.0284802176
 11
6.0874631528
 21
6.0284802176
  0
LINE
  5
2B3
100
AcDbEntity
  8
0
100
AcDbLine
 62
7
  6
CONTINUOUS
 10
6.0548032896
 20
6.0284802176
 11
6.0284338535
 21
6.0284802176
  0
LINE
  5
2B4
100
AcDbEntity
  8
0
100
AcDbLine
 62
7
  6
CONTINUOUS
 10
5.9925390191
 20
6.0284802176
 11
5.963832203
 21
6.0284802176
  0
LINE
  5
2B5
100
AcDbEntity
  8
0
100
AcDbLine
 62
7
  6
CONTINUOUS
 10
5.9250956688
 20
6.0284802176
 11
5.8943659904
 21
6.0284802176
  0
LINE
  5
2B6
100
AcDbEntity
  8
0
100
AcDbLine
 62
7
  6
CONTINUOUS
 10
5.8532121618
 20
6.0284802176
 11
5.820796302
 21
6.0284802176
  0
LINE
  5
2B7
100
AcDbEntity
  8
0
100
AcDbLine
 62
7
  6
CONTINUOUS
 10
5.7776760692
 20
6.0284802176
 11
5.7439291828
 21
6.0284802176
  0
LINE
  5
2B8
100
AcDbEntity
  8
0
100
AcDbLine
 62
7
  6
CONTINUOUS
 10
5.69931498
 20
6.0284802176
 11
5.6646068051
 21
6.0284802176
  0
LINE
  5
2B9
100
AcDbEntity
  8
0
100
AcDbLine
 62
7
  6
CONTINUOUS
 10
5.6189874347
 20
6.0284802176
 11
5.5836982413
 21
6.0284802176
  0
LINE
  5
2BA
100
AcDbEntity
  8
0
100
AcDbLine
 62
7
  6
CONTINUOUS
 10
4.7398317308
 20
6.0284802176
 11
4.7400335332
 21
6.0284802176
  0
LINE
  5
2BB
100
AcDbEntity
  8
0
100
AcDbLine
 62
7
  6
CONTINUOUS
 10
4.7424508275
 20
6.0284802176
 11
4.7461598711
 21
6.0284802176
  0
LINE
  5
2BC
100
AcDbEntity
  8
0
100
AcDbLine
 62
7
  6
CONTINUOUS
 10
4.7533852696
 20
6.0284802176
 11
4.7607627199
 21
6.0284802176
  0
LINE
  5
2BD
100
AcDbEntity
  8
0
100
AcDbLine
 62
7
  6
CONTINUOUS
 10
4.7727170595
 20
6.0284802176
 11
4.7836820876
 21
6.0284802176
  0
LINE
  5
2BE
100
AcDbEntity
  8
0
100
AcDbLine
 62
7
  6
CONTINUOUS
 10
4.8002343942
 20
6.0284802176
 11
4.8146668648
 21
6.0284802176
  0
LINE
  5
2BF
100
AcDbEntity
  8
0
100
AcDbLine
 62
7
  6
CONTINUOUS
 10
4.8356357878
 20
6.0284802176
 11
4.8533775759
 21
6.0284802176
  0
LINE
  5
2C0
100
AcDbEntity
  8
0
100
AcDbLine
 62
7
  6
CONTINUOUS
 10
4.8785333754
 20
6.0284802176
 11
4.8993900981
 21
6.0284802176
  0
LINE
  5
2C1
100
AcDbEntity
  8
0
100
AcDbLine
 62
7
  6
CONTINUOUS
 10
4.9284571619
 20
6.0284802176
 11
4.9522003087
 21
6.0284802176
  0
LINE
  5
2C2
100
AcDbEntity
  8
0
100
AcDbLine
 62
7
  6
CONTINUOUS
 10
4.984860172
 20
6.0284802176
 11
5.011229608
 21
6.0284802176
  0
LINE
  5
2C3
100
AcDbEntity
  8
0
100
AcDbLine
 62
7
  6
CONTINUOUS
 10
5.0471244424
 20
6.0284802176
 11
5.0758312585
 21
6.0284802176
  0
LINE
  5
2C4
100
AcDbEntity
  8
0
100
AcDbLine
 62
7
  6
CONTINUOUS
 10
5.1145677928
 20
6.0284802176
 11
5.1452974712
 21
6.0284802176
  0
LINE
  5
2C5
100
AcDbEntity
  8
0
100
AcDbLine
 62
7
  6
CONTINUOUS
 10
5.1864512997
 20
6.0284802176
 11
5.2188671595
 21
6.0284802176
  0
LINE
  5
2C6
100
AcDbEntity
  8
0
100
AcDbLine
 62
7
  6
CONTINUOUS
 10
5.2619873924
 20
6.0284802176
 11
5.2957342787
 21
6.0284802176
  0
LINE
  5
2C7
100
AcDbEntity
  8
0
100
AcDbLine
 62
7
  6
CONTINUOUS
 10
5.3403484816
 20
6.0284802176
 11
5.3750566565
 21
6.0284802176
  0
LINE
  5
2C8
100
AcDbEntity
  8
0
100
AcDbLine
 62
7
  6
CONTINUOUS
 10
5.4206760268
 20
6.0284802176
 11
5.4559652202
 21
6.0284802176
  0
LINE
  5
2C9
100
AcDbEntity
  8
0
100
AcDbLine
 62
7
  6
CONTINUOUS
 10
5.5020899427
 20
6.0284802176
 11
5.5375735189
 21
6.0284802176
  0
LINE
  5
2CA
100
AcDbEntity
  8
0
100
AcDbLine
 62
7
  6
CONTINUOUS
 10
4.8698317308
 20
6.0884802176
 11
6.1698317308
 21
6.0884802176
  0
LINE
  5
2CB
100
AcDbEntity
  8
0
100
AcDbLine
 62
7
  6
CONTINUOUS
 10
5.8735325182
 20
6.4047951782
 11
5.9135325182
 21
6.3647951782
  0
LINE
  5
2CC
100
AcDbEntity
  8
0
100
AcDbLine
 62
7
  6
CONTINUOUS
 10
7.4748317308
 20
4.8060802176
 11
7.4888317308
 21
4.7920802176
  0
LINE
  5
2CD
100
AcDbEntity
  8
0
100
AcDbLine
 62
7
  6
CONTINUOUS
 10
4.8698317308
 20
6.1684802176
 11
6.1698317308
 21
6.1684802176
  0
LINE
  5
2CE
100
AcDbEntity
  8
0
100
AcDbLine
 62
7
  6
CONTINUOUS
 10
6.1033317308
 20
6.1884802176
 11
4.9363317308
 21
6.1884802176
  0
LINE
  5
2CF
100
AcDbEntity
  8
0
100
AcDbLine
 62
7
  6
CONTINUOUS
 10
4.9363317308
 20
6.2244802176
 11
6.1033317308
 21
6.2244802176
  0
LINE
  5
2D0
100
AcDbEntity
  8
0
100
AcDbLine
 62
7
  6
CONTINUOUS
 10
4.9563317308
 20
6.2444802176
 11
6.0833317307
 21
6.2444802176
  0
LINE
  5
2D1
100
AcDbEntity
  8
0
100
AcDbLine
 62
7
  6
CONTINUOUS
 10
5.1261309434
 20
6.2473148633
 11
5.9135325182
 21
6.2473148633
  0
LINE
  5
2D2
100
AcDbEntity
  8
0
100
AcDbLine
 62
7
  6
CONTINUOUS
 10
6.2996299284
 20
6.0284802176
 11
6.2976270395
 21
6.0293912654
  0
LINE
  5
2D3
100
AcDbEntity
  8
0
100
AcDbLine
 62
7
  6
CONTINUOUS
 10
6.1698317308
 20
6.0884802176
 11
6.297672573
 21
6.029476752
  0
LINE
  5
2D4
100
AcDbEntity
  8
0
100
AcDbLine
 62
7
  6
CONTINUOUS
 10
6.8638310886
 20
5.4360802176
 11
6.8778317308
 21
5.4220795784
  0
LINE
  5
2D5
100
AcDbEntity
  8
0
100
AcDbLine
 62
7
  6
CONTINUOUS
 10
5.1261309434
 20
6.3647951782
 11
5.9135325182
 21
6.3647951782
  0
LINE
  5
2D6
100
AcDbEntity
  8
0
100
AcDbLine
 62
7
  6
CONTINUOUS
 10
5.1661309434
 20
6.4047951782
 11
5.8735325182
 21
6.4047951782
  0
LINE
  5
2D7
100
AcDbEntity
  8
0
100
AcDbLine
 62
7
  6
CONTINUOUS
 10
5.2638317308
 20
6.4835353357
 11
5.7758317308
 21
6.4835353357
  0
LINE
  5
2D8
100
AcDbEntity
  8
0
100
AcDbLine
 62
7
  6
CONTINUOUS
 10
5.8149696601
 20
6.5245061081
 11
5.8107045334
 21
6.5245061081
  0
LINE
  5
2D9
100
AcDbEntity
  8
0
100
AcDbLine
 62
7
  6
CONTINUOUS
 10
5.7903446299
 20
6.5245061081
 11
5.7779667502
 21
6.5245061081
  0
LINE
  5
2DA
100
AcDbEntity
  8
0
100
AcDbLine
 62
7
  6
CONTINUOUS
 10
5.7392399124
 20
6.5245061081
 11
5.7199609127
 21
6.5245061081
  0
LINE
  5
2DB
100
AcDbEntity
  8
0
100
AcDbLine
 62
7
  6
CONTINUOUS
 10
5.6666579933
 20
6.5245061081
 11
5.6423650365
 21
6.5245061081
  0
LINE
  5
2DC
100
AcDbEntity
  8
0
100
AcDbLine
 62
7
  6
CONTINUOUS
 10
5.5797036967
 20
6.5245061081
 11
5.5527747467
 21
6.5245061081
  0
LINE
  5
2DD
100
AcDbEntity
  8
0
100
AcDbLine
 62
7
  6
CONTINUOUS
 10
5.2246938014
 20
6.5245061081
 11
5.2289589281
 21
6.5245061081
  0
LINE
  5
2DE
100
AcDbEntity
  8
0
100
AcDbLine
 62
7
  6
CONTINUOUS
 10
5.2493188316
 20
6.5245061081
 11
5.2616967113
 21
6.5245061081
  0
LINE
  5
2DF
100
AcDbEntity
  8
0
100
AcDbLine
 62
7
  6
CONTINUOUS
 10
5.3004235491
 20
6.5245061081
 11
5.3197025488
 21
6.5245061081
  0
LINE
  5
2E0
100
AcDbEntity
  8
0
100
AcDbLine
 62
7
  6
CONTINUOUS
 10
5.3730054682
 20
6.5245061081
 11
5.397298425
 21
6.5245061081
  0
LINE
  5
2E1
100
AcDbEntity
  8
0
100
AcDbLine
 62
7
  6
CONTINUOUS
 10
5.4599597648
 20
6.5245061081
 11
5.4868887149
 21
6.5245061081
  0
LINE
  5
2E2
100
AcDbEntity
  8
0
100
AcDbLine
 62
7
  6
CONTINUOUS
 10
7.4888317308
 20
4.7920802176
 11
7.4888317308
 21
2.1684802176
  0
LINE
  5
2E3
100
AcDbEntity
  8
0
100
AcDbLine
 62
7
  6
CONTINUOUS
 10
5.7820266442
 20
7.1112616821
 11
5.7798317308
 21
7.1134565956
  0
LINE
  5
2E4
100
AcDbEntity
  8
0
100
AcDbLine
 62
7
  6
CONTINUOUS
 10
5.8149696601
 20
7.0764858232
 11
5.8107045334
 21
7.0764858232
  0
LINE
  5
2E5
100
AcDbEntity
  8
0
100
AcDbLine
 62
7
  6
CONTINUOUS
 10
5.7903446299
 20
7.0764858232
 11
5.7779667502
 21
7.0764858232
  0
LINE
  5
2E6
100
AcDbEntity
  8
0
100
AcDbLine
 62
7
  6
CONTINUOUS
 10
5.7392399124
 20
7.0764858232
 11
5.7199609127
 21
7.0764858232
  0
LINE
  5
2E7
100
AcDbEntity
  8
0
100
AcDbLine
 62
7
  6
CONTINUOUS
 10
5.6666579933
 20
7.0764858232
 11
5.6423650365
 21
7.0764858232
  0
LINE
  5
2E8
100
AcDbEntity
  8
0
100
AcDbLine
 62
7
  6
CONTINUOUS
 10
5.5797036967
 20
7.0764858232
 11
5.5527747467
 21
7.0764858232
  0
LINE
  5
2E9
100
AcDbEntity
  8
0
100
AcDbLine
 62
7
  6
CONTINUOUS
 10
5.2246938014
 20
7.0764858232
 11
5.2289589281
 21
7.0764858232
  0
LINE
  5
2EA
100
AcDbEntity
  8
0
100
AcDbLine
 62
7
  6
CONTINUOUS
 10
5.2493188316
 20
7.0764858232
 11
5.2616967113
 21
7.0764858232
  0
LINE
  5
2EB
100
AcDbEntity
  8
0
100
AcDbLine
 62
7
  6
CONTINUOUS
 10
5.3004235491
 20
7.0764858232
 11
5.3197025488
 21
7.0764858232
  0
LINE
  5
2EC
100
AcDbEntity
  8
0
100
AcDbLine
 62
7
  6
CONTINUOUS
 10
5.3730054682
 20
7.0764858232
 11
5.397298425
 21
7.0764858232
  0
LINE
  5
2ED
100
AcDbEntity
  8
0
100
AcDbLine
 62
7
  6
CONTINUOUS
 10
5.4599597648
 20
7.0764858232
 11
5.4868887149
 21
7.0764858232
  0
LINE
  5
2EE
100
AcDbEntity
  8
0
100
AcDbLine
 62
7
  6
CONTINUOUS
 10
5.2598317308
 20
7.1134565956
 11
5.7798317308
 21
7.1134565956
  0
ARC
  5
2EF
100
AcDbEntity
  8
0
100
AcDbCircle
 62
7
  6
CONTINUOUS
 10
2.9540101426
 20
-2.0081131438
 40
8.6767612183
100
AcDbArc
 50
67.8531083098
 51
68.1815667409
  0
ARC
  5
2F0
100
AcDbEntity
  8
0
100
AcDbCircle
 62
7
  6
CONTINUOUS
 10
2.9152994316
 20
-2.0081131437
 40
8.6767612182
100
AcDbArc
 50
67.8531083098
 51
68.1815667409
  0
ARC
  5
2F1
100
AcDbEntity
  8
0
100
AcDbCircle
 62
7
  6
CONTINUOUS
 10
2.84804814
 20
-1.9726168134
 40
8.6519535726
100
AcDbArc
 50
67.6342192806
 51
67.9605186077
  0
ARC
  5
2F2
100
AcDbEntity
  8
0
100
AcDbCircle
 62
7
  6
CONTINUOUS
 10
2.9637561507
 20
-1.972616813
 40
8.6519535721
100
AcDbArc
 50
67.6342192806
 51
67.9605186077
  0
ARC
  5
2F3
100
AcDbEntity
  8
0
100
AcDbCircle
 62
7
  6
CONTINUOUS
 10
3.0383381968
 20
-1.6735315693
 40
8.3559697925
100
AcDbArc
 50
67.1814481538
 51
67.5129345807
  0
ARC
  5
2F4
100
AcDbEntity
  8
0
100
AcDbCircle
 62
7
  6
CONTINUOUS
 10
2.8469006081
 20
-1.6735315688
 40
8.355969792
100
AcDbArc
 50
67.1814481538
 51
67.5129345807
  0
ARC
  5
2F5
100
AcDbEntity
  8
0
100
AcDbCircle
 62
7
  6
CONTINUOUS
 10
3.128817523
 20
-1.2413160344
 40
7.9287562361
100
AcDbArc
 50
66.4755551178
 51
66.8149649507
  0
ARC
  5
2F6
100
AcDbEntity
  8
0
100
AcDbCircle
 62
7
  6
CONTINUOUS
 10
2.8637477861
 20
-1.2413160344
 40
7.928756236
100
AcDbArc
 50
66.4755551178
 51
66.8149649507
  0
ARC
  5
2F7
100
AcDbEntity
  8
0
100
AcDbCircle
 62
7
  6
CONTINUOUS
 10
2.8971799796
 20
-0.6948601017
 40
7.3896996494
100
AcDbArc
 50
65.4813067358
 51
65.8315303986
  0
ARC
  5
2F8
100
AcDbEntity
  8
0
100
AcDbCircle
 62
7
  6
CONTINUOUS
 10
3.2471537944
 20
-0.6634854688
 40
7.3552711538
100
AcDbArc
 50
65.4974947887
 51
65.8322163486
  0
ARC
  5
2F9
100
AcDbEntity
  8
0
100
AcDbCircle
 62
7
  6
CONTINUOUS
 10
2.9449318506
 20
-0.0580465176
 40
6.7635027496
100
AcDbArc
 50
64.1459089459
 51
64.5099988435
  0
ARC
  5
2FA
100
AcDbEntity
  8
0
100
AcDbCircle
 62
7
  6
CONTINUOUS
 10
3.4289581866
 20
0.1108432434
 40
6.5761167062
100
AcDbArc
 50
64.140721568
 51
64.5151862214
  0
ARC
  5
2FB
100
AcDbEntity
  8
0
100
AcDbCircle
 62
7
  6
CONTINUOUS
 10
3.0035786446
 20
0.6412929082
 40
6.0793504946
100
AcDbArc
 50
62.3927821229
 51
62.7738839633
  0
ARC
  5
2FC
100
AcDbEntity
  8
0
100
AcDbCircle
 62
7
  6
CONTINUOUS
 10
3.5471632275
 20
0.7918610605
 40
5.9097318878
100
AcDbArc
 50
62.3873129906
 51
62.7793530957
  0
ARC
  5
2FD
100
AcDbEntity
  8
0
100
AcDbCircle
 62
7
  6
CONTINUOUS
 10
3.0679743253
 20
1.3725936869
 40
5.3701037035
100
AcDbArc
 50
60.1120114704
 51
60.5131231482
  0
ARC
  5
2FE
100
AcDbEntity
  8
0
100
AcDbCircle
 62
7
  6
CONTINUOUS
 10
3.6659078361
 20
1.5040028931
 40
5.2188405495
100
AcDbArc
 50
60.1061985244
 51
60.5189360942
  0
ARC
  5
2FF
100
AcDbEntity
  8
0
100
AcDbCircle
 62
7
  6
CONTINUOUS
 10
3.1301548003
 20
2.1038944659
 40
4.6718112427
100
AcDbArc
 50
57.1460942873
 51
57.5694437454
  0
ARC
  5
300
100
AcDbEntity
  8
0
100
AcDbCircle
 62
7
  6
CONTINUOUS
 10
3.7768807284
 20
2.2161447253
 40
4.5385070483
100
AcDbArc
 50
57.1398769865
 51
57.5756610461
  0
ARC
  5
301
100
AcDbEntity
  8
0
100
AcDbCircle
 62
7
  6
CONTINUOUS
 10
-3.8044369501
 20
4.8706876803
 40
9.0651285198
100
AcDbArc
 50
7.3378234478
 51
7.4564940389
  0
ARC
  5
302
100
AcDbEntity
  8
0
100
AcDbCircle
 62
7
  6
CONTINUOUS
 10
-2.759503458
 20
4.9104522471
 40
8.756269099
100
AcDbArc
 50
7.3357305162
 51
7.4585869704
  0
ARC
  5
303
100
AcDbEntity
  8
0
100
AcDbCircle
 62
7
  6
CONTINUOUS
 10
3.1770252666
 20
2.8032338917
 40
4.0242128013
100
AcDbArc
 50
53.2697666081
 51
53.7153652844
  0
ARC
  5
304
100
AcDbEntity
  8
0
100
AcDbCircle
 62
7
  6
CONTINUOUS
 10
3.8668771062
 20
2.8971625423
 40
3.9073550081
100
AcDbArc
 50
53.2631032831
 51
53.7220286093
  0
ARC
  5
305
100
AcDbEntity
  8
0
100
AcDbCircle
 62
7
  6
CONTINUOUS
 10
1.8568606261
 20
4.7178041872
 40
3.6486655027
100
AcDbArc
 50
21.0523418125
 51
21.3659692998
  0
ARC
  5
306
100
AcDbEntity
  8
0
100
AcDbCircle
 62
7
  6
CONTINUOUS
 10
2.7002042707
 20
4.7615740641
 40
3.5276790241
100
AcDbArc
 50
21.0469636609
 51
21.3713474513
  0
ARC
  5
307
100
AcDbEntity
  8
0
100
AcDbCircle
 62
7
  6
CONTINUOUS
 10
3.1849390026
 20
3.4400474758
 40
3.4740714642
100
AcDbArc
 50
48.1652679257
 51
48.6277557587
  0
ARC
  5
308
100
AcDbEntity
  8
0
100
AcDbCircle
 62
7
  6
CONTINUOUS
 10
3.9125689845
 20
3.5172925975
 40
3.370769985
100
AcDbArc
 50
48.1581811252
 51
48.6348425592
  0
ARC
  5
309
100
AcDbEntity
  8
0
100
AcDbCircle
 62
7
  6
CONTINUOUS
 10
3.1049480597
 20
3.9865034082
 40
3.0874366889
100
AcDbArc
 50
41.4054008007
 51
41.8677312289
  0
ARC
  5
30A
100
AcDbEntity
  8
0
100
AcDbCircle
 62
7
  6
CONTINUOUS
 10
2.8126032851
 20
4.4187189431
 40
2.9968028196
100
AcDbArc
 50
32.4904861082
 51
32.9135250697
  0
ARC
  5
30B
100
AcDbEntity
  8
0
100
AcDbCircle
 62
7
  6
CONTINUOUS
 10
3.866265728
 20
4.0494322317
 40
2.9927226903
100
AcDbArc
 50
41.3980848184
 51
41.8750472112
  0
ARC
  5
30C
100
AcDbEntity
  8
0
100
AcDbCircle
 62
7
  6
CONTINUOUS
 10
3.6074356482
 20
4.4703243896
 40
2.9012855695
100
AcDbArc
 50
32.4835223486
 51
32.9204888294
  0
ARC
  5
30D
100
AcDbEntity
  8
0
100
AcDbCircle
 62
7
  6
CONTINUOUS
 10
5.1293452278
 20
3.2738410558
 40
2.3959046712
100
AcDbArc
 50
63.7185262476
 51
64.4850540478
  0
ARC
  5
30E
100
AcDbEntity
  8
0
100
AcDbCircle
 62
7
  6
CONTINUOUS
 10
3.6178029823
 20
6.7268635737
 40
1.7896849471
100
AcDbArc
 50
11.2654097671
 51
12.4029452055
  0
ARC
  5
30F
100
AcDbEntity
  8
0
100
AcDbCircle
 62
7
  6
CONTINUOUS
 10
3.6178029818
 20
6.8741283546
 40
1.789684947
100
AcDbArc
 50
347.597054892
 51
348.7345903305
  0
ARC
  5
310
100
AcDbEntity
  8
0
100
AcDbCircle
 62
7
  6
CONTINUOUS
 10
5.2182982554
 20
7.0533085998
 40
0.797126247
100
AcDbArc
 50
315.0076257516
 51
316.0670402988
  0
ARC
  5
311
100
AcDbEntity
  8
0
100
AcDbCircle
 62
7
  6
CONTINUOUS
 10
5.2182982563
 20
6.5476833325
 40
0.7971262456
100
AcDbArc
 50
43.9329597274
 51
44.9923742487
  0
ARC
  5
312
100
AcDbEntity
  8
0
100
AcDbCircle
 62
7
  6
CONTINUOUS
 10
4.9563317308
 20
6.1884802176
 40
0.02
100
AcDbArc
 50
180.0
 51
270.0
  0
ARC
  5
313
100
AcDbEntity
  8
0
100
AcDbCircle
 62
7
  6
CONTINUOUS
 10
4.9563317308
 20
6.2244802176
 40
0.02
100
AcDbArc
 50
90.0
 51
180.0
  0
ARC
  5
314
100
AcDbEntity
  8
0
100
AcDbCircle
 62
7
  6
CONTINUOUS
 10
8.085653319
 20
-2.0081131438
 40
8.6767612183
100
AcDbArc
 50
111.8184332591
 51
112.1468916902
  0
ARC
  5
315
100
AcDbEntity
  8
0
100
AcDbCircle
 62
7
  6
CONTINUOUS
 10
8.12436403
 20
-2.0081131438
 40
8.6767612183
100
AcDbArc
 50
111.8184332591
 51
112.1468916902
  0
ARC
  5
316
100
AcDbEntity
  8
0
100
AcDbCircle
 62
7
  6
CONTINUOUS
 10
8.102211536
 20
-1.7535682784
 40
8.4153635665
100
AcDbArc
 50
112.0348945805
 51
112.3703675312
  0
ARC
  5
317
100
AcDbEntity
  8
0
100
AcDbCircle
 62
7
  6
CONTINUOUS
 10
7.9865035253
 20
-1.7535682781
 40
8.4153635662
100
AcDbArc
 50
112.0348945805
 51
112.3703675312
  0
ARC
  5
318
100
AcDbEntity
  8
0
100
AcDbCircle
 62
7
  6
CONTINUOUS
 10
7.9131773024
 20
-1.4623186041
 40
8.1271018627
100
AcDbArc
 50
112.4823978986
 51
112.8232193669
  0
ARC
  5
319
100
AcDbEntity
  8
0
100
AcDbCircle
 62
7
  6
CONTINUOUS
 10
8.1046148912
 20
-1.462318604
 40
8.1271018626
100
AcDbArc
 50
112.4823978986
 51
112.823219367
  0
ARC
  5
31A
100
AcDbEntity
  8
0
100
AcDbCircle
 62
7
  6
CONTINUOUS
 10
7.8245333945
 20
-1.0414264462
 40
7.7110287111
100
AcDbArc
 50
113.1802432705
 51
113.5292366611
  0
ARC
  5
31B
100
AcDbEntity
  8
0
100
AcDbCircle
 62
7
  6
CONTINUOUS
 10
8.0896031311
 20
-1.0414264458
 40
7.7110287107
100
AcDbArc
 50
113.1802432705
 51
113.5292366611
  0
ARC
  5
31C
100
AcDbEntity
  8
0
100
AcDbCircle
 62
7
  6
CONTINUOUS
 10
8.058523939
 20
-0.5092868116
 40
7.1860179066
100
AcDbArc
 50
114.1635061851
 51
114.5236566806
  0
ARC
  5
31D
100
AcDbEntity
  8
0
100
AcDbCircle
 62
7
  6
CONTINUOUS
 10
7.7128769732
 20
-0.4874066502
 40
7.1620231549
100
AcDbArc
 50
114.1632678559
 51
114.5070210068
  0
ARC
  5
31E
100
AcDbEntity
  8
0
100
AcDbCircle
 62
7
  6
CONTINUOUS
 10
7.6918849673
 20
-0.0580465176
 40
6.7635027496
100
AcDbArc
 50
115.4900011565
 51
115.8540910541
  0
ARC
  5
31F
100
AcDbEntity
  8
0
100
AcDbCircle
 62
7
  6
CONTINUOUS
 10
8.0135519185
 20
0.1108432437
 40
6.5761167059
100
AcDbArc
 50
115.4848137786
 51
115.859278432
  0
ARC
  5
320
100
AcDbEntity
  8
0
100
AcDbCircle
 62
7
  6
CONTINUOUS
 10
7.5706029271
 20
0.6412929079
 40
6.0793504949
100
AcDbArc
 50
117.2261160367
 51
117.6072178771
  0
ARC
  5
321
100
AcDbEntity
  8
0
100
AcDbCircle
 62
7
  6
CONTINUOUS
 10
7.9579821239
 20
0.7918610604
 40
5.9097318878
100
AcDbArc
 50
117.2206469043
 51
117.6126870094
  0
ARC
  5
322
100
AcDbEntity
  8
0
100
AcDbCircle
 62
7
  6
CONTINUOUS
 10
7.4486719171
 20
1.3725936869
 40
5.3701037035
100
AcDbArc
 50
119.4868768518
 51
119.8879885296
  0
ARC
  5
323
100
AcDbEntity
  8
0
100
AcDbCircle
 62
7
  6
CONTINUOUS
 10
7.8967728446
 20
1.5040028929
 40
5.2188405497
100
AcDbArc
 50
119.4810639058
 51
119.8938014756
  0
ARC
  5
324
100
AcDbEntity
  8
0
100
AcDbCircle
 62
7
  6
CONTINUOUS
 10
7.3346863989
 20
2.1038944659
 40
4.6718112426
100
AcDbArc
 50
122.4305562546
 51
122.8539057127
  0
ARC
  5
325
100
AcDbEntity
  8
0
100
AcDbCircle
 62
7
  6
CONTINUOUS
 10
7.8376049955
 20
2.2161447252
 40
4.5385070484
100
AcDbArc
 50
122.4243389539
 51
122.8601230135
  0
ARC
  5
326
100
AcDbEntity
  8
0
100
AcDbCircle
 62
7
  6
CONTINUOUS
 10
14.10545604
 20
4.8706876806
 40
9.0651285171
100
AcDbArc
 50
172.5435059611
 51
172.6621765523
  0
ARC
  5
327
100
AcDbEntity
  8
0
100
AcDbCircle
 62
7
  6
CONTINUOUS
 10
14.5378112889
 20
4.910452247
 40
8.7562690994
100
AcDbArc
 50
172.5414130296
 51
172.6642694838
  0
ARC
  5
328
100
AcDbEntity
  8
0
100
AcDbCircle
 62
7
  6
CONTINUOUS
 10
7.2423087625
 20
2.8032338917
 40
4.0242128013
100
AcDbArc
 50
126.2846347156
 51
126.7302333919
  0
ARC
  5
329
100
AcDbEntity
  8
0
100
AcDbCircle
 62
7
  6
CONTINUOUS
 10
7.7931157879
 20
2.8971625421
 40
3.9073550083
100
AcDbArc
 50
126.2779713907
 51
126.7368967169
  0
ARC
  5
32A
100
AcDbEntity
  8
0
100
AcDbCircle
 62
7
  6
CONTINUOUS
 10
8.4522512087
 20
4.7178041872
 40
3.6486655028
100
AcDbArc
 50
158.6340307002
 51
158.9476581875
  0
ARC
  5
32B
100
AcDbEntity
  8
0
100
AcDbCircle
 62
7
  6
CONTINUOUS
 10
9.0700108178
 20
4.761574064
 40
3.5276790244
100
AcDbArc
 50
158.6286525487
 51
158.9530363391
  0
ARC
  5
32C
100
AcDbEntity
  8
0
100
AcDbCircle
 62
7
  6
CONTINUOUS
 10
7.1956843156
 20
3.4400474755
 40
3.4740714645
100
AcDbArc
 50
131.3722442413
 51
131.8347320743
  0
ARC
  5
32D
100
AcDbEntity
  8
0
100
AcDbCircle
 62
7
  6
CONTINUOUS
 10
7.7861346206
 20
3.5172925974
 40
3.3707699851
100
AcDbArc
 50
131.3651574408
 51
131.8418188748
  0
ARC
  5
32E
100
AcDbEntity
  8
0
100
AcDbCircle
 62
7
  6
CONTINUOUS
 10
7.244185129
 20
3.9865034081
 40
3.0874366889
100
AcDbArc
 50
138.1322687711
 51
138.5945991993
  0
ARC
  5
32F
100
AcDbEntity
  8
0
100
AcDbCircle
 62
7
  6
CONTINUOUS
 10
7.5126053685
 20
4.418718943
 40
2.9968028196
100
AcDbArc
 50
147.0864749303
 51
147.5095138918
  0
ARC
  5
330
100
AcDbEntity
  8
0
100
AcDbCircle
 62
7
  6
CONTINUOUS
 10
7.8639280065
 20
4.0494322316
 40
2.9927226904
100
AcDbArc
 50
138.1249527888
 51
138.6019151816
  0
ARC
  5
331
100
AcDbEntity
  8
0
100
AcDbCircle
 62
7
  6
CONTINUOUS
 10
8.1466826216
 20
4.4703243895
 40
2.9012855699
100
AcDbArc
 50
147.0795111706
 51
147.5164776514
  0
ARC
  5
332
100
AcDbEntity
  8
0
100
AcDbCircle
 62
7
  6
CONTINUOUS
 10
6.0067084663
 20
3.0753378519
 40
2.6165689631
100
AcDbArc
 50
115.5474637053
 51
116.2493468013
  0
ARC
  5
333
100
AcDbEntity
  8
0
100
AcDbCircle
 62
7
  6
CONTINUOUS
 10
7.055626035
 20
6.7268635737
 40
1.7896849471
100
AcDbArc
 50
167.597054793
 51
168.7345902314
  0
ARC
  5
334
100
AcDbEntity
  8
0
100
AcDbCircle
 62
7
  6
CONTINUOUS
 10
7.0556260356
 20
6.8741283545
 40
1.789684947
100
AcDbArc
 50
191.2654096674
 51
192.4029451058
  0
ARC
  5
335
100
AcDbEntity
  8
0
100
AcDbCircle
 62
7
  6
CONTINUOUS
 10
6.0833317308
 20
6.1884802176
 40
0.02
100
AcDbArc
 50
270.0
 51
360.0
  0
ARC
  5
336
100
AcDbEntity
  8
0
100
AcDbCircle
 62
7
  6
CONTINUOUS
 10
6.0833317308
 20
6.2244802176
 40
0.02
100
AcDbArc
 50
0.0
 51
90.0
  0
SPLINE
  5
337
100
AcDbEntity
  8
0
100
AcDbSpline
 62
7
  6
CONTINUOUS
 70
0
 71
3
 72
11
 73
7
 74
0
 42
0.0000001
 43
0.0000001
 44
0.0000000001
 40
0.0
 40
0.0
 40
0.0
 40
0.0
 40
0.2483681177
 40
0.497909022
 40
0.7484910452
 40
1.0
 40
1.0
 40
1.0
 40
1.0
 10
5.2576368173
 20
6.4897302492
 30
0.0
 10
5.2548323208
 20
6.4925347457
 30
0.0
 10
5.2492550151
 20
6.4982020541
 30
0.0
 10
5.2409905183
 20
6.5068373956
 30
0.0
 10
5.2327980812
 20
6.5156098086
 30
0.0
 10
5.2273890758
 20
6.5215284811
 30
0.0
 10
5.2246938014
 20
6.5245061081
 30
0.0
  0
SPLINE
  5
338
100
AcDbEntity
  8
0
100
AcDbSpline
 62
7
  6
CONTINUOUS
 70
0
 71
3
 72
11
 73
7
 74
0
 42
0.0000001
 43
0.0000001
 44
0.0000000001
 40
0.0
 40
0.0
 40
0.0
 40
0.0
 40
0.2515089498
 40
0.5020909693
 40
0.7516318794
 40
1.0
 40
1.0
 40
1.0
 40
1.0
 10
5.8149696601
 20
7.0764858232
 30
0.0
 10
5.8122743858
 20
7.0794634501
 30
0.0
 10
5.8068653803
 20
7.0853821224
 30
0.0
 10
5.7986729435
 20
7.0941545356
 30
0.0
 10
5.7904084467
 20
7.1027898771
 30
0.0
 10
5.7848311407
 20
7.1084571856
 30
0.0
 10
5.7820266442
 20
7.1112616821
 30
0.0
  0
SPLINE
  5
339
100
AcDbEntity
  8
0
100
AcDbSpline
 62
7
  6
CONTINUOUS
 70
0
 71
3
 72
11
 73
7
 74
0
 42
0.0000001
 43
0.0000001
 44
0.0000000001
 40
0.0
 40
0.0
 40
0.0
 40
0.0
 40
0.2515089498
 40
0.5020909693
 40
0.7516318794
 40
1.0
 40
1.0
 40
1.0
 40
1.0
 10
5.8149696601
 20
6.5245061081
 30
0.0
 10
5.8122743858
 20
6.5215284812
 30
0.0
 10
5.8068653803
 20
6.5156098089
 30
0.0
 10
5.7986729435
 20
6.5068373957
 30
0.0
 10
5.7904084467
 20
6.4982020542
 30
0.0
 10
5.7848311407
 20
6.4925347457
 30
0.0
 10
5.7820266442
 20
6.4897302492
 30
0.0
  0
SPLINE
  5
33A
100
AcDbEntity
  8
0
100
AcDbSpline
 62
7
  6
CONTINUOUS
 70
0
 71
3
 72
11
 73
7
 74
0
 42
0.0000001
 43
0.0000001
 44
0.0000000001
 40
0.0
 40
0.0
 40
0.0
 40
0.0
 40
0.2533140362
 40
0.5045991686
 40
0.7535953427
 40
1.0
 40
1.0
 40
1.0
 40
1.0
 10
5.7903446299
 20
7.0764858232
 30
0.0
 10
5.7886175901
 20
7.0794575433
 30
0.0
 10
5.7851527328
 20
7.0853629306
 30
0.0
 10
5.7798946381
 20
7.0941328524
 30
0.0
 10
5.7745906519
 20
7.1027652964
 30
0.0
 10
5.7710002356
 20
7.1084482668
 30
0.0
 10
5.7691939118
 20
7.1112616821
 30
0.0
  0
SPLINE
  5
33B
100
AcDbEntity
  8
0
100
AcDbSpline
 62
7
  6
CONTINUOUS
 70
0
 71
3
 72
11
 73
7
 74
0
 42
0.0000001
 43
0.0000001
 44
0.0000000001
 40
0.0
 40
0.0
 40
0.0
 40
0.0
 40
0.2533140362
 40
0.5045991686
 40
0.7535953427
 40
1.0
 40
1.0
 40
1.0
 40
1.0
 10
5.7903446299
 20
6.5245061081
 30
0.0
 10
5.7886175901
 20
6.521534388
 30
0.0
 10
5.7851527328
 20
6.5156290007
 30
0.0
 10
5.7798946381
 20
6.5068590789
 30
0.0
 10
5.7745906519
 20
6.4982266349
 30
0.0
 10
5.7710002356
 20
6.4925436645
 30
0.0
 10
5.7691939118
 20
6.4897302492
 30
0.0
  0
LINE
  5
33C
100
AcDbEntity
  8
0
100
AcDbLine
 62
7
  6
CONTINUOUS
 10
5.7392399124
 20
7.0764858232
 11
5.7319518716
 21
7.1112616821
  0
LINE
  5
33D
100
AcDbEntity
  8
0
100
AcDbLine
 62
7
  6
CONTINUOUS
 10
5.7392399124
 20
6.5245061081
 11
5.7319518716
 21
6.4897302492
  0
SPLINE
  5
33E
100
AcDbEntity
  8
0
100
AcDbSpline
 62
7
  6
CONTINUOUS
 70
0
 71
3
 72
11
 73
7
 74
0
 42
0.0000001
 43
0.0000001
 44
0.0000000001
 40
0.0
 40
0.0
 40
0.0
 40
0.0
 40
0.2464046552
 40
0.495400823
 40
0.7466859577
 40
1.0
 40
1.0
 40
1.0
 40
1.0
 10
5.2704695498
 20
6.4897302492
 30
0.0
 10
5.268663226
 20
6.4925436645
 30
0.0
 10
5.2650728098
 20
6.4982266349
 30
0.0
 10
5.2597688236
 20
6.5068590788
 30
0.0
 10
5.2545107286
 20
6.5156290005
 30
0.0
 10
5.2510458715
 20
6.521534388
 30
0.0
 10
5.2493188316
 20
6.5245061081
 30
0.0
  0
SPLINE
  5
33F
100
AcDbEntity
  8
0
100
AcDbSpline
 62
7
  6
CONTINUOUS
 70
0
 71
3
 72
11
 73
7
 74
0
 42
0.0000001
 43
0.0000001
 44
0.0000000001
 40
0.0
 40
0.0
 40
0.0
 40
0.0
 40
0.2464046552
 40
0.495400823
 40
0.7466859577
 40
1.0
 40
1.0
 40
1.0
 40
1.0
 10
5.2704695498
 20
7.1112616821
 30
0.0
 10
5.268663226
 20
7.1084482668
 30
0.0
 10
5.2650728098
 20
7.1027652964
 30
0.0
 10
5.2597688236
 20
7.0941328525
 30
0.0
 10
5.2545107286
 20
7.0853629308
 30
0.0
 10
5.2510458715
 20
7.0794575433
 30
0.0
 10
5.2493188316
 20
7.0764858232
 30
0.0
  0
SPLINE
  5
340
100
AcDbEntity
  8
0
100
AcDbSpline
 62
7
  6
CONTINUOUS
 70
0
 71
3
 72
11
 73
7
 74
0
 42
0.0000001
 43
0.0000001
 44
0.0000000001
 40
0.0
 40
0.0
 40
0.0
 40
0.0
 40
0.2483681177
 40
0.497909022
 40
0.7484910452
 40
1.0
 40
1.0
 40
1.0
 40
1.0
 10
5.2576368173
 20
7.1112616821
 30
0.0
 10
5.2548323208
 20
7.1084571856
 30
0.0
 10
5.2492550151
 20
7.1027898772
 30
0.0
 10
5.2409905183
 20
7.0941545357
 30
0.0
 10
5.2327980812
 20
7.0853821227
 30
0.0
 10
5.2273890758
 20
7.0794634502
 30
0.0
 10
5.2246938014
 20
7.0764858232
 30
0.0
  0
SPLINE
  5
341
100
AcDbEntity
  8
0
100
AcDbSpline
 62
7
  6
CONTINUOUS
 70
0
 71
3
 72
11
 73
7
 74
0
 42
0.0000001
 43
0.0000001
 44
0.0000000001
 40
0.0
 40
0.0
 40
0.0
 40
0.0
 40
0.2494739645
 40
0.4993255665
 40
0.7495130151
 40
1.0
 40
1.0
 40
1.0
 40
1.0
 10
5.7691939118
 20
6.4897302492
 30
0.0
 10
5.7727216353
 20
6.4925298665
 30
0.0
 10
5.7797388906
 20
6.4981883721
 30
0.0
 10
5.7901548731
 20
6.5068251263
 30
0.0
 10
5.8004797313
 20
6.5155987901
 30
0.0
 10
5.8073043787
 20
6.5215250523
 30
0.0
 10
5.8107045334
 20
6.5245061081
 30
0.0
  0
SPLINE
  5
342
100
AcDbEntity
  8
0
100
AcDbSpline
 62
7
  6
CONTINUOUS
 70
0
 71
3
 72
11
 73
7
 74
0
 42
0.0000001
 43
0.0000001
 44
0.0000000001
 40
0.0
 40
0.0
 40
0.0
 40
0.0
 40
0.2494739645
 40
0.4993255665
 40
0.7495130151
 40
1.0
 40
1.0
 40
1.0
 40
1.0
 10
5.7691939118
 20
7.1112616821
 30
0.0
 10
5.7727216353
 20
7.1084620648
 30
0.0
 10
5.7797388906
 20
7.1028035592
 30
0.0
 10
5.7901548731
 20
7.094166805
 30
0.0
 10
5.8004797313
 20
7.0853931412
 30
0.0
 10
5.8073043787
 20
7.079466879
 30
0.0
 10
5.8107045334
 20
7.0764858232
 30
0.0
  0
SPLINE
  5
343
100
AcDbEntity
  8
0
100
AcDbSpline
 62
7
  6
CONTINUOUS
 70
0
 71
3
 72
11
 73
7
 74
0
 42
0.0000001
 43
0.0000001
 44
0.0000000001
 40
0.0
 40
0.0
 40
0.0
 40
0.0
 40
0.2499446549
 40
0.499929353
 40
0.7499491749
 40
1.0
 40
1.0
 40
1.0
 40
1.0
 10
5.7319518716
 20
6.4897302492
 30
0.0
 10
5.7358595251
 20
6.4925278203
 30
0.0
 10
5.7436332349
 20
6.4981825842
 30
0.0
 10
5.7551803717
 20
6.506819892
 30
0.0
 10
5.7666263637
 20
6.5155940538
 30
0.0
 10
5.7741957753
 20
6.5215235699
 30
0.0
 10
5.7779667502
 20
6.5245061081
 30
0.0
  0
SPLINE
  5
344
100
AcDbEntity
  8
0
100
AcDbSpline
 62
7
  6
CONTINUOUS
 70
0
 71
3
 72
11
 73
7
 74
0
 42
0.0000001
 43
0.0000001
 44
0.0000000001
 40
0.0
 40
0.0
 40
0.0
 40
0.0
 40
0.2499446549
 40
0.499929353
 40
0.7499491749
 40
1.0
 40
1.0
 40
1.0
 40
1.0
 10
5.7319518716
 20
7.1112616821
 30
0.0
 10
5.7358595251
 20
7.108464111
 30
0.0
 10
5.7436332349
 20
7.1028093471
 30
0.0
 10
5.7551803717
 20
7.0941720393
 30
0.0
 10
5.7666263637
 20
7.0853978775
 30
0.0
 10
5.7741957753
 20
7.0794683614
 30
0.0
 10
5.7779667502
 20
7.0764858232
 30
0.0
  0
SPLINE
  5
345
100
AcDbEntity
  8
0
100
AcDbSpline
 62
7
  6
CONTINUOUS
 70
0
 71
3
 72
11
 73
7
 74
0
 42
0.0000001
 43
0.0000001
 44
0.0000000001
 40
0.0
 40
0.0
 40
0.0
 40
0.0
 40
0.2499446549
 40
0.499929353
 40
0.7499491749
 40
1.0
 40
1.0
 40
1.0
 40
1.0
 10
5.6739460341
 20
6.4897302492
 30
0.0
 10
5.6778536877
 20
6.4925278203
 30
0.0
 10
5.6856273974
 20
6.4981825842
 30
0.0
 10
5.6971745342
 20
6.506819892
 30
0.0
 10
5.7086205263
 20
6.5155940538
 30
0.0
 10
5.7161899379
 20
6.5215235699
 30
0.0
 10
5.7199609127
 20
6.5245061081
 30
0.0
  0
SPLINE
  5
346
100
AcDbEntity
  8
0
100
AcDbSpline
 62
7
  6
CONTINUOUS
 70
0
 71
3
 72
11
 73
7
 74
0
 42
0.0000001
 43
0.0000001
 44
0.0000000001
 40
0.0
 40
0.0
 40
0.0
 40
0.0
 40
0.2499446549
 40
0.499929353
 40
0.7499491749
 40
1.0
 40
1.0
 40
1.0
 40
1.0
 10
5.6739460341
 20
7.1112616821
 30
0.0
 10
5.6778536877
 20
7.108464111
 30
0.0
 10
5.6856273974
 20
7.1028093471
 30
0.0
 10
5.6971745342
 20
7.0941720393
 30
0.0
 10
5.7086205263
 20
7.0853978775
 30
0.0
 10
5.7161899379
 20
7.0794683614
 30
0.0
 10
5.7199609127
 20
7.0764858232
 30
0.0
  0
LINE
  5
347
100
AcDbEntity
  8
0
100
AcDbLine
 62
7
  6
CONTINUOUS
 10
5.6666579933
 20
7.0764858232
 11
5.6739460341
 21
7.1112616821
  0
LINE
  5
348
100
AcDbEntity
  8
0
100
AcDbLine
 62
7
  6
CONTINUOUS
 10
5.6666579933
 20
6.5245061081
 11
5.6739460341
 21
6.4897302492
  0
SPLINE
  5
349
100
AcDbEntity
  8
0
100
AcDbSpline
 62
7
  6
CONTINUOUS
 70
0
 71
3
 72
11
 73
7
 74
0
 42
0.0000001
 43
0.0000001
 44
0.0000000001
 40
0.0
 40
0.0
 40
0.0
 40
0.0
 40
0.2494739645
 40
0.4993255665
 40
0.7495130151
 40
1.0
 40
1.0
 40
1.0
 40
1.0
 10
5.6008544149
 20
6.4897302492
 30
0.0
 10
5.6043821384
 20
6.4925298665
 30
0.0
 10
5.6113993937
 20
6.4981883721
 30
0.0
 10
5.6218153762
 20
6.5068251263
 30
0.0
 10
5.6321402344
 20
6.5155987901
 30
0.0
 10
5.6389648818
 20
6.5215250523
 30
0.0
 10
5.6423650365
 20
6.5245061081
 30
0.0
  0
SPLINE
  5
34A
100
AcDbEntity
  8
0
100
AcDbSpline
 62
7
  6
CONTINUOUS
 70
0
 71
3
 72
11
 73
7
 74
0
 42
0.0000001
 43
0.0000001
 44
0.0000000001
 40
0.0
 40
0.0
 40
0.0
 40
0.0
 40
0.2494739645
 40
0.4993255665
 40
0.7495130151
 40
1.0
 40
1.0
 40
1.0
 40
1.0
 10
5.6008544149
 20
7.1112616821
 30
0.0
 10
5.6043821384
 20
7.1084620648
 30
0.0
 10
5.6113993937
 20
7.1028035592
 30
0.0
 10
5.6218153762
 20
7.094166805
 30
0.0
 10
5.6321402344
 20
7.0853931412
 30
0.0
 10
5.6389648818
 20
7.079466879
 30
0.0
 10
5.6423650365
 20
7.0764858232
 30
0.0
  0
SPLINE
  5
34B
100
AcDbEntity
  8
0
100
AcDbSpline
 62
7
  6
CONTINUOUS
 70
0
 71
3
 72
11
 73
7
 74
0
 42
0.0000001
 43
0.0000001
 44
0.0000000001
 40
0.0
 40
0.0
 40
0.0
 40
0.0
 40
0.2533140362
 40
0.5045991686
 40
0.7535953427
 40
1.0
 40
1.0
 40
1.0
 40
1.0
 10
5.5797036967
 20
7.0764858232
 30
0.0
 10
5.5814307366
 20
7.0794575433
 30
0.0
 10
5.5848955938
 20
7.0853629306
 30
0.0
 10
5.5901536885
 20
7.0941328524
 30
0.0
 10
5.5954576747
 20
7.1027652964
 30
0.0
 10
5.599048091
 20
7.1084482668
 30
0.0
 10
5.6008544149
 20
7.1112616821
 30
0.0
  0
SPLINE
  5
34C
100
AcDbEntity
  8
0
100
AcDbSpline
 62
7
  6
CONTINUOUS
 70
0
 71
3
 72
11
 73
7
 74
0
 42
0.0000001
 43
0.0000001
 44
0.0000000001
 40
0.0
 40
0.0
 40
0.0
 40
0.0
 40
0.2533140362
 40
0.5045991686
 40
0.7535953427
 40
1.0
 40
1.0
 40
1.0
 40
1.0
 10
5.5797036967
 20
6.5245061081
 30
0.0
 10
5.5814307366
 20
6.521534388
 30
0.0
 10
5.5848955938
 20
6.5156290007
 30
0.0
 10
5.5901536885
 20
6.5068590789
 30
0.0
 10
5.5954576747
 20
6.4982266349
 30
0.0
 10
5.599048091
 20
6.4925436645
 30
0.0
 10
5.6008544149
 20
6.4897302492
 30
0.0
  0
SPLINE
  5
34D
100
AcDbEntity
  8
0
100
AcDbSpline
 62
7
  6
CONTINUOUS
 70
0
 71
3
 72
11
 73
7
 74
0
 42
0.0000001
 43
0.0000001
 44
0.0000000001
 40
0.0
 40
0.0
 40
0.0
 40
0.0
 40
0.2483681177
 40
0.497909022
 40
0.7484910452
 40
1.0
 40
1.0
 40
1.0
 40
1.0
 10
5.5198317308
 20
6.4897302492
 30
0.0
 10
5.5226362272
 20
6.4925347457
 30
0.0
 10
5.528213533
 20
6.4982020541
 30
0.0
 10
5.5364780298
 20
6.5068373956
 30
0.0
 10
5.5446704669
 20
6.5156098086
 30
0.0
 10
5.5500794722
 20
6.5215284811
 30
0.0
 10
5.5527747467
 20
6.5245061081
 30
0.0
  0
SPLINE
  5
34E
100
AcDbEntity
  8
0
100
AcDbSpline
 62
7
  6
CONTINUOUS
 70
0
 71
3
 72
11
 73
7
 74
0
 42
0.0000001
 43
0.0000001
 44
0.0000000001
 40
0.0
 40
0.0
 40
0.0
 40
0.0
 40
0.2483681177
 40
0.497909022
 40
0.7484910452
 40
1.0
 40
1.0
 40
1.0
 40
1.0
 10
5.5198317308
 20
7.1112616821
 30
0.0
 10
5.5226362272
 20
7.1084571856
 30
0.0
 10
5.528213533
 20
7.1027898772
 30
0.0
 10
5.5364780298
 20
7.0941545357
 30
0.0
 10
5.5446704669
 20
7.0853821227
 30
0.0
 10
5.5500794722
 20
7.0794634502
 30
0.0
 10
5.5527747467
 20
7.0764858232
 30
0.0
  0
SPLINE
  5
34F
100
AcDbEntity
  8
0
100
AcDbSpline
 62
7
  6
CONTINUOUS
 70
0
 71
3
 72
11
 73
7
 74
0
 42
0.0000001
 43
0.0000001
 44
0.0000000001
 40
0.0
 40
0.0
 40
0.0
 40
0.0
 40
0.2515089498
 40
0.5020909693
 40
0.7516318794
 40
1.0
 40
1.0
 40
1.0
 40
1.0
 10
5.4868887149
 20
7.0764858232
 30
0.0
 10
5.4895839892
 20
7.0794634501
 30
0.0
 10
5.4949929947
 20
7.0853821224
 30
0.0
 10
5.5031854315
 20
7.0941545356
 30
0.0
 10
5.5114499283
 20
7.1027898771
 30
0.0
 10
5.5170272343
 20
7.1084571856
 30
0.0
 10
5.5198317308
 20
7.1112616821
 30
0.0
  0
SPLINE
  5
350
100
AcDbEntity
  8
0
100
AcDbSpline
 62
7
  6
CONTINUOUS
 70
0
 71
3
 72
11
 73
7
 74
0
 42
0.0000001
 43
0.0000001
 44
0.0000000001
 40
0.0
 40
0.0
 40
0.0
 40
0.0
 40
0.2515089498
 40
0.5020909693
 40
0.7516318794
 40
1.0
 40
1.0
 40
1.0
 40
1.0
 10
5.4868887149
 20
6.5245061081
 30
0.0
 10
5.4895839892
 20
6.5215284812
 30
0.0
 10
5.4949929947
 20
6.5156098089
 30
0.0
 10
5.5031854315
 20
6.5068373957
 30
0.0
 10
5.5114499283
 20
6.4982020542
 30
0.0
 10
5.5170272343
 20
6.4925347457
 30
0.0
 10
5.5198317308
 20
6.4897302492
 30
0.0
  0
SPLINE
  5
351
100
AcDbEntity
  8
0
100
AcDbSpline
 62
7
  6
CONTINUOUS
 70
0
 71
3
 72
11
 73
7
 74
0
 42
0.0000001
 43
0.0000001
 44
0.0000000001
 40
0.0
 40
0.0
 40
0.0
 40
0.0
 40
0.2464046552
 40
0.495400823
 40
0.7466859577
 40
1.0
 40
1.0
 40
1.0
 40
1.0
 10
5.4388090467
 20
6.4897302492
 30
0.0
 10
5.4406153705
 20
6.4925436645
 30
0.0
 10
5.4442057866
 20
6.4982266349
 30
0.0
 10
5.4495097729
 20
6.5068590788
 30
0.0
 10
5.4547678678
 20
6.5156290005
 30
0.0
 10
5.4582327249
 20
6.521534388
 30
0.0
 10
5.4599597648
 20
6.5245061081
 30
0.0
  0
SPLINE
  5
352
100
AcDbEntity
  8
0
100
AcDbSpline
 62
7
  6
CONTINUOUS
 70
0
 71
3
 72
11
 73
7
 74
0
 42
0.0000001
 43
0.0000001
 44
0.0000000001
 40
0.0
 40
0.0
 40
0.0
 40
0.0
 40
0.2464046552
 40
0.495400823
 40
0.7466859577
 40
1.0
 40
1.0
 40
1.0
 40
1.0
 10
5.4388090467
 20
7.1112616821
 30
0.0
 10
5.4406153705
 20
7.1084482668
 30
0.0
 10
5.4442057866
 20
7.1027652964
 30
0.0
 10
5.4495097729
 20
7.0941328525
 30
0.0
 10
5.4547678678
 20
7.0853629308
 30
0.0
 10
5.4582327249
 20
7.0794575433
 30
0.0
 10
5.4599597648
 20
7.0764858232
 30
0.0
  0
SPLINE
  5
353
100
AcDbEntity
  8
0
100
AcDbSpline
 62
7
  6
CONTINUOUS
 70
0
 71
3
 72
11
 73
7
 74
0
 42
0.0000001
 43
0.0000001
 44
0.0000000001
 40
0.0
 40
0.0
 40
0.0
 40
0.0
 40
0.2504869806
 40
0.5006744247
 40
0.7505260321
 40
1.0
 40
1.0
 40
1.0
 40
1.0
 10
5.397298425
 20
7.0764858232
 30
0.0
 10
5.4006985797
 20
7.0794668789
 30
0.0
 10
5.4075232271
 20
7.0853931408
 30
0.0
 10
5.417848085
 20
7.0941668049
 30
0.0
 10
5.4282640676
 20
7.1028035592
 30
0.0
 10
5.4352813231
 20
7.1084620648
 30
0.0
 10
5.4388090467
 20
7.1112616821
 30
0.0
  0
SPLINE
  5
354
100
AcDbEntity
  8
0
100
AcDbSpline
 62
7
  6
CONTINUOUS
 70
0
 71
3
 72
11
 73
7
 74
0
 42
0.0000001
 43
0.0000001
 44
0.0000000001
 40
0.0
 40
0.0
 40
0.0
 40
0.0
 40
0.2504869806
 40
0.5006744247
 40
0.7505260321
 40
1.0
 40
1.0
 40
1.0
 40
1.0
 10
5.397298425
 20
6.5245061081
 30
0.0
 10
5.4006985797
 20
6.5215250524
 30
0.0
 10
5.4075232271
 20
6.5155987905
 30
0.0
 10
5.417848085
 20
6.5068251264
 30
0.0
 10
5.4282640676
 20
6.4981883721
 30
0.0
 10
5.4352813231
 20
6.4925298665
 30
0.0
 10
5.4388090467
 20
6.4897302492
 30
0.0
  0
SPLINE
  5
355
100
AcDbEntity
  8
0
100
AcDbSpline
 62
7
  6
CONTINUOUS
 70
0
 71
3
 72
11
 73
7
 74
0
 42
0.0000001
 43
0.0000001
 44
0.0000000001
 40
0.0
 40
0.0
 40
0.0
 40
0.0
 40
0.250050821
 40
0.5000706381
 40
0.7500553415
 40
1.0
 40
1.0
 40
1.0
 40
1.0
 10
5.3197025488
 20
7.0764858232
 30
0.0
 10
5.3234735236
 20
7.0794683613
 30
0.0
 10
5.3310429352
 20
7.0853978771
 30
0.0
 10
5.342488927
 20
7.0941720392
 30
0.0
 10
5.3540360639
 20
7.1028093471
 30
0.0
 10
5.3618097738
 20
7.108464111
 30
0.0
 10
5.3657174274
 20
7.1112616821
 30
0.0
  0
SPLINE
  5
356
100
AcDbEntity
  8
0
100
AcDbSpline
 62
7
  6
CONTINUOUS
 70
0
 71
3
 72
11
 73
7
 74
0
 42
0.0000001
 43
0.0000001
 44
0.0000000001
 40
0.0
 40
0.0
 40
0.0
 40
0.0
 40
0.250050821
 40
0.5000706381
 40
0.7500553415
 40
1.0
 40
1.0
 40
1.0
 40
1.0
 10
5.3197025488
 20
6.5245061081
 30
0.0
 10
5.3234735236
 20
6.52152357
 30
0.0
 10
5.3310429352
 20
6.5155940542
 30
0.0
 10
5.342488927
 20
6.5068198921
 30
0.0
 10
5.3540360639
 20
6.4981825842
 30
0.0
 10
5.3618097738
 20
6.4925278203
 30
0.0
 10
5.3657174274
 20
6.4897302492
 30
0.0
  0
SPLINE
  5
357
100
AcDbEntity
  8
0
100
AcDbSpline
 62
7
  6
CONTINUOUS
 70
0
 71
3
 72
11
 73
7
 74
0
 42
0.0000001
 43
0.0000001
 44
0.0000000001
 40
0.0
 40
0.0
 40
0.0
 40
0.0
 40
0.250050821
 40
0.5000706381
 40
0.7500553415
 40
1.0
 40
1.0
 40
1.0
 40
1.0
 10
5.2616967113
 20
7.0764858232
 30
0.0
 10
5.2654676861
 20
7.0794683613
 30
0.0
 10
5.2730370978
 20
7.0853978771
 30
0.0
 10
5.2844830895
 20
7.0941720392
 30
0.0
 10
5.2960302264
 20
7.1028093471
 30
0.0
 10
5.3038039363
 20
7.108464111
 30
0.0
 10
5.3077115899
 20
7.1112616821
 30
0.0
  0
SPLINE
  5
358
100
AcDbEntity
  8
0
100
AcDbSpline
 62
7
  6
CONTINUOUS
 70
0
 71
3
 72
11
 73
7
 74
0
 42
0.0000001
 43
0.0000001
 44
0.0000000001
 40
0.0
 40
0.0
 40
0.0
 40
0.0
 40
0.250050821
 40
0.5000706381
 40
0.7500553415
 40
1.0
 40
1.0
 40
1.0
 40
1.0
 10
5.2616967113
 20
6.5245061081
 30
0.0
 10
5.2654676861
 20
6.52152357
 30
0.0
 10
5.2730370978
 20
6.5155940542
 30
0.0
 10
5.2844830895
 20
6.5068198921
 30
0.0
 10
5.2960302264
 20
6.4981825842
 30
0.0
 10
5.3038039363
 20
6.4925278203
 30
0.0
 10
5.3077115899
 20
6.4897302492
 30
0.0
  0
SPLINE
  5
359
100
AcDbEntity
  8
0
100
AcDbSpline
 62
7
  6
CONTINUOUS
 70
0
 71
3
 72
11
 73
7
 74
0
 42
0.0000001
 43
0.0000001
 44
0.0000000001
 40
0.0
 40
0.0
 40
0.0
 40
0.0
 40
0.2504869806
 40
0.5006744247
 40
0.7505260321
 40
1.0
 40
1.0
 40
1.0
 40
1.0
 10
5.2289589281
 20
7.0764858232
 30
0.0
 10
5.2323590828
 20
7.0794668789
 30
0.0
 10
5.2391837302
 20
7.0853931408
 30
0.0
 10
5.2495085881
 20
7.0941668049
 30
0.0
 10
5.2599245707
 20
7.1028035592
 30
0.0
 10
5.2669418262
 20
7.1084620648
 30
0.0
 10
5.2704695498
 20
7.1112616821
 30
0.0
  0
SPLINE
  5
35A
100
AcDbEntity
  8
0
100
AcDbSpline
 62
7
  6
CONTINUOUS
 70
0
 71
3
 72
11
 73
7
 74
0
 42
0.0000001
 43
0.0000001
 44
0.0000000001
 40
0.0
 40
0.0
 40
0.0
 40
0.0
 40
0.2504869806
 40
0.5006744247
 40
0.7505260321
 40
1.0
 40
1.0
 40
1.0
 40
1.0
 10
5.2289589281
 20
6.5245061081
 30
0.0
 10
5.2323590828
 20
6.5215250524
 30
0.0
 10
5.2391837302
 20
6.5155987905
 30
0.0
 10
5.2495085881
 20
6.5068251264
 30
0.0
 10
5.2599245707
 20
6.4981883721
 30
0.0
 10
5.2669418262
 20
6.4925298665
 30
0.0
 10
5.2704695498
 20
6.4897302492
 30
0.0
  0
ENDSEC
  0
SECTION
  2
OBJECTS
  0
DICTIONARY
  5
C
100
AcDbDictionary
280
0
281
1
  3
ACAD_GROUP
350
D
  3
ACAD_MLINESTYLE
350
17
  3
ACAD_LAYOUT
350
1A
  3
ACAD_PLOTSETTINGS
350
19
  3
ACAD_PLOTSTYLENAME
350
E
  0
DICTIONARY
  5
D
102
{ACAD_REACTORS
330
C
102
}
100
AcDbDictionary
280
0
281
1
  0
ACDBDICTIONARYWDFLT
  5
E
102
{ACAD_REACTORS
330
C
102
}
100
AcDbDictionary
281
1
  3
Normal
350
F
100
AcDbDictionaryWithDefault
340
F
  0
DICTIONARY
  5
17
102
{ACAD_REACTORS
330
C
102
}
100
AcDbDictionary
280
0
281
1
  3
Standard
350
18
  0
DICTIONARY
  5
19
102
{ACAD_REACTORS
330
C
102
}
100
AcDbDictionary
281
1
  0
DICTIONARY
  5
1A
102
{ACAD_REACTORS
330
C
102
}
100
AcDbDictionary
281
1
  3
Model
350
35B
  3
Layout1
350
35C
  0
ACDBPLACEHOLDER
  5
F
102
{ACAD_REACTORS
330
E
102
}
  0
MLINESTYLE
  5
18
102
{ACAD_REACTORS
330
17
102
}
100
AcDbMlineStyle
  2
STANDARD
 70
0
  3

 62
256
 51
90.0
 52
90.0
 71
2
 49
0.5
 62
256
  6
BYLAYER
 49
-0.5
 62
256
  6
BYLAYER
  0
LAYOUT
  5
35B
102
{ACAD_REACTORS
330
1A
102
}
100
AcDbPlotSettings
  1

  2
none_device
  4
ANSI_A_(11.00_x_8.50_Inches)
  6

 40
0.0
 41
0.0
 42
0.0
 43
0.0
 44
279.4
 45
215.9
 46
0.0
 47
0.0
 48
0.0
 49
0.0
140
0.0
141
0.0
142
1.0
143
1.0
 70
1024
 72
0
 73
0
 74
0
  7

 75
0
147
1.0
148
0.0
149
0.0
100
AcDbLayout
  1
Model
 70
0
 71
0
 10
0.0
 20
0.0
 11
11.0
 21
8.5
 12
0.0
 22
0.0
 32
0.0
 14
0.0
 24
0.0
 34
0.0
 15
0.0
 25
0.0
 35
0.0
146
0.0
 13
0.0
 23
0.0
 33
0.0
 16
1.0
 26
0.0
 36
0.0
 17
0.0
 27
1.0
 37
0.0
 76
0
330
203
345
0
346
0
  0
LAYOUT
  5
35C
102
{ACAD_REACTORS
330
1A
102
}
100
AcDbPlotSettings
  1

  2
none_device
  4
ANSI_A_(11.00_x_8.50_Inches)
  6

 40
0.0
 41
0.0
 42
0.0
 43
0.0
 44
279.4
 45
215.9
 46
0.0
 47
0.0
 48
0.0
 49
0.0
140
0.0
141
0.0
142
1.0
143
1.0
 70
0
 72
0
 73
0
 74
0
  7

 75
0
147
1.0
148
0.0
149
0.0
100
AcDbLayout
  1
Layout1
 70
0
 71
1
 10
0.0
 20
0.0
 11
11.0
 21
8.5
 12
0.0
 22
0.0
 32
0.0
 14
0.0
 24
0.0
 34
0.0
 15
0.0
 25
0.0
 35
0.0
146
0.0
 13
0.0
 23
0.0
 33
0.0
 16
1.0
 26
0.0
 36
0.0
 17
0.0
 27
1.0
 37
0.0
 76
0
330
204
345
0
346
0
  0
ENDSEC
  0
EOF
