999
DXF file: 2-270_FRONT.dxf
999
Pro/ENGINEER 2009300 by Parametric Technology Corporation
  0
SECTION
  2
HEADER
  9
$ACADVER
  1
AC1015
  9
$DWGCODEPAGE
  3
ANSI_1252
  9
$EXTMAX
 10
11.6929133858
 20
8.2677165354
 30
0.0
  9
$EXTMIN
 10
0.0
 20
0.0
 30
0.0
  9
$LIMMIN
 10
0.0
 20
0.0
  9
$LIMMAX
 10
11.6929133858
 20
8.2677165354
  9
$VIEWCTR
 10
5.8464566929
 20
4.1338582677
  9
$VIEWSIZE
 40
8.2677165354
  9
$CLAYER
  8
0
  9
$LTSCALE
 40
0.6431102362
  9
$CELTYPE
  6
BYLAYER
  9
$DIMSCALE
 40
1.0
  9
$DIMASZ
 40
0.1875
  9
$DIMEXO
 40
0.0730807087
  9
$DIMDLI
 40
0.4443307087
  9
$DIMEXE
 40
0.2104724409
  9
$DIMCEN
 40
0.1052362205
  9
$DIMLFAC
 40
1.0
  9
$DIMBLK
  1
_CLOSED
  9
$DIMTXT
 40
0.15625
  9
$DIMTOL
 70
0
  9
$DIMLIM
 70
0
  9
$DIMTFAC
 40
1.0
  9
$PDMODE
 70
3
  9
$PDSIZE
 40
0.3125
  9
$HANDSEED
  5
286
  9
$TILEMODE
 70
1
  9
$MEASUREMENT
 70
0
  9
$INSUNITS
 70
1
  0
ENDSEC
  0
SECTION
  2
CLASSES
  0
CLASS
  1
ACDBDICTIONARYWDFLT
  2
AcDbDictionaryWithDefault
  3
AutoCAD 2000
 90
0
280
0
281
0
  0
CLASS
  1
ACDBPLACEHOLDER
  2
AcDbPlaceHolder
  3
AutoCAD 2000
 90
0
280
0
281
0
  0
CLASS
  1
LAYOUT
  2
AcDbLayout
  3
AutoCAD 2000
 90
0
280
0
281
0
  0
ENDSEC
  0
SECTION
  2
TABLES
  0
TABLE
  2
VPORT
  5
8
100
AcDbSymbolTable
 70
2
  0
VPORT
  5
1F4
100
AcDbSymbolTableRecord
100
AcDbViewportTableRecord
  2
*ACTIVE
 70
0
 10
0.0
 20
0.0
 11
1.0
 21
1.0
 12
5.8464566929
 22
4.1338582677
 13
0.0
 23
0.0
 14
1.0
 24
1.0
 15
0.0
 25
0.0
 16
0.0
 26
0.0
 36
1.0
 17
0.0
 27
0.0
 37
0.0
 40
8.2677165354
 41
1.4142857143
 42
50.0
 43
0.0
 44
0.0
 50
0.0
 51
0.0
 71
0
 72
100
 73
1
 74
1
 75
0
 76
0
 77
0
 78
0
  0
ENDTAB
  0
TABLE
  2
LTYPE
  5
5
100
AcDbSymbolTable
 70
6
  0
LTYPE
  5
14
100
AcDbSymbolTableRecord
100
AcDbLinetypeTableRecord
  2
BYBLOCK
 70
0
  3

 72
65
 73
0
 40
0.0
  0
LTYPE
  5
15
100
AcDbSymbolTableRecord
100
AcDbLinetypeTableRecord
  2
BYLAYER
 70
0
  3

 72
65
 73
0
 40
0.0
  0
LTYPE
  5
16
100
AcDbSymbolTableRecord
100
AcDbLinetypeTableRecord
  2
CONTINUOUS
 70
64
  3
Solid line
 72
65
 73
0
 40
0.0
  0
LTYPE
  5
1F5
100
AcDbSymbolTableRecord
100
AcDbLinetypeTableRecord
  2
CENTER
 70
64
  3
____ _ ____ _ ____ _ ____ _ ____ _ ____ _ ____
 72
65
 73
4
 40
0.6
 49
0.375
 74
0
 49
-0.075
 74
0
 49
0.075
 74
0
 49
-0.075
 74
0
  0
LTYPE
  5
1F6
100
AcDbSymbolTableRecord
100
AcDbLinetypeTableRecord
  2
HIDDEN
 70
64
  3
- - - - - - - - - - - - - - - - - - - -
 72
65
 73
2
 40
0.2
 49
0.1
 74
0
 49
-0.1
 74
0
  0
LTYPE
  5
1F7
100
AcDbSymbolTableRecord
100
AcDbLinetypeTableRecord
  2
PHANTOM
 70
64
  3
_____ _ _ _____ _ _ _____ _ _ _____
 72
65
 73
6
 40
0.8
 49
0.45
 74
0
 49
-0.05
 74
0
 49
0.1
 74
0
 49
-0.05
 74
0
 49
0.1
 74
0
 49
-0.05
 74
0
  0
LTYPE
  5
1F8
100
AcDbSymbolTableRecord
100
AcDbLinetypeTableRecord
  2
DOT
 70
64
  3
. . . . . . . . . . . . . . . . . . . .
 72
65
 73
2
 40
0.2
 49
0.1
 74
0
 49
-0.1
 74
0
  0
LTYPE
  5
1F9
100
AcDbSymbolTableRecord
100
AcDbLinetypeTableRecord
  2
DASHED
 70
64
  3
- - - - - - - - - - - - - - - - - - - -
 72
65
 73
2
 40
0.2
 49
0.1
 74
0
 49
-0.1
 74
0
  0
ENDTAB
  0
TABLE
  2
LAYER
  5
2
100
AcDbSymbolTable
 70
36
  0
LAYER
  5
10
100
AcDbSymbolTableRecord
100
AcDbLayerTableRecord
  2
0
 70
0
 62
7
  6
CONTINUOUS
370
-3
390
F
  0
LAYER
  5
1FA
100
AcDbSymbolTableRecord
100
AcDbLayerTableRecord
  2
DEFAULT_1
 70
0
 62
7
  6
CENTER
370
-3
390
F
  0
LAYER
  5
1FB
100
AcDbSymbolTableRecord
100
AcDbLayerTableRecord
  2
DEFAULT_2
 70
0
 62
8
  6
HIDDEN
370
-3
390
F
  0
LAYER
  5
1FC
100
AcDbSymbolTableRecord
100
AcDbLayerTableRecord
  2
DEFAULT_3
 70
0
 62
7
  6
PHANTOM
370
-3
390
F
  0
LAYER
  5
1FD
100
AcDbSymbolTableRecord
100
AcDbLayerTableRecord
  2
DEFAULT_COORDINATE_SYSTEM
 70
0
 62
7
  6
CONTINUOUS
370
-3
390
F
  0
LAYER
  5
1FE
100
AcDbSymbolTableRecord
100
AcDbLayerTableRecord
  2
DEFAULT_DATUM_AXES
 70
0
 62
7
  6
CONTINUOUS
370
-3
390
F
  0
LAYER
  5
1FF
100
AcDbSymbolTableRecord
100
AcDbLayerTableRecord
  2
DEFAULT_DATUM_CURVES
 70
0
 62
7
  6
CONTINUOUS
370
-3
390
F
  0
LAYER
  5
200
100
AcDbSymbolTableRecord
100
AcDbLayerTableRecord
  2
DEFAULT_DATUM_PLANES
 70
0
 62
7
  6
CONTINUOUS
370
-3
390
F
  0
ENDTAB
  0
TABLE
  2
STYLE
  5
3
100
AcDbSymbolTable
 70
1
  0
STYLE
  5
11
100
AcDbSymbolTableRecord
100
AcDbTextStyleTableRecord
  2
STANDARD
 70
0
 40
0.0
 41
0.8
 50
0.0
 71
0
 42
0.2
  3
txt
  4

  0
STYLE
  5
201
100
AcDbSymbolTableRecord
100
AcDbTextStyleTableRecord
  2
TEXTSTYLE_1
 70
0
 40
0.0
 41
0.8
 50
0.0
 71
0
 42
0.2
  3
gdt
  4

  0
ENDTAB
  0
TABLE
  2
VIEW
  5
6
100
AcDbSymbolTable
 70
0
  0
ENDTAB
  0
TABLE
  2
UCS
  5
7
100
AcDbSymbolTable
 70
0
  0
ENDTAB
  0
TABLE
  2
APPID
  5
9
100
AcDbSymbolTable
 70
1
  0
APPID
  5
202
100
AcDbSymbolTableRecord
100
AcDbRegAppTableRecord
  2
ACAD
 70
0
  0
ENDTAB
  0
TABLE
  2
BLOCK_RECORD
  5
1
100
AcDbSymbolTable
 70
0
  0
BLOCK_RECORD
  5
203
100
AcDbSymbolTableRecord
100
AcDbBlockTableRecord
  2
*Model_Space
  0
BLOCK_RECORD
  5
204
100
AcDbSymbolTableRecord
100
AcDbBlockTableRecord
  2
*Paper_Space
  0
ENDTAB
  0
TABLE
  2
DIMSTYLE
  5
A
100
AcDbSymbolTable
 70
1
100
AcDbDimStyleTable
 71
0
  0
DIMSTYLE
105
205
100
AcDbSymbolTableRecord
100
AcDbDimStyleTableRecord
  2
STANDARD
 70
0
  3

  4

 40
1.0
 41
0.1875
 42
0.0625
 43
0.38
 44
0.18
 45
0.0
 46
0.0
 47
0.01
 48
0.01
140
0.15625
141
0.09
142
0.0
143
25.4
144
1.0
145
0.0
146
1.0
147
0.09
 71
0.0
 72
0.0
 73
1
 74
1
 75
0
 76
0
 77
0
 78
4
170
0
171
2
172
0
173
0
174
0
175
0
176
0
177
0
178
0
270
2
271
2
272
2
273
2
274
2
275
0
280
0
281
0
282
0
283
1
284
4
285
0
286
0
287
3
288
0
340
11
  0
ENDTAB
  0
ENDSEC
  0
SECTION
  2
BLOCKS
  0
BLOCK
  5
20
100
AcDbEntity
  8
0
100
AcDbBlockBegin
  2
*Model_Space
 70
0
 10
0.0
 20
0.0
 30
0.0
  3
*Model_Space
  1

  0
ENDBLK
  5
21
100
AcDbEntity
  8
0
100
AcDbBlockEnd
  0
BLOCK
  5
1C
100
AcDbEntity
  8
0
100
AcDbBlockBegin
  2
*Paper_Space
 70
0
 10
0.0
 20
0.0
 30
0.0
  3
*Paper_Space
  1

  0
ENDBLK
  5
1D
100
AcDbEntity
  8
0
100
AcDbBlockEnd
  0
ENDSEC
  0
SECTION
  2
ENTITIES
  0
LINE
  5
206
100
AcDbEntity
  8
0
100
AcDbLine
 62
9
  6
CONTINUOUS
 10
4.7784394499
 20
3.8067062774
 11
4.7784394499
 21
3.7067062774
  0
LINE
  5
207
100
AcDbEntity
  8
0
100
AcDbLine
 62
9
  6
CONTINUOUS
 10
4.788337396
 20
4.1658403194
 11
4.8057022139
 21
4.2643210946
  0
LINE
  5
208
100
AcDbEntity
  8
0
100
AcDbLine
 62
9
  6
CONTINUOUS
 10
5.2737399843
 20
4.0642765335
 11
5.2737399843
 21
3.8067062774
  0
LINE
  5
209
100
AcDbEntity
  8
0
100
AcDbLine
 62
6
  6
CONTINUOUS
 10
6.2066669397
 20
3.3567062774
 11
5.6036669397
 21
3.3567062774
  0
LINE
  5
20A
100
AcDbEntity
  8
0
100
AcDbLine
 62
6
  6
CONTINUOUS
 10
5.3476669397
 20
4.3727164826
 11
5.3476669397
 21
4.2867062774
  0
LINE
  5
20B
100
AcDbEntity
  8
0
100
AcDbLine
 62
6
  6
CONTINUOUS
 10
5.3551669397
 20
4.2617062774
 11
5.3551669397
 21
4.2151057821
  0
LINE
  5
20C
100
AcDbEntity
  8
0
100
AcDbLine
 62
9
  6
CONTINUOUS
 10
5.3852794765
 20
4.0642765335
 11
5.3852794765
 21
3.8067062774
  0
LINE
  5
20D
100
AcDbEntity
  8
0
100
AcDbLine
 62
9
  6
CONTINUOUS
 10
6.2066669397
 20
3.6467062774
 11
5.6036669397
 21
3.6467062774
  0
LINE
  5
20E
100
AcDbEntity
  8
0
100
AcDbLine
 62
6
  6
CONTINUOUS
 10
5.6036669397
 20
3.6467062774
 11
5.6036669397
 21
3.3567062774
  0
LINE
  5
20F
100
AcDbEntity
  8
0
100
AcDbLine
 62
6
  6
CONTINUOUS
 10
7.0318944296
 20
3.7067062774
 11
4.7784394499
 21
3.7067062774
  0
LINE
  5
210
100
AcDbEntity
  8
0
100
AcDbLine
 62
9
  6
CONTINUOUS
 10
6.4534369462
 20
3.7167062774
 11
5.9487559292
 21
3.7167062774
  0
LINE
  5
211
100
AcDbEntity
  8
0
100
AcDbLine
 62
9
  6
CONTINUOUS
 10
5.8615779503
 20
3.7167062774
 11
5.3568969333
 21
3.7167062774
  0
LINE
  5
212
100
AcDbEntity
  8
0
100
AcDbLine
 62
9
  6
CONTINUOUS
 10
7.0869334717
 20
4.1245286876
 11
7.1834931948
 21
4.1505329159
  0
LINE
  5
213
100
AcDbEntity
  8
0
100
AcDbLine
 62
9
  6
CONTINUOUS
 10
5.8051669397
 20
3.8067062774
 11
5.7256759218
 21
3.8067062774
  0
LINE
  5
214
100
AcDbEntity
  8
0
100
AcDbLine
 62
9
  6
CONTINUOUS
 10
4.7784394499
 20
3.8067062774
 11
5.3852794765
 21
3.8067062774
  0
LINE
  5
215
100
AcDbEntity
  8
0
100
AcDbLine
 62
9
  6
CONTINUOUS
 10
6.0051669397
 20
3.8067062774
 11
6.0846579577
 21
3.8067062774
  0
LINE
  5
216
100
AcDbEntity
  8
0
100
AcDbLine
 62
9
  6
CONTINUOUS
 10
6.5365938951
 20
3.8067062774
 11
7.0318944296
 21
3.8067062774
  0
LINE
  5
217
100
AcDbEntity
  8
0
100
AcDbLine
 62
9
  6
CONTINUOUS
 10
4.7234004078
 20
4.1245286876
 11
4.6268406847
 21
4.1505329159
  0
LINE
  5
218
100
AcDbEntity
  8
0
100
AcDbLine
 62
9
  6
CONTINUOUS
 10
5.7256759218
 20
3.8067062774
 11
5.7256759218
 21
4.0642765335
  0
LINE
  5
219
100
AcDbEntity
  8
0
100
AcDbLine
 62
6
  6
CONTINUOUS
 10
5.8051669397
 20
3.8067062774
 11
5.8051669397
 21
4.1245286876
  0
LINE
  5
21A
100
AcDbEntity
  8
0
100
AcDbLine
 62
9
  6
CONTINUOUS
 10
5.8051669397
 20
4.1245286876
 11
5.8051669397
 21
4.1667067125
  0
LINE
  5
21B
100
AcDbEntity
  8
0
100
AcDbLine
 62
9
  6
CONTINUOUS
 10
5.9051669397
 20
4.2667062774
 11
5.9051669397
 21
3.7067062774
  0
LINE
  5
21C
100
AcDbEntity
  8
0
100
AcDbLine
 62
9
  6
CONTINUOUS
 10
7.0219964835
 20
4.1658403194
 11
6.5330450119
 21
4.0796249827
  0
LINE
  5
21D
100
AcDbEntity
  8
0
100
AcDbLine
 62
9
  6
CONTINUOUS
 10
5.2746103174
 20
4.0800972833
 11
4.788337396
 21
4.1658403194
  0
LINE
  5
21E
100
AcDbEntity
  8
0
100
AcDbLine
 62
9
  6
CONTINUOUS
 10
6.0051669397
 20
4.1667067125
 11
6.0051669397
 21
3.8488838673
  0
LINE
  5
21F
100
AcDbEntity
  8
0
100
AcDbLine
 62
6
  6
CONTINUOUS
 10
6.0051669397
 20
3.8488838673
 11
6.0051669397
 21
3.8067062774
  0
LINE
  5
220
100
AcDbEntity
  8
0
100
AcDbLine
 62
6
  6
CONTINUOUS
 10
6.5021128704
 20
4.1757134727
 11
7.0046316657
 21
4.2643210947
  0
LINE
  5
221
100
AcDbEntity
  8
0
100
AcDbLine
 62
6
  6
CONTINUOUS
 10
4.8057022138
 20
4.2643210947
 11
5.3082210478
 21
4.1757134659
  0
LINE
  5
222
100
AcDbEntity
  8
0
100
AcDbLine
 62
9
  6
CONTINUOUS
 10
6.0846579577
 20
4.0642765335
 11
6.0846579577
 21
3.8067062774
  0
LINE
  5
223
100
AcDbEntity
  8
0
100
AcDbLine
 62
9
  6
CONTINUOUS
 10
4.7234004078
 20
3.8488838673
 11
4.6268406847
 21
3.822879639
  0
LINE
  5
224
100
AcDbEntity
  8
0
100
AcDbLine
 62
9
  6
CONTINUOUS
 10
7.0869334717
 20
3.8488838673
 11
7.1834931947
 21
3.822879639
  0
LINE
  5
225
100
AcDbEntity
  8
0
100
AcDbLine
 62
6
  6
CONTINUOUS
 10
6.2020769399
 20
3.5075691963
 11
6.2020769398
 21
3.493941277
  0
LINE
  5
226
100
AcDbEntity
  8
0
100
AcDbLine
 62
6
  6
CONTINUOUS
 10
6.2051669397
 20
3.4947062774
 11
6.2051669397
 21
3.6143494726
  0
LINE
  5
227
100
AcDbEntity
  8
0
100
AcDbLine
 62
6
  6
CONTINUOUS
 10
6.2066669397
 20
3.6467062774
 11
6.2066669397
 21
3.6218062774
  0
LINE
  5
228
100
AcDbEntity
  8
0
100
AcDbLine
 62
6
  6
CONTINUOUS
 10
6.2066669397
 20
3.4747062775
 11
6.2066669397
 21
3.3567062774
  0
LINE
  5
229
100
AcDbEntity
  8
0
100
AcDbLine
 62
9
  6
CONTINUOUS
 10
5.3551669397
 20
4.2617062774
 11
5.8741415017
 21
4.2617062774
  0
LINE
  5
22A
100
AcDbEntity
  8
0
100
AcDbLine
 62
9
  6
CONTINUOUS
 10
5.9361923778
 20
4.2617062774
 11
6.4551669397
 21
4.2617062774
  0
LINE
  5
22B
100
AcDbEntity
  8
0
100
AcDbLine
 62
7
  6
CONTINUOUS
 10
5.3626669397
 20
4.2717062774
 11
6.4476669397
 21
4.2717062774
  0
LINE
  5
22C
100
AcDbEntity
  8
0
100
AcDbLine
 62
9
  6
CONTINUOUS
 10
5.3476669397
 20
4.2867062774
 11
6.4626669397
 21
4.2867062774
  0
LINE
  5
22D
100
AcDbEntity
  8
0
100
AcDbLine
 62
9
  6
CONTINUOUS
 10
6.4626669397
 20
4.3727164826
 11
5.3476669397
 21
4.3727164826
  0
LINE
  5
22E
100
AcDbEntity
  8
0
100
AcDbLine
 62
6
  6
CONTINUOUS
 10
6.4226669397
 20
4.4217062774
 11
5.3876669397
 21
4.4217062774
  0
LINE
  5
22F
100
AcDbEntity
  8
0
100
AcDbLine
 62
6
  6
CONTINUOUS
 10
6.4551669397
 20
4.2617062774
 11
6.4551669397
 21
4.2151057715
  0
LINE
  5
230
100
AcDbEntity
  8
0
100
AcDbLine
 62
6
  6
CONTINUOUS
 10
6.4626669397
 20
4.3727164826
 11
6.4626669397
 21
4.2867062774
  0
LINE
  5
231
100
AcDbEntity
  8
0
100
AcDbLine
 62
6
  6
CONTINUOUS
 10
6.2051669397
 20
3.4947062774
 11
6.2024909474
 21
3.4920302851
  0
LINE
  5
232
100
AcDbEntity
  8
0
100
AcDbLine
 62
9
  6
CONTINUOUS
 10
6.3301369597
 20
4.5370251997
 11
5.4801969198
 21
4.5370251997
  0
LINE
  5
233
100
AcDbEntity
  8
0
100
AcDbLine
 62
6
  6
CONTINUOUS
 10
6.3126669397
 20
4.5417062774
 11
5.4976669397
 21
4.5417062774
  0
LINE
  5
234
100
AcDbEntity
  8
0
100
AcDbLine
 62
9
  6
CONTINUOUS
 10
5.5122490927
 20
4.5477919467
 11
6.2980847868
 21
4.5477919467
  0
LINE
  5
235
100
AcDbEntity
  8
0
100
AcDbLine
 62
6
  6
CONTINUOUS
 10
5.4976669397
 20
4.5417062774
 11
5.4801969198
 21
4.5370251997
  0
LINE
  5
236
100
AcDbEntity
  8
0
100
AcDbLine
 62
6
  6
CONTINUOUS
 10
6.3301369597
 20
4.5370251997
 11
6.3126669397
 21
4.5417062774
  0
LINE
  5
237
100
AcDbEntity
  8
0
100
AcDbLine
 62
9
  6
CONTINUOUS
 10
7.0318944296
 20
3.8067062774
 11
7.0318944296
 21
3.7067062774
  0
LINE
  5
238
100
AcDbEntity
  8
0
100
AcDbLine
 62
9
  6
CONTINUOUS
 10
7.0219964835
 20
4.1658403194
 11
7.0046316657
 21
4.2643210947
  0
ARC
  5
239
100
AcDbEntity
  8
0
100
AcDbCircle
 62
9
  6
CONTINUOUS
 10
5.5074676645
 20
3.7388766474
 40
1.080702699
100
AcDbArc
 50
17.5237005197
 51
18.3790804568
  0
ARC
  5
23A
100
AcDbEntity
  8
0
100
AcDbCircle
 62
7
  6
CONTINUOUS
 10
5.9051666082
 20
3.5567059479
 40
0.0819990326
100
AcDbArc
 50
149.9686625462
 51
301.7808243599
  0
ARC
  5
23B
100
AcDbEntity
  8
0
100
AcDbCircle
 62
6
  6
CONTINUOUS
 10
5.5436669397
 20
3.6467062774
 40
0.06
100
AcDbArc
 50
0.0
 51
89.9999999999
  0
ARC
  5
23C
100
AcDbEntity
  8
0
100
AcDbCircle
 62
6
  6
CONTINUOUS
 10
5.2351669397
 20
3.9867062774
 40
0.63
100
AcDbArc
 50
164.9274289077
 51
195.0725711005
  0
ARC
  5
23D
100
AcDbEntity
  8
0
100
AcDbCircle
 62
6
  6
CONTINUOUS
 10
4.7843477657
 20
3.8107165793
 40
0.5802158962
100
AcDbArc
 50
350.6754637703
 51
351.7208823787
  0
ARC
  5
23E
100
AcDbEntity
  8
0
100
AcDbCircle
 62
9
  6
CONTINUOUS
 10
5.2351669397
 20
3.9867062774
 40
0.5300000286
100
AcDbArc
 50
164.9274288999
 51
195.0725711001
  0
ARC
  5
23F
100
AcDbEntity
  8
0
100
AcDbCircle
 62
6
  6
CONTINUOUS
 10
4.7784394499
 20
3.8637062774
 40
0.157
100
AcDbArc
 50
195.0725710807
 51
270.0000000151
  0
ARC
  5
240
100
AcDbEntity
  8
0
100
AcDbCircle
 62
9
  6
CONTINUOUS
 10
4.7784394499
 20
3.8637062774
 40
0.0569999968
100
AcDbArc
 50
195.0725711001
 51
270.0
  0
ARC
  5
241
100
AcDbEntity
  8
0
100
AcDbCircle
 62
6
  6
CONTINUOUS
 10
6.7856835637
 20
3.5643141935
 40
0.5872373457
100
AcDbArc
 50
187.0629496293
 51
187.5451274879
  0
ARC
  5
242
100
AcDbEntity
  8
0
100
AcDbCircle
 62
6
  6
CONTINUOUS
 10
6.5352606595
 20
3.5644986153
 40
0.3406357065
100
AcDbArc
 50
192.4308372132
 51
193.1839725149
  0
ARC
  5
243
100
AcDbEntity
  8
0
100
AcDbCircle
 62
7
  6
CONTINUOUS
 10
6.5310185609
 20
3.5517285569
 40
0.3318355063
100
AcDbArc
 50
167.9520398066
 51
169.1224474338
  0
ARC
  5
244
100
AcDbEntity
  8
0
100
AcDbCircle
 62
6
  6
CONTINUOUS
 10
5.9051669397
 20
3.5567062774
 40
0.0650899999
100
AcDbArc
 50
139.0174920094
 51
228.9886794061
  0
ARC
  5
245
100
AcDbEntity
  8
0
100
AcDbCircle
 62
6
  6
CONTINUOUS
 10
6.2666669397
 20
3.6467062774
 40
0.06
100
AcDbArc
 50
90.0
 51
180.0
  0
ARC
  5
246
100
AcDbEntity
  8
0
100
AcDbCircle
 62
9
  6
CONTINUOUS
 10
5.9051669397
 20
3.8067062774
 40
0.1
100
AcDbArc
 50
180.0
 51
360.0
  0
ARC
  5
247
100
AcDbEntity
  8
0
100
AcDbCircle
 62
6
  6
CONTINUOUS
 10
7.0209597497
 20
3.8099434182
 40
0.5751306365
100
AcDbArc
 50
186.8241361632
 51
189.3296626779
  0
ARC
  5
248
100
AcDbEntity
  8
0
100
AcDbCircle
 62
6
  6
CONTINUOUS
 10
7.0318944296
 20
3.8637062774
 40
0.157
100
AcDbArc
 50
269.999999993
 51
344.9274289141
  0
ARC
  5
249
100
AcDbEntity
  8
0
100
AcDbCircle
 62
9
  6
CONTINUOUS
 10
7.0318944296
 20
3.8637062774
 40
0.0570000029
100
AcDbArc
 50
270.0
 51
344.9274288999
  0
ARC
  5
24A
100
AcDbEntity
  8
0
100
AcDbCircle
 62
6
  6
CONTINUOUS
 10
6.5751669397
 20
3.9867062774
 40
0.63
100
AcDbArc
 50
344.9274289041
 51
15.0725711005
  0
ARC
  5
24B
100
AcDbEntity
  8
0
100
AcDbCircle
 62
9
  6
CONTINUOUS
 10
6.5751669397
 20
3.9867062774
 40
0.5300000215
100
AcDbArc
 50
344.9274288999
 51
15.0725711001
  0
ARC
  5
24C
100
AcDbEntity
  8
0
100
AcDbCircle
 62
9
  6
CONTINUOUS
 10
4.8223205082
 20
4.0638752579
 40
0.5629591113
100
AcDbArc
 50
0.0408402641
 51
1.6512429572
  0
ARC
  5
24D
100
AcDbEntity
  8
0
100
AcDbCircle
 62
6
  6
CONTINUOUS
 10
4.7784394499
 20
4.1097062774
 40
0.157
100
AcDbArc
 50
79.9999999483
 51
164.9274289275
  0
ARC
  5
24E
100
AcDbEntity
  8
0
100
AcDbCircle
 62
9
  6
CONTINUOUS
 10
4.7784394499
 20
4.1097062774
 40
0.0569999996
100
AcDbArc
 50
80.0
 51
164.9274288999
  0
ARC
  5
24F
100
AcDbEntity
  8
0
100
AcDbCircle
 62
6
  6
CONTINUOUS
 10
5.3151669397
 20
4.2151057822
 40
0.04
100
AcDbArc
 50
259.999999997
 51
360.0
  0
ARC
  5
250
100
AcDbEntity
  8
0
100
AcDbCircle
 62
6
  6
CONTINUOUS
 10
5.3626669397
 20
4.2867062774
 40
0.015
100
AcDbArc
 50
180.0
 51
270.0
  0
ARC
  5
251
100
AcDbEntity
  8
0
100
AcDbCircle
 62
6
  6
CONTINUOUS
 10
5.3651669397
 20
4.2617062774
 40
0.01
100
AcDbArc
 50
90.0
 51
180.0
  0
ARC
  5
252
100
AcDbEntity
  8
0
100
AcDbCircle
 62
6
  6
CONTINUOUS
 10
5.3976669397
 20
4.3727164826
 40
0.05
100
AcDbArc
 50
101.5369590328
 51
180.0
  0
ARC
  5
253
100
AcDbEntity
  8
0
100
AcDbCircle
 62
6
  6
CONTINUOUS
 10
5.5125493005
 20
4.4162844714
 40
0.125
100
AcDbArc
 50
105.0
 51
177.5140472802
  0
ARC
  5
254
100
AcDbEntity
  8
0
100
AcDbCircle
 62
6
  6
CONTINUOUS
 10
5.5251669397
 20
4.5325233767
 40
0.02
100
AcDbArc
 50
130.2326139158
 51
152.6611607018
  0
ARC
  5
255
100
AcDbEntity
  8
0
100
AcDbCircle
 62
6
  6
CONTINUOUS
 10
5.9051669397
 20
4.0833729441
 40
0.6083333333
100
AcDbArc
 50
49.7673860839
 51
130.2326139161
  0
ARC
  5
256
100
AcDbEntity
  8
0
100
AcDbCircle
 62
6
  6
CONTINUOUS
 10
7.0318944296
 20
4.1097062774
 40
0.157
100
AcDbArc
 50
15.0725710993
 51
100.0000000134
  0
ARC
  5
257
100
AcDbEntity
  8
0
100
AcDbCircle
 62
6
  6
CONTINUOUS
 10
5.9051669397
 20
4.1667062774
 40
0.1
100
AcDbArc
 50
0.0000363892
 51
179.9999636116
  0
ARC
  5
258
100
AcDbEntity
  8
0
100
AcDbCircle
 62
9
  6
CONTINUOUS
 10
7.0318944296
 20
4.1097062774
 40
0.0569999999
100
AcDbArc
 50
15.0725711001
 51
100.0
  0
ARC
  5
259
100
AcDbEntity
  8
0
100
AcDbCircle
 62
6
  6
CONTINUOUS
 10
6.4951669397
 20
4.2151057822
 40
0.04
100
AcDbArc
 50
179.9999999999
 51
280.0000000007
  0
ARC
  5
25A
100
AcDbEntity
  8
0
100
AcDbCircle
 62
6
  6
CONTINUOUS
 10
6.4476669397
 20
4.2867062774
 40
0.015
100
AcDbArc
 50
270.0
 51
360.0
  0
ARC
  5
25B
100
AcDbEntity
  8
0
100
AcDbCircle
 62
6
  6
CONTINUOUS
 10
6.4451669397
 20
4.2617062774
 40
0.01
100
AcDbArc
 50
0.0
 51
90.0
  0
ARC
  5
25C
100
AcDbEntity
  8
0
100
AcDbCircle
 62
6
  6
CONTINUOUS
 10
6.297784579
 20
4.4162844714
 40
0.125
100
AcDbArc
 50
2.4859527198
 51
75.0
  0
ARC
  5
25D
100
AcDbEntity
  8
0
100
AcDbCircle
 62
6
  6
CONTINUOUS
 10
6.2851669397
 20
4.5325233767
 40
0.02
100
AcDbArc
 50
27.3388392982
 51
49.7673860842
  0
ARC
  5
25E
100
AcDbEntity
  8
0
100
AcDbCircle
 62
6
  6
CONTINUOUS
 10
6.4126669397
 20
4.3727164826
 40
0.05
100
AcDbArc
 50
0.0
 51
78.4630409672
  0
ARC
  5
25F
100
AcDbEntity
  8
0
100
AcDbCircle
 62
9
  6
CONTINUOUS
 10
10.4522643336
 20
3.7222382012
 40
4.0420905911
100
AcDbArc
 50
174.9274942309
 51
175.1458742451
  0
LINE
  5
260
100
AcDbEntity
  8
0
100
AcDbLine
 62
7
  6
CONTINUOUS
 10
6.2064923213
 20
3.6209927113
 11
6.2065472955
 21
3.6212499955
  0
LINE
  5
261
100
AcDbEntity
  8
0
100
AcDbLine
 62
7
  6
CONTINUOUS
 10
6.2065472955
 20
3.6212499955
 11
6.2066669397
 21
3.6218062774
  0
SPLINE
  5
262
100
AcDbEntity
  8
0
100
AcDbSpline
 62
6
  6
CONTINUOUS
 70
0
 71
3
 72
19
 73
15
 74
13
 42
0.0000001
 43
0.0000001
 44
0.0000000001
 12
0.0061631374
 22
0.0169275596
 32
0.0
 13
0.0087111702
 23
0.0157683876
 33
0.0
 40
0.0
 40
0.0
 40
0.0
 40
0.0
 40
0.1734302651
 40
0.3342397125
 40
0.4818555596
 40
0.6157005348
 40
0.6772754155
 40
0.7351698938
 40
0.7892888798
 40
0.8395380431
 40
0.8858241345
 40
0.9280554649
 40
0.9661426707
 40
1.0
 40
1.0
 40
1.0
 40
1.0
 10
6.1981898124
 20
3.5977447211
 30
0.0
 10
6.1985461039
 20
3.5987233048
 30
0.0
 10
6.1992439629
 20
3.6006052059
 30
0.0
 10
6.2002833828
 20
3.6033056235
 30
0.0
 10
6.2012683492
 20
3.6057720707
 30
0.0
 10
6.2020569603
 20
3.6076750942
 30
0.0
 10
6.2026540383
 20
3.6090741439
 30
0.0
 10
6.2030704284
 20
3.6100297541
 30
0.0
 10
6.203467259
 20
3.610919665
 30
0.0
 10
6.2038437489
 20
3.6117422795
 30
0.0
 10
6.2041991158
 20
3.6124960016
 30
0.0
 10
6.2045325707
 20
3.6131792468
 30
0.0
 10
6.2048433181
 20
3.613790429
 30
0.0
 10
6.2050469232
 20
3.6141715141
 30
0.0
 10
6.2051452355
 20
3.6143494726
 30
0.0
 11
6.1981898124
 21
3.5977447211
 31
0.0
 11
6.1992765429
 21
3.6006739095
 31
0.0
 11
6.2003177079
 21
3.6033772643
 31
0.0
 11
6.2013045804
 21
3.605846608
 31
0.0
 11
6.2022284336
 21
3.6080737628
 31
0.0
 11
6.2026640353
 21
3.6090939012
 31
0.0
 11
6.2030808877
 21
3.6100499204
 31
0.0
 11
6.2034782224
 21
3.6109402122
 31
0.0
 11
6.2038552709
 21
3.6117631684
 31
0.0
 11
6.2042112648
 21
3.6125171807
 31
0.0
 11
6.2045454358
 21
3.6132006411
 31
0.0
 11
6.2048570156
 21
3.6138119411
 31
0.0
 11
6.2051452355
 21
3.6143494726
 31
0.0
  0
LINE
  5
263
100
AcDbEntity
  8
0
100
AcDbLine
 62
6
  6
CONTINUOUS
 10
6.2066669397
 20
3.4747062775
 11
6.2036031762
 21
3.4868069277
  0
SPLINE
  5
264
100
AcDbEntity
  8
0
100
AcDbSpline
 62
6
  6
CONTINUOUS
 70
0
 71
3
 72
32
 73
28
 74
26
 42
0.0000001
 43
0.0000001
 44
0.0000000001
 12
-0.0230783175
 22
0.1047294115
 32
0.0
 13
0.0148742978
 23
0.1062055254
 33
0.0
 40
0.0
 40
0.0
 40
0.0
 40
0.0
 40
0.0448688399
 40
0.0942808805
 40
0.1478331052
 40
0.2050912827
 40
0.2349765503
 40
0.2656269201
 40
0.3289742602
 40
0.3615467373
 40
0.3946353795
 40
0.4281789221
 40
0.4621128672
 40
0.4963652265
 40
0.5308632192
 40
0.5655342647
 40
0.6003060549
 40
0.6351067017
 40
0.6698663973
 40
0.7045169979
 40
0.7389900959
 40
0.7732169997
 40
0.8071288024
 40
0.8406562905
 40
0.8737284167
 40
0.9382145131
 40
1.0
 40
1.0
 40
1.0
 40
1.0
 10
6.2026106243
 20
3.491173049
 30
0.0
 10
6.2022654586
 20
3.4927394114
 30
0.0
 10
6.2015639102
 20
3.4960360193
 30
0.0
 10
6.2005437502
 20
3.5012214909
 30
0.0
 10
6.1995340896
 20
3.5068596269
 30
0.0
 10
6.1987401508
 20
3.5118264207
 30
0.0
 10
6.1981384538
 20
3.5159940978
 30
0.0
 10
6.1975525927
 20
3.5203837292
 30
0.0
 10
6.1970279902
 20
3.5248782146
 30
0.0
 10
6.1965711396
 20
3.5294673203
 30
0.0
 10
6.1962614312
 20
3.5330001649
 30
0.0
 10
6.1959912145
 20
3.5365850594
 30
0.0
 10
6.1957633541
 20
3.5402145819
 30
0.0
 10
6.1955788877
 20
3.5438807298
 30
0.0
 10
6.1954391361
 20
3.5475752253
 30
0.0
 10
6.1953453714
 20
3.5512897501
 30
0.0
 10
6.1952987992
 20
3.5550159911
 30
0.0
 10
6.1953009377
 20
3.5587456956
 30
0.0
 10
6.1953518417
 20
3.562470717
 30
0.0
 10
6.1954499472
 20
3.5661830761
 30
0.0
 10
6.1955940181
 20
3.569874873
 30
0.0
 10
6.1957827482
 20
3.5735382093
 30
0.0
 10
6.1960147788
 20
3.5771651858
 30
0.0
 10
6.1962890153
 20
3.5807478178
 30
0.0
 10
6.1967035989
 20
3.5854155055
 30
0.0
 10
6.197306459
 20
3.5910801497
 30
0.0
 10
6.1978834738
 20
3.5955574011
 30
0.0
 10
6.1981898124
 20
3.5977447211
 30
0.0
 11
6.2026106243
 21
3.491173049
 31
0.0
 11
6.2016092534
 21
3.4958795266
 31
0.0
 11
6.2005865277
 21
3.5010789448
 31
0.0
 11
6.1995744898
 21
3.5067321218
 31
0.0
 11
6.1986058107
 21
3.5127957191
 31
0.0
 11
6.1981479523
 21
3.5159678033
 31
0.0
 11
6.1977130622
 21
3.5192259157
 31
0.0
 11
6.1969256843
 21
3.5259736312
 31
0.0
 11
6.1965797431
 21
3.5294495983
 31
0.0
 11
6.1962699984
 21
3.5329845477
 31
0.0
 11
6.1959997187
 21
3.5365716582
 31
0.0
 11
6.1957715556
 21
3.5402036446
 31
0.0
 11
6.1955869256
 21
3.543872295
 31
0.0
 11
6.1954470985
 21
3.5475692873
 31
0.0
 11
6.1953533442
 21
3.5512862993
 31
0.0
 11
6.1953069325
 21
3.5550150087
 31
0.0
 11
6.1953090862
 21
3.558747101
 31
0.0
 11
6.1953598311
 21
3.5624744568
 31
0.0
 11
6.1954579247
 21
3.5661891634
 31
0.0
 11
6.1956020636
 21
3.5698833184
 31
0.0
 11
6.1957909444
 21
3.5735490189
 31
0.0
 11
6.1960232636
 21
3.5771783624
 31
0.0
 11
6.1962975877
 21
3.580763439
 31
0.0
 11
6.1966112052
 21
3.5842962688
 31
0.0
 11
6.1973425694
 21
3.5911731087
 31
0.0
 11
6.1981898124
 21
3.5977447211
 31
0.0
  0
SPLINE
  5
265
100
AcDbEntity
  8
0
100
AcDbSpline
 62
6
  6
CONTINUOUS
 70
0
 71
3
 72
20
 73
16
 74
14
 42
0.0000001
 43
0.0000001
 44
0.0000000001
 12
0.0044051939
 22
-0.0852611189
 32
0.0
 13
0.0066582616
 23
-0.0851148147
 33
0.0
 40
0.0
 40
0.0
 40
0.0
 40
0.0
 40
0.0620679077
 40
0.1265168585
 40
0.260690208
 40
0.3986082457
 40
0.5361560439
 40
0.6034783343
 40
0.6691315445
 40
0.7325979333
 40
0.7933704669
 40
0.8509554876
 40
0.9048818571
 40
0.9547131733
 40
1.0
 40
1.0
 40
1.0
 40
1.0
 10
6.1976563879
 20
3.5928272954
 30
0.0
 10
6.1977475283
 20
3.5910633023
 30
0.0
 10
6.1979292977
 20
3.5874674385
 30
0.0
 10
6.1982914753
 20
3.5800574867
 30
0.0
 10
6.1987415225
 20
3.5704907012
 30
0.0
 10
6.1992790734
 20
3.5588454758
 30
0.0
 10
6.1997335378
 20
3.5491009034
 30
0.0
 10
6.2001035744
 20
3.5414111714
 30
0.0
 10
6.2003801892
 20
3.535827618
 30
0.0
 10
6.2006578441
 20
3.5304307476
 30
0.0
 10
6.2009365325
 20
3.5252638542
 30
0.0
 10
6.2012162015
 20
3.5203689224
 30
0.0
 10
6.2014968241
 20
3.5157859524
 30
0.0
 10
6.2017783418
 20
3.511553733
 30
0.0
 10
6.2019764294
 20
3.5088540563
 30
0.0
 10
6.2020769399
 20
3.5075691963
 30
0.0
 11
6.1976563879
 21
3.5928272954
 31
0.0
 11
6.1979244329
 21
3.5875350411
 31
0.0
 11
6.198193519
 21
3.5820393056
 31
0.0
 11
6.1987348593
 21
3.5705970751
 31
0.0
 11
6.1992804938
 21
3.5588349931
 31
0.0
 11
6.1998305267
 21
3.5471047596
 31
0.0
 11
6.20010723
 21
3.5413637939
 31
0.0
 11
6.2003850727
 21
3.5357655518
 31
0.0
 11
6.2006640708
 21
3.5303543063
 31
0.0
 11
6.2009442442
 21
3.5251734308
 31
0.0
 11
6.2012255898
 21
3.5202651755
 31
0.0
 11
6.2015081372
 21
3.5156698983
 31
0.0
 11
6.2017919829
 21
3.5114250369
 31
0.0
 11
6.2020769399
 21
3.5075691963
 31
0.0
  0
SPLINE
  5
266
100
AcDbEntity
  8
0
100
AcDbSpline
 62
6
  6
CONTINUOUS
 70
0
 71
3
 72
31
 73
27
 74
25
 42
0.0000001
 43
0.0000001
 44
0.0000000001
 12
-0.0978890617
 22
-0.1050147904
 32
0.0
 13
-0.1141862892
 23
-0.0870164694
 33
0.0
 40
0.0
 40
0.0
 40
0.0
 40
0.0
 40
0.061921362
 40
0.1238559304
 40
0.1858046226
 40
0.2477585269
 40
0.3097702217
 40
0.3718769274
 40
0.4340927377
 40
0.4652495011
 40
0.4964406776
 40
0.5276663066
 40
0.5589256133
 40
0.6215459474
 40
0.6529072687
 40
0.6843024536
 40
0.7157313775
 40
0.7471932012
 40
0.7786870777
 40
0.8102135972
 40
0.8417752946
 40
0.8575708603
 40
0.8733761892
 40
0.9050086134
 40
0.936660708
 40
1.0
 40
1.0
 40
1.0
 40
1.0
 10
6.0846579577
 20
3.8067062774
 30
0.0
 10
6.082637483
 20
3.8045387245
 30
0.0
 10
6.078474472
 20
3.800314991
 30
0.0
 10
6.0719093111
 20
3.7943132608
 30
0.0
 10
6.0650603861
 20
3.7886353212
 30
0.0
 10
6.057960393
 20
3.7832696624
 30
0.0
 10
6.0506506687
 20
3.778181453
 30
0.0
 10
6.0431673219
 20
3.7733302525
 30
0.0
 10
6.0368168723
 20
3.76945189
 30
0.0
 10
6.0316817996
 20
3.7664246305
 30
0.0
 10
6.0278042315
 20
3.7641848541
 30
0.0
 10
6.0239060409
 20
3.7619712625
 30
0.0
 10
6.0186827146
 20
3.7590456203
 30
0.0
 10
6.0134353905
 20
3.7561497654
 30
0.0
 10
6.0081790106
 20
3.7532569503
 30
0.0
 10
6.0042323206
 20
3.7510801678
 30
0.0
 10
6.0002869888
 20
3.7488909829
 30
0.0
 10
5.9963475819
 20
3.7466814521
 30
0.0
 10
5.9924194001
 20
3.744442529
 30
0.0
 10
5.9885076444
 20
3.7421654611
 30
0.0
 10
5.9852669105
 20
3.740229333
 30
0.0
 10
5.9826880136
 20
3.7386527543
 30
0.0
 10
5.9801179921
 20
3.7370553481
 30
0.0
 10
5.97692815
 20
3.7350178001
 30
0.0
 10
5.9718861497
 20
3.7316565855
 30
0.0
 10
5.9681898085
 20
3.7290060534
 30
0.0
 10
5.9657789823
 20
3.7271688662
 30
0.0
 11
6.0846579577
 21
3.8067062774
 31
0.0
 11
6.0784216086
 21
3.8003711861
 31
0.0
 11
6.0718627216
 21
3.7943678414
 31
0.0
 11
6.0650192242
 21
3.7886878986
 31
0.0
 11
6.0579287048
 21
3.7833182569
 31
0.0
 11
6.0506272434
 21
3.7782246498
 31
0.0
 11
6.0431504985
 21
3.7733669233
 31
0.0
 11
6.0355325282
 21
3.7687037364
 31
0.0
 11
6.0316798824
 21
3.7664311794
 31
0.0
 11
6.0278029348
 21
3.7641904441
 31
0.0
 11
6.0239052897
 21
3.7619758786
 31
0.0
 11
6.0199905594
 21
3.7597817511
 31
0.0
 11
6.0121245867
 21
3.7554290433
 31
0.0
 11
6.0081807633
 21
3.753257125
 31
0.0
 11
6.0042346611
 21
3.7510792703
 31
0.0
 11
6.0002900386
 21
3.7488887424
 31
0.0
 11
5.9963514655
 21
3.7466776914
 31
0.0
 11
5.9924241816
 21
3.7444373489
 31
0.0
 11
5.9885134464
 21
3.7421589189
 31
0.0
 11
5.9846245196
 21
3.7398336055
 31
0.0
 11
5.982689881
 21
3.7386506179
 31
0.0
 11
5.980762901
 21
3.7374525388
 31
0.0
 11
5.9769370568
 21
3.7350059355
 31
0.0
 11
5.9731574531
 21
3.7324833962
 31
0.0
 11
5.9657789823
 21
3.7271688662
 31
0.0
  0
SPLINE
  5
267
100
AcDbEntity
  8
0
100
AcDbSpline
 62
6
  6
CONTINUOUS
 70
0
 71
3
 72
27
 73
23
 74
21
 42
0.0000001
 43
0.0000001
 44
0.0000000001
 12
-0.0083367336
 22
0.0697595847
 32
0.0
 13
-0.0337630153
 23
0.0616113592
 33
0.0
 40
0.0
 40
0.0
 40
0.0
 40
0.0
 40
0.0813226274
 40
0.1560004422
 40
0.2251158023
 40
0.2579459361
 40
0.2898154602
 40
0.3512196029
 40
0.3809861921
 40
0.4102654799
 40
0.4677606225
 40
0.5244232092
 40
0.5808055443
 40
0.609053358
 40
0.6374192481
 40
0.6946745721
 40
0.752880538
 40
0.782432228
 40
0.8123297525
 40
0.8732450157
 40
0.9357598694
 40
1.0
 40
1.0
 40
1.0
 40
1.0
 10
6.4499039603
 20
3.7416034834
 30
0.0
 10
6.4496779719
 20
3.7434944943
 30
0.0
 10
6.4491848138
 20
3.7471153161
 30
0.0
 10
6.4482787135
 20
3.7523100025
 30
0.0
 10
6.4474076072
 20
3.7563547764
 30
0.0
 10
6.4466525422
 20
3.7593964265
 30
0.0
 10
6.4458825787
 20
3.7622476341
 30
0.0
 10
6.4450482092
 20
3.7650065637
 30
0.0
 10
6.4441522308
 20
3.7676814033
 30
0.0
 10
6.4432366877
 20
3.7702526462
 30
0.0
 10
6.4420248663
 20
3.7733863108
 30
0.0
 10
6.4404659394
 20
3.7770639277
 30
0.0
 10
6.4390899309
 20
3.780073554
 30
0.0
 10
6.4379485093
 20
3.782460978
 30
0.0
 10
6.43677413
 20
3.7848551639
 30
0.0
 10
6.435249896
 20
3.7878589645
 30
0.0
 10
6.4336715813
 20
3.7908660042
 30
0.0
 10
6.4323737368
 20
3.7932965284
 30
0.0
 10
6.4310367936
 20
3.7957780811
 30
0.0
 10
6.4293197954
 20
3.7989317043
 30
0.0
 10
6.4272062706
 20
3.8027851324
 30
0.0
 10
6.4257773785
 20
3.8053870268
 30
0.0
 10
6.4250543984
 20
3.806706334
 30
0.0
 11
6.4499039603
 21
3.7416034834
 31
0.0
 11
6.4491271894
 21
3.7472638335
 31
0.0
 11
6.4482211495
 21
3.7524315705
 31
0.0
 11
6.4471953513
 21
3.7571777484
 31
0.0
 11
6.4466394057
 21
3.7594162581
 31
0.0
 11
6.4460555555
 21
3.7615778197
 31
0.0
 11
6.4448064822
 21
3.7657070418
 31
0.0
 11
6.4441423427
 21
3.767690063
 31
0.0
 11
6.4434524974
 21
3.7696279861
 31
0.0
 11
6.4419977749
 21
3.773396321
 31
0.0
 11
6.4404464052
 21
3.7770624764
 31
0.0
 11
6.438802312
 21
3.7806663669
 31
0.0
 11
6.4379467141
 21
3.7824570371
 31
0.0
 11
6.4370694076
 21
3.7842464158
 31
0.0
 11
6.4352518426
 21
3.787834896
 31
0.0
 11
6.4333540359
 21
3.7914571657
 31
0.0
 11
6.4323764273
 21
3.7932887812
 31
0.0
 11
6.4313804283
 21
3.7951381054
 31
0.0
 11
6.4293357937
 21
3.798897755
 31
0.0
 11
6.4272253626
 21
3.8027495219
 31
0.0
 11
6.4250543984
 21
3.806706334
 31
0.0
  0
SPLINE
  5
268
100
AcDbEntity
  8
0
100
AcDbSpline
 62
9
  6
CONTINUOUS
 70
0
 71
3
 72
28
 73
24
 74
22
 42
0.0000001
 43
0.0000001
 44
0.0000000001
 12
0.0960820756
 22
0.0521441458
 32
0.0
 13
0.0643080975
 23
0.0884038787
 33
0.0
 40
0.0
 40
0.0
 40
0.0
 40
0.0
 40
0.0598553217
 40
0.0900016141
 40
0.1202765853
 40
0.1811728584
 40
0.2424743564
 40
0.3041288245
 40
0.3660984896
 40
0.4283579429
 40
0.490892265
 40
0.5536914071
 40
0.6167512653
 40
0.6483792406
 40
0.6800715535
 40
0.7118264622
 40
0.7436435842
 40
0.7755211029
 40
0.8074569323
 40
0.8394481125
 40
0.8714884729
 40
0.9356910409
 40
1.0
 40
1.0
 40
1.0
 40
1.0
 10
6.4499037225
 20
3.7416051163
 30
0.0
 10
6.4518207304
 20
3.7426454845
 30
0.0
 10
6.4547014633
 20
3.7442131312
 30
0.0
 10
6.458544303
 20
3.7463207642
 30
0.0
 10
6.4624144676
 20
3.7484574184
 30
0.0
 10
6.467264133
 20
3.7511688067
 30
0.0
 10
6.4730784613
 20
3.7544974073
 30
0.0
 10
6.47888202
 20
3.7579225535
 30
0.0
 10
6.4846582631
 20
3.7614611016
 30
0.0
 10
6.4903907483
 20
3.7651301876
 30
0.0
 10
6.4960634847
 20
3.7689457351
 30
0.0
 10
6.5016587042
 20
3.7729249079
 30
0.0
 10
6.5062361918
 20
3.7763878845
 30
0.0
 10
6.5098403342
 20
3.7792550091
 30
0.0
 10
6.5125145003
 20
3.7814579778
 30
0.0
 10
6.515153415
 20
3.7837137007
 30
0.0
 10
6.5177534816
 20
3.7860243048
 30
0.0
 10
6.5203110241
 20
3.7883916437
 30
0.0
 10
6.522822303
 20
3.7908171694
 30
0.0
 10
6.5252829225
 20
3.7933025124
 30
0.0
 10
6.5284897235
 20
3.7967018716
 30
0.0
 10
6.5323379042
 20
3.8011123778
 30
0.0
 10
6.5352153662
 20
3.8048112236
 30
0.0
 10
6.5365938951
 20
3.8067062774
 30
0.0
 11
6.4499037225
 21
3.7416051163
 31
0.0
 11
6.4556500864
 21
3.7447347917
 31
0.0
 11
6.458539456
 21
3.7463198459
 31
0.0
 11
6.4614366654
 21
3.7479198296
 31
0.0
 11
6.4672457281
 21
3.751171372
 31
0.0
 11
6.4730599085
 21
3.7545037612
 31
0.0
 11
6.4788626365
 21
3.7579325393
 31
0.0
 11
6.48463749
 21
3.7614744191
 31
0.0
 11
6.4903682029
 21
3.7651463402
 31
0.0
 11
6.4960386299
 21
3.7689647517
 31
0.0
 11
6.5016310995
 21
3.7729465791
 31
0.0
 11
6.5071267899
 21
3.7771083334
 31
0.0
 11
6.5098323159
 21
3.7792612003
 31
0.0
 11
6.5125059977
 21
3.7814645655
 31
0.0
 11
6.5151443833
 21
3.7837206191
 31
0.0
 11
6.51774395
 21
3.786031544
 31
0.0
 11
6.5203010012
 21
3.7883991556
 31
0.0
 11
6.5228117206
 21
3.790825027
 31
0.0
 11
6.5252715477
 21
3.793311008
 31
0.0
 11
6.5276743485
 21
3.7958595435
 31
0.0
 11
6.5322847479
 21
3.8011515148
 31
0.0
 11
6.5365938951
 21
3.8067062774
 31
0.0
  0
SPLINE
  5
269
100
AcDbEntity
  8
0
100
AcDbSpline
 62
6
  6
CONTINUOUS
 70
0
 71
3
 72
19
 73
15
 74
13
 42
0.0000001
 43
0.0000001
 44
0.0000000001
 12
-0.0082351417
 22
0.0706814451
 32
0.0
 13
-0.0057507819
 23
0.0709268126
 33
0.0
 40
0.0
 40
0.0
 40
0.0
 40
0.0
 40
0.0470292844
 40
0.0976614784
 40
0.1515861872
 40
0.2085061076
 40
0.2681193579
 40
0.3300930929
 40
0.3940833363
 40
0.459733575
 40
0.5945539974
 40
0.7315628771
 40
0.8677188622
 40
1.0
 40
1.0
 40
1.0
 40
1.0
 10
6.2020769399
 20
3.5075691963
 30
0.0
 10
6.2019478423
 20
3.5086772289
 30
0.0
 10
6.2016915009
 20
3.5109795549
 30
0.0
 10
6.2013213691
 20
3.5145560818
 30
0.0
 10
6.2009510566
 20
3.5183683668
 30
0.0
 10
6.2005805934
 20
3.5223946092
 30
0.0
 10
6.2002100266
 20
3.5266125302
 30
0.0
 10
6.1998393259
 20
3.5309987648
 30
0.0
 10
6.1994685655
 20
3.5355286831
 30
0.0
 10
6.1989697259
 20
3.5417817954
 30
0.0
 10
6.1983515652
 20
3.5497628654
 30
0.0
 10
6.1976158828
 20
3.5594122127
 30
0.0
 10
6.1968803055
 20
3.569001162
 30
0.0
 10
6.1963793754
 20
3.5753487306
 30
0.0
 10
6.1961258021
 20
3.5784761571
 30
0.0
 11
6.2020769399
 21
3.5075691963
 31
0.0
 11
6.2017051038
 21
3.5108950586
 31
0.0
 11
6.2013330481
 21
3.5144787623
 31
0.0
 11
6.2009610721
 21
3.5182979495
 31
0.0
 11
6.2005891553
 21
3.5223312352
 31
0.0
 11
6.2002172174
 21
3.5265569514
 31
0.0
 11
6.1998452634
 21
3.5309512618
 31
0.0
 11
6.1994733151
 21
3.5354895635
 31
0.0
 11
6.1991013711
 21
3.540146376
 31
0.0
 11
6.1983574789
 21
3.5497112553
 31
0.0
 11
6.1976135866
 21
3.5594323269
 31
0.0
 11
6.1968696944
 21
3.5690925284
 31
0.0
 11
6.1961258021
 21
3.5784761571
 31
0.0
  0
SPLINE
  5
26A
100
AcDbEntity
  8
0
100
AcDbSpline
 62
9
  6
CONTINUOUS
 70
0
 71
3
 72
17
 73
13
 74
11
 42
0.0000001
 43
0.0000001
 44
0.0000000001
 12
-0.0230076205
 22
0.2568662781
 32
0.0
 13
0.0217727731
 23
0.2569738931
 33
0.0
 40
0.0
 40
0.0
 40
0.0
 40
0.0
 40
0.0613630145
 40
0.1231871831
 40
0.2478973447
 40
0.3735635503
 40
0.4996956417
 40
0.6258494736
 40
0.7515935675
 40
0.8764767822
 40
0.9384431468
 40
1.0
 40
1.0
 40
1.0
 40
1.0
 10
6.4250543984
 20
3.806706334
 30
0.0
 10
6.4245837927
 20
3.8119603638
 30
0.0
 10
6.4236950957
 20
3.8225130308
 30
0.0
 10
6.4221362553
 20
3.8437667285
 30
0.0
 10
6.4206146462
 20
3.8705642393
 30
0.0
 10
6.4194990523
 20
3.9029141355
 30
0.0
 10
6.4191037553
 20
3.9354050404
 30
0.0
 10
6.4194297095
 20
3.9679033655
 30
0.0
 10
6.4204653066
 20
4.0002792552
 30
0.0
 10
6.4219030674
 20
4.0271150547
 30
0.0
 10
6.4233810189
 20
4.0484183667
 30
0.0
 10
6.4242244857
 20
4.0590036987
 30
0.0
 10
6.4246712402
 20
4.0642765335
 30
0.0
 11
6.4250543984
 21
3.806706334
 31
0.0
 11
6.4237267258
 21
3.8224757337
 31
0.0
 11
6.4225606809
 21
3.8383771588
 31
0.0
 11
6.4207380002
 21
3.8704875498
 31
0.0
 11
6.4196206676
 21
3.9028769217
 31
0.0
 11
6.4192241062
 21
3.9354032923
 31
0.0
 11
6.4195492379
 21
3.9679360623
 31
0.0
 11
6.4205844435
 21
4.0003482603
 31
0.0
 11
6.4223051544
 21
4.0325089704
 31
0.0
 11
6.4234107698
 21
4.0484514712
 31
0.0
 11
6.4246712402
 21
4.0642765335
 31
0.0
  0
SPLINE
  5
26B
100
AcDbEntity
  8
0
100
AcDbSpline
 62
9
  6
CONTINUOUS
 70
0
 71
3
 72
23
 73
19
 74
17
 42
0.0000001
 43
0.0000001
 44
0.0000000001
 12
0.0828170723
 22
0.2484392549
 32
0.0
 13
-0.0785289588
 23
0.2498278076
 33
0.0
 40
0.0
 40
0.0
 40
0.0
 40
0.0
 40
0.0625009054
 40
0.1250022582
 40
0.1875022774
 40
0.2500022412
 40
0.312501815
 40
0.3750012066
 40
0.4375004615
 40
0.4999996644
 40
0.5624988868
 40
0.6249981987
 40
0.6874976791
 40
0.7499973638
 40
0.8124974535
 40
0.8749975758
 40
0.9374990673
 40
1.0
 40
1.0
 40
1.0
 40
1.0
 10
6.5365938951
 20
3.8067062774
 30
0.0
 10
6.5383192758
 20
3.8118821702
 30
0.0
 10
6.5415694968
 20
3.8223021275
 30
0.0
 10
6.5458281992
 20
3.8381102063
 30
0.0
 10
6.5494590519
 20
3.8540744289
 30
0.0
 10
6.5524524167
 20
3.8701701869
 30
0.0
 10
6.5548007771
 20
3.8863726137
 30
0.0
 10
6.5564988286
 20
3.902655988
 30
0.0
 10
6.5575434984
 20
3.9189942619
 30
0.0
 10
6.5579339971
 20
3.935361207
 30
0.0
 10
6.5576717833
 20
3.9517306794
 30
0.0
 10
6.5567605118
 20
3.968076845
 30
0.0
 10
6.5552059285
 20
3.9843743909
 30
0.0
 10
6.5530157591
 20
4.0005987485
 30
0.0
 10
6.5501995186
 20
4.0167261744
 30
0.0
 10
6.5467683933
 20
4.0327341876
 30
0.0
 10
6.5427350211
 20
4.048600902
 30
0.0
 10
6.5396536774
 20
4.0590717098
 30
0.0
 10
6.538017633
 20
4.0642765335
 30
0.0
 11
6.5365938951
 21
3.8067062774
 31
0.0
 11
6.5414667186
 21
3.8223317961
 31
0.0
 11
6.5457235888
 21
3.8381363566
 31
0.0
 11
6.5493528104
 21
3.8540963815
 31
0.0
 11
6.552344923
 21
3.8701880077
 31
0.0
 11
6.5546923956
 21
3.886386131
 31
0.0
 11
6.5563899331
 21
3.9026651552
 31
0.0
 11
6.5574344702
 21
3.9189990474
 31
0.0
 11
6.5578252117
 21
3.9353616257
 31
0.0
 11
6.5575636075
 21
3.9517267831
 31
0.0
 11
6.5566532948
 21
3.9680687203
 31
0.0
 11
6.5551000009
 21
3.9843621639
 31
0.0
 11
6.5529114207
 21
4.000582549
 31
0.0
 11
6.5500970436
 21
4.0167062437
 31
0.0
 11
6.5466680487
 21
4.0327105095
 31
0.0
 11
6.5426369049
 21
4.0485741832
 31
0.0
 11
6.538017633
 21
4.0642765335
 31
0.0
  0
SPLINE
  5
26C
100
AcDbEntity
  8
0
100
AcDbSpline
 62
9
  6
CONTINUOUS
 70
0
 71
3
 72
37
 73
33
 74
31
 42
0.0000001
 43
0.0000001
 44
0.0000000001
 12
-0.1097205351
 22
0.03657563
 32
0.0
 13
-0.0809083364
 23
-0.0826451065
 33
0.0
 40
0.0
 40
0.0
 40
0.0
 40
0.0
 40
0.0800268642
 40
0.1199391131
 40
0.1596828279
 40
0.1991831985
 40
0.2383667888
 40
0.277172165
 40
0.3155456391
 40
0.3534340057
 40
0.3907845698
 40
0.4636616838
 40
0.4990930508
 40
0.5337876036
 40
0.5676987247
 40
0.6007812286
 40
0.6329932485
 40
0.6643009557
 40
0.6946739468
 40
0.7240841243
 40
0.7525062537
 40
0.7799191998
 40
0.8063124202
 40
0.8316839405
 40
0.8560370996
 40
0.8793816517
 40
0.9017352013
 40
0.9231255846
 40
0.9435915723
 40
0.9631824967
 40
0.9819600005
 40
1.0
 40
1.0
 40
1.0
 40
1.0
 10
6.5365938958
 20
3.8067062793
 30
0.0
 10
6.5336670323
 20
3.8076819569
 30
0.0
 10
6.5292543239
 20
3.8090676048
 30
0.0
 10
6.5233344913
 20
3.8107575184
 30
0.0
 10
6.5188954603
 20
3.8119406143
 30
0.0
 10
6.5144633371
 20
3.8130376573
 30
0.0
 10
6.5100472446
 20
3.8140458455
 30
0.0
 10
6.5056557807
 20
3.8149633
 30
0.0
 10
6.5012969039
 20
3.8157887209
 30
0.0
 10
6.4969782132
 20
3.8165207926
 30
0.0
 10
6.4913303325
 20
3.8173637424
 30
0.0
 10
6.4857518032
 20
3.8180240314
 30
0.0
 10
6.4802581733
 20
3.8184909041
 30
0.0
 10
6.4762546753
 20
3.8187397153
 30
0.0
 10
6.4723368815
 20
3.8188899526
 30
0.0
 10
6.4685122174
 20
3.8189410966
 30
0.0
 10
6.4647878607
 20
3.8188926012
 30
0.0
 10
6.4611706204
 20
3.8187449841
 30
0.0
 10
6.4576669798
 20
3.8184987955
 30
0.0
 10
6.4542833568
 20
3.8181545662
 30
0.0
 10
6.4510261297
 20
3.8177128638
 30
0.0
 10
6.4479014369
 20
3.8171740524
 30
0.0
 10
6.4449148886
 20
3.8165391706
 30
0.0
 10
6.4420715732
 20
3.8158096022
 30
0.0
 10
6.439376423
 20
3.8149865847
 30
0.0
 10
6.4368343348
 20
3.8140713956
 30
0.0
 10
6.434450237
 20
3.8130651079
 30
0.0
 10
6.4322288163
 20
3.8119693343
 30
0.0
 10
6.4301740673
 20
3.8107869426
 30
0.0
 10
6.4282899445
 20
3.8095204495
 30
0.0
 10
6.4265806452
 20
3.8081725951
 30
0.0
 10
6.4255409318
 20
3.80720325
 30
0.0
 10
6.425054403
 20
3.8067062774
 30
0.0
 11
6.5365938958
 21
3.8067062793
 31
0.0
 11
6.5277634422
 21
3.8094792523
 31
0.0
 11
6.5233246157
 21
3.810746223
 31
0.0
 11
6.5188829886
 21
3.8119297643
 31
0.0
 11
6.5144482603
 21
3.813027062
 31
0.0
 11
6.5100300292
 21
3.8140353762
 31
0.0
 11
6.505636718
 21
3.8149528314
 31
0.0
 11
6.5012759911
 21
3.8157781094
 31
0.0
 11
6.4969555002
 21
3.8165099017
 31
0.0
 11
6.492682897
 21
3.8171468994
 31
0.0
 11
6.4843119173
 21
3.8181315822
 31
0.0
 11
6.4802286989
 21
3.8184776776
 31
0.0
 11
6.4762237196
 21
3.8187255502
 31
0.0
 11
6.4723045216
 21
3.8188746656
 31
0.0
 11
6.468478647
 21
3.8189244895
 31
0.0
 11
6.4647534582
 21
3.8188746655
 31
0.0
 11
6.4611355973
 21
3.8187255499
 31
0.0
 11
6.4576315266
 21
3.8184776772
 31
0.0
 11
6.4542477084
 21
3.8181315818
 31
0.0
 11
6.4509906049
 21
3.817687798
 31
0.0
 11
6.4478666066
 21
3.8171468986
 31
0.0
 11
6.4448812687
 21
3.8165099007
 31
0.0
 11
6.4420396074
 21
3.8157781083
 31
0.0
 11
6.4393466303
 21
3.8149528301
 31
0.0
 11
6.4368073445
 21
3.8140353748
 31
0.0
 11
6.4344267513
 21
3.8130270605
 31
0.0
 11
6.4322094835
 21
3.8119297627
 31
0.0
 11
6.4301596024
 21
3.8107462213
 31
0.0
 11
6.4282811204
 21
3.8094792505
 31
0.0
 11
6.4265780498
 21
3.8081316645
 31
0.0
 11
6.425054403
 21
3.8067062774
 31
0.0
  0
SPLINE
  5
26D
100
AcDbEntity
  8
0
100
AcDbSpline
 62
9
  6
CONTINUOUS
 70
0
 71
3
 72
36
 73
32
 74
30
 42
0.0000001
 43
0.0000001
 44
0.0000000001
 12
-0.1117049855
 22
-0.0351130997
 32
0.0
 13
-0.0845838566
 23
0.0809722468
 33
0.0
 40
0.0
 40
0.0
 40
0.0
 40
0.0
 40
0.0801202949
 40
0.1200788328
 40
0.1598694719
 40
0.1994179881
 40
0.2386514669
 40
0.2775086975
 40
0.3159360243
 40
0.3538802344
 40
0.3912885706
 40
0.4642867759
 40
0.4997804188
 40
0.5345379491
 40
0.5685121615
 40
0.6016571299
 40
0.6339300264
 40
0.6652957461
 40
0.6957223905
 40
0.7251801376
 40
0.7536417442
 40
0.7810837117
 40
0.807492658
 40
0.8328633267
 40
0.8571953342
 40
0.8804942027
 40
0.9027727303
 40
0.9240534788
 40
0.9443697147
 40
0.9637649812
 40
1.0
 40
1.0
 40
1.0
 40
1.0
 10
6.538017633
 20
4.0642765337
 30
0.0
 10
6.5350343542
 20
4.0633387764
 30
0.0
 10
6.5305394467
 20
4.0620073249
 30
0.0
 10
6.5245141958
 20
4.0603840229
 30
0.0
 10
6.5199983718
 20
4.0592477983
 30
0.0
 10
6.5154915871
 20
4.0581944046
 30
0.0
 10
6.511002927
 20
4.0572264746
 30
0.0
 10
6.5065409328
 20
4.0563457707
 30
0.0
 10
6.5021135019
 20
4.0555535123
 30
0.0
 10
6.4977281819
 20
4.0548509331
 30
0.0
 10
6.491994419
 20
4.0540419936
 30
0.0
 10
6.4863332683
 20
4.0534084683
 30
0.0
 10
6.4807597048
 20
4.0529605552
 30
0.0
 10
6.4766983259
 20
4.0527218576
 30
0.0
 10
6.4727242185
 20
4.0525777368
 30
0.0
 10
6.4688447514
 20
4.0525286792
 30
0.0
 10
6.4650670429
 20
4.0525751959
 30
0.0
 10
6.4613978461
 20
4.0527167996
 30
0.0
 10
6.4578435935
 20
4.0529529722
 30
0.0
 10
6.4544106529
 20
4.0532832134
 30
0.0
 10
6.4511053539
 20
4.053706987
 30
0.0
 10
6.4479337819
 20
4.0542239477
 30
0.0
 10
6.4449015041
 20
4.054833117
 30
0.0
 10
6.4420135777
 20
4.0555331897
 30
0.0
 10
6.4392748964
 20
4.0563229998
 30
0.0
 10
6.4366903315
 20
4.0572013318
 30
0.0
 10
6.4342647226
 20
4.0581671999
 30
0.0
 10
6.4320028246
 20
4.0592190001
 30
0.0
 10
6.4299081894
 20
4.0603543517
 30
0.0
 10
6.4274019661
 20
4.0619392682
 30
0.0
 10
6.4256928728
 20
4.0632985232
 30
0.0
 10
6.4246712402
 20
4.0642765335
 30
0.0
 11
6.538017633
 21
4.0642765337
 31
0.0
 11
6.5290224091
 21
4.0616119479
 31
0.0
 11
6.5245045676
 21
4.0603949244
 31
0.0
 11
6.5199861087
 21
4.0592582707
 31
0.0
 11
6.5154766844
 21
4.0582046296
 31
0.0
 11
6.5109858447
 21
4.0572365742
 31
0.0
 11
6.5065219591
 21
4.0563558647
 31
0.0
 11
6.5020926348
 21
4.0555637374
 31
0.0
 11
6.4977054665
 21
4.0548614196
 31
0.0
 11
6.4933680488
 21
4.054250139
 31
0.0
 11
6.4848727988
 21
4.0533053116
 31
0.0
 11
6.4807300032
 21
4.0529732561
 31
0.0
 11
6.4766670689
 21
4.052735453
 31
0.0
 11
6.4726914756
 21
4.0525924035
 31
0.0
 11
6.468810703
 21
4.052544609
 31
0.0
 11
6.4650320526
 21
4.0525924035
 31
0.0
 11
6.4613621114
 21
4.0527354529
 31
0.0
 11
6.4578072883
 21
4.052973256
 31
0.0
 11
6.454373992
 21
4.0533053116
 31
0.0
 11
6.4510686313
 21
4.0537311182
 31
0.0
 11
6.447897544
 21
4.0542501389
 31
0.0
 11
6.444866243
 21
4.0548614196
 31
0.0
 11
6.4419797092
 21
4.0555637374
 31
0.0
 11
6.4392429144
 21
4.0563558648
 31
0.0
 11
6.4366608306
 21
4.0572365743
 31
0.0
 11
6.4342384238
 21
4.0582046297
 31
0.0
 11
6.4319803019
 21
4.0592582707
 31
0.0
 11
6.4298905176
 21
4.0603949244
 31
0.0
 11
6.4279730758
 21
4.0616119479
 31
0.0
 11
6.4246712402
 21
4.0642765335
 31
0.0
  0
SPLINE
  5
26E
100
AcDbEntity
  8
0
100
AcDbSpline
 62
9
  6
CONTINUOUS
 70
0
 71
3
 72
75
 73
71
 74
69
 42
0.0000001
 43
0.0000001
 44
0.0000000001
 12
-0.04632998
 22
0.0899038321
 32
0.0
 13
0.1011333623
 23
0.0010997593
 33
0.0
 40
0.0
 40
0.0
 40
0.0
 40
0.0
 40
0.0244082414
 40
0.0488079459
 40
0.0731819048
 40
0.097514631
 40
0.1217933159
 40
0.1460040578
 40
0.1701324823
 40
0.194164115
 40
0.2418771714
 40
0.2890271703
 40
0.3811712857
 40
0.4259407174
 40
0.4696935391
 40
0.5123226882
 40
0.5331832767
 40
0.5537245742
 40
0.5739343248
 40
0.5938003733
 40
0.6324540827
 40
0.6695927341
 40
0.6875658786
 40
0.7051272006
 40
0.7222665357
 40
0.7389738081
 40
0.7552392941
 40
0.7710535716
 40
0.8012913557
 40
0.8296159787
 40
0.855960124
 40
0.8802617336
 40
0.9024643451
 40
0.9225153051
 40
0.9317177819
 40
0.9403630471
 40
0.9484451674
 40
0.9559581938
 40
0.9628965993
 40
0.9692561599
 40
0.9750329335
 40
0.9802228053
 40
0.984820741
 40
0.9868960539
 40
0.9888213323
 40
0.990595892
 40
0.992219133
 40
0.9936904656
 40
0.9950092881
 40
0.9961749872
 40
0.9971869382
 40
0.9976350636
 40
0.9980445342
 40
0.9984152914
 40
0.9987472759
 40
0.9990404276
 40
0.9992946859
 40
0.9995099896
 40
0.9996862767
 40
0.9997597695
 40
0.9998234847
 40
0.9998774143
 40
0.9999215504
 40
0.999955885
 40
0.9999693743
 40
0.9999804101
 40
0.9999889916
 40
0.9999951177
 40
0.9999987874
 40
1.0
 40
1.0
 40
1.0
 40
1.0
 10
6.5330450119
 20
4.0796249827
 30
0.0
 10
6.5326680675
 20
4.0803564475
 30
0.0
 10
6.5319274448
 20
4.0818259302
 30
0.0
 10
6.5308557575
 20
4.0840483369
 30
0.0
 10
6.5298235172
 20
4.086286538
 30
0.0
 10
6.5288301555
 20
4.0885377858
 30
0.0
 10
6.5278730888
 20
4.0907987071
 30
0.0
 10
6.526949754
 20
4.093066162
 30
0.0
 10
6.5260585017
 20
4.0953374679
 30
0.0
 10
6.5249145561
 20
4.0983605138
 30
0.0
 10
6.5235607696
 20
4.1021336649
 30
0.0
 10
6.5215520645
 20
4.1081100389
 30
0.0
 10
6.5197296431
 20
4.1140429761
 30
0.0
 10
6.5180558638
 20
4.1198993698
 30
0.0
 10
6.5168870696
 20
4.1241637036
 30
0.0
 10
6.5159621025
 20
4.1276588976
 30
0.0
 10
6.5152512041
 20
4.130401202
 30
0.0
 10
6.5147349565
 20
4.132413147
 30
0.0
 10
6.5142301325
 20
4.1343934041
 30
0.0
 10
6.5135764485
 20
4.136965867
 30
0.0
 10
6.5127845922
 20
4.140092082
 30
0.0
 10
6.5120074727
 20
4.1431561989
 30
0.0
 10
6.5114024544
 20
4.1455303591
 30
0.0
 10
6.5109618547
 20
4.14725063
 30
0.0
 10
6.510528814
 20
4.1489287808
 30
0.0
 10
6.5101026376
 20
4.1505635805
 30
0.0
 10
6.5096830229
 20
4.1521539194
 30
0.0
 10
6.5091404716
 20
4.1541835769
 30
0.0
 10
6.5084798328
 20
4.1566024803
 30
0.0
 10
6.5077034556
 20
4.1593576806
 30
0.0
 10
6.5069589141
 20
4.1619138297
 30
0.0
 10
6.5062490658
 20
4.1642649999
 30
0.0
 10
6.5055762326
 20
4.1664055861
 30
0.0
 10
6.5050341186
 20
4.1680535082
 30
0.0
 10
6.5046225213
 20
4.1692630875
 30
0.0
 10
6.5043354167
 20
4.1700887794
 30
0.0
 10
6.5040619323
 20
4.1708588858
 30
0.0
 10
6.5038030212
 20
4.1715730854
 30
0.0
 10
6.5035595566
 20
4.1722310978
 30
0.0
 10
6.5033318252
 20
4.1728325003
 30
0.0
 10
6.5031201342
 20
4.1733769217
 30
0.0
 10
6.5029248192
 20
4.1738639579
 30
0.0
 10
6.502772123
 20
4.174233612
 30
0.0
 10
6.502659344
 20
4.1745006583
 30
0.0
 10
6.5025826976
 20
4.1746796363
 30
0.0
 10
6.5025112367
 20
4.1748442528
 30
0.0
 10
6.5024451316
 20
4.1749945085
 30
0.0
 10
6.5023845512
 20
4.1751304071
 30
0.0
 10
6.502329664
 20
4.1752519535
 30
0.0
 10
6.5022806385
 20
4.1753591523
 30
0.0
 10
6.5022434432
 20
4.1754394823
 30
0.0
 10
6.5022167543
 20
4.1754965811
 30
0.0
 10
6.5021991324
 20
4.1755340563
 30
0.0
 10
6.5021830989
 20
4.1755679516
 30
0.0
 10
6.502168673
 20
4.1755982692
 30
0.0
 10
6.5021558741
 20
4.1756250113
 30
0.0
 10
6.5021447215
 20
4.1756481803
 30
0.0
 10
6.5021352344
 20
4.1756677784
 30
0.0
 10
6.5021283722
 20
4.1756818764
 30
0.0
 10
6.5021237309
 20
4.1756913717
 30
0.0
 10
6.5021208955
 20
4.175697158
 30
0.0
 10
6.5021184901
 20
4.1757020538
 30
0.0
 10
6.5021165203
 20
4.1757060572
 30
0.0
 10
6.5021151448
 20
4.1757088404
 30
0.0
 10
6.5021142728
 20
4.1757106156
 30
0.0
 10
6.5021137655
 20
4.1757116251
 30
0.0
 10
6.5021134158
 20
4.1757123811
 30
0.0
 10
6.5021130646
 20
4.1757129874
 30
0.0
 10
6.502113037
 20
4.1757132325
 30
0.0
 10
6.502112826
 20
4.1757134717
 30
0.0
 10
6.5021128669
 20
4.1757134721
 30
0.0
 11
6.5330450119
 21
4.0796249827
 31
0.0
 11
6.5319337854
 21
4.0818293707
 31
0.0
 11
6.5308617821
 21
4.0840521388
 31
0.0
 11
6.5298291468
 21
4.0862905999
 31
0.0
 11
6.5288351189
 21
4.0885419127
 31
0.0
 11
6.5278773931
 21
4.0908029721
 31
0.0
 11
6.5269535565
 21
4.0930706701
 31
0.0
 11
6.5260619421
 21
4.0953422881
 31
0.0
 11
6.5252015104
 21
4.0976154354
 31
0.0
 11
6.5235698398
 21
4.1021568794
 31
0.0
 11
6.5220487718
 21
4.1066765078
 31
0.0
 11
6.5193000603
 21
4.1155813215
 31
0.0
 11
6.5180544308
 21
4.1199345669
 31
0.0
 11
6.5168834113
 21
4.1242019434
 31
0.0
 11
6.5157790728
 21
4.1283695963
 31
0.0
 11
6.5152493531
 21
4.130411841
 31
0.0
 11
6.5147327063
 21
4.1324241085
 31
0.0
 11
6.5142275267
 21
4.1344046976
 31
0.0
 11
6.513732609
 21
4.1363520286
 31
0.0
 11
6.5127718545
 21
4.140141546
 31
0.0
 11
6.5118476974
 21
4.1437822619
 31
0.0
 11
6.511398667
 21
4.1455437213
 31
0.0
 11
6.5109578011
 21
4.1472642771
 31
0.0
 11
6.5105244728
 21
4.1489427031
 31
0.0
 11
6.5100980637
 21
4.1505777788
 31
0.0
 11
6.5096782738
 21
4.152168397
 31
0.0
 11
6.5092650897
 21
4.1537135524
 31
0.0
 11
6.5084587557
 21
4.1566635682
 31
0.0
 11
6.5076811754
 21
4.159420753
 31
0.0
 11
6.5069353255
 21
4.1619786608
 31
0.0
 11
6.5062239748
 21
4.164331319
 31
0.0
 11
6.5055495099
 21
4.1664731933
 31
0.0
 11
6.5049153583
 21
4.1683994321
 31
0.0
 11
6.5046154643
 21
4.169280526
 31
0.0
 11
6.5043282439
 21
4.1701063822
 31
0.0
 11
6.5040546411
 21
4.1708766533
 31
0.0
 11
6.5037956032
 21
4.1715909994
 31
0.0
 11
6.5035519157
 21
4.172249075
 31
0.0
 11
6.5033239374
 21
4.1728505186
 31
0.0
 11
6.5031119571
 21
4.1733949661
 31
0.0
 11
6.5029165028
 21
4.1738821189
 31
0.0
 11
6.5027388782
 21
4.1743118914
 31
0.0
 11
6.5026572085
 21
4.1745052468
 31
0.0
 11
6.502580544
 21
4.1746842411
 31
0.0
 11
6.5025090648
 21
4.174848871
 31
0.0
 11
6.5024429414
 21
4.1749991396
 31
0.0
 11
6.5023823426
 21
4.1751350516
 31
0.0
 11
6.5023274369
 21
4.1752566118
 31
0.0
 11
6.5022783928
 21
4.1753638248
 31
0.0
 11
6.5022353791
 21
4.1754566954
 31
0.0
 11
6.502216186
 21
4.175497754
 31
0.0
 11
6.502198562
 21
4.1755352303
 31
0.0
 11
6.5021825263
 21
4.1755691268
 31
0.0
 11
6.5021680984
 21
4.1755994456
 31
0.0
 11
6.5021552974
 21
4.1756261889
 31
0.0
 11
6.5021441427
 21
4.1756493592
 31
0.0
 11
6.5021346535
 21
4.1756689586
 31
0.0
 11
6.5021268493
 21
4.1756849894
 31
0.0
 11
6.502123585
 21
4.1756916672
 31
0.0
 11
6.5021207492
 21
4.1756974538
 31
0.0
 11
6.5021183442
 21
4.1757023494
 31
0.0
 11
6.5021163725
 21
4.1757063543
 31
0.0
 11
6.5021148365
 21
4.1757094687
 31
0.0
 11
6.5021142327
 21
4.1757106921
 31
0.0
 11
6.5021137387
 21
4.1757116929
 31
0.0
 11
6.5021133548
 21
4.1757124714
 31
0.0
 11
6.5021130813
 21
4.1757130273
 31
0.0
 11
6.5021129186
 21
4.1757133609
 31
0.0
 11
6.5021128669
 21
4.1757134721
 31
0.0
  0
SPLINE
  5
26F
100
AcDbEntity
  8
0
100
AcDbSpline
 62
9
  6
CONTINUOUS
 70
0
 71
3
 72
37
 73
33
 74
31
 42
0.0000001
 43
0.0000001
 44
0.0000000001
 12
-0.1053558812
 22
-0.0348466855
 32
0.0
 13
-0.0773207267
 23
0.0795968492
 33
0.0
 40
0.0
 40
0.0
 40
0.0
 40
0.0
 40
0.0802208069
 40
0.1202287006
 40
0.1600662057
 40
0.1996577716
 40
0.2389292263
 40
0.2778184883
 40
0.3162712787
 40
0.3542338008
 40
0.3916527656
 40
0.4646470978
 40
0.5001261087
 40
0.5348602861
 40
0.5688024666
 40
0.6019069171
 40
0.634131246
 40
0.6654411965
 40
0.6958059663
 40
0.7251970696
 40
0.7535888983
 40
0.7809599746
 40
0.8072995307
 40
0.8326054718
 40
0.8568810912
 40
0.8801361998
 40
0.9023886025
 40
0.9236665966
 40
0.9440097559
 40
0.9634685163
 40
0.9821059891
 40
1.0
 40
1.0
 40
1.0
 40
1.0
 10
6.5330450119
 20
4.0796249827
 30
0.0
 10
6.5302277673
 20
4.0786931729
 30
0.0
 10
6.5259807753
 20
4.0773697826
 30
0.0
 10
6.5202840302
 20
4.075755671
 30
0.0
 10
6.5160128076
 20
4.074625615
 30
0.0
 10
6.5117487531
 20
4.073577722
 30
0.0
 10
6.5075006816
 20
4.072614679
 30
0.0
 10
6.5032768965
 20
4.0717382877
 30
0.0
 10
6.4990850811
 20
4.0709497949
 30
0.0
 10
6.4949325725
 20
4.0702504617
 30
0.0
 10
6.4895033352
 20
4.0694452547
 30
0.0
 10
6.4841418966
 20
4.0688144519
 30
0.0
 10
6.4788631552
 20
4.0683683939
 30
0.0
 10
6.475017459
 20
4.0681306942
 30
0.0
 10
6.4712549899
 20
4.0679871638
 30
0.0
 10
6.4675829099
 20
4.0679383002
 30
0.0
 10
6.4640081384
 20
4.0679846273
 30
0.0
 10
6.4605372355
 20
4.0681256477
 30
0.0
 10
6.4571764449
 20
4.0683608326
 30
0.0
 10
6.4539319459
 20
4.068689672
 30
0.0
 10
6.4508098798
 20
4.0691116203
 30
0.0
 10
6.4478161539
 20
4.0696263277
 30
0.0
 10
6.4449561636
 20
4.070232799
 30
0.0
 10
6.4422347986
 20
4.0709297078
 30
0.0
 10
6.4396567959
 20
4.071715869
 30
0.0
 10
6.4372268582
 20
4.0725900594
 30
0.0
 10
6.4349497154
 20
4.0735512553
 30
0.0
 10
6.43282986
 20
4.074597917
 30
0.0
 10
6.4308711105
 20
4.0757272969
 30
0.0
 10
6.4290772437
 20
4.0769369905
 30
0.0
 10
6.4274522745
 20
4.0782243765
 30
0.0
 10
6.4264654352
 20
4.079150482
 30
0.0
 10
6.4260042426
 20
4.079625251
 30
0.0
 11
6.5330450119
 21
4.0796249827
 31
0.0
 11
6.5245460639
 21
4.076976566
 31
0.0
 11
6.5202745305
 21
4.0757664318
 31
0.0
 11
6.516000786
 21
4.0746359454
 31
0.0
 11
6.5117342019
 21
4.0735878054
 31
0.0
 11
6.5074840514
 21
4.0726246394
 31
0.0
 11
6.5032584688
 21
4.0717482458
 31
0.0
 11
6.4990648534
 21
4.0709598887
 31
0.0
 11
6.4949105921
 21
4.0702608229
 31
0.0
 11
6.490803072
 21
4.0696523035
 31
0.0
 11
6.4827577587
 21
4.06871163
 31
0.0
 11
6.4788345903
 21
4.0683810006
 31
0.0
 11
6.4749874486
 21
4.068144205
 31
0.0
 11
6.4712236082
 21
4.068001756
 31
0.0
 11
6.4675503436
 21
4.0679541659
 31
0.0
 11
6.463974754
 21
4.0680017765
 31
0.0
 11
6.4605032375
 21
4.0681442456
 31
0.0
 11
6.4571420167
 21
4.06838106
 31
0.0
 11
6.4538973143
 21
4.0687117068
 31
0.0
 11
6.4507753531
 21
4.0691356726
 31
0.0
 11
6.4477822861
 21
4.0696524079
 31
0.0
 11
6.4449234561
 21
4.0702609378
 31
0.0
 11
6.4422036836
 21
4.070960013
 31
0.0
 11
6.4396277802
 21
4.0717483798
 31
0.0
 11
6.4372005574
 21
4.0726247842
 31
0.0
 11
6.434926821
 21
4.0735879636
 31
0.0
 11
6.4328110142
 21
4.07463612
 31
0.0
 11
6.4308570192
 21
4.0757666259
 31
0.0
 11
6.4290686697
 21
4.0769767823
 31
0.0
 11
6.4274497996
 21
4.0782638903
 31
0.0
 11
6.4260042426
 21
4.079625251
 31
0.0
  0
SPLINE
  5
270
100
AcDbEntity
  8
0
100
AcDbSpline
 62
9
  6
CONTINUOUS
 70
0
 71
3
 72
65
 73
61
 74
59
 42
0.0000001
 43
0.0000001
 44
0.0000000001
 12
0.0122711221
 22
0.1385403483
 32
0.0
 13
0.1216172806
 23
0.067477745
 33
0.0
 40
0.0
 40
0.0
 40
0.0
 40
0.0
 40
0.05283741
 40
0.1051784555
 40
0.1569326817
 40
0.208014349
 40
0.3078011461
 40
0.4037918288
 40
0.4501171844
 40
0.4951922184
 40
0.5389129264
 40
0.5811745018
 40
0.6218720049
 40
0.6608939414
 40
0.6981126029
 40
0.7334212266
 40
0.7667324371
 40
0.797965714
 40
0.8127755511
 40
0.8270323299
 40
0.8538554904
 40
0.8783859515
 40
0.9006008687
 40
0.9204900035
 40
0.9295610711
 40
0.9380496267
 40
0.9459560199
 40
0.9532849687
 40
0.9600439534
 40
0.9662407649
 40
0.971884564
 40
0.9769847914
 40
0.981548608
 40
0.9855796189
 40
0.9890818374
 40
0.9906380179
 40
0.9920669404
 40
0.9933706351
 40
0.9945511244
 40
0.9956103986
 40
0.9965503842
 40
0.9973729933
 40
0.9980801313
 40
0.9986736972
 40
0.9989284768
 40
0.9991555466
 40
0.9993551192
 40
0.9995274068
 40
0.9996726216
 40
0.9997909751
 40
0.9998401449
 40
0.9998826787
 40
0.9999186029
 40
0.9999479437
 40
0.9999707275
 40
0.9999869806
 40
0.9999926663
 40
0.9999967293
 40
0.9999991727
 40
1.0
 40
1.0
 40
1.0
 40
1.0
 10
6.4260041538
 20
4.0796249827
 30
0.0
 10
6.4262202786
 20
4.0820650204
 30
0.0
 10
6.426674159
 20
4.0869201178
 30
0.0
 10
6.4274267929
 20
4.0941567596
 30
0.0
 10
6.4282493781
 20
4.1013038784
 30
0.0
 10
6.4294267673
 20
4.1106237333
 30
0.0
 10
6.4310506505
 20
4.1219535975
 30
0.0
 10
6.4328943763
 20
4.1330262874
 30
0.0
 10
6.434468342
 20
4.1415702985
 30
0.0
 10
6.4356726861
 20
4.1477179162
 30
0.0
 10
6.4369076338
 20
4.1536671544
 30
0.0
 10
6.4381652692
 20
4.1594040346
 30
0.0
 10
6.4394372162
 20
4.1649144036
 30
0.0
 10
6.4407145223
 20
4.1701832577
 30
0.0
 10
6.4419898885
 20
4.1751951695
 30
0.0
 10
6.4432538948
 20
4.1799364463
 30
0.0
 10
6.4444964312
 20
4.1843959534
 30
0.0
 10
6.4455229628
 20
4.1879288609
 30
0.0
 10
6.4463260003
 20
4.1906066124
 30
0.0
 10
6.4470845616
 20
4.193084202
 30
0.0
 10
6.4479996623
 20
4.1959851209
 30
0.0
 10
6.449063521
 20
4.1992257423
 30
0.0
 10
6.4500608794
 20
4.2021496216
 30
0.0
 10
6.4508526817
 20
4.204386183
 30
0.0
 10
6.4514469742
 20
4.2060174692
 30
0.0
 10
6.4518578433
 20
4.2071243056
 30
0.0
 10
6.4522470908
 20
4.2081529932
 30
0.0
 10
6.4526140329
 20
4.2091043653
 30
0.0
 10
6.4529580058
 20
4.2099796269
 30
0.0
 10
6.4532784399
 20
4.2107801786
 30
0.0
 10
6.4535748626
 20
4.211507491
 30
0.0
 10
6.4538467509
 20
4.212163034
 30
0.0
 10
6.4540936382
 20
4.2127479868
 30
0.0
 10
6.4543153112
 20
4.213263154
 30
0.0
 10
6.4544850159
 20
4.2136488708
 30
0.0
 10
6.4546080002
 20
4.2139233354
 30
0.0
 10
6.4546900859
 20
4.2141044337
 30
0.0
 10
6.4547656916
 20
4.2142693441
 30
0.0
 10
6.4548347908
 20
4.2144183834
 30
0.0
 10
6.4548973586
 20
4.2145518634
 30
0.0
 10
6.4549533841
 20
4.2146700847
 30
0.0
 10
6.4550028543
 20
4.2147733456
 30
0.0
 10
6.4550457561
 20
4.2148619439
 30
0.0
 10
6.4550774494
 20
4.21492672
 30
0.0
 10
6.455099498
 20
4.214971437
 30
0.0
 10
6.4551135244
 20
4.2149997438
 30
0.0
 10
6.4551259022
 20
4.2150245993
 30
0.0
 10
6.4551366313
 20
4.2150460363
 30
0.0
 10
6.4551457119
 20
4.2150640877
 30
0.0
 10
6.455152254
 20
4.2150770267
 30
0.0
 10
6.4551566631
 20
4.2150857098
 30
0.0
 10
6.4551593475
 20
4.2150909829
 30
0.0
 10
6.4551616206
 20
4.2150954334
 30
0.0
 10
6.4551634793
 20
4.2150990685
 30
0.0
 10
6.4551649319
 20
4.2151018841
 30
0.0
 10
6.455165873
 20
4.2151037359
 30
0.0
 10
6.4551664387
 20
4.2151047948
 30
0.0
 10
6.4551666797
 20
4.2151053158
 30
0.0
 10
6.4551668713
 20
4.2151055829
 30
0.0
 10
6.4551669062
 20
4.2151057529
 30
0.0
 10
6.4551669397
 20
4.2151057715
 30
0.0
 11
6.4260041538
 21
4.0796249827
 31
0.0
 11
6.4266890569
 21
4.0869417684
 31
0.0
 11
6.4274428991
 21
4.0941823678
 31
0.0
 11
6.4282662217
 21
4.1013332464
 31
0.0
 11
6.4291570272
 21
4.1083817567
 31
0.0
 11
6.4311283793
 21
4.1221196567
 31
0.0
 11
6.4333233541
 21
4.1352886303
 31
0.0
 11
6.4344909055
 21
4.1416250182
 31
0.0
 11
6.4356964241
 21
4.147777179
 31
0.0
 11
6.4369326036
 21
4.1537309962
 31
0.0
 11
6.4381915559
 21
4.1594724443
 31
0.0
 11
6.4394649829
 21
4.1649876604
 31
0.0
 11
6.4407444111
 21
4.1702619764
 31
0.0
 11
6.4420214589
 21
4.1752784518
 31
0.0
 11
6.4432868492
 21
4.180023443
 31
0.0
 11
6.4445307537
 21
4.1844863484
 31
0.0
 11
6.4457434968
 21
4.1886576401
 31
0.0
 11
6.4463352902
 21
4.1906305888
 31
0.0
 11
6.4469158606
 21
4.1925265632
 31
0.0
 11
6.4480388311
 21
4.1960841751
 31
0.0
 11
6.4491035296
 21
4.1993255558
 31
0.0
 11
6.4501016077
 21
4.202249621
 31
0.0
 11
6.4510254871
 21
4.2048570153
 31
0.0
 11
6.451457458
 21
4.2060423881
 31
0.0
 11
6.4518684375
 21
4.207149158
 31
0.0
 11
6.4522576979
 21
4.2081775989
 31
0.0
 11
6.4526245855
 21
4.2091286129
 31
0.0
 11
6.4529684935
 21
4.2100035052
 31
0.0
 11
6.4532888413
 21
4.210803628
 31
0.0
 11
6.453585156
 21
4.2115305062
 31
0.0
 11
6.4538569945
 21
4.2121857057
 31
0.0
 11
6.4541039633
 21
4.2127704378
 31
0.0
 11
6.4543257475
 21
4.2132853489
 31
0.0
 11
6.4545220456
 21
4.2137311422
 31
0.0
 11
6.4546105603
 21
4.2139286529
 31
0.0
 11
6.4546926184
 21
4.2141096597
 31
0.0
 11
6.4547681948
 21
4.2142744798
 31
0.0
 11
6.4548372643
 21
4.2144234306
 31
0.0
 11
6.4548998052
 21
4.2145568241
 31
0.0
 11
6.454955803
 21
4.21467496
 31
0.0
 11
6.4550052445
 21
4.2147781363
 31
0.0
 11
6.4550481163
 21
4.2148666511
 31
0.0
 11
6.4550844051
 21
4.2149408024
 31
0.0
 11
6.4551000771
 21
4.2149725838
 31
0.0
 11
6.4551141004
 21
4.2150008811
 31
0.0
 11
6.455126475
 21
4.2150257271
 31
0.0
 11
6.4551372009
 21
4.2150471548
 31
0.0
 11
6.4551462783
 21
4.2150651968
 31
0.0
 11
6.4551537072
 21
4.215079886
 31
0.0
 11
6.4551568035
 21
4.2150859836
 31
0.0
 11
6.4551594877
 21
4.2150912553
 31
0.0
 11
6.4551617599
 21
4.2150957052
 31
0.0
 11
6.45516362
 21
4.2150993374
 31
0.0
 11
6.455165068
 21
4.215102156
 31
0.0
 11
6.4551661039
 21
4.2151041652
 31
0.0
 11
6.4551664674
 21
4.2151048675
 31
0.0
 11
6.4551667279
 21
4.215105369
 31
0.0
 11
6.4551668853
 21
4.2151056702
 31
0.0
 11
6.4551669397
 21
4.2151057715
 31
0.0
  0
SPLINE
  5
271
100
AcDbEntity
  8
0
100
AcDbSpline
 62
9
  6
CONTINUOUS
 70
0
 71
3
 72
72
 73
68
 74
66
 42
0.0000001
 43
0.0000001
 44
0.0000000001
 12
-0.0043416088
 22
-0.1407391811
 32
0.0
 13
0.0039702532
 23
-0.1407501471
 33
0.0
 40
0.0
 40
0.0
 40
0.0
 40
0.0
 40
0.0000005365
 40
0.0000021771
 40
0.0000049114
 40
0.0000087289
 40
0.0000195719
 40
0.0000346234
 40
0.0000538028
 40
0.0000770304
 40
0.0001042286
 40
0.0001353213
 40
0.0002088931
 40
0.0002971742
 40
0.000399623
 40
0.0005157243
 40
0.0006449572
 40
0.0007868301
 40
0.0011067476
 40
0.0014726576
 40
0.0018826971
 40
0.0023360098
 40
0.0028329527
 40
0.0033753053
 40
0.003966295
 40
0.0046104938
 40
0.0053133519
 40
0.0069185369
 40
0.0088361623
 40
0.0111174013
 40
0.0138090109
 40
0.0169566667
 40
0.0206069153
 40
0.0248060929
 40
0.02959532
 40
0.0350109453
 40
0.0410867664
 40
0.0478445275
 40
0.0553007856
 40
0.0634707898
 40
0.0723680759
 40
0.0820052504
 40
0.092389499
 40
0.1035248485
 40
0.1154131432
 40
0.1280526315
 40
0.141439399
 40
0.1555605936
 40
0.1704005681
 40
0.1859456556
 40
0.2191016669
 40
0.2549120057
 40
0.2932389854
 40
0.3339225377
 40
0.3767714181
 40
0.4216010024
 40
0.468242025
 40
0.5165298698
 40
0.5663013431
 40
0.617399024
 40
0.6696708659
 40
0.7229690506
 40
0.7771509479
 40
0.8320787226
 40
0.8876156303
 40
0.9436341836
 40
1.0
 40
1.0
 40
1.0
 40
1.0
 10
5.3551669397
 20
4.2151057821
 30
0.0
 10
5.355166939
 20
4.2151057569
 30
0.0
 10
5.3551670639
 20
4.2151059278
 30
0.0
 10
5.3551671844
 20
4.2151059854
 30
0.0
 10
5.3551674941
 20
4.2151063028
 30
0.0
 10
5.3551680786
 20
4.2151068212
 30
0.0
 10
5.3551691241
 20
4.2151077829
 30
0.0
 10
5.3551706992
 20
4.2151091768
 30
0.0
 10
5.3551727348
 20
4.2151109531
 30
0.0
 10
5.3551752197
 20
4.2151130714
 30
0.0
 10
5.3551781581
 20
4.2151155229
 30
0.0
 10
5.3551829549
 20
4.2151194336
 30
0.0
 10
5.3551900771
 20
4.2151250286
 30
0.0
 10
5.3552000128
 20
4.2151324581
 30
0.0
 10
5.3552117584
 20
4.2151407937
 30
0.0
 10
5.3552253112
 20
4.215149895
 30
0.0
 10
5.3552406742
 20
4.2151596086
 30
0.0
 10
5.3552645467
 20
4.2151737437
 30
0.0
 10
5.3552989092
 20
4.2151919286
 30
0.0
 10
5.3553459153
 20
4.2152129085
 30
0.0
 10
5.355400208
 20
4.21523259
 30
0.0
 10
5.3554618034
 20
4.2152496518
 30
0.0
 10
5.3555307174
 20
4.2152627121
 30
0.0
 10
5.3556069486
 20
4.2152703992
 30
0.0
 10
5.3556904859
 20
4.2152713185
 30
0.0
 10
5.3557812869
 20
4.2152641657
 30
0.0
 10
5.3559181346
 20
4.215241494
 30
0.0
 10
5.356108965
 20
4.2151842995
 30
0.0
 10
5.3563567215
 20
4.2150692894
 30
0.0
 10
5.3566325661
 20
4.2148992921
 30
0.0
 10
5.3569366701
 20
4.2146687369
 30
0.0
 10
5.3572690425
 20
4.2143716311
 30
0.0
 10
5.3576293236
 20
4.2140015239
 30
0.0
 10
5.3580170322
 20
4.2135521563
 30
0.0
 10
5.3584318256
 20
4.2130179762
 30
0.0
 10
5.3588732852
 20
4.2123939889
 30
0.0
 10
5.3593404017
 20
4.2116758168
 30
0.0
 10
5.3598328096
 20
4.2108605139
 30
0.0
 10
5.3603497732
 20
4.2099457547
 30
0.0
 10
5.3608903486
 20
4.2089294442
 30
0.0
 10
5.3614534045
 20
4.2078095376
 30
0.0
 10
5.3620376509
 20
4.2065843063
 30
0.0
 10
5.3626418682
 20
4.2052525258
 30
0.0
 10
5.3632646875
 20
4.2038134327
 30
0.0
 10
5.3639046007
 20
4.2022666444
 30
0.0
 10
5.3645600459
 20
4.2006121483
 30
0.0
 10
5.3652291841
 20
4.1988505592
 30
0.0
 10
5.3659106096
 20
4.196983346
 30
0.0
 10
5.3666028192
 20
4.1950123987
 30
0.0
 10
5.3675584777
 20
4.1921872773
 30
0.0
 10
5.3687654266
 20
4.1884084299
 30
0.0
 10
5.3701982823
 20
4.1835803852
 30
0.0
 10
5.3716300476
 20
4.1783845485
 30
0.0
 10
5.3730459477
 20
4.1728427339
 30
0.0
 10
5.374434082
 20
4.1669798052
 30
0.0
 10
5.3757821782
 20
4.1608209876
 30
0.0
 10
5.3770776817
 20
4.1543902661
 30
0.0
 10
5.3783090667
 20
4.1477109564
 30
0.0
 10
5.3794659554
 20
4.1408061548
 30
0.0
 10
5.380538646
 20
4.1336986009
 30
0.0
 10
5.3815182994
 20
4.1264105703
 30
0.0
 10
5.3823971848
 20
4.1189639139
 30
0.0
 10
5.3831683783
 20
4.1113800164
 30
0.0
 10
5.3838255228
 20
4.1036799213
 30
0.0
 10
5.3843641741
 20
4.0958842091
 30
0.0
 10
5.3847795161
 20
4.0880133782
 30
0.0
 10
5.3849712514
 20
4.0827417823
 30
0.0
 10
5.3850458469
 20
4.0800972833
 30
0.0
 11
5.3551669397
 21
4.2151057821
 31
0.0
 11
5.3551669962
 21
4.2151058323
 31
0.0
 11
5.3551671657
 21
4.2151059892
 31
0.0
 11
5.3551674484
 21
4.2151062506
 31
0.0
 11
5.3551678441
 21
4.2151066144
 31
0.0
 11
5.3551689749
 21
4.2151076402
 31
0.0
 11
5.3551705581
 21
4.2151090491
 31
0.0
 11
5.3551725937
 21
4.2151108238
 31
0.0
 11
5.3551750817
 21
4.2151129467
 31
0.0
 11
5.355178022
 21
4.2151154005
 31
0.0
 11
5.3551814146
 21
4.2151181677
 31
0.0
 11
5.3551895568
 21
4.2151245724
 31
0.0
 11
5.3551995083
 21
4.2151320213
 31
0.0
 11
5.3552112688
 21
4.2151403749
 31
0.0
 11
5.3552248383
 21
4.2151494918
 31
0.0
 11
5.3552402168
 21
4.2151592194
 31
0.0
 11
5.3552574041
 21
4.2151694007
 31
0.0
 11
5.3552972055
 21
4.2151904964
 31
0.0
 11
5.3553442421
 21
4.2152115229
 31
0.0
 11
5.3553985137
 21
4.2152312217
 31
0.0
 11
5.3554600201
 21
4.2152482844
 31
0.0
 11
5.3555287609
 21
4.215261356
 31
0.0
 11
5.3556047358
 21
4.2152690803
 31
0.0
 11
5.3556879445
 21
4.2152701011
 31
0.0
 11
5.3557783852
 21
4.2152631533
 31
0.0
 11
5.3558760527
 21
4.2152471701
 31
0.0
 11
5.3560930464
 21
4.2151839348
 31
0.0
 11
5.3563388756
 21
4.2150722419
 31
0.0
 11
5.3566134339
 21
4.2149055231
 31
0.0
 11
5.3569165846
 21
4.2146780656
 31
0.0
 11
5.3572481398
 21
4.2143839472
 31
0.0
 11
5.3576078004
 21
4.2140167729
 31
0.0
 11
5.3579952447
 21
4.2135701331
 31
0.0
 11
5.3584100079
 21
4.2130384162
 31
0.0
 11
5.3588515067
 21
4.2124166717
 31
0.0
 11
5.3593191269
 21
4.2117002684
 31
0.0
 11
5.3598120878
 21
4.2108863846
 31
0.0
 11
5.3603295459
 21
4.2099728752
 31
0.0
 11
5.3608705688
 21
4.2089576492
 31
0.0
 11
5.3614340386
 21
4.2078387253
 31
0.0
 11
5.3620187991
 21
4.2066142125
 31
0.0
 11
5.3626235444
 21
4.2052829679
 31
0.0
 11
5.3632468826
 21
4.2038442741
 31
0.0
 11
5.3638873428
 21
4.2022976966
 31
0.0
 11
5.3645433191
 21
4.2006432815
 31
0.0
 11
5.3652131916
 21
4.1988813889
 31
0.0
 11
5.3658953391
 21
4.1970137129
 31
0.0
 11
5.3665881339
 21
4.1950423443
 31
0.0
 11
5.3672898455
 21
4.1929690288
 31
0.0
 11
5.3687127438
 21
4.1885225804
 31
0.0
 11
5.3701493653
 21
4.1836892521
 31
0.0
 11
5.3715848511
 21
4.178486996
 31
0.0
 11
5.3730048395
 21
4.1729372868
 31
0.0
 11
5.3743963764
 21
4.1670665662
 31
0.0
 11
5.3757471482
 21
4.1609005059
 31
0.0
 11
5.3770450072
 21
4.1544626847
 31
0.0
 11
5.3782785188
 21
4.1477762876
 31
0.0
 11
5.3794372112
 21
4.1408646092
 31
0.0
 11
5.3805114389
 21
4.133750388
 31
0.0
 11
5.3814924314
 21
4.1264558601
 31
0.0
 11
5.3823724195
 21
4.1190029203
 31
0.0
 11
5.383144462
 21
4.1114129414
 31
0.0
 11
5.3838024495
 21
4.1037068141
 31
0.0
 11
5.3843415465
 21
4.0959054814
 31
0.0
 11
5.3847572302
 21
4.0880286864
 31
0.0
 11
5.3850458469
 21
4.0800972833
 31
0.0
  0
SPLINE
  5
272
100
AcDbEntity
  8
0
100
AcDbSpline
 62
6
  6
CONTINUOUS
 70
0
 71
3
 72
25
 73
21
 74
19
 42
0.0000001
 43
0.0000001
 44
0.0000000001
 12
-0.0024151349
 22
-0.0147127338
 32
0.0
 13
0.0149096416
 23
-0.0
 33
0.0
 40
0.0
 40
0.0
 40
0.0
 40
0.0
 40
0.0820422515
 40
0.1587398174
 40
0.1953681882
 40
0.2309531446
 40
0.2655627344
 40
0.299262233
 40
0.3642531879
 40
0.4266182586
 40
0.4869133347
 40
0.5455809514
 40
0.6030575766
 40
0.6597646138
 40
0.716050466
 40
0.7721922468
 40
0.8284424768
 40
0.8850389482
 40
0.942174294
 40
1.0
 40
1.0
 40
1.0
 40
1.0
 10
5.3568969333
 20
3.7167062774
 30
0.0
 10
5.3568308856
 20
3.7163039222
 30
0.0
 10
5.3567471363
 20
3.71551731
 30
0.0
 10
5.3567605976
 20
3.7145440137
 30
0.0
 10
5.3568379642
 20
3.7138076174
 30
0.0
 10
5.3569245696
 20
3.7132835154
 30
0.0
 10
5.3570384142
 20
3.712779572
 30
0.0
 10
5.3572214716
 20
3.7121425733
 30
0.0
 10
5.357508938
 20
3.7113934137
 30
0.0
 10
5.3579438738
 20
3.7105660739
 30
0.0
 10
5.3584541629
 20
3.7098208722
 30
0.0
 10
5.3590295699
 20
3.7091567371
 30
0.0
 10
5.3596624844
 20
3.7085732641
 30
0.0
 10
5.3603461697
 20
3.7080700875
 30
0.0
 10
5.3610739709
 20
3.7076464132
 30
0.0
 10
5.3618395267
 20
3.7073012758
 30
0.0
 10
5.3626371528
 20
3.7070340187
 30
0.0
 10
5.3634616457
 20
3.7068441212
 30
0.0
 10
5.3643078667
 20
3.706730903
 30
0.0
 10
5.3648795529
 20
3.7067062774
 30
0.0
 10
5.3651669397
 20
3.7067062774
 30
0.0
 11
5.3568969333
 21
3.7167062774
 31
0.0
 11
5.3567696091
 21
3.7154897015
 31
0.0
 11
5.3567867507
 21
3.7143462967
 31
0.0
 11
5.3568439162
 21
3.713803181
 31
0.0
 11
5.3569305024
 21
3.7132797351
 31
0.0
 11
5.3570442775
 21
3.7127764178
 31
0.0
 11
5.3571832365
 21
3.7122935681
 31
0.0
 11
5.3575312988
 21
3.7113892463
 31
0.0
 11
5.3579644115
 21
3.7105664357
 31
0.0
 11
5.3584724043
 21
3.7098247452
 31
0.0
 11
5.3590453195
 21
3.7091637678
 31
0.0
 11
5.3596753992
 21
3.7085829296
 31
0.0
 11
5.3603561828
 21
3.7080815586
 31
0.0
 11
5.3610812264
 21
3.7076589814
 31
0.0
 11
5.3618441227
 21
3.7073145275
 31
0.0
 11
5.3626391767
 21
3.7070475861
 31
0.0
 11
5.3634613444
 21
3.7068576004
 31
0.0
 11
5.3643056055
 21
3.7067440157
 31
0.0
 11
5.3651669397
 21
3.7067062774
 31
0.0
  0
SPLINE
  5
273
100
AcDbEntity
  8
0
100
AcDbSpline
 62
9
  6
CONTINUOUS
 70
0
 71
3
 72
77
 73
73
 74
71
 42
0.0000001
 43
0.0000001
 44
0.0000000001
 12
0.1022129841
 22
-0.0207314984
 32
0.0
 13
-0.002425855
 23
-0.104266027
 33
0.0
 40
0.0
 40
0.0
 40
0.0
 40
0.0
 40
0.0000017757
 40
0.0000071417
 40
0.0000160891
 40
0.0000286089
 40
0.0000446923
 40
0.0000643303
 40
0.0001142343
 40
0.0001782496
 40
0.0002563051
 40
0.0003483298
 40
0.000454253
 40
0.0005740039
 40
0.0007075121
 40
0.0010155189
 40
0.0013777132
 40
0.001793537
 40
0.0022624354
 40
0.0027838301
 40
0.0033570882
 40
0.003981572
 40
0.0053816791
 40
0.0069791195
 40
0.0087689145
 40
0.010746118
 40
0.0129056573
 40
0.0152424455
 40
0.0177514686
 40
0.0204277897
 40
0.026263583
 40
0.0327185719
 40
0.039765381
 40
0.0473784515
 40
0.0555386171
 40
0.0642292934
 40
0.0734341765
 40
0.0831365102
 40
0.0933198721
 40
0.1150695246
 40
0.1266137631
 40
0.1385905416
 40
0.1509928547
 40
0.1638163388
 40
0.1770568395
 40
0.1907098333
 40
0.2192324979
 40
0.2493500713
 40
0.2649975954
 40
0.2810315187
 40
0.2974474542
 40
0.3142413965
 40
0.3314094932
 40
0.3489472453
 40
0.3668485414
 40
0.3851066858
 40
0.4226637843
 40
0.4615570186
 40
0.4814832356
 40
0.5017165411
 40
0.5430635352
 40
0.5641562888
 40
0.5855130336
 40
0.6289690921
 40
0.6733317355
 40
0.7184955372
 40
0.7643511091
 40
0.8107859149
 40
0.8576849506
 40
0.9049316047
 40
0.9524088324
 40
1.0
 40
1.0
 40
1.0
 40
1.0
 10
5.3082210134
 20
4.175713472
 30
0.0
 10
5.3082210739
 20
4.1757134597
 30
0.0
 10
5.3082205826
 20
4.1757132858
 30
0.0
 10
5.3082203681
 20
4.1757130509
 30
0.0
 10
5.3082194089
 20
4.1757125543
 30
0.0
 10
5.3082183491
 20
4.1757119082
 30
0.0
 10
5.3082168749
 20
4.1757110575
 30
0.0
 10
5.3082143183
 20
4.175709556
 30
0.0
 10
5.3082103061
 20
4.175707204
 30
0.0
 10
5.30820456
 20
4.1757038159
 30
0.0
 10
5.308197555
 20
4.1756996709
 30
0.0
 10
5.3081893069
 20
4.1756947689
 30
0.0
 10
5.3081798229
 20
4.1756891083
 30
0.0
 10
5.3081691129
 20
4.1756826883
 30
0.0
 10
5.3081523965
 20
4.1756726238
 30
0.0
 10
5.3081285034
 20
4.1756581391
 30
0.0
 10
5.3080962945
 20
4.1756384398
 30
0.0
 10
5.3080594045
 20
4.1756156747
 30
0.0
 10
5.3080179085
 20
4.1755898352
 30
0.0
 10
5.3079718845
 20
4.1755609141
 30
0.0
 10
5.3079214138
 20
4.1755289044
 30
0.0
 10
5.3078453514
 20
4.1754802104
 30
0.0
 10
5.3077397572
 20
4.1754116109
 30
0.0
 10
5.3076009956
 20
4.1753197135
 30
0.0
 10
5.3074464472
 20
4.1752153317
 30
0.0
 10
5.3072767857
 20
4.1750984279
 30
0.0
 10
5.3070927022
 20
4.174968957
 30
0.0
 10
5.3068948974
 20
4.1748268775
 30
0.0
 10
5.3066840743
 20
4.1746721484
 30
0.0
 10
5.30637759
 20
4.1744422052
 30
0.0
 10
5.305966662
 20
4.1741229458
 30
0.0
 10
5.3054448317
 20
4.173699031
 30
0.0
 10
5.3048851881
 20
4.1732239311
 30
0.0
 10
5.3042917794
 20
4.1726972982
 30
0.0
 10
5.3036677288
 20
4.1721193843
 30
0.0
 10
5.3030158609
 20
4.1714903436
 30
0.0
 10
5.3023389554
 20
4.170810318
 30
0.0
 10
5.3016401621
 20
4.1700791395
 30
0.0
 10
5.3006619479
 20
4.1690121697
 30
0.0
 10
5.2996768698
 20
4.1678650626
 30
0.0
 10
5.2986897576
 20
4.1666391722
 30
0.0
 10
5.2979278422
 20
4.1656495172
 30
0.0
 10
5.2971611507
 20
4.1646078094
 30
0.0
 10
5.2963910935
 20
4.1635143936
 30
0.0
 10
5.2956191521
 20
4.162369472
 30
0.0
 10
5.2945741906
 20
4.1607508339
 30
0.0
 10
5.2932748991
 20
4.1585986738
 30
0.0
 10
5.2920262723
 20
4.1563372344
 30
0.0
 10
5.2910401742
 20
4.1544283679
 30
0.0
 10
5.2903001511
 20
4.1529288375
 30
0.0
 10
5.2895705093
 20
4.1513800631
 30
0.0
 10
5.2888522147
 20
4.1497826652
 30
0.0
 10
5.2881451404
 20
4.1481377422
 30
0.0
 10
5.2874492634
 20
4.1464463529
 30
0.0
 10
5.2867653778
 20
4.1447092855
 30
0.0
 10
5.2858624317
 20
4.1423108005
 30
0.0
 10
5.284770972
 20
4.1392039422
 30
0.0
 10
5.2837487964
 20
4.1360127023
 30
0.0
 10
5.2829636472
 20
4.133378922
 30
0.0
 10
5.2821894669
 20
4.1306531115
 30
0.0
 10
5.281454858
 20
4.1278741598
 30
0.0
 10
5.2807558347
 20
4.1250460682
 30
0.0
 10
5.2800692314
 20
4.1221395306
 30
0.0
 10
5.2792538277
 20
4.1184324088
 30
0.0
 10
5.2783508521
 20
4.1138980504
 30
0.0
 10
5.2775221084
 20
4.1092647585
 30
0.0
 10
5.2767743815
 20
4.1045447321
 30
0.0
 10
5.2761160445
 20
4.0997504788
 30
0.0
 10
5.275556254
 20
4.094894984
 30
0.0
 10
5.2751074792
 20
4.0899914981
 30
0.0
 10
5.2747790833
 20
4.0850543686
 30
0.0
 10
5.2746488005
 20
4.0817513307
 30
0.0
 10
5.2746103174
 20
4.0800972833
 30
0.0
 11
5.3082210134
 21
4.175713472
 31
0.0
 11
5.3082208541
 21
4.1757133775
 31
0.0
 11
5.3082203708
 21
4.1757130953
 31
0.0
 11
5.3082195647
 21
4.1757126253
 31
0.0
 11
5.3082184369
 21
4.1757119672
 31
0.0
 11
5.3082169886
 21
4.1757111209
 31
0.0
 11
5.308215221
 21
4.1757100863
 31
0.0
 11
5.3082107324
 21
4.1757074517
 31
0.0
 11
5.3082049804
 21
4.175704062
 31
0.0
 11
5.3081979744
 21
4.1756999163
 31
0.0
 11
5.3081897236
 21
4.1756950133
 31
0.0
 11
5.3081802374
 21
4.1756893519
 31
0.0
 11
5.3081695251
 21
4.1756829309
 31
0.0
 11
5.3081575959
 21
4.1756757492
 31
0.0
 11
5.3081301243
 21
4.1756590992
 31
0.0
 11
5.3080978973
 21
4.1756393926
 31
0.0
 11
5.3080609891
 21
4.1756166203
 31
0.0
 11
5.3080194745
 21
4.1755907732
 31
0.0
 11
5.3079734303
 21
4.175561843
 31
0.0
 11
5.3079229394
 21
4.1755298241
 31
0.0
 11
5.3078680851
 21
4.175494711
 31
0.0
 11
5.3077456201
 21
4.1754151806
 31
0.0
 11
5.307606703
 21
4.1753232084
 31
0.0
 11
5.3074520015
 21
4.1752187509
 31
0.0
 11
5.3072821861
 21
4.1751017651
 31
0.0
 11
5.3070979501
 21
4.17497221
 31
0.0
 11
5.3068999964
 21
4.1748300458
 31
0.0
 11
5.3066890282
 21
4.1746752328
 31
0.0
 11
5.3064657484
 21
4.174507731
 31
0.0
 11
5.3059849649
 21
4.1741345159
 31
0.0
 11
5.3054622852
 21
4.1737102182
 31
0.0
 11
5.3049018934
 21
4.1732347182
 31
0.0
 11
5.3043078242
 21
4.1727079195
 31
0.0
 11
5.3036832011
 21
4.1721298657
 31
0.0
 11
5.3030307968
 21
4.1715006543
 31
0.0
 11
5.3023534248
 21
4.1708203614
 31
0.0
 11
5.3016542093
 21
4.1700889009
 31
0.0
 11
5.3009364153
 21
4.1693061136
 31
0.0
 11
5.2994577571
 21
4.1675859267
 31
0.0
 11
5.2987025613
 21
4.1666482222
 31
0.0
 11
5.2979404034
 21
4.1656585816
 31
0.0
 11
5.2971734253
 21
4.1646170151
 31
0.0
 11
5.2964031197
 21
4.1635237129
 31
0.0
 11
5.2956309465
 21
4.1623788743
 31
0.0
 11
5.2948584898
 21
4.1611826789
 31
0.0
 11
5.2933197199
 21
4.1586368346
 31
0.0
 11
5.2917999357
 21
4.1558878895
 31
0.0
 11
5.2910507496
 21
4.1544380722
 31
0.0
 11
5.2903105367
 21
4.1529385752
 31
0.0
 11
5.2895806447
 21
4.1513898656
 31
0.0
 11
5.2888619379
 21
4.1497926013
 31
0.0
 11
5.2881544776
 21
4.1481477577
 31
0.0
 11
5.2874583409
 21
4.1464563229
 31
0.0
 11
5.2867742392
 21
4.1447191696
 31
0.0
 11
5.2861031496
 21
4.142937123
 31
0.0
 11
5.2848033141
 21
4.139242095
 31
0.0
 11
5.2835649671
 21
4.1353794024
 31
0.0
 11
5.2829709839
 21
4.1333879063
 31
0.0
 11
5.2823940859
 21
4.1313580773
 31
0.0
 11
5.2812897736
 21
4.1271896215
 31
0.0
 11
5.2807616987
 21
4.1250540913
 31
0.0
 11
5.280249547
 21
4.1228863858
 31
0.0
 11
5.2792751903
 21
4.1184601439
 31
0.0
 11
5.2783709912
 21
4.1139225885
 31
0.0
 11
5.27754162
 21
4.1092858547
 31
0.0
 11
5.2767937098
 21
4.1045622258
 31
0.0
 11
5.2761355158
 21
4.0997642787
 31
0.0
 11
5.2755766368
 21
4.0949050129
 31
0.0
 11
5.2751285065
 21
4.0899978785
 31
0.0
 11
5.2748015654
 21
4.0850570823
 31
0.0
 11
5.2746103174
 21
4.0800972833
 31
0.0
  0
SPLINE
  5
274
100
AcDbEntity
  8
0
100
AcDbSpline
 62
9
  6
CONTINUOUS
 70
0
 71
3
 72
9
 73
5
 74
3
 42
0.0000001
 43
0.0000001
 44
0.0000000001
 12
-0.0016503956
 22
-0.0157639186
 32
0.0
 13
0.0000003389
 23
-0.0158500769
 33
0.0
 40
0.0
 40
0.0
 40
0.0
 40
0.0
 40
0.500008522
 40
1.0
 40
1.0
 40
1.0
 40
1.0
 10
5.2746103174
 20
4.0800972833
 30
0.0
 10
5.2743352468
 20
4.0774699188
 30
0.0
 10
5.2738994135
 20
4.0722024198
 30
0.0
 10
5.2737399279
 20
4.0669181679
 30
0.0
 10
5.2737399843
 20
4.0642765335
 30
0.0
 11
5.2746103174
 21
4.0800972833
 31
0.0
 11
5.2739684953
 21
4.0721981416
 31
0.0
 11
5.2737399843
 21
4.0642765335
 31
0.0
  0
SPLINE
  5
275
100
AcDbEntity
  8
0
100
AcDbSpline
 62
9
  6
CONTINUOUS
 70
0
 71
3
 72
29
 73
25
 74
23
 42
0.0000001
 43
0.0000001
 44
0.0000000001
 12
0.1102799355
 22
-0.0115477811
 32
0.0
 13
0.1055437604
 23
0.0339930885
 33
0.0
 40
0.0
 40
0.0
 40
0.0
 40
0.0
 40
0.0815349793
 40
0.1627192989
 40
0.242972133
 40
0.3217257156
 40
0.3985056832
 40
0.4728799753
 40
0.5444189297
 40
0.6127085234
 40
0.6773475502
 40
0.7379394187
 40
0.766605518
 40
0.7941357214
 40
0.8204947143
 40
0.8456477811
 40
0.8695609693
 40
0.8922013909
 40
0.9135405491
 40
0.9335554751
 40
0.9522253183
 40
0.9695317441
 40
0.9854599196
 40
1.0
 40
1.0
 40
1.0
 40
1.0
 10
5.2746103175
 20
4.0800972843
 30
0.0
 10
5.2776075416
 20
4.079783435
 30
0.0
 10
5.2835927216
 20
4.0791911464
 30
0.0
 10
5.2925391766
 20
4.0784079856
 30
0.0
 10
5.3013915626
 20
4.0777355712
 30
0.0
 10
5.3100889231
 20
4.0771796578
 30
0.0
 10
5.3185755646
 20
4.0767434235
 30
0.0
 10
5.3268007635
 20
4.0764289009
 30
0.0
 10
5.3347159004
 20
4.0762384272
 30
0.0
 10
5.3422732643
 20
4.076172772
 30
0.0
 10
5.3494260875
 20
4.076231561
 30
0.0
 10
5.3551125997
 20
4.0763868843
 30
0.0
 10
5.359425078
 20
4.0765775025
 30
0.0
 10
5.3624716789
 20
4.0767486325
 30
0.0
 10
5.3653862794
 20
4.0769502697
 30
0.0
 10
5.3681645138
 20
4.07718213
 30
0.0
 10
5.3708020235
 20
4.0774438994
 30
0.0
 10
5.3732945684
 20
4.0777353365
 30
0.0
 10
5.375638201
 20
4.0780559939
 30
0.0
 10
5.3778293194
 20
4.0784050366
 30
0.0
 10
5.3798644881
 20
4.0787817052
 30
0.0
 10
5.3817403376
 20
4.0791852215
 30
0.0
 10
5.383453455
 20
4.0796147902
 30
0.0
 10
5.3845343087
 20
4.0799325293
 30
0.0
 10
5.3850458469
 20
4.0800972833
 30
0.0
 11
5.2746103175
 21
4.0800972843
 31
0.0
 11
5.2836071996
 21
4.0792068939
 31
0.0
 11
5.2925748931
 21
4.0784222835
 31
0.0
 11
5.3014480725
 21
4.0777492692
 31
0.0
 11
5.3101627846
 21
4.0771933585
 31
0.0
 11
5.3186652192
 21
4.0767577772
 31
0.0
 11
5.3269061119
 21
4.0764447284
 31
0.0
 11
5.3348363204
 21
4.0762563313
 31
0.0
 11
5.3424082075
 21
4.0761935225
 31
0.0
 11
5.3495752944
 21
4.0762563281
 31
0.0
 11
5.3562912539
 21
4.0764447273
 31
0.0
 11
5.3594667017
 21
4.0765858013
 31
0.0
 11
5.3625144817
 21
4.0767577843
 31
0.0
 11
5.3654302115
 21
4.0769604008
 31
0.0
 11
5.3682095088
 21
4.0771933753
 31
0.0
 11
5.3708479913
 21
4.0774564324
 31
0.0
 11
5.3733412861
 21
4.0777492918
 31
0.0
 11
5.3756853947
 21
4.0780714862
 31
0.0
 11
5.3778768042
 21
4.0784223048
 31
0.0
 11
5.3799120345
 21
4.0788010207
 31
0.0
 11
5.3817876052
 21
4.079206907
 31
0.0
 11
5.3835000361
 21
4.0796392369
 31
0.0
 11
5.3850458469
 21
4.0800972833
 31
0.0
  0
SPLINE
  5
276
100
AcDbEntity
  8
0
100
AcDbSpline
 62
6
  6
CONTINUOUS
 70
0
 71
3
 72
26
 73
22
 74
20
 42
0.0000001
 43
0.0000001
 44
0.0000000001
 12
-0.0257705332
 22
-0.0800749223
 32
0.0
 13
-0.0121113528
 23
-0.0832431901
 33
0.0
 40
0.0
 40
0.0
 40
0.0
 40
0.0
 40
0.0793854181
 40
0.1551189364
 40
0.2272217426
 40
0.2957690558
 40
0.3610758777
 40
0.423506554
 40
0.4834411274
 40
0.5413235462
 40
0.5976151498
 40
0.6528242058
 40
0.7075441684
 40
0.7624036425
 40
0.7901190147
 40
0.8181686139
 40
0.8466631269
 40
0.8757146985
 40
0.9054436459
 40
0.935980227
 40
1.0
 40
1.0
 40
1.0
 40
1.0
 10
5.3852794765
 20
3.8067062774
 30
0.0
 10
5.3845975416
 20
3.8045873504
 30
0.0
 10
5.3832217037
 20
3.8004607849
 30
0.0
 10
5.3810887164
 20
3.7944568058
 30
0.0
 10
5.37895849
 20
3.7887753939
 30
0.0
 10
5.3768506695
 20
3.7833986221
 30
0.0
 10
5.374786261
 20
3.7782965876
 30
0.0
 10
5.3727833044
 20
3.7734303731
 30
0.0
 10
5.3708579723
 20
3.7687573385
 30
0.0
 10
5.3690214017
 20
3.764233927
 30
0.0
 10
5.3672838831
 20
3.759813512
 30
0.0
 10
5.365654409
 20
3.7554464818
 30
0.0
 10
5.3641400514
 20
3.7510805136
 30
0.0
 10
5.3629824438
 20
3.7474082406
 30
0.0
 10
5.3621230879
 20
3.7444276239
 30
0.0
 10
5.3615080568
 20
3.7421463218
 30
0.0
 10
5.3609251807
 20
3.7398179446
 30
0.0
 10
5.3603748164
 20
3.7374333113
 30
0.0
 10
5.3598572798
 20
3.7349827682
 30
0.0
 10
5.3592009343
 20
3.7315600385
 30
0.0
 10
5.3587749587
 20
3.7289423605
 30
0.0
 10
5.3585165034
 20
3.7271659571
 30
0.0
 11
5.3852794765
 21
3.8067062774
 31
0.0
 11
5.3831682809
 21
3.8003709135
 31
0.0
 11
5.3810368874
 21
3.7943673581
 31
0.0
 11
5.3789090865
 21
3.7886875812
 31
0.0
 11
5.3768075664
 21
3.7833180012
 31
0.0
 11
5.3747508285
 21
3.7782239537
 31
0.0
 11
5.3727563793
 21
3.7733657692
 31
0.0
 11
5.3708401124
 21
3.7687024652
 31
0.0
 11
5.3690131456
 21
3.7641891712
 31
0.0
 11
5.3672857046
 21
3.7597802774
 31
0.0
 11
5.3656666217
 21
3.7554274799
 31
0.0
 11
5.3641620502
 21
3.7510772971
 31
0.0
 11
5.3627777527
 21
3.7466750566
 31
0.0
 11
5.3621321443
 21
3.7444348225
 31
0.0
 11
5.361518117
 21
3.7421565961
 31
0.0
 11
5.3609360789
 21
3.7398313882
 31
0.0
 11
5.3603864354
 21
3.7374501935
 31
0.0
 11
5.3598694889
 21
3.7350034184
 31
0.0
 11
5.35938541
 21
3.7324807171
 31
0.0
 11
5.3585165034
 21
3.7271659571
 31
0.0
  0
SPLINE
  5
277
100
AcDbEntity
  8
0
100
AcDbSpline
 62
9
  6
CONTINUOUS
 70
0
 71
3
 72
41
 73
37
 74
35
 42
0.0000001
 43
0.0000001
 44
0.0000000001
 12
-0.0000011327
 22
-0.1239571409
 32
0.0
 13
0.1175510211
 23
-0.0393335761
 33
0.0
 40
0.0
 40
0.0
 40
0.0
 40
0.0
 40
0.032960094
 40
0.0494274071
 40
0.0658736528
 40
0.0822940732
 40
0.098684258
 40
0.1150389011
 40
0.1313538622
 40
0.1476262394
 40
0.1638535377
 40
0.1800348701
 40
0.1961682333
 40
0.2282870375
 40
0.2602171091
 40
0.2919668531
 40
0.3235486778
 40
0.3549763128
 40
0.3862667598
 40
0.4174358403
 40
0.4484986005
 40
0.5103511688
 40
0.571939445
 40
0.6026634054
 40
0.6333502135
 40
0.6640058169
 40
0.6946357245
 40
0.7252451325
 40
0.7558365867
 40
0.8169734353
 40
0.8475237565
 40
0.8780599967
 40
0.9085794188
 40
0.9390780372
 40
0.9695526776
 40
1.0
 40
1.0
 40
1.0
 40
1.0
 10
5.2737399843
 20
3.8067062774
 30
0.0
 10
5.2737399719
 20
3.8053443978
 30
0.0
 10
5.2738219593
 20
3.8033008979
 30
0.0
 10
5.2740918604
 20
3.8005920166
 30
0.0
 10
5.2743734047
 20
3.7985725435
 30
0.0
 10
5.2747331422
 20
3.7965688353
 30
0.0
 10
5.2751686825
 20
3.7945841109
 30
0.0
 10
5.2756771814
 20
3.7926213426
 30
0.0
 10
5.2762560797
 20
3.7906832696
 30
0.0
 10
5.2769029984
 20
3.788772397
 30
0.0
 10
5.2776153705
 20
3.7868908817
 30
0.0
 10
5.2783896547
 20
3.7850402226
 30
0.0
 10
5.2794983565
 20
3.7826192912
 30
0.0
 10
5.2810231362
 20
3.7796752405
 30
0.0
 10
5.2830569234
 20
3.7762767531
 30
0.0
 10
5.2852687606
 20
3.7730184341
 30
0.0
 10
5.2876382977
 20
3.7698993291
 30
0.0
 10
5.2901475899
 20
3.7669165435
 30
0.0
 10
5.2927817774
 20
3.7640669036
 30
0.0
 10
5.2955271385
 20
3.7613457854
 30
0.0
 10
5.2993126792
 20
3.7578862847
 30
0.0
 10
5.3042659532
 20
3.7538495936
 30
0.0
 10
5.3094629875
 20
3.750159043
 30
0.0
 10
5.3137314579
 20
3.747399647
 30
0.0
 10
5.3169816798
 20
3.7454220807
 30
0.0
 10
5.3202777236
 20
3.7435298499
 30
0.0
 10
5.3236151039
 20
3.7417182917
 30
0.0
 10
5.3269898609
 20
3.7399832079
 30
0.0
 10
5.3315329609
 20
3.737766247
 30
0.0
 10
5.3361382022
 20
3.7356847019
 30
0.0
 10
5.3407926478
 20
3.7337246784
 30
0.0
 10
5.3443043848
 20
3.7323119668
 30
0.0
 10
5.3478347749
 20
3.7309525983
 30
0.0
 10
5.3513810844
 20
3.7296426756
 30
0.0
 10
5.354941233
 20
3.7283797826
 30
0.0
 10
5.357323809
 20
3.7275672771
 30
0.0
 10
5.3585168469
 20
3.7271680764
 30
0.0
 11
5.2737399843
 21
3.8067062774
 31
0.0
 11
5.2739029128
 21
3.8026238884
 31
0.0
 11
5.2741052085
 21
3.8005926963
 31
0.0
 11
5.2743866898
 21
3.7985735928
 31
0.0
 11
5.274746145
 21
3.7965701556
 31
0.0
 11
5.275181354
 21
3.7945856358
 31
0.0
 11
5.2756895737
 21
3.7926230977
 31
0.0
 11
5.2762682173
 21
3.7906852909
 31
0.0
 11
5.2769148468
 21
3.7887746703
 31
0.0
 11
5.2776267467
 21
3.7868933706
 31
0.0
 11
5.2784005977
 21
3.7850428693
 31
0.0
 11
5.2792330573
 21
3.7832245203
 31
0.0
 11
5.2810623757
 21
3.77968831
 31
0.0
 11
5.2830925918
 21
3.7762907119
 31
0.0
 11
5.2853011083
 21
3.7730331881
 31
0.0
 11
5.2876675411
 21
3.7699145991
 31
0.0
 11
5.290174032
 21
3.7669323475
 31
0.0
 11
5.2928055327
 21
3.7640829057
 31
0.0
 11
5.2955482535
 21
3.7613616706
 31
0.0
 11
5.298389462
 21
3.7587629196
 31
0.0
 11
5.3043256141
 21
3.7539104952
 31
0.0
 11
5.3105442284
 21
3.7494820108
 31
0.0
 11
5.3137419661
 21
3.7474134854
 31
0.0
 11
5.3169909838
 21
3.7454353167
 31
0.0
 11
5.320286005
 21
3.7435425171
 31
0.0
 11
5.3236224726
 21
3.7417304348
 31
0.0
 11
5.3269964298
 21
3.7399946983
 31
0.0
 11
5.3304040032
 21
3.7383309889
 31
0.0
 11
5.337307253
 21
3.7352042468
 31
0.0
 11
5.3407970614
 21
3.7337338458
 31
0.0
 11
5.3443084717
 21
3.7323204727
 31
0.0
 11
5.3478386294
 21
3.7309603865
 31
0.0
 11
5.3513847895
 21
3.7296500079
 31
0.0
 11
5.3549448293
 21
3.7283866809
 31
0.0
 11
5.3585168469
 21
3.7271680764
 31
0.0
  0
SPLINE
  5
278
100
AcDbEntity
  8
0
100
AcDbSpline
 62
9
  6
CONTINUOUS
 70
0
 71
3
 72
48
 73
44
 74
42
 42
0.0000001
 43
0.0000001
 44
0.0000000001
 12
0.0
 22
-0.107692666
 32
0.0
 13
-0.107692666
 23
0.0000000058
 33
0.0
 40
0.0
 40
0.0
 40
0.0
 40
0.0
 40
0.0059182781
 40
0.01189074
 40
0.0179643583
 40
0.0241833371
 40
0.0305884177
 40
0.0372164819
 40
0.0441004244
 40
0.0512692393
 40
0.0587482535
 40
0.0665594449
 40
0.0747217879
 40
0.0832509207
 40
0.0921588736
 40
0.1014552614
 40
0.1111477198
 40
0.121242207
 40
0.1317432589
 40
0.1426542041
 40
0.1539773458
 40
0.1657141127
 40
0.1904290148
 40
0.2167907075
 40
0.244768372
 40
0.274323535
 40
0.3054128155
 40
0.3379891466
 40
0.3719993209
 40
0.4073743297
 40
0.4440396171
 40
0.4819189082
 40
0.5209346122
 40
0.5610078124
 40
0.6020549658
 40
0.6439892499
 40
0.6867231277
 40
0.7301685629
 40
0.8188255714
 40
0.8638189211
 40
0.9090935399
 40
0.9545277973
 40
1.0
 40
1.0
 40
1.0
 40
1.0
 10
6.0051669397
 20
3.8488838673
 30
0.0
 10
6.0051669397
 20
3.8486714156
 30
0.0
 10
6.0051465215
 20
3.8482442957
 30
0.0
 10
6.0050550915
 20
3.8476050397
 30
0.0
 10
6.0049030761
 20
3.8469663156
 30
0.0
 10
6.0046907709
 20
3.8463287181
 30
0.0
 10
6.0044184761
 20
3.845692704
 30
0.0
 10
6.0040864821
 20
3.8450587239
 30
0.0
 10
6.0036950604
 20
3.8444271974
 30
0.0
 10
6.0032444618
 20
3.8437985335
 30
0.0
 10
6.002734916
 20
3.8431731375
 30
0.0
 10
6.0021666425
 20
3.8425514113
 30
0.0
 10
6.0015398451
 20
3.841933801
 30
0.0
 10
6.0008548731
 20
3.8413207067
 30
0.0
 10
6.0001122894
 20
3.8407123771
 30
0.0
 10
5.9993126405
 20
3.8401091292
 30
0.0
 10
5.9984564849
 20
3.839511278
 30
0.0
 10
5.9975443779
 20
3.8389191465
 30
0.0
 10
5.9965768761
 20
3.8383330605
 30
0.0
 10
5.9955545378
 20
3.8377533507
 30
0.0
 10
5.9944779194
 20
3.8371803426
 30
0.0
 10
5.9929442707
 20
3.836412455
 30
0.0
 10
5.9908928707
 20
3.8354745414
 30
0.0
 10
5.9882657053
 20
3.8343997918
 30
0.0
 10
5.9854389117
 20
3.8333593677
 30
0.0
 10
5.9824195294
 20
3.8323558008
 30
0.0
 10
5.9792146196
 20
3.8313915843
 30
0.0
 10
5.9758313977
 20
3.8304692703
 30
0.0
 10
5.9722777057
 20
3.8295915099
 30
0.0
 10
5.968562387
 20
3.8287599805
 30
0.0
 10
5.9646948392
 20
3.8279765532
 30
0.0
 10
5.9606845904
 20
3.8272431207
 30
0.0
 10
5.9565411896
 20
3.8265615514
 30
0.0
 10
5.952274329
 20
3.8259338305
 30
0.0
 10
5.9478940398
 20
3.8253613361
 30
0.0
 10
5.9434106116
 20
3.8248451944
 30
0.0
 10
5.9388343966
 20
3.8243866199
 30
0.0
 10
5.9325810261
 20
3.8238499073
 30
0.0
 10
5.9262360581
 20
3.8234392592
 30
0.0
 10
5.9198194562
 20
3.823150537
 30
0.0
 10
5.9149504279
 20
3.822994565
 30
0.0
 10
5.9100626393
 20
3.8229006366
 30
0.0
 10
5.9067992807
 20
3.8228796391
 30
0.0
 10
5.9051669397
 20
3.8228796392
 30
0.0
 11
6.0051669397
 21
3.8488838673
 31
0.0
 11
6.0051366807
 21
3.8482472308
 31
0.0
 11
6.0050460323
 21
3.8476104603
 31
0.0
 11
6.0048951875
 21
3.8469740077
 31
0.0
 11
6.0046843395
 21
3.8463383249
 31
0.0
 11
6.0044136813
 21
3.8457038638
 31
0.0
 11
6.004083406
 21
3.8450710764
 31
0.0
 11
6.0036937065
 21
3.8444404145
 31
0.0
 11
6.0032447761
 21
3.8438123302
 31
0.0
 11
6.0027368077
 21
3.8431872753
 31
0.0
 11
6.0021699945
 21
3.8425657018
 31
0.0
 11
6.0015445317
 21
3.8419480608
 31
0.0
 11
6.000860754
 21
3.8413347613
 31
0.0
 11
6.0001192116
 21
3.8407261464
 31
0.0
 11
5.9993204734
 21
3.8401225537
 31
0.0
 11
5.9984651082
 21
3.8395243207
 31
0.0
 11
5.9975536847
 21
3.838931785
 31
0.0
 11
5.9965867718
 21
3.8383452842
 31
0.0
 11
5.9955649383
 21
3.8377651558
 31
0.0
 11
5.994488753
 21
3.8371917374
 31
0.0
 11
5.9933587848
 21
3.8366253664
 31
0.0
 11
5.9909397909
 21
3.8355151161
 31
0.0
 11
5.9883134972
 21
3.8344370248
 31
0.0
 11
5.9854869535
 21
3.8333935903
 31
0.0
 11
5.9824673396
 21
3.8323872998
 31
0.0
 11
5.9792618351
 21
3.8314206403
 31
0.0
 11
5.9758776195
 21
3.8304960992
 31
0.0
 11
5.9723222701
 21
3.82961606
 31
0.0
 11
5.9686049539
 21
3.8287824933
 31
0.0
 11
5.9647352353
 21
3.827997266
 31
0.0
 11
5.9607226786
 21
3.8272622452
 31
0.0
 11
5.9565768483
 21
3.8265792978
 31
0.0
 11
5.9523073491
 21
3.8259502572
 31
0.0
 11
5.947924257
 21
3.8253765641
 31
0.0
 11
5.9434379515
 21
3.824859406
 31
0.0
 11
5.9388588171
 21
3.8243999663
 31
0.0
 11
5.9341972384
 21
3.8239994283
 31
0.0
 11
5.9246696771
 21
3.8233794821
 31
0.0
 11
5.9198291333
 21
3.8231614031
 31
0.0
 11
5.9149558938
 21
3.8230051352
 31
0.0
 11
5.9100638615
 21
3.82291108
 31
0.0
 11
5.9051669397
 21
3.8228796392
 31
0.0
  0
SPLINE
  5
279
100
AcDbEntity
  8
0
100
AcDbSpline
 62
9
  6
CONTINUOUS
 70
0
 71
3
 72
48
 73
44
 74
42
 42
0.0000001
 43
0.0000001
 44
0.0000000001
 12
0.0
 22
0.1076926644
 32
0.0
 13
-0.1076926644
 23
0.0000000003
 33
0.0
 40
0.0
 40
0.0
 40
0.0
 40
0.0
 40
0.005918277
 40
0.0118907378
 40
0.0179643552
 40
0.024183333
 40
0.0305884128
 40
0.0372164763
 40
0.0441004182
 40
0.0512692327
 40
0.0587482465
 40
0.0665594376
 40
0.0747217803
 40
0.083250913
 40
0.0921588661
 40
0.1014552541
 40
0.1111477129
 40
0.1212422005
 40
0.1317432528
 40
0.1426541986
 40
0.1539773407
 40
0.165714108
 40
0.1904290108
 40
0.2167907044
 40
0.2447683703
 40
0.2743235347
 40
0.3054128165
 40
0.3379891484
 40
0.3719993233
 40
0.4073743331
 40
0.4440396216
 40
0.4819189138
 40
0.5209346186
 40
0.5610078191
 40
0.6020549727
 40
0.6439892566
 40
0.6867231338
 40
0.7301685678
 40
0.818825573
 40
0.8638189215
 40
0.9090935396
 40
0.9545277969
 40
1.0
 40
1.0
 40
1.0
 40
1.0
 10
6.0051669397
 20
4.1245286876
 30
0.0
 10
6.0051669397
 20
4.1247411393
 30
0.0
 10
6.0051465215
 20
4.1251682591
 30
0.0
 10
6.0050550915
 20
4.1258075149
 30
0.0
 10
6.0049030761
 20
4.1264462389
 30
0.0
 10
6.0046907708
 20
4.1270838363
 30
0.0
 10
6.004418476
 20
4.1277198502
 30
0.0
 10
6.004086482
 20
4.1283538303
 30
0.0
 10
6.0036950602
 20
4.1289853566
 30
0.0
 10
6.0032444616
 20
4.1296140204
 30
0.0
 10
6.0027349158
 20
4.1302394163
 30
0.0
 10
6.0021666422
 20
4.1308611424
 30
0.0
 10
6.0015398448
 20
4.1314787527
 30
0.0
 10
6.0008548728
 20
4.1320918469
 30
0.0
 10
6.000112289
 20
4.1327001765
 30
0.0
 10
5.9993126401
 20
4.1333034243
 30
0.0
 10
5.9984564844
 20
4.1339012754
 30
0.0
 10
5.9975443773
 20
4.1344934068
 30
0.0
 10
5.9965768755
 20
4.1350794928
 30
0.0
 10
5.9955545371
 20
4.1356592025
 30
0.0
 10
5.9944779186
 20
4.1362322105
 30
0.0
 10
5.9929442698
 20
4.1370000981
 30
0.0
 10
5.9908928698
 20
4.1379380117
 30
0.0
 10
5.9882657042
 20
4.1390127611
 30
0.0
 10
5.9854389105
 20
4.1400531851
 30
0.0
 10
5.9824195281
 20
4.1410567521
 30
0.0
 10
5.9792146182
 20
4.1420209685
 30
0.0
 10
5.9758313962
 20
4.1429432825
 30
0.0
 10
5.9722777042
 20
4.143821043
 30
0.0
 10
5.9685623855
 20
4.1446525723
 30
0.0
 10
5.9646948377
 20
4.1454359996
 30
0.0
 10
5.9606845888
 20
4.1461694322
 30
0.0
 10
5.956541188
 20
4.1468510016
 30
0.0
 10
5.9522743275
 20
4.1474787226
 30
0.0
 10
5.9478940383
 20
4.1480512172
 30
0.0
 10
5.9434106102
 20
4.148567359
 30
0.0
 10
5.9388343954
 20
4.1490259337
 30
0.0
 10
5.9325810252
 20
4.1495626465
 30
0.0
 10
5.9262360575
 20
4.1499732949
 30
0.0
 10
5.9198194559
 20
4.1502620173
 30
0.0
 10
5.9149504278
 20
4.1504179895
 30
0.0
 10
5.9100626392
 20
4.1505119182
 30
0.0
 10
5.9067992806
 20
4.1505329159
 30
0.0
 10
5.9051669397
 20
4.1505329159
 30
0.0
 11
6.0051669397
 21
4.1245286876
 31
0.0
 11
6.0051366807
 21
4.1251653239
 31
0.0
 11
6.0050460323
 21
4.1258020943
 31
0.0
 11
6.0048951875
 21
4.1264385468
 31
0.0
 11
6.0046843394
 21
4.1270742295
 31
0.0
 11
6.0044136812
 21
4.1277086905
 31
0.0
 11
6.0040834058
 21
4.1283414778
 31
0.0
 11
6.0036937064
 21
4.1289721395
 31
0.0
 11
6.0032447759
 21
4.1296002237
 31
0.0
 11
6.0027368075
 21
4.1302252785
 31
0.0
 11
6.0021699942
 21
4.130846852
 31
0.0
 11
6.0015445314
 21
4.1314644929
 31
0.0
 11
6.0008607537
 21
4.1320777923
 31
0.0
 11
6.0001192113
 21
4.1326864072
 31
0.0
 11
5.999320473
 21
4.1332899998
 31
0.0
 11
5.9984651077
 21
4.1338882327
 31
0.0
 11
5.9975536841
 21
4.1344807683
 31
0.0
 11
5.9965867711
 21
4.1350672691
 31
0.0
 11
5.9955649376
 21
4.1356473974
 31
0.0
 11
5.9944887522
 21
4.1362208158
 31
0.0
 11
5.9933587839
 21
4.1367871867
 31
0.0
 11
5.9909397899
 21
4.137897437
 31
0.0
 11
5.9883134961
 21
4.1389755282
 31
0.0
 11
5.9854869524
 21
4.1400189626
 31
0.0
 11
5.9824673383
 21
4.141025253
 31
0.0
 11
5.9792618337
 21
4.1419919125
 31
0.0
 11
5.9758776181
 21
4.1429164536
 31
0.0
 11
5.9723222687
 21
4.1437964928
 31
0.0
 11
5.9686049525
 21
4.1446300595
 31
0.0
 11
5.9647352338
 21
4.1454152869
 31
0.0
 11
5.9607226771
 21
4.1461503078
 31
0.0
 11
5.9565768467
 21
4.1468332552
 31
0.0
 11
5.9523073476
 21
4.147462296
 31
0.0
 11
5.9479242555
 21
4.1480359892
 31
0.0
 11
5.9434379501
 21
4.1485531474
 31
0.0
 11
5.9388588158
 21
4.1490125873
 31
0.0
 11
5.9341972374
 21
4.1494131254
 31
0.0
 11
5.9246696766
 21
4.150033072
 31
0.0
 11
5.9198291331
 21
4.1502511512
 31
0.0
 11
5.9149558937
 21
4.1504074194
 31
0.0
 11
5.9100638615
 21
4.1505014749
 31
0.0
 11
5.9051669397
 21
4.1505329159
 31
0.0
  0
SPLINE
  5
27A
100
AcDbEntity
  8
0
100
AcDbSpline
 62
9
  6
CONTINUOUS
 70
0
 71
3
 72
48
 73
44
 74
42
 42
0.0000001
 43
0.0000001
 44
0.0000000001
 12
0.0
 22
-0.1076926644
 32
0.0
 13
0.1076926644
 23
-0.0000000003
 33
0.0
 40
0.0
 40
0.0
 40
0.0
 40
0.0
 40
0.005918277
 40
0.0118907378
 40
0.0179643552
 40
0.0241833331
 40
0.0305884129
 40
0.0372164764
 40
0.0441004183
 40
0.0512692328
 40
0.0587482466
 40
0.0665594378
 40
0.0747217806
 40
0.0832509133
 40
0.0921588664
 40
0.1014552544
 40
0.1111477132
 40
0.1212422009
 40
0.1317432533
 40
0.1426541991
 40
0.1539773413
 40
0.1657141086
 40
0.1904290114
 40
0.2167907051
 40
0.244768371
 40
0.2743235355
 40
0.3054128173
 40
0.3379891492
 40
0.3719993241
 40
0.4073743339
 40
0.4440396224
 40
0.4819189146
 40
0.5209346194
 40
0.5610078199
 40
0.6020549735
 40
0.6439892573
 40
0.6867231344
 40
0.7301685683
 40
0.8188255732
 40
0.8638189216
 40
0.9090935397
 40
0.954527797
 40
1.0
 40
1.0
 40
1.0
 40
1.0
 10
5.8051669397
 20
3.8488838673
 30
0.0
 10
5.8051669397
 20
3.8486714156
 30
0.0
 10
5.805187358
 20
3.8482442958
 30
0.0
 10
5.805278788
 20
3.84760504
 30
0.0
 10
5.8054308034
 20
3.846966316
 30
0.0
 10
5.8056431087
 20
3.8463287186
 30
0.0
 10
5.8059154035
 20
3.8456927046
 30
0.0
 10
5.8062473975
 20
3.8450587246
 30
0.0
 10
5.8066388193
 20
3.8444271983
 30
0.0
 10
5.8070894179
 20
3.8437985345
 30
0.0
 10
5.8075989637
 20
3.8431731386
 30
0.0
 10
5.8081672373
 20
3.8425514125
 30
0.0
 10
5.8087940347
 20
3.8419338022
 30
0.0
 10
5.8094790067
 20
3.8413207079
 30
0.0
 10
5.8102215905
 20
3.8407123784
 30
0.0
 10
5.8110212394
 20
3.8401091306
 30
0.0
 10
5.8118773951
 20
3.8395112795
 30
0.0
 10
5.8127895023
 20
3.8389191481
 30
0.0
 10
5.8137570041
 20
3.8383330621
 30
0.0
 10
5.8147793424
 20
3.8377533524
 30
0.0
 10
5.8158559609
 20
3.8371803443
 30
0.0
 10
5.8173896097
 20
3.8364124567
 30
0.0
 10
5.8194410098
 20
3.8354745432
 30
0.0
 10
5.8220681753
 20
3.8343997937
 30
0.0
 10
5.824894969
 20
3.8333593697
 30
0.0
 10
5.8279143515
 20
3.8323558028
 30
0.0
 10
5.8311192614
 20
3.8313915864
 30
0.0
 10
5.8345024833
 20
3.8304692724
 30
0.0
 10
5.8380561753
 20
3.8295915119
 30
0.0
 10
5.8417714941
 20
3.8287599826
 30
0.0
 10
5.8456390419
 20
3.8279765552
 30
0.0
 10
5.8496492908
 20
3.8272431226
 30
0.0
 10
5.8537926915
 20
3.8265615533
 30
0.0
 10
5.8580595521
 20
3.8259338323
 30
0.0
 10
5.8624398413
 20
3.8253613377
 30
0.0
 10
5.8669232693
 20
3.8248451958
 30
0.0
 10
5.8714994841
 20
3.8243866212
 30
0.0
 10
5.8777528543
 20
3.8238499084
 30
0.0
 10
5.884097822
 20
3.82343926
 30
0.0
 10
5.8905144236
 20
3.8231505376
 30
0.0
 10
5.8953834517
 20
3.8229945653
 30
0.0
 10
5.9002712403
 20
3.8229006367
 30
0.0
 10
5.9035345988
 20
3.822879639
 30
0.0
 10
5.9051669397
 20
3.822879639
 30
0.0
 11
5.8051669397
 21
3.8488838673
 31
0.0
 11
5.8051971988
 21
3.848247231
 31
0.0
 11
5.8052878472
 21
3.8476104606
 31
0.0
 11
5.805438692
 21
3.8469740081
 31
0.0
 11
5.8056495401
 21
3.8463383254
 31
0.0
 11
5.8059201983
 21
3.8457038644
 31
0.0
 11
5.8062504737
 21
3.8450710771
 31
0.0
 11
5.8066401731
 21
3.8444404154
 31
0.0
 11
5.8070891036
 21
3.8438123311
 31
0.0
 11
5.807597072
 21
3.8431872763
 31
0.0
 11
5.8081638853
 21
3.8425657029
 31
0.0
 11
5.8087893481
 21
3.841948062
 31
0.0
 11
5.8094731258
 21
3.8413347625
 31
0.0
 11
5.8102146682
 21
3.8407261477
 31
0.0
 11
5.8110134065
 21
3.840122555
 31
0.0
 11
5.8118687719
 21
3.8395243221
 31
0.0
 11
5.8127801954
 21
3.8389317865
 31
0.0
 11
5.8137471084
 21
3.8383452858
 31
0.0
 11
5.814768942
 21
3.8377651574
 31
0.0
 11
5.8158451273
 21
3.8371917391
 31
0.0
 11
5.8169750956
 21
3.8366253682
 31
0.0
 11
5.8193940896
 21
3.8355151179
 31
0.0
 11
5.8220203834
 21
3.8344370267
 31
0.0
 11
5.8248469272
 21
3.8333935923
 31
0.0
 11
5.8278665412
 21
3.8323873018
 31
0.0
 11
5.8310720459
 21
3.8314206424
 31
0.0
 11
5.8344562615
 21
3.8304961012
 31
0.0
 11
5.8380116109
 21
3.8296160621
 31
0.0
 11
5.8417289271
 21
3.8287824953
 31
0.0
 11
5.8455986458
 21
3.827997268
 31
0.0
 11
5.8496112025
 21
3.8272622471
 31
0.0
 11
5.8537570329
 21
3.8265792996
 31
0.0
 11
5.858026532
 21
3.8259502589
 31
0.0
 11
5.862409624
 21
3.8253765657
 31
0.0
 11
5.8668959295
 21
3.8248594075
 31
0.0
 11
5.8714750637
 21
3.8243999676
 31
0.0
 11
5.8761366421
 21
3.8239994295
 31
0.0
 11
5.8856642029
 21
3.8233794829
 31
0.0
 11
5.8905047464
 21
3.8231614036
 31
0.0
 11
5.8953779858
 21
3.8230051355
 31
0.0
 11
5.900270018
 21
3.82291108
 31
0.0
 11
5.9051669397
 21
3.822879639
 31
0.0
  0
SPLINE
  5
27B
100
AcDbEntity
  8
0
100
AcDbSpline
 62
9
  6
CONTINUOUS
 70
0
 71
3
 72
48
 73
44
 74
42
 42
0.0000001
 43
0.0000001
 44
0.0000000001
 12
0.0
 22
0.1076926667
 32
0.0
 13
0.1076926667
 23
-0.0000000084
 33
0.0
 40
0.0
 40
0.0
 40
0.0
 40
0.0
 40
0.0059182787
 40
0.0118907411
 40
0.0179643601
 40
0.0241833395
 40
0.0305884208
 40
0.0372164856
 40
0.0441004288
 40
0.0512692445
 40
0.0587482593
 40
0.0665594513
 40
0.0747217948
 40
0.0832509281
 40
0.0921588816
 40
0.1014552699
 40
0.1111477288
 40
0.1212422166
 40
0.1317432689
 40
0.1426542146
 40
0.1539773566
 40
0.1657141238
 40
0.1904290263
 40
0.2167907194
 40
0.2447683844
 40
0.2743235479
 40
0.3054128287
 40
0.3379891597
 40
0.3719993337
 40
0.4073743424
 40
0.4440396298
 40
0.4819189207
 40
0.5209346244
 40
0.561007824
 40
0.6020549767
 40
0.6439892598
 40
0.6867231365
 40
0.7301685702
 40
0.8188255753
 40
0.8638189235
 40
0.9090935412
 40
0.9545277978
 40
1.0
 40
1.0
 40
1.0
 40
1.0
 10
5.8051669397
 20
4.1245286876
 30
0.0
 10
5.8051669397
 20
4.1247411393
 30
0.0
 10
5.805187358
 20
4.1251682593
 30
0.0
 10
5.805278788
 20
4.1258075153
 30
0.0
 10
5.8054308034
 20
4.1264462395
 30
0.0
 10
5.8056431087
 20
4.1270838371
 30
0.0
 10
5.8059154034
 20
4.1277198512
 30
0.0
 10
5.8062473974
 20
4.1283538314
 30
0.0
 10
5.8066388192
 20
4.128985358
 30
0.0
 10
5.8070894178
 20
4.129614022
 30
0.0
 10
5.8075989636
 20
4.130239418
 30
0.0
 10
5.8081672372
 20
4.1308611443
 30
0.0
 10
5.8087940346
 20
4.1314787547
 30
0.0
 10
5.8094790066
 20
4.1320918491
 30
0.0
 10
5.8102215903
 20
4.1327001788
 30
0.0
 10
5.8110212392
 20
4.1333034267
 30
0.0
 10
5.8118773949
 20
4.133901278
 30
0.0
 10
5.812789502
 20
4.1344934095
 30
0.0
 10
5.8137570037
 20
4.1350794956
 30
0.0
 10
5.8147793421
 20
4.1356592054
 30
0.0
 10
5.8158559605
 20
4.1362322135
 30
0.0
 10
5.8173896093
 20
4.1370001012
 30
0.0
 10
5.8194410093
 20
4.1379380149
 30
0.0
 10
5.8220681748
 20
4.1390127644
 30
0.0
 10
5.8248949684
 20
4.1400531886
 30
0.0
 10
5.8279143508
 20
4.1410567555
 30
0.0
 10
5.8311192607
 20
4.142020972
 30
0.0
 10
5.8345024826
 20
4.142943286
 30
0.0
 10
5.8380561746
 20
4.1438210464
 30
0.0
 10
5.8417714933
 20
4.1446525757
 30
0.0
 10
5.8456390411
 20
4.145436003
 30
0.0
 10
5.84964929
 20
4.1461694354
 30
0.0
 10
5.8537926907
 20
4.1468510047
 30
0.0
 10
5.8580595513
 20
4.1474787255
 30
0.0
 10
5.8624398405
 20
4.1480512199
 30
0.0
 10
5.8669232687
 20
4.1485673615
 30
0.0
 10
5.8714994835
 20
4.1490259359
 30
0.0
 10
5.8777528538
 20
4.1495626484
 30
0.0
 10
5.8840978218
 20
4.1499732963
 30
0.0
 10
5.8905144234
 20
4.1502620183
 30
0.0
 10
5.8953834517
 20
4.1504179902
 30
0.0
 10
5.9002712402
 20
4.1505119185
 30
0.0
 10
5.9035345988
 20
4.150532916
 30
0.0
 10
5.9051669397
 20
4.1505329158
 30
0.0
 11
5.8051669397
 21
4.1245286876
 31
0.0
 11
5.8051971988
 21
4.1251653241
 31
0.0
 11
5.8052878472
 21
4.1258020947
 31
0.0
 11
5.805438692
 21
4.1264385474
 31
0.0
 11
5.80564954
 21
4.1270742303
 31
0.0
 11
5.8059201982
 21
4.1277086914
 31
0.0
 11
5.8062504736
 21
4.1283414789
 31
0.0
 11
5.806640173
 21
4.1289721409
 31
0.0
 11
5.8070891035
 21
4.1296002253
 31
0.0
 11
5.8075970719
 21
4.1302252803
 31
0.0
 11
5.8081638852
 21
4.1308468539
 31
0.0
 11
5.8087893479
 21
4.1314644949
 31
0.0
 11
5.8094731257
 21
4.1320777945
 31
0.0
 11
5.8102146681
 21
4.1326864095
 31
0.0
 11
5.8110134063
 21
4.1332900023
 31
0.0
 11
5.8118687716
 21
4.1338882353
 31
0.0
 11
5.8127801951
 21
4.134480771
 31
0.0
 11
5.8137471081
 21
4.1350672719
 31
0.0
 11
5.8147689416
 21
4.1356474003
 31
0.0
 11
5.8158451269
 21
4.1362208188
 31
0.0
 11
5.8169750952
 21
4.1367871897
 31
0.0
 11
5.8193940891
 21
4.1378974402
 31
0.0
 11
5.8220203829
 21
4.1389755315
 31
0.0
 11
5.8248469266
 21
4.140018966
 31
0.0
 11
5.8278665406
 21
4.1410252565
 31
0.0
 11
5.8310720452
 21
4.141991916
 31
0.0
 11
5.8344562608
 21
4.1429164571
 31
0.0
 11
5.8380116102
 21
4.1437964963
 31
0.0
 11
5.8417289264
 21
4.144630063
 31
0.0
 11
5.845598645
 21
4.1454152902
 31
0.0
 11
5.8496112017
 21
4.146150311
 31
0.0
 11
5.8537570321
 21
4.1468332583
 31
0.0
 11
5.8580265312
 21
4.1474622989
 31
0.0
 11
5.8624096233
 21
4.1480359919
 31
0.0
 11
5.8668959288
 21
4.1485531499
 31
0.0
 11
5.8714750631
 21
4.1490125895
 31
0.0
 11
5.8761366416
 21
4.1494131273
 31
0.0
 11
5.8856642027
 21
4.1500330733
 31
0.0
 11
5.8905047463
 21
4.1502511522
 31
0.0
 11
5.8953779858
 21
4.1504074201
 31
0.0
 11
5.900270018
 21
4.1505014751
 31
0.0
 11
5.9051669397
 21
4.1505329158
 31
0.0
  0
SPLINE
  5
27C
100
AcDbEntity
  8
0
100
AcDbSpline
 62
6
  6
CONTINUOUS
 70
0
 71
3
 72
25
 73
21
 74
19
 42
0.0000001
 43
0.0000001
 44
0.0000000001
 12
0.0149096416
 22
0.0
 32
0.0
 13
-0.0024151349
 23
0.0147127338
 33
0.0
 40
0.0
 40
0.0
 40
0.0
 40
0.0
 40
0.057825706
 40
0.1149610518
 40
0.1715575232
 40
0.2278077532
 40
0.283949534
 40
0.3402353862
 40
0.3969424234
 40
0.4544190486
 40
0.5130866653
 40
0.5733817414
 40
0.6357468121
 40
0.700737767
 40
0.7344372656
 40
0.7690468554
 40
0.8046318118
 40
0.8412601826
 40
0.9179577485
 40
1.0
 40
1.0
 40
1.0
 40
1.0
 10
6.4451669397
 20
3.7067062774
 30
0.0
 10
6.4454543266
 20
3.7067062774
 30
0.0
 10
6.4460260128
 20
3.706730903
 30
0.0
 10
6.4468722338
 20
3.7068441212
 30
0.0
 10
6.4476967267
 20
3.7070340187
 30
0.0
 10
6.4484943528
 20
3.7073012758
 30
0.0
 10
6.4492599086
 20
3.7076464132
 30
0.0
 10
6.4499877098
 20
3.7080700875
 30
0.0
 10
6.4506713951
 20
3.7085732641
 30
0.0
 10
6.4513043096
 20
3.7091567371
 30
0.0
 10
6.4518797166
 20
3.7098208722
 30
0.0
 10
6.4523900057
 20
3.7105660739
 30
0.0
 10
6.4528249415
 20
3.7113934137
 30
0.0
 10
6.4531124079
 20
3.7121425733
 30
0.0
 10
6.4532954653
 20
3.712779572
 30
0.0
 10
6.4534093099
 20
3.7132835154
 30
0.0
 10
6.4534959153
 20
3.7138076174
 30
0.0
 10
6.4535732818
 20
3.7145440137
 30
0.0
 10
6.4535867432
 20
3.71551731
 30
0.0
 10
6.4535029939
 20
3.7163039222
 30
0.0
 10
6.4534369462
 20
3.7167062774
 30
0.0
 11
6.4451669397
 21
3.7067062774
 31
0.0
 11
6.446028274
 21
3.7067440157
 31
0.0
 11
6.4468725351
 21
3.7068576004
 31
0.0
 11
6.4476947028
 21
3.7070475861
 31
0.0
 11
6.4484897568
 21
3.7073145275
 31
0.0
 11
6.449252653
 21
3.7076589814
 31
0.0
 11
6.4499776967
 21
3.7080815586
 31
0.0
 11
6.4506584802
 21
3.7085829296
 31
0.0
 11
6.4512885599
 21
3.7091637678
 31
0.0
 11
6.4518614752
 21
3.7098247452
 31
0.0
 11
6.452369468
 21
3.7105664357
 31
0.0
 11
6.4528025807
 21
3.7113892463
 31
0.0
 11
6.453150643
 21
3.7122935681
 31
0.0
 11
6.453289602
 21
3.7127764178
 31
0.0
 11
6.4534033771
 21
3.7132797351
 31
0.0
 11
6.4534899633
 21
3.713803181
 31
0.0
 11
6.4535471288
 21
3.7143462967
 31
0.0
 11
6.4535642704
 21
3.7154897015
 31
0.0
 11
6.4534369462
 21
3.7167062774
 31
0.0
  0
SPLINE
  5
27D
100
AcDbEntity
  8
0
100
AcDbSpline
 62
6
  6
CONTINUOUS
 70
0
 71
3
 72
30
 73
26
 74
24
 42
0.0000001
 43
0.0000001
 44
0.0000000001
 12
-0.1141869682
 22
0.0870171602
 32
0.0
 13
-0.0978896547
 23
0.1050155482
 33
0.0
 40
0.0
 40
0.0
 40
0.0
 40
0.0
 40
0.0633394892
 40
0.0949920958
 40
0.1266260471
 40
0.1582297022
 40
0.1897937238
 40
0.2213213401
 40
0.2528155448
 40
0.2842774198
 40
0.3157065977
 40
0.3784637029
 40
0.4410842412
 40
0.4723434453
 40
0.503569386
 40
0.5659189344
 40
0.6281357512
 40
0.6902421657
 40
0.7522550958
 40
0.7832353581
 40
0.8142062509
 40
0.8451769325
 40
0.8761484648
 40
0.9380787978
 40
1.0
 40
1.0
 40
1.0
 40
1.0
 10
5.8445548215
 20
3.7271689255
 30
0.0
 10
5.8421439734
 20
3.7290061329
 30
0.0
 10
5.8384476475
 20
3.7316567894
 30
0.0
 10
5.8334055646
 20
3.7350181603
 30
0.0
 10
5.8295784063
 20
3.7374626951
 30
0.0
 10
5.8257153716
 20
3.7398417709
 30
0.0
 10
5.8218250744
 20
3.742166032
 30
0.0
 10
5.8179132245
 20
3.7444433603
 30
0.0
 10
5.813985052
 20
3.7466825021
 30
0.0
 10
5.810045625
 20
3.7488921216
 30
0.0
 10
5.8047876732
 20
3.7518090604
 30
0.0
 10
5.79821221
 20
3.7554246421
 30
0.0
 10
5.7916496053
 20
3.7590467797
 30
0.0
 10
5.7864261711
 20
3.7619723603
 30
0.0
 10
5.7812312185
 20
3.7649220295
 30
0.0
 10
5.774788812
 20
3.7686749215
 30
0.0
 10
5.7671643482
 20
3.7733315622
 30
0.0
 10
5.7596812011
 20
3.7781832573
 30
0.0
 10
5.7535882255
 20
3.7824249522
 30
0.0
 10
5.7488203031
 20
3.7859552408
 30
0.0
 10
5.7453024706
 20
3.7886758224
 30
0.0
 10
5.7418470277
 20
3.7914746465
 30
0.0
 10
5.7373291455
 20
3.7953131438
 30
0.0
 10
5.7318589085
 20
3.8003148297
 30
0.0
 10
5.7276964035
 20
3.8045387144
 30
0.0
 10
5.7256759218
 20
3.8067062774
 30
0.0
 11
5.8445548215
 21
3.7271689255
 31
0.0
 11
5.8371763539
 21
3.7324836121
 31
0.0
 11
5.8333966878
 21
3.7350062451
 31
0.0
 11
5.8295705994
 21
3.7374529299
 31
0.0
 11
5.825708481
 21
3.7398340584
 31
0.0
 11
5.8218192299
 21
3.7421595386
 31
0.0
 11
5.8179084128
 21
3.7444382008
 31
0.0
 11
5.8139811461
 21
3.7466787297
 31
0.0
 11
5.8100425465
 21
3.7488898099
 31
0.0
 11
5.80609773
 21
3.7510801257
 31
0.0
 11
5.7982076326
 21
3.7554298917
 31
0.0
 11
5.7903417082
 21
3.7597828714
 31
0.0
 11
5.7864269328
 21
3.7619769496
 31
0.0
 11
5.782529148
 21
3.7641914203
 31
0.0
 11
5.7747991934
 21
3.7687048455
 31
0.0
 11
5.767181155
 21
3.7733683122
 31
0.0
 11
5.7597046425
 21
3.7782264289
 31
0.0
 11
5.7524031284
 21
3.7833203742
 31
0.0
 11
5.7488293026
 21
3.7859678994
 31
0.0
 11
5.7453128058
 21
3.7886889116
 31
0.0
 11
5.7418581781
 21
3.791488007
 31
0.0
 11
5.7384700447
 21
3.7943674211
 31
0.0
 11
5.7319119538
 21
3.8003708228
 31
0.0
 11
5.7256759218
 21
3.8067062774
 31
0.0
  0
SPLINE
  5
27E
100
AcDbEntity
  8
0
100
AcDbSpline
 62
9
  6
CONTINUOUS
 70
0
 71
3
 72
9
 73
5
 74
3
 42
0.0000001
 43
0.0000001
 44
0.0000000001
 12
-0.0000001971
 22
0.0158393264
 32
0.0
 13
0.0012855267
 23
0.0157870732
 33
0.0
 40
0.0
 40
0.0
 40
0.0
 40
0.0
 40
0.5000458682
 40
1.0
 40
1.0
 40
1.0
 40
1.0
 10
5.7256759218
 20
4.0642765335
 30
0.0
 10
5.7256758889
 20
4.0669166634
 30
0.0
 10
5.7257981776
 20
4.0721969826
 30
0.0
 10
5.7261355939
 20
4.0774673005
 30
0.0
 10
5.7263498287
 20
4.080098238
 30
0.0
 11
5.7256759218
 21
4.0642765335
 31
0.0
 11
5.7258519806
 21
4.0721949662
 31
0.0
 11
5.7263498287
 21
4.080098238
 31
0.0
  0
SPLINE
  5
27F
100
AcDbEntity
  8
0
100
AcDbSpline
 62
9
  6
CONTINUOUS
 70
0
 71
3
 72
43
 73
39
 74
37
 42
0.0000001
 43
0.0000001
 44
0.0000000001
 12
-0.0
 22
-0.0801032083
 32
0.0
 13
-0.0796194135
 23
0.008790505
 33
0.0
 40
0.0
 40
0.0
 40
0.0
 40
0.0
 40
0.0029035503
 40
0.0058338956
 40
0.0088919199
 40
0.0121661263
 40
0.0157283931
 40
0.0196342295
 40
0.0239253811
 40
0.0286329439
 40
0.0337800991
 40
0.0393842339
 40
0.0454584992
 40
0.0520129274
 40
0.0590552283
 40
0.0665907062
 40
0.0746218146
 40
0.0831497
 40
0.0921746464
 40
0.1016962603
 40
0.1222247296
 40
0.1447236733
 40
0.1691761589
 40
0.1955620178
 40
0.223853117
 40
0.25400688
 40
0.2859776634
 40
0.319718818
 40
0.3551829346
 40
0.392322022
 40
0.4310867124
 40
0.4714204303
 40
0.5132631986
 40
0.6012341086
 40
0.694515143
 40
0.7925494891
 40
0.8946232273
 40
1.0
 40
1.0
 40
1.0
 40
1.0
 10
5.8051669397
 20
4.080098238
 30
0.0
 10
5.8051669397
 20
4.0800207101
 30
0.0
 10
5.8051521773
 20
4.0798644959
 30
0.0
 10
5.8050842443
 20
4.0796355724
 30
0.0
 10
5.8049713605
 20
4.0794141101
 30
0.0
 10
5.8048143765
 20
4.0792003961
 30
0.0
 10
5.8046138885
 20
4.0789942161
 30
0.0
 10
5.8043701992
 20
4.0787953246
 30
0.0
 10
5.8040834301
 20
4.078603537
 30
0.0
 10
5.8037536286
 20
4.0784187681
 30
0.0
 10
5.8033808255
 20
4.0782410051
 30
0.0
 10
5.8029650586
 20
4.0780702831
 30
0.0
 10
5.8025063791
 20
4.0779066655
 30
0.0
 10
5.8020048518
 20
4.0777502297
 30
0.0
 10
5.801460568
 20
4.0776010721
 30
0.0
 10
5.8008736914
 20
4.0774592801
 30
0.0
 10
5.8002444731
 20
4.0773248672
 30
0.0
 10
5.7995732058
 20
4.0771978759
 30
0.0
 10
5.7988601925
 20
4.0770783383
 30
0.0
 10
5.7978281116
 20
4.0769250957
 30
0.0
 10
5.7964351272
 20
4.0767547485
 30
0.0
 10
5.7946411559
 20
4.0765852426
 30
0.0
 10
5.7926877578
 20
4.0764462533
 30
0.0
 10
5.7905775677
 20
4.07633812
 30
0.0
 10
5.7883137089
 20
4.0762611157
 30
0.0
 10
5.7858998716
 20
4.0762152194
 30
0.0
 10
5.7833401307
 20
4.0762004773
 30
0.0
 10
5.7806386151
 20
4.0762169127
 30
0.0
 10
5.7777994576
 20
4.0762645494
 30
0.0
 10
5.774826818
 20
4.0763433984
 30
0.0
 10
5.7717250676
 20
4.0764534837
 30
0.0
 10
5.7684988583
 20
4.0765945791
 30
0.0
 10
5.7639616866
 20
4.0768276441
 30
0.0
 10
5.7580161021
 20
4.0771972869
 30
0.0
 10
5.750579416
 20
4.0777528356
 30
0.0
 10
5.7427742935
 20
4.0784243494
 30
0.0
 10
5.7346549632
 20
4.079206291
 30
0.0
 10
5.7291465171
 20
4.0797895934
 30
0.0
 10
5.7263498382
 20
4.0800983651
 30
0.0
 11
5.8051669397
 21
4.080098238
 31
0.0
 11
5.8051448614
 21
4.0798667046
 31
0.0
 11
5.8050786993
 21
4.0796414919
 31
0.0
 11
5.8049685624
 21
4.0794226904
 31
0.0
 11
5.8048145598
 21
4.0792103909
 31
0.0
 11
5.8046168007
 21
4.0790046839
 31
0.0
 11
5.8043753941
 21
4.07880566
 31
0.0
 11
5.8040904492
 21
4.0786134097
 31
0.0
 11
5.803762075
 21
4.0784280238
 31
0.0
 11
5.8033903807
 21
4.0782495928
 31
0.0
 11
5.8029754754
 21
4.0780782073
 31
0.0
 11
5.802517468
 21
4.0779139579
 31
0.0
 11
5.8020164679
 21
4.0777569352
 31
0.0
 11
5.8014725843
 21
4.0776072298
 31
0.0
 11
5.8008859847
 21
4.0774649162
 31
0.0
 11
5.8002569663
 21
4.0773300335
 31
0.0
 11
5.7995858438
 21
4.077202616
 31
0.0
 11
5.798872932
 21
4.0770826979
 31
0.0
 11
5.7981185454
 21
4.0769703136
 31
0.0
 11
5.796486607
 21
4.0767682833
 31
0.0
 11
5.7946925464
 21
4.0765967991
 31
0.0
 11
5.7927388812
 21
4.0764561352
 31
0.0
 11
5.7906281313
 21
4.0763465655
 31
0.0
 11
5.7883632758
 21
4.0762682861
 31
0.0
 11
5.7859483193
 21
4.0762213204
 31
0.0
 11
5.7833874048
 21
4.0762056683
 31
0.0
 11
5.7806846755
 21
4.0762213295
 31
0.0
 11
5.7778442744
 21
4.0762683041
 31
0.0
 11
5.7748703446
 21
4.0763465918
 31
0.0
 11
5.7717671025
 21
4.0764561691
 31
0.0
 11
5.7685393062
 21
4.07659684
 31
0.0
 11
5.7651919562
 21
4.0767683308
 31
0.0
 11
5.7581586028
 21
4.0772026761
 31
0.0
 11
5.7507070831
 21
4.0777570087
 31
0.0
 11
5.7428829462
 21
4.0784281127
 31
0.0
 11
5.7347440307
 21
4.0792104975
 31
0.0
 11
5.7263498382
 21
4.0800983651
 31
0.0
  0
SPLINE
  5
280
100
AcDbEntity
  8
0
100
AcDbSpline
 62
9
  6
CONTINUOUS
 70
0
 71
3
 72
33
 73
29
 74
27
 42
0.0000001
 43
0.0000001
 44
0.0000000001
 12
0.0129354171
 22
0.1589001959
 32
0.0
 13
0.1481642815
 23
0.0588552713
 33
0.0
 40
0.0
 40
0.0
 40
0.0
 40
0.0
 40
0.0631082329
 40
0.12615575
 40
0.1891202235
 40
0.2519852014
 40
0.3147380234
 40
0.3773720265
 40
0.4086482272
 40
0.4398951039
 40
0.4711135873
 40
0.5023048722
 40
0.5334700324
 40
0.5646114807
 40
0.5957316755
 40
0.6268335925
 40
0.6579204499
 40
0.6889960339
 40
0.7200641147
 40
0.7511287866
 40
0.782194251
 40
0.8132643589
 40
0.8443430463
 40
0.875434646
 40
0.9065428064
 40
0.9376710482
 40
0.9688224532
 40
1.0
 40
1.0
 40
1.0
 40
1.0
 10
5.7263498287
 20
4.080098238
 30
0.0
 10
5.7266219391
 20
4.0834408749
 30
0.0
 10
5.7273716753
 20
4.0901079739
 30
0.0
 10
5.7291024078
 20
4.1000140403
 30
0.0
 10
5.731431213
 20
4.1097839716
 30
0.0
 10
5.7343538482
 20
4.1193767465
 30
0.0
 10
5.73786593
 20
4.1287510235
 30
0.0
 10
5.7412823318
 20
4.136350128
 30
0.0
 10
5.7443049149
 20
4.1422758609
 30
0.0
 10
5.7467149301
 20
4.1466368126
 30
0.0
 10
5.7492679697
 20
4.1509103179
 30
0.0
 10
5.7519632958
 20
4.1550904361
 30
0.0
 10
5.7548010721
 20
4.1591702579
 30
0.0
 10
5.7577806424
 20
4.1631430211
 30
0.0
 10
5.7608996543
 20
4.1670029807
 30
0.0
 10
5.7641557972
 20
4.170744176
 30
0.0
 10
5.7675465299
 20
4.1743606232
 30
0.0
 10
5.771068901
 20
4.1778464573
 30
0.0
 10
5.7747193054
 20
4.1811962594
 30
0.0
 10
5.7784939336
 20
4.1844046313
 30
0.0
 10
5.782388553
 20
4.187466431
 30
0.0
 10
5.7863989319
 20
4.1903762812
 30
0.0
 10
5.79052103
 20
4.19312812
 30
0.0
 10
5.7947490778
 20
4.1957180758
 30
0.0
 10
5.7990766971
 20
4.1981433321
 30
0.0
 10
5.803497307
 20
4.2004016378
 30
0.0
 10
5.8080042326
 20
4.2024908946
 30
0.0
 10
5.8110603237
 20
4.2037705369
 30
0.0
 10
5.8126001233
 20
4.2043821912
 30
0.0
 11
5.7263498287
 21
4.080098238
 31
0.0
 11
5.7274733279
 21
4.0900963947
 31
0.0
 11
5.7292034243
 21
4.099997782
 31
0.0
 11
5.7315322602
 21
4.1097620668
 31
0.0
 11
5.7344549503
 21
4.1193487457
 31
0.0
 11
5.7379671084
 21
4.1287164129
 31
0.0
 11
5.742064038
 21
4.1378227263
 31
0.0
 11
5.7443300116
 21
4.1422643362
 31
0.0
 11
5.746739894
 21
4.1466241987
 31
0.0
 11
5.749292828
 21
4.1508965965
 31
0.0
 11
5.7519881895
 21
4.1550754408
 31
0.0
 11
5.7548258105
 21
4.1591539472
 31
0.0
 11
5.7578049201
 21
4.1631255543
 31
0.0
 11
5.7609234437
 21
4.166984302
 31
0.0
 11
5.7641790294
 21
4.1707242725
 31
0.0
 11
5.7675690957
 21
4.1743394993
 31
0.0
 11
5.7710906699
 21
4.1778241969
 31
0.0
 11
5.7747402114
 21
4.181172868
 31
0.0
 11
5.7785138848
 21
4.1843801656
 31
0.0
 11
5.7824075495
 21
4.1874408836
 31
0.0
 11
5.7864169868
 21
4.1903495544
 31
0.0
 11
5.7905378256
 21
4.1931005892
 31
0.0
 11
5.7947645345
 21
4.1956899599
 31
0.0
 11
5.7990907871
 21
4.1981147542
 31
0.0
 11
5.8035100332
 21
4.2003726558
 31
0.0
 11
5.8080155386
 21
4.2024619001
 31
0.0
 11
5.8126001233
 21
4.2043821912
 31
0.0
  0
SPLINE
  5
281
100
AcDbEntity
  8
0
100
AcDbSpline
 62
9
  6
CONTINUOUS
 70
0
 71
3
 72
31
 73
27
 74
25
 42
0.0000001
 43
0.0000001
 44
0.0000000001
 12
0.1481549764
 22
-0.0588595875
 32
0.0
 13
0.0129345715
 23
-0.1588931872
 33
0.0
 40
0.0
 40
0.0
 40
0.0
 40
0.0
 40
0.0623193006
 40
0.1245455066
 40
0.1556377885
 40
0.186717167
 40
0.2177879591
 40
0.2488541307
 40
0.2799194957
 40
0.3109882781
 40
0.3420645752
 40
0.3731521481
 40
0.4042547695
 40
0.4353756839
 40
0.4665178576
 40
0.4976837414
 40
0.5288757416
 40
0.5600949487
 40
0.5913425342
 40
0.6226194541
 40
0.6852549041
 40
0.7480091481
 40
0.810875549
 40
0.8738414423
 40
0.9368903565
 40
1.0
 40
1.0
 40
1.0
 40
1.0
 10
5.9977391405
 20
4.2043829655
 30
0.0
 10
6.0008167787
 20
4.2031602694
 30
0.0
 10
6.006879846
 20
4.2004889777
 30
0.0
 10
6.0141791417
 20
4.1965820203
 30
0.0
 10
6.0198170807
 20
4.1931279584
 30
0.0
 10
6.0239390044
 20
4.1903759672
 30
0.0
 10
6.0279491221
 20
4.1874659636
 30
0.0
 10
6.0318434933
 20
4.1844040186
 30
0.0
 10
6.0356178925
 20
4.1811955453
 30
0.0
 10
6.0392680689
 20
4.1778456527
 30
0.0
 10
6.0427902018
 20
4.1743597289
 30
0.0
 10
6.0461807102
 20
4.1707432169
 30
0.0
 10
6.0494366283
 20
4.1670019661
 30
0.0
 10
6.0525554233
 20
4.1631419671
 30
0.0
 10
6.0555347893
 20
4.1591691815
 30
0.0
 10
6.0583723771
 20
4.1550893563
 30
0.0
 10
6.0610674972
 20
4.1509092303
 30
0.0
 10
6.0636203463
 20
4.1466357352
 30
0.0
 10
6.0660301991
 20
4.1422748151
 30
0.0
 10
6.0690525679
 20
4.1363491319
 30
0.0
 10
6.0724687187
 20
4.1287501104
 30
0.0
 10
6.0759805516
 20
4.1193759704
 30
0.0
 10
6.0789029809
 20
4.1097833603
 30
0.0
 10
6.081231628
 20
4.1000136172
 30
0.0
 10
6.0829622508
 20
4.090107756
 30
0.0
 10
6.0837119521
 20
4.0834408021
 30
0.0
 10
6.0839840508
 20
4.080098238
 30
0.0
 11
5.9977391405
 21
4.2043829655
 31
0.0
 11
6.0068288009
 21
4.2003730208
 31
0.0
 11
6.0155738469
 21
4.195689957
 31
0.0
 11
6.019800323
 21
4.1931004181
 31
0.0
 11
6.0239209352
 21
4.1903492401
 31
0.0
 11
6.0279301268
 21
4.1874404182
 31
0.0
 11
6.0318235458
 21
4.1843795598
 31
0.0
 11
6.0355969863
 21
4.1811721561
 31
0.0
 11
6.0392462978
 21
4.177823393
 31
0.0
 11
6.0427676383
 21
4.1743386092
 31
0.0
 11
6.0461574784
 21
4.1707233146
 31
0.0
 11
6.0494128398
 21
4.1669832908
 31
0.0
 11
6.0525311476
 21
4.1631245034
 31
0.0
 11
6.0555100537
 21
4.1591528738
 31
0.0
 11
6.0583474809
 21
4.1550743598
 31
0.0
 11
6.0610426414
 21
4.1508955121
 31
0.0
 11
6.0635953875
 21
4.1466231241
 31
0.0
 11
6.0660051025
 21
4.1422632918
 31
0.0
 11
6.0682709164
 21
4.1378217195
 31
0.0
 11
6.0723675499
 21
4.1287155043
 31
0.0
 11
6.075879457
 21
4.1193479738
 31
0.0
 11
6.078801942
 21
4.1097614587
 31
0.0
 11
6.08113062
 21
4.0999973602
 31
0.0
 11
6.0828606078
 21
4.0900961793
 31
0.0
 11
6.0839840508
 21
4.080098238
 31
0.0
  0
SPLINE
  5
282
100
AcDbEntity
  8
0
100
AcDbSpline
 62
9
  6
CONTINUOUS
 70
0
 71
3
 72
43
 73
39
 74
37
 42
0.0000001
 43
0.0000001
 44
0.0000000001
 12
-0.0000000006
 22
-0.0801031412
 32
0.0
 13
0.0796194141
 23
0.0087898882
 33
0.0
 40
0.0
 40
0.0
 40
0.0
 40
0.0
 40
0.0029034392
 40
0.0058336823
 40
0.0088916161
 40
0.0121657451
 40
0.0157279472
 40
0.0196337304
 40
0.0239248388
 40
0.028632367
 40
0.0337794947
 40
0.0393836082
 40
0.0454578573
 40
0.0520122738
 40
0.0590545666
 40
0.0665900397
 40
0.074621146
 40
0.0831490316
 40
0.0921739801
 40
0.1016955978
 40
0.1222240788
 40
0.1447230385
 40
0.1691755434
 40
0.195561424
 40
0.223852547
 40
0.2540063354
 40
0.2859771454
 40
0.3197183274
 40
0.3551824723
 40
0.3923215886
 40
0.4310863087
 40
0.4714200573
 40
0.5132628572
 40
0.6012338334
 40
0.6945149353
 40
0.7925493489
 40
0.8946231558
 40
1.0
 40
1.0
 40
1.0
 40
1.0
 10
6.0051669398
 20
4.0800982389
 30
0.0
 10
6.0051669398
 20
4.0800207141
 30
0.0
 10
6.0051817024
 20
4.0798645057
 30
0.0
 10
6.0052496355
 20
4.0796355909
 30
0.0
 10
6.0053625194
 20
4.0794141369
 30
0.0
 10
6.0055195035
 20
4.079200431
 30
0.0
 10
6.0057199915
 20
4.0789942586
 30
0.0
 10
6.0059636807
 20
4.0787953743
 30
0.0
 10
6.0062504496
 20
4.0786035934
 30
0.0
 10
6.006580251
 20
4.0784188307
 30
0.0
 10
6.0069530541
 20
4.0782410734
 30
0.0
 10
6.0073688209
 20
4.0780703568
 30
0.0
 10
6.0078275003
 20
4.077906744
 30
0.0
 10
6.0083290274
 20
4.0777503126
 30
0.0
 10
6.0088733111
 20
4.0776011589
 30
0.0
 10
6.0094601876
 20
4.0774593703
 30
0.0
 10
6.0100894058
 20
4.0773249604
 30
0.0
 10
6.010760673
 20
4.0771979716
 30
0.0
 10
6.0114736862
 20
4.077078436
 30
0.0
 10
6.012505767
 20
4.0769251957
 30
0.0
 10
6.0138987513
 20
4.0767548503
 30
0.0
 10
6.0156927223
 20
4.076585345
 30
0.0
 10
6.0176461202
 20
4.0764463549
 30
0.0
 10
6.0197563102
 20
4.0763382196
 30
0.0
 10
6.0220201689
 20
4.0762612122
 30
0.0
 10
6.0244340061
 20
4.0762153118
 30
0.0
 10
6.026993747
 20
4.0762005651
 30
0.0
 10
6.0296952625
 20
4.0762169954
 30
0.0
 10
6.03253442
 20
4.0762646268
 30
0.0
 10
6.0355070595
 20
4.0763434706
 30
0.0
 10
6.0386088099
 20
4.076453551
 30
0.0
 10
6.0418350192
 20
4.0765946414
 30
0.0
 10
6.0463721909
 20
4.0768276987
 30
0.0
 10
6.0523177756
 20
4.0771973289
 30
0.0
 10
6.0597544626
 20
4.0777528537
 30
0.0
 10
6.067559587
 20
4.0784243311
 30
0.0
 10
6.0756789206
 20
4.0792062246
 30
0.0
 10
6.0811873699
 20
4.0797894878
 30
0.0
 10
6.0839840508
 20
4.080098238
 30
0.0
 11
6.0051669398
 21
4.0800982389
 31
0.0
 11
6.0051890181
 21
4.0798667147
 31
0.0
 11
6.0052551802
 21
4.0796415107
 31
0.0
 11
6.0053653171
 21
4.0794227176
 31
0.0
 11
6.0055193197
 21
4.079210426
 31
0.0
 11
6.0057170788
 21
4.0790047264
 31
0.0
 11
6.0059584853
 21
4.0788057096
 31
0.0
 11
6.0062434302
 21
4.078613466
 31
0.0
 11
6.0065718043
 21
4.0784280863
 31
0.0
 11
6.0069434986
 21
4.078249661
 31
0.0
 11
6.0073584038
 21
4.0780782808
 31
0.0
 11
6.0078164111
 21
4.0779140362
 31
0.0
 11
6.0083174111
 21
4.0777570179
 31
0.0
 11
6.0088612947
 21
4.0776073164
 31
0.0
 11
6.0094478942
 21
4.0774650062
 31
0.0
 11
6.0100769125
 21
4.0773301265
 31
0.0
 11
6.0107480349
 21
4.0772027115
 31
0.0
 11
6.0114609466
 21
4.0770827956
 31
0.0
 11
6.0122153331
 21
4.076970413
 31
0.0
 11
6.0138472713
 21
4.0767683848
 31
0.0
 11
6.0156413317
 21
4.0765969013
 31
0.0
 11
6.0175949968
 21
4.0764562367
 31
0.0
 11
6.0197057466
 21
4.076346665
 31
0.0
 11
6.021970602
 21
4.0762683826
 31
0.0
 11
6.0243855584
 21
4.0762214129
 31
0.0
 11
6.0269464729
 21
4.0762057561
 31
0.0
 11
6.0296492022
 21
4.0762214123
 31
0.0
 11
6.0324896033
 21
4.0762683816
 31
0.0
 11
6.035463533
 21
4.0763466641
 31
0.0
 11
6.038566775
 21
4.0764562365
 31
0.0
 11
6.0417945713
 21
4.0765969023
 31
0.0
 11
6.0451419213
 21
4.0767683874
 31
0.0
 11
6.0521752751
 21
4.0772027173
 31
0.0
 11
6.0596267957
 21
4.0777570255
 31
0.0
 11
6.0674509345
 21
4.0784280932
 31
0.0
 11
6.0755898533
 21
4.07921043
 31
0.0
 11
6.0839840508
 21
4.080098238
 31
0.0
  0
SPLINE
  5
283
100
AcDbEntity
  8
0
100
AcDbSpline
 62
9
  6
CONTINUOUS
 70
0
 71
3
 72
9
 73
5
 74
3
 42
0.0000001
 43
0.0000001
 44
0.0000000001
 12
0.0012855005
 22
-0.0157870753
 32
0.0
 13
-0.000000208
 23
-0.0158393263
 33
0.0
 40
0.0
 40
0.0
 40
0.0
 40
0.0
 40
0.4999541348
 40
1.0
 40
1.0
 40
1.0
 40
1.0
 10
6.0839840508
 20
4.080098238
 30
0.0
 10
6.0841982812
 20
4.0774673001
 30
0.0
 10
6.0845356986
 20
4.0721969825
 30
0.0
 10
6.0846579924
 20
4.0669166634
 30
0.0
 10
6.0846579577
 20
4.0642765335
 30
0.0
 11
6.0839840508
 21
4.080098238
 31
0.0
 11
6.0844818966
 21
4.072194966
 31
0.0
 11
6.0846579577
 21
4.0642765335
 31
0.0
  0
ENDSEC
  0
SECTION
  2
OBJECTS
  0
DICTIONARY
  5
C
100
AcDbDictionary
280
0
281
1
  3
ACAD_GROUP
350
D
  3
ACAD_MLINESTYLE
350
17
  3
ACAD_LAYOUT
350
1A
  3
ACAD_PLOTSETTINGS
350
19
  3
ACAD_PLOTSTYLENAME
350
E
  0
DICTIONARY
  5
D
102
{ACAD_REACTORS
330
C
102
}
100
AcDbDictionary
280
0
281
1
  0
ACDBDICTIONARYWDFLT
  5
E
102
{ACAD_REACTORS
330
C
102
}
100
AcDbDictionary
281
1
  3
Normal
350
F
100
AcDbDictionaryWithDefault
340
F
  0
DICTIONARY
  5
17
102
{ACAD_REACTORS
330
C
102
}
100
AcDbDictionary
280
0
281
1
  3
Standard
350
18
  0
DICTIONARY
  5
19
102
{ACAD_REACTORS
330
C
102
}
100
AcDbDictionary
281
1
  0
DICTIONARY
  5
1A
102
{ACAD_REACTORS
330
C
102
}
100
AcDbDictionary
281
1
  3
Model
350
284
  3
Layout1
350
285
  0
ACDBPLACEHOLDER
  5
F
102
{ACAD_REACTORS
330
E
102
}
  0
MLINESTYLE
  5
18
102
{ACAD_REACTORS
330
17
102
}
100
AcDbMlineStyle
  2
STANDARD
 70
0
  3

 62
256
 51
90.0
 52
90.0
 71
2
 49
0.5
 62
256
  6
BYLAYER
 49
-0.5
 62
256
  6
BYLAYER
  0
LAYOUT
  5
284
102
{ACAD_REACTORS
330
1A
102
}
100
AcDbPlotSettings
  1

  2
none_device
  4
ISO_A4_(297.00_x_210.00_MM)
  6

 40
0.0
 41
0.0
 42
0.0
 43
0.0
 44
297.0
 45
210.0
 46
0.0
 47
0.0
 48
0.0
 49
0.0
140
0.0
141
0.0
142
1.0
143
1.0
 70
1024
 72
0
 73
0
 74
0
  7

 75
0
147
1.0
148
0.0
149
0.0
100
AcDbLayout
  1
Model
 70
0
 71
0
 10
0.0
 20
0.0
 11
11.6929133858
 21
8.2677165354
 12
0.0
 22
0.0
 32
0.0
 14
0.0
 24
0.0
 34
0.0
 15
0.0
 25
0.0
 35
0.0
146
0.0
 13
0.0
 23
0.0
 33
0.0
 16
1.0
 26
0.0
 36
0.0
 17
0.0
 27
1.0
 37
0.0
 76
0
330
203
345
0
346
0
  0
LAYOUT
  5
285
102
{ACAD_REACTORS
330
1A
102
}
100
AcDbPlotSettings
  1

  2
none_device
  4
ISO_A4_(297.00_x_210.00_MM)
  6

 40
0.0
 41
0.0
 42
0.0
 43
0.0
 44
297.0
 45
210.0
 46
0.0
 47
0.0
 48
0.0
 49
0.0
140
0.0
141
0.0
142
1.0
143
1.0
 70
0
 72
0
 73
0
 74
0
  7

 75
0
147
1.0
148
0.0
149
0.0
100
AcDbLayout
  1
Layout1
 70
0
 71
1
 10
0.0
 20
0.0
 11
11.6929133858
 21
8.2677165354
 12
0.0
 22
0.0
 32
0.0
 14
0.0
 24
0.0
 34
0.0
 15
0.0
 25
0.0
 35
0.0
146
0.0
 13
0.0
 23
0.0
 33
0.0
 16
1.0
 26
0.0
 36
0.0
 17
0.0
 27
1.0
 37
0.0
 76
0
330
204
345
0
346
0
  0
ENDSEC
  0
EOF
