ISO-10303-21;
HEADER;
FILE_DESCRIPTION((''),'2;1');
FILE_NAME('2-332','2024-08-02T10:52:10',('rsmith'),(''),
'CREO PARAMETRIC BY PTC INC, 2023134','CREO PARAMETRIC BY PTC INC, 2023134','');
FILE_SCHEMA(('CONFIG_CONTROL_DESIGN'));
ENDSEC;
DATA;
#2=CARTESIAN_POINT('',(0.E0,0.E0,-4.37E-1));
#3=DIRECTION('',(0.E0,0.E0,1.E0));
#4=DIRECTION('',(0.E0,1.E0,0.E0));
#5=AXIS2_PLACEMENT_3D('',#2,#3,#4);
#7=CARTESIAN_POINT('',(0.E0,0.E0,-4.37E-1));
#8=DIRECTION('',(0.E0,0.E0,1.E0));
#9=DIRECTION('',(0.E0,-1.E0,0.E0));
#10=AXIS2_PLACEMENT_3D('',#7,#8,#9);
#12=CARTESIAN_POINT('',(0.E0,9.930000459272E-1,-4.368689397492E-1));
#13=DIRECTION('',(1.E0,0.E0,0.E0));
#14=DIRECTION('',(0.E0,9.999997543997E-1,-7.008569563030E-4));
#15=AXIS2_PLACEMENT_3D('',#12,#13,#14);
#17=CARTESIAN_POINT('',(0.E0,-9.930000459272E-1,-4.368689397492E-1));
#18=DIRECTION('',(-1.E0,0.E0,0.E0));
#19=DIRECTION('',(0.E0,-9.999997543997E-1,-7.008569563027E-4));
#20=AXIS2_PLACEMENT_3D('',#17,#18,#19);
#22=CARTESIAN_POINT('',(0.E0,0.E0,-4.37E-1));
#23=DIRECTION('',(0.E0,0.E0,1.E0));
#24=DIRECTION('',(0.E0,1.E0,0.E0));
#25=AXIS2_PLACEMENT_3D('',#22,#23,#24);
#27=CARTESIAN_POINT('',(0.E0,0.E0,-4.37E-1));
#28=DIRECTION('',(0.E0,0.E0,-1.E0));
#29=DIRECTION('',(0.E0,1.E0,0.E0));
#30=AXIS2_PLACEMENT_3D('',#27,#28,#29);
#32=CARTESIAN_POINT('',(0.E0,0.E0,-2.5E-1));
#33=DIRECTION('',(0.E0,0.E0,-1.E0));
#34=DIRECTION('',(0.E0,1.E0,0.E0));
#35=AXIS2_PLACEMENT_3D('',#32,#33,#34);
#37=CARTESIAN_POINT('',(0.E0,8.130026738159E-1,-2.49E-1));
#38=DIRECTION('',(1.E0,0.E0,0.E0));
#39=DIRECTION('',(0.E0,9.999857015192E-1,-5.347593582888E-3));
#40=AXIS2_PLACEMENT_3D('',#37,#38,#39);
#42=CARTESIAN_POINT('',(0.E0,-8.130026738159E-1,-2.49E-1));
#43=DIRECTION('',(-1.E0,0.E0,0.E0));
#44=DIRECTION('',(0.E0,-9.999857015192E-1,-5.347593582888E-3));
#45=AXIS2_PLACEMENT_3D('',#42,#43,#44);
#47=CARTESIAN_POINT('',(0.E0,0.E0,-2.5E-1));
#48=DIRECTION('',(0.E0,0.E0,1.E0));
#49=DIRECTION('',(0.E0,1.E0,0.E0));
#50=AXIS2_PLACEMENT_3D('',#47,#48,#49);
#52=CARTESIAN_POINT('',(0.E0,0.E0,-6.2E-2));
#53=DIRECTION('',(0.E0,0.E0,-1.E0));
#54=DIRECTION('',(0.E0,1.E0,0.E0));
#55=AXIS2_PLACEMENT_3D('',#52,#53,#54);
#57=CARTESIAN_POINT('',(0.E0,0.E0,-6.2E-2));
#58=DIRECTION('',(0.E0,0.E0,1.E0));
#59=DIRECTION('',(0.E0,1.E0,0.E0));
#60=AXIS2_PLACEMENT_3D('',#57,#58,#59);
#62=DIRECTION('',(0.E0,0.E0,1.E0));
#63=VECTOR('',#62,6.2E-2);
#64=CARTESIAN_POINT('',(0.E0,7.41E-1,-6.2E-2));
#65=LINE('',#64,#63);
#66=DIRECTION('',(0.E0,0.E0,1.E0));
#67=VECTOR('',#66,6.2E-2);
#68=CARTESIAN_POINT('',(0.E0,-7.41E-1,-6.2E-2));
#69=LINE('',#68,#67);
#70=CARTESIAN_POINT('',(0.E0,0.E0,-6.2E-2));
#71=DIRECTION('',(0.E0,0.E0,1.E0));
#72=DIRECTION('',(0.E0,1.E0,0.E0));
#73=AXIS2_PLACEMENT_3D('',#70,#71,#72);
#75=CARTESIAN_POINT('',(0.E0,0.E0,-6.2E-2));
#76=DIRECTION('',(0.E0,0.E0,-1.E0));
#77=DIRECTION('',(0.E0,1.E0,0.E0));
#78=AXIS2_PLACEMENT_3D('',#75,#76,#77);
#80=CARTESIAN_POINT('',(0.E0,0.E0,0.E0));
#81=DIRECTION('',(0.E0,0.E0,1.E0));
#82=DIRECTION('',(0.E0,1.E0,0.E0));
#83=AXIS2_PLACEMENT_3D('',#80,#81,#82);
#85=CARTESIAN_POINT('',(0.E0,0.E0,0.E0));
#86=DIRECTION('',(0.E0,0.E0,-1.E0));
#87=DIRECTION('',(0.E0,1.E0,0.E0));
#88=AXIS2_PLACEMENT_3D('',#85,#86,#87);
#90=CARTESIAN_POINT('',(0.E0,0.E0,0.E0));
#91=DIRECTION('',(0.E0,0.E0,1.E0));
#92=DIRECTION('',(0.E0,1.E0,0.E0));
#93=AXIS2_PLACEMENT_3D('',#90,#91,#92);
#95=CARTESIAN_POINT('',(0.E0,0.E0,0.E0));
#96=DIRECTION('',(0.E0,0.E0,1.E0));
#97=DIRECTION('',(0.E0,-1.E0,0.E0));
#98=AXIS2_PLACEMENT_3D('',#95,#96,#97);
#100=CARTESIAN_POINT('',(0.E0,0.E0,-4.9E-2));
#101=DIRECTION('',(0.E0,0.E0,1.E0));
#102=DIRECTION('',(0.E0,1.E0,0.E0));
#103=AXIS2_PLACEMENT_3D('',#100,#101,#102);
#105=DIRECTION('',(0.E0,0.E0,1.E0));
#106=VECTOR('',#105,4.9E-2);
#107=CARTESIAN_POINT('',(0.E0,-4.225E-1,-4.9E-2));
#108=LINE('',#107,#106);
#109=CARTESIAN_POINT('',(0.E0,0.E0,-4.9E-2));
#110=DIRECTION('',(0.E0,0.E0,-1.E0));
#111=DIRECTION('',(0.E0,1.E0,0.E0));
#112=AXIS2_PLACEMENT_3D('',#109,#110,#111);
#114=DIRECTION('',(0.E0,0.E0,1.E0));
#115=VECTOR('',#114,4.9E-2);
#116=CARTESIAN_POINT('',(0.E0,4.225E-1,-4.9E-2));
#117=LINE('',#116,#115);
#118=CARTESIAN_POINT('',(0.E0,0.E0,-4.9E-2));
#119=DIRECTION('',(0.E0,0.E0,-1.E0));
#120=DIRECTION('',(0.E0,1.E0,0.E0));
#121=AXIS2_PLACEMENT_3D('',#118,#119,#120);
#123=CARTESIAN_POINT('',(0.E0,0.E0,-4.9E-2));
#124=DIRECTION('',(0.E0,0.E0,1.E0));
#125=DIRECTION('',(0.E0,1.E0,0.E0));
#126=AXIS2_PLACEMENT_3D('',#123,#124,#125);
#128=CARTESIAN_POINT('',(0.E0,0.E0,-9.814913251585E-2));
#129=DIRECTION('',(0.E0,0.E0,1.E0));
#130=DIRECTION('',(0.E0,-1.E0,0.E0));
#131=AXIS2_PLACEMENT_3D('',#128,#129,#130);
#133=DIRECTION('',(0.E0,0.E0,1.E0));
#134=VECTOR('',#133,4.914913251585E-2);
#135=CARTESIAN_POINT('',(0.E0,5.E-1,-9.814913251585E-2));
#136=LINE('',#135,#134);
#137=DIRECTION('',(0.E0,0.E0,1.E0));
#138=VECTOR('',#137,4.914913251585E-2);
#139=CARTESIAN_POINT('',(0.E0,-5.E-1,-9.814913251585E-2));
#140=LINE('',#139,#138);
#141=CARTESIAN_POINT('',(0.E0,-4.51E-1,-1.14E-1));
#142=DIRECTION('',(1.E0,0.E0,0.E0));
#143=DIRECTION('',(0.E0,-9.514563106796E-1,-3.077838346436E-1));
#144=AXIS2_PLACEMENT_3D('',#141,#142,#143);
#146=CARTESIAN_POINT('',(0.E0,4.51E-1,-1.14E-1));
#147=DIRECTION('',(1.E0,0.E0,0.E0));
#148=DIRECTION('',(0.E0,9.514563106796E-1,3.077838346436E-1));
#149=AXIS2_PLACEMENT_3D('',#146,#147,#148);
#151=CARTESIAN_POINT('',(0.E0,0.E0,-9.814913251585E-2));
#152=DIRECTION('',(0.E0,0.E0,1.E0));
#153=DIRECTION('',(0.E0,1.E0,0.E0));
#154=AXIS2_PLACEMENT_3D('',#151,#152,#153);
#156=CARTESIAN_POINT('',(0.E0,0.E0,-1.298508674841E-1));
#157=DIRECTION('',(0.E0,0.E0,1.E0));
#158=DIRECTION('',(0.E0,1.E0,0.E0));
#159=AXIS2_PLACEMENT_3D('',#156,#157,#158);
#161=CARTESIAN_POINT('',(0.E0,0.E0,-1.69E-1));
#162=DIRECTION('',(0.E0,0.E0,1.E0));
#163=DIRECTION('',(0.E0,1.E0,0.E0));
#164=AXIS2_PLACEMENT_3D('',#161,#162,#163);
#166=CARTESIAN_POINT('',(0.E0,0.E0,-1.298508674841E-1));
#167=DIRECTION('',(0.E0,0.E0,1.E0));
#168=DIRECTION('',(0.E0,-1.E0,0.E0));
#169=AXIS2_PLACEMENT_3D('',#166,#167,#168);
#171=DIRECTION('',(1.056156483981E-14,0.E0,1.E0));
#172=VECTOR('',#171,3.914913251585E-2);
#173=CARTESIAN_POINT('',(0.E0,-5.E-1,-1.69E-1));
#174=LINE('',#173,#172);
#175=CARTESIAN_POINT('',(0.E0,0.E0,-1.69E-1));
#176=DIRECTION('',(0.E0,0.E0,-1.E0));
#177=DIRECTION('',(0.E0,1.E0,0.E0));
#178=AXIS2_PLACEMENT_3D('',#175,#176,#177);
#180=DIRECTION('',(0.E0,0.E0,1.E0));
#181=VECTOR('',#180,3.914913251585E-2);
#182=CARTESIAN_POINT('',(0.E0,5.E-1,-1.69E-1));
#183=LINE('',#182,#181);
#184=CARTESIAN_POINT('',(0.E0,0.E0,-1.69E-1));
#185=DIRECTION('',(0.E0,0.E0,-1.E0));
#186=DIRECTION('',(0.E0,1.E0,0.E0));
#187=AXIS2_PLACEMENT_3D('',#184,#185,#186);
#189=CARTESIAN_POINT('',(0.E0,0.E0,-1.69E-1));
#190=DIRECTION('',(0.E0,0.E0,1.E0));
#191=DIRECTION('',(0.E0,1.E0,0.E0));
#192=AXIS2_PLACEMENT_3D('',#189,#190,#191);
#194=DIRECTION('',(0.E0,0.E0,1.E0));
#195=VECTOR('',#194,4.8E-2);
#196=CARTESIAN_POINT('',(0.E0,4.225E-1,-2.17E-1));
#197=LINE('',#196,#195);
#198=DIRECTION('',(0.E0,0.E0,1.E0));
#199=VECTOR('',#198,4.8E-2);
#200=CARTESIAN_POINT('',(0.E0,-4.225E-1,-2.17E-1));
#201=LINE('',#200,#199);
#202=CARTESIAN_POINT('',(0.E0,0.E0,-2.17E-1));
#203=DIRECTION('',(0.E0,0.E0,-1.E0));
#204=DIRECTION('',(0.E0,1.E0,0.E0));
#205=AXIS2_PLACEMENT_3D('',#202,#203,#204);
#207=CARTESIAN_POINT('',(0.E0,0.E0,-2.17E-1));
#208=DIRECTION('',(0.E0,0.E0,1.E0));
#209=DIRECTION('',(0.E0,1.E0,0.E0));
#210=AXIS2_PLACEMENT_3D('',#207,#208,#209);
#212=CARTESIAN_POINT('',(0.E0,0.E0,-2.17E-1));
#213=DIRECTION('',(0.E0,0.E0,-1.E0));
#214=DIRECTION('',(0.E0,1.E0,0.E0));
#215=AXIS2_PLACEMENT_3D('',#212,#213,#214);
#217=CARTESIAN_POINT('',(0.E0,0.E0,-2.17E-1));
#218=DIRECTION('',(0.E0,0.E0,1.E0));
#219=DIRECTION('',(0.E0,1.E0,0.E0));
#220=AXIS2_PLACEMENT_3D('',#217,#218,#219);
#222=DIRECTION('',(0.E0,0.E0,1.E0));
#223=VECTOR('',#222,2.2E-1);
#224=CARTESIAN_POINT('',(0.E0,9.5E-1,-4.37E-1));
#225=LINE('',#224,#223);
#226=DIRECTION('',(0.E0,0.E0,1.E0));
#227=VECTOR('',#226,2.2E-1);
#228=CARTESIAN_POINT('',(0.E0,-9.5E-1,-4.37E-1));
#229=LINE('',#228,#227);
#230=CARTESIAN_POINT('',(0.E0,1.18E0,-4.37E-1));
#231=CARTESIAN_POINT('',(0.E0,1.E0,-2.5E-1));
#232=VERTEX_POINT('',#230);
#233=VERTEX_POINT('',#231);
#234=CARTESIAN_POINT('',(0.E0,8.130026738159E-1,-6.2E-2));
#235=VERTEX_POINT('',#234);
#236=CARTESIAN_POINT('',(0.E0,7.41E-1,-6.2E-2));
#237=CARTESIAN_POINT('',(0.E0,7.41E-1,0.E0));
#238=VERTEX_POINT('',#236);
#239=VERTEX_POINT('',#237);
#240=CARTESIAN_POINT('',(0.E0,-1.18E0,-4.37E-1));
#241=CARTESIAN_POINT('',(0.E0,-1.E0,-2.5E-1));
#242=VERTEX_POINT('',#240);
#243=VERTEX_POINT('',#241);
#244=CARTESIAN_POINT('',(0.E0,-8.130026738159E-1,-6.2E-2));
#245=VERTEX_POINT('',#244);
#246=CARTESIAN_POINT('',(0.E0,-7.41E-1,-6.2E-2));
#247=CARTESIAN_POINT('',(0.E0,-7.41E-1,0.E0));
#248=VERTEX_POINT('',#246);
#249=VERTEX_POINT('',#247);
#250=CARTESIAN_POINT('',(0.E0,4.225E-1,-2.17E-1));
#251=CARTESIAN_POINT('',(0.E0,4.225E-1,-1.69E-1));
#252=VERTEX_POINT('',#250);
#253=VERTEX_POINT('',#251);
#254=CARTESIAN_POINT('',(0.E0,-4.225E-1,-2.17E-1));
#255=CARTESIAN_POINT('',(0.E0,-4.225E-1,-1.69E-1));
#256=VERTEX_POINT('',#254);
#257=VERTEX_POINT('',#255);
#258=CARTESIAN_POINT('',(0.E0,9.5E-1,-2.17E-1));
#259=CARTESIAN_POINT('',(0.E0,-9.5E-1,-2.17E-1));
#260=VERTEX_POINT('',#258);
#261=VERTEX_POINT('',#259);
#262=CARTESIAN_POINT('',(0.E0,5.E-1,-1.69E-1));
#263=CARTESIAN_POINT('',(0.E0,-5.E-1,-1.69E-1));
#264=VERTEX_POINT('',#262);
#265=VERTEX_POINT('',#263);
#266=CARTESIAN_POINT('',(0.E0,5.E-1,-4.9E-2));
#267=CARTESIAN_POINT('',(0.E0,-5.E-1,-4.9E-2));
#268=VERTEX_POINT('',#266);
#269=VERTEX_POINT('',#267);
#270=CARTESIAN_POINT('',(0.E0,4.225E-1,-4.9E-2));
#271=CARTESIAN_POINT('',(0.E0,-4.225E-1,-4.9E-2));
#272=VERTEX_POINT('',#270);
#273=VERTEX_POINT('',#271);
#274=CARTESIAN_POINT('',(0.E0,9.5E-1,-4.37E-1));
#275=CARTESIAN_POINT('',(0.E0,-9.5E-1,-4.37E-1));
#276=VERTEX_POINT('',#274);
#277=VERTEX_POINT('',#275);
#278=CARTESIAN_POINT('',(0.E0,4.225E-1,0.E0));
#279=CARTESIAN_POINT('',(0.E0,-4.225E-1,0.E0));
#280=VERTEX_POINT('',#278);
#281=VERTEX_POINT('',#279);
#282=CARTESIAN_POINT('',(0.E0,5.E-1,-1.298508674841E-1));
#283=CARTESIAN_POINT('',(0.E0,-5.E-1,-1.298508674841E-1));
#284=VERTEX_POINT('',#282);
#285=VERTEX_POINT('',#283);
#286=CARTESIAN_POINT('',(0.E0,5.E-1,-9.814913251585E-2));
#287=CARTESIAN_POINT('',(0.E0,-5.E-1,-9.814913251585E-2));
#288=VERTEX_POINT('',#286);
#289=VERTEX_POINT('',#287);
#290=CARTESIAN_POINT('',(0.E0,0.E0,-4.37E-1));
#291=DIRECTION('',(0.E0,0.E0,-1.E0));
#292=DIRECTION('',(0.E0,-1.E0,0.E0));
#293=AXIS2_PLACEMENT_3D('',#290,#291,#292);
#294=PLANE('',#293);
#296=ORIENTED_EDGE('',*,*,#295,.T.);
#298=ORIENTED_EDGE('',*,*,#297,.F.);
#299=EDGE_LOOP('',(#296,#298));
#300=FACE_OUTER_BOUND('',#299,.F.);
#302=ORIENTED_EDGE('',*,*,#301,.F.);
#304=ORIENTED_EDGE('',*,*,#303,.F.);
#305=EDGE_LOOP('',(#302,#304));
#306=FACE_BOUND('',#305,.F.);
#307=ADVANCED_FACE('',(#300,#306),#294,.T.);
#308=CARTESIAN_POINT('',(0.E0,0.E0,-4.368689397492E-1));
#309=DIRECTION('',(0.E0,0.E0,-1.E0));
#310=DIRECTION('',(0.E0,-1.E0,0.E0));
#311=AXIS2_PLACEMENT_3D('',#308,#309,#310);
#312=TOROIDAL_SURFACE('',#311,9.930000459272E-1,1.87E-1);
#314=ORIENTED_EDGE('',*,*,#313,.T.);
#316=ORIENTED_EDGE('',*,*,#315,.T.);
#318=ORIENTED_EDGE('',*,*,#317,.F.);
#319=ORIENTED_EDGE('',*,*,#295,.F.);
#320=EDGE_LOOP('',(#314,#316,#318,#319));
#321=FACE_OUTER_BOUND('',#320,.F.);
#322=ADVANCED_FACE('',(#321),#312,.T.);
#323=CARTESIAN_POINT('',(0.E0,0.E0,-4.368689397492E-1));
#324=DIRECTION('',(0.E0,0.E0,-1.E0));
#325=DIRECTION('',(0.E0,-1.E0,0.E0));
#326=AXIS2_PLACEMENT_3D('',#323,#324,#325);
#327=TOROIDAL_SURFACE('',#326,9.930000459272E-1,1.87E-1);
#328=ORIENTED_EDGE('',*,*,#313,.F.);
#329=ORIENTED_EDGE('',*,*,#297,.T.);
#330=ORIENTED_EDGE('',*,*,#317,.T.);
#332=ORIENTED_EDGE('',*,*,#331,.F.);
#333=EDGE_LOOP('',(#328,#329,#330,#332));
#334=FACE_OUTER_BOUND('',#333,.F.);
#335=ADVANCED_FACE('',(#334),#327,.T.);
#336=CARTESIAN_POINT('',(0.E0,0.E0,-2.49E-1));
#337=DIRECTION('',(0.E0,0.E0,-1.E0));
#338=DIRECTION('',(0.E0,-1.E0,0.E0));
#339=AXIS2_PLACEMENT_3D('',#336,#337,#338);
#340=TOROIDAL_SURFACE('',#339,8.130026738159E-1,1.87E-1);
#342=ORIENTED_EDGE('',*,*,#341,.F.);
#343=ORIENTED_EDGE('',*,*,#331,.T.);
#345=ORIENTED_EDGE('',*,*,#344,.T.);
#347=ORIENTED_EDGE('',*,*,#346,.F.);
#348=EDGE_LOOP('',(#342,#343,#345,#347));
#349=FACE_OUTER_BOUND('',#348,.F.);
#350=ADVANCED_FACE('',(#349),#340,.T.);
#351=CARTESIAN_POINT('',(0.E0,0.E0,-2.49E-1));
#352=DIRECTION('',(0.E0,0.E0,-1.E0));
#353=DIRECTION('',(0.E0,-1.E0,0.E0));
#354=AXIS2_PLACEMENT_3D('',#351,#352,#353);
#355=TOROIDAL_SURFACE('',#354,8.130026738159E-1,1.87E-1);
#356=ORIENTED_EDGE('',*,*,#341,.T.);
#358=ORIENTED_EDGE('',*,*,#357,.T.);
#359=ORIENTED_EDGE('',*,*,#344,.F.);
#360=ORIENTED_EDGE('',*,*,#315,.F.);
#361=EDGE_LOOP('',(#356,#358,#359,#360));
#362=FACE_OUTER_BOUND('',#361,.F.);
#363=ADVANCED_FACE('',(#362),#355,.T.);
#364=CARTESIAN_POINT('',(0.E0,0.E0,-6.2E-2));
#365=DIRECTION('',(0.E0,0.E0,-1.E0));
#366=DIRECTION('',(0.E0,-1.E0,0.E0));
#367=AXIS2_PLACEMENT_3D('',#364,#365,#366);
#368=PLANE('',#367);
#369=ORIENTED_EDGE('',*,*,#346,.T.);
#370=ORIENTED_EDGE('',*,*,#357,.F.);
#371=EDGE_LOOP('',(#369,#370));
#372=FACE_OUTER_BOUND('',#371,.F.);
#374=ORIENTED_EDGE('',*,*,#373,.T.);
#376=ORIENTED_EDGE('',*,*,#375,.F.);
#377=EDGE_LOOP('',(#374,#376));
#378=FACE_BOUND('',#377,.F.);
#379=ADVANCED_FACE('',(#372,#378),#368,.F.);
#380=CARTESIAN_POINT('',(0.E0,0.E0,2.185E-2));
#381=DIRECTION('',(0.E0,0.E0,-1.E0));
#382=DIRECTION('',(0.E0,-1.E0,0.E0));
#383=AXIS2_PLACEMENT_3D('',#380,#381,#382);
#384=CYLINDRICAL_SURFACE('',#383,7.41E-1);
#386=ORIENTED_EDGE('',*,*,#385,.T.);
#388=ORIENTED_EDGE('',*,*,#387,.T.);
#390=ORIENTED_EDGE('',*,*,#389,.F.);
#391=ORIENTED_EDGE('',*,*,#373,.F.);
#392=EDGE_LOOP('',(#386,#388,#390,#391));
#393=FACE_OUTER_BOUND('',#392,.F.);
#394=ADVANCED_FACE('',(#393),#384,.T.);
#395=CARTESIAN_POINT('',(0.E0,0.E0,2.185E-2));
#396=DIRECTION('',(0.E0,0.E0,-1.E0));
#397=DIRECTION('',(0.E0,-1.E0,0.E0));
#398=AXIS2_PLACEMENT_3D('',#395,#396,#397);
#399=CYLINDRICAL_SURFACE('',#398,7.41E-1);
#400=ORIENTED_EDGE('',*,*,#385,.F.);
#401=ORIENTED_EDGE('',*,*,#375,.T.);
#402=ORIENTED_EDGE('',*,*,#389,.T.);
#404=ORIENTED_EDGE('',*,*,#403,.F.);
#405=EDGE_LOOP('',(#400,#401,#402,#404));
#406=FACE_OUTER_BOUND('',#405,.F.);
#407=ADVANCED_FACE('',(#406),#399,.T.);
#408=CARTESIAN_POINT('',(0.E0,0.E0,0.E0));
#409=DIRECTION('',(0.E0,0.E0,-1.E0));
#410=DIRECTION('',(0.E0,-1.E0,0.E0));
#411=AXIS2_PLACEMENT_3D('',#408,#409,#410);
#412=PLANE('',#411);
#413=ORIENTED_EDGE('',*,*,#387,.F.);
#414=ORIENTED_EDGE('',*,*,#403,.T.);
#415=EDGE_LOOP('',(#413,#414));
#416=FACE_OUTER_BOUND('',#415,.F.);
#418=ORIENTED_EDGE('',*,*,#417,.T.);
#420=ORIENTED_EDGE('',*,*,#419,.T.);
#421=EDGE_LOOP('',(#418,#420));
#422=FACE_BOUND('',#421,.F.);
#423=ADVANCED_FACE('',(#416,#422),#412,.F.);
#424=CARTESIAN_POINT('',(0.E0,0.E0,-4.5885E-1));
#425=DIRECTION('',(0.E0,0.E0,1.E0));
#426=DIRECTION('',(0.E0,1.E0,0.E0));
#427=AXIS2_PLACEMENT_3D('',#424,#425,#426);
#428=CYLINDRICAL_SURFACE('',#427,4.225E-1);
#429=ORIENTED_EDGE('',*,*,#417,.F.);
#431=ORIENTED_EDGE('',*,*,#430,.F.);
#433=ORIENTED_EDGE('',*,*,#432,.T.);
#435=ORIENTED_EDGE('',*,*,#434,.T.);
#436=EDGE_LOOP('',(#429,#431,#433,#435));
#437=FACE_OUTER_BOUND('',#436,.F.);
#438=ADVANCED_FACE('',(#437),#428,.F.);
#439=CARTESIAN_POINT('',(0.E0,0.E0,-4.5885E-1));
#440=DIRECTION('',(0.E0,0.E0,1.E0));
#441=DIRECTION('',(0.E0,1.E0,0.E0));
#442=AXIS2_PLACEMENT_3D('',#439,#440,#441);
#443=CYLINDRICAL_SURFACE('',#442,4.225E-1);
#444=ORIENTED_EDGE('',*,*,#419,.F.);
#445=ORIENTED_EDGE('',*,*,#434,.F.);
#447=ORIENTED_EDGE('',*,*,#446,.F.);
#448=ORIENTED_EDGE('',*,*,#430,.T.);
#449=EDGE_LOOP('',(#444,#445,#447,#448));
#450=FACE_OUTER_BOUND('',#449,.F.);
#451=ADVANCED_FACE('',(#450),#443,.F.);
#452=CARTESIAN_POINT('',(0.E0,0.E0,-4.9E-2));
#453=DIRECTION('',(0.E0,0.E0,1.E0));
#454=DIRECTION('',(0.E0,1.E0,0.E0));
#455=AXIS2_PLACEMENT_3D('',#452,#453,#454);
#456=PLANE('',#455);
#458=ORIENTED_EDGE('',*,*,#457,.F.);
#460=ORIENTED_EDGE('',*,*,#459,.T.);
#461=EDGE_LOOP('',(#458,#460));
#462=FACE_OUTER_BOUND('',#461,.F.);
#463=ORIENTED_EDGE('',*,*,#432,.F.);
#464=ORIENTED_EDGE('',*,*,#446,.T.);
#465=EDGE_LOOP('',(#463,#464));
#466=FACE_BOUND('',#465,.F.);
#467=ADVANCED_FACE('',(#462,#466),#456,.F.);
#468=CARTESIAN_POINT('',(0.E0,0.E0,-4.5885E-1));
#469=DIRECTION('',(0.E0,0.E0,1.E0));
#470=DIRECTION('',(0.E0,1.E0,0.E0));
#471=AXIS2_PLACEMENT_3D('',#468,#469,#470);
#472=CYLINDRICAL_SURFACE('',#471,5.E-1);
#474=ORIENTED_EDGE('',*,*,#473,.T.);
#476=ORIENTED_EDGE('',*,*,#475,.T.);
#477=ORIENTED_EDGE('',*,*,#457,.T.);
#479=ORIENTED_EDGE('',*,*,#478,.F.);
#480=EDGE_LOOP('',(#474,#476,#477,#479));
#481=FACE_OUTER_BOUND('',#480,.F.);
#482=ADVANCED_FACE('',(#481),#472,.F.);
#483=CARTESIAN_POINT('',(0.E0,0.E0,-1.14E-1));
#484=DIRECTION('',(0.E0,0.E0,1.E0));
#485=DIRECTION('',(0.E0,1.E0,0.E0));
#486=AXIS2_PLACEMENT_3D('',#483,#484,#485);
#487=TOROIDAL_SURFACE('',#486,4.51E-1,5.15E-2);
#489=ORIENTED_EDGE('',*,*,#488,.F.);
#490=ORIENTED_EDGE('',*,*,#473,.F.);
#492=ORIENTED_EDGE('',*,*,#491,.F.);
#494=ORIENTED_EDGE('',*,*,#493,.T.);
#495=EDGE_LOOP('',(#489,#490,#492,#494));
#496=FACE_OUTER_BOUND('',#495,.F.);
#497=ADVANCED_FACE('',(#496),#487,.T.);
#498=CARTESIAN_POINT('',(0.E0,0.E0,-1.14E-1));
#499=DIRECTION('',(0.E0,0.E0,1.E0));
#500=DIRECTION('',(0.E0,1.E0,0.E0));
#501=AXIS2_PLACEMENT_3D('',#498,#499,#500);
#502=TOROIDAL_SURFACE('',#501,4.51E-1,5.15E-2);
#503=ORIENTED_EDGE('',*,*,#491,.T.);
#505=ORIENTED_EDGE('',*,*,#504,.F.);
#506=ORIENTED_EDGE('',*,*,#488,.T.);
#508=ORIENTED_EDGE('',*,*,#507,.T.);
#509=EDGE_LOOP('',(#503,#505,#506,#508));
#510=FACE_OUTER_BOUND('',#509,.F.);
#511=ADVANCED_FACE('',(#510),#502,.T.);
#512=CARTESIAN_POINT('',(0.E0,0.E0,-4.5885E-1));
#513=DIRECTION('',(0.E0,0.E0,1.E0));
#514=DIRECTION('',(0.E0,1.E0,0.E0));
#515=AXIS2_PLACEMENT_3D('',#512,#513,#514);
#516=CYLINDRICAL_SURFACE('',#515,5.E-1);
#517=ORIENTED_EDGE('',*,*,#504,.T.);
#518=ORIENTED_EDGE('',*,*,#478,.T.);
#519=ORIENTED_EDGE('',*,*,#459,.F.);
#520=ORIENTED_EDGE('',*,*,#475,.F.);
#521=EDGE_LOOP('',(#517,#518,#519,#520));
#522=FACE_OUTER_BOUND('',#521,.F.);
#523=ADVANCED_FACE('',(#522),#516,.F.);
#524=CARTESIAN_POINT('',(0.E0,0.E0,-4.5885E-1));
#525=DIRECTION('',(0.E0,0.E0,1.E0));
#526=DIRECTION('',(0.E0,1.E0,0.E0));
#527=AXIS2_PLACEMENT_3D('',#524,#525,#526);
#528=CYLINDRICAL_SURFACE('',#527,5.E-1);
#529=ORIENTED_EDGE('',*,*,#507,.F.);
#531=ORIENTED_EDGE('',*,*,#530,.F.);
#533=ORIENTED_EDGE('',*,*,#532,.T.);
#535=ORIENTED_EDGE('',*,*,#534,.T.);
#536=EDGE_LOOP('',(#529,#531,#533,#535));
#537=FACE_OUTER_BOUND('',#536,.F.);
#538=ADVANCED_FACE('',(#537),#528,.F.);
#539=CARTESIAN_POINT('',(0.E0,0.E0,-4.5885E-1));
#540=DIRECTION('',(0.E0,0.E0,1.E0));
#541=DIRECTION('',(0.E0,1.E0,0.E0));
#542=AXIS2_PLACEMENT_3D('',#539,#540,#541);
#543=CYLINDRICAL_SURFACE('',#542,5.E-1);
#544=ORIENTED_EDGE('',*,*,#493,.F.);
#545=ORIENTED_EDGE('',*,*,#534,.F.);
#547=ORIENTED_EDGE('',*,*,#546,.F.);
#548=ORIENTED_EDGE('',*,*,#530,.T.);
#549=EDGE_LOOP('',(#544,#545,#547,#548));
#550=FACE_OUTER_BOUND('',#549,.F.);
#551=ADVANCED_FACE('',(#550),#543,.F.);
#552=CARTESIAN_POINT('',(0.E0,0.E0,-1.69E-1));
#553=DIRECTION('',(0.E0,0.E0,1.E0));
#554=DIRECTION('',(0.E0,1.E0,0.E0));
#555=AXIS2_PLACEMENT_3D('',#552,#553,#554);
#556=PLANE('',#555);
#557=ORIENTED_EDGE('',*,*,#532,.F.);
#558=ORIENTED_EDGE('',*,*,#546,.T.);
#559=EDGE_LOOP('',(#557,#558));
#560=FACE_OUTER_BOUND('',#559,.F.);
#562=ORIENTED_EDGE('',*,*,#561,.F.);
#564=ORIENTED_EDGE('',*,*,#563,.T.);
#565=EDGE_LOOP('',(#562,#564));
#566=FACE_BOUND('',#565,.F.);
#567=ADVANCED_FACE('',(#560,#566),#556,.T.);
#568=CARTESIAN_POINT('',(0.E0,0.E0,-4.5885E-1));
#569=DIRECTION('',(0.E0,0.E0,1.E0));
#570=DIRECTION('',(0.E0,1.E0,0.E0));
#571=AXIS2_PLACEMENT_3D('',#568,#569,#570);
#572=CYLINDRICAL_SURFACE('',#571,4.225E-1);
#574=ORIENTED_EDGE('',*,*,#573,.T.);
#575=ORIENTED_EDGE('',*,*,#561,.T.);
#577=ORIENTED_EDGE('',*,*,#576,.F.);
#579=ORIENTED_EDGE('',*,*,#578,.F.);
#580=EDGE_LOOP('',(#574,#575,#577,#579));
#581=FACE_OUTER_BOUND('',#580,.F.);
#582=ADVANCED_FACE('',(#581),#572,.F.);
#583=CARTESIAN_POINT('',(0.E0,0.E0,-4.5885E-1));
#584=DIRECTION('',(0.E0,0.E0,1.E0));
#585=DIRECTION('',(0.E0,1.E0,0.E0));
#586=AXIS2_PLACEMENT_3D('',#583,#584,#585);
#587=CYLINDRICAL_SURFACE('',#586,4.225E-1);
#588=ORIENTED_EDGE('',*,*,#573,.F.);
#590=ORIENTED_EDGE('',*,*,#589,.T.);
#591=ORIENTED_EDGE('',*,*,#576,.T.);
#592=ORIENTED_EDGE('',*,*,#563,.F.);
#593=EDGE_LOOP('',(#588,#590,#591,#592));
#594=FACE_OUTER_BOUND('',#593,.F.);
#595=ADVANCED_FACE('',(#594),#587,.F.);
#596=CARTESIAN_POINT('',(0.E0,0.E0,-2.17E-1));
#597=DIRECTION('',(0.E0,0.E0,1.E0));
#598=DIRECTION('',(0.E0,1.E0,0.E0));
#599=AXIS2_PLACEMENT_3D('',#596,#597,#598);
#600=PLANE('',#599);
#602=ORIENTED_EDGE('',*,*,#601,.F.);
#604=ORIENTED_EDGE('',*,*,#603,.T.);
#605=EDGE_LOOP('',(#602,#604));
#606=FACE_OUTER_BOUND('',#605,.F.);
#607=ORIENTED_EDGE('',*,*,#589,.F.);
#608=ORIENTED_EDGE('',*,*,#578,.T.);
#609=EDGE_LOOP('',(#607,#608));
#610=FACE_BOUND('',#609,.F.);
#611=ADVANCED_FACE('',(#606,#610),#600,.F.);
#612=CARTESIAN_POINT('',(0.E0,0.E0,-4.5885E-1));
#613=DIRECTION('',(0.E0,0.E0,1.E0));
#614=DIRECTION('',(0.E0,1.E0,0.E0));
#615=AXIS2_PLACEMENT_3D('',#612,#613,#614);
#616=CYLINDRICAL_SURFACE('',#615,9.5E-1);
#617=ORIENTED_EDGE('',*,*,#303,.T.);
#619=ORIENTED_EDGE('',*,*,#618,.T.);
#620=ORIENTED_EDGE('',*,*,#601,.T.);
#622=ORIENTED_EDGE('',*,*,#621,.F.);
#623=EDGE_LOOP('',(#617,#619,#620,#622));
#624=FACE_OUTER_BOUND('',#623,.F.);
#625=ADVANCED_FACE('',(#624),#616,.F.);
#626=CARTESIAN_POINT('',(0.E0,0.E0,-4.5885E-1));
#627=DIRECTION('',(0.E0,0.E0,1.E0));
#628=DIRECTION('',(0.E0,1.E0,0.E0));
#629=AXIS2_PLACEMENT_3D('',#626,#627,#628);
#630=CYLINDRICAL_SURFACE('',#629,9.5E-1);
#631=ORIENTED_EDGE('',*,*,#301,.T.);
#632=ORIENTED_EDGE('',*,*,#621,.T.);
#633=ORIENTED_EDGE('',*,*,#603,.F.);
#634=ORIENTED_EDGE('',*,*,#618,.F.);
#635=EDGE_LOOP('',(#631,#632,#633,#634));
#636=FACE_OUTER_BOUND('',#635,.F.);
#637=ADVANCED_FACE('',(#636),#630,.F.);
#640=DIMENSIONAL_EXPONENTS(1.E0,0.E0,0.E0,0.E0,0.E0,0.E0,0.E0);
#642=LENGTH_MEASURE_WITH_UNIT(LENGTH_MEASURE(2.54E1),#641);
#643=(CONVERSION_BASED_UNIT('INCH',#642)LENGTH_UNIT()NAMED_UNIT(#640));
#644=DIMENSIONAL_EXPONENTS(0.E0,0.E0,0.E0,0.E0,0.E0,0.E0,0.E0);
#646=PLANE_ANGLE_MEASURE_WITH_UNIT(PLANE_ANGLE_MEASURE(1.745329251994E-2),#645);
#647=(CONVERSION_BASED_UNIT('DEGREE',#646)NAMED_UNIT(*)PLANE_ANGLE_UNIT());
#649=UNCERTAINTY_MEASURE_WITH_UNIT(LENGTH_MEASURE(1.424954929297E-4),#643,
'closure',
'Maximum model space distance between geometric entities at asserted connectivities');
#650=(GEOMETRIC_REPRESENTATION_CONTEXT(3)GLOBAL_UNCERTAINTY_ASSIGNED_CONTEXT((
#649))GLOBAL_UNIT_ASSIGNED_CONTEXT((#643,#647,#648))REPRESENTATION_CONTEXT
('ID1','3'));
#652=APPLICATION_CONTEXT(
'CONFIGURATION CONTROLLED 3D DESIGNS OF MECHANICAL PARTS AND ASSEMBLIES');
#653=APPLICATION_PROTOCOL_DEFINITION('international standard',
'config_control_design',1994,#652);
#654=DESIGN_CONTEXT('',#652,'design');
#655=MECHANICAL_CONTEXT('',#652,'mechanical');
#656=PRODUCT('2-332','2-332','NOT SPECIFIED',(#655));
#657=PRODUCT_DEFINITION_FORMATION_WITH_SPECIFIED_SOURCE('1','LAST_VERSION',#656,
.MADE.);
#661=PRODUCT_CATEGORY('part','');
#662=PRODUCT_RELATED_PRODUCT_CATEGORY('detail','',(#656));
#663=PRODUCT_CATEGORY_RELATIONSHIP('','',#661,#662);
#664=SECURITY_CLASSIFICATION_LEVEL('unclassified');
#665=SECURITY_CLASSIFICATION('','',#664);
#666=CC_DESIGN_SECURITY_CLASSIFICATION(#665,(#657));
#667=APPROVAL_STATUS('approved');
#668=APPROVAL(#667,'');
#669=CC_DESIGN_APPROVAL(#668,(#665,#657,#658));
#670=CALENDAR_DATE(124,2,8);
#671=COORDINATED_UNIVERSAL_TIME_OFFSET(4,0,.BEHIND.);
#672=LOCAL_TIME(10,52,1.E1,#671);
#673=DATE_AND_TIME(#670,#672);
#674=APPROVAL_DATE_TIME(#673,#668);
#675=DATE_TIME_ROLE('creation_date');
#676=CC_DESIGN_DATE_AND_TIME_ASSIGNMENT(#673,#675,(#658));
#677=DATE_TIME_ROLE('classification_date');
#678=CC_DESIGN_DATE_AND_TIME_ASSIGNMENT(#673,#677,(#665));
#679=PERSON('UNSPECIFIED','UNSPECIFIED',$,$,$,$);
#680=ORGANIZATION('UNSPECIFIED','UNSPECIFIED','UNSPECIFIED');
#681=PERSON_AND_ORGANIZATION(#679,#680);
#682=APPROVAL_ROLE('approver');
#683=APPROVAL_PERSON_ORGANIZATION(#681,#668,#682);
#684=PERSON_AND_ORGANIZATION_ROLE('creator');
#685=CC_DESIGN_PERSON_AND_ORGANIZATION_ASSIGNMENT(#681,#684,(#657,#658));
#686=PERSON_AND_ORGANIZATION_ROLE('design_supplier');
#687=CC_DESIGN_PERSON_AND_ORGANIZATION_ASSIGNMENT(#681,#686,(#657));
#688=PERSON_AND_ORGANIZATION_ROLE('classification_officer');
#689=CC_DESIGN_PERSON_AND_ORGANIZATION_ASSIGNMENT(#681,#688,(#665));
#690=PERSON_AND_ORGANIZATION_ROLE('design_owner');
#691=CC_DESIGN_PERSON_AND_ORGANIZATION_ASSIGNMENT(#681,#690,(#656));
#6=CIRCLE('',#5,9.5E-1);
#11=CIRCLE('',#10,9.5E-1);
#16=CIRCLE('',#15,1.87E-1);
#21=CIRCLE('',#20,1.87E-1);
#26=CIRCLE('',#25,1.18E0);
#31=CIRCLE('',#30,1.18E0);
#36=CIRCLE('',#35,1.E0);
#41=CIRCLE('',#40,1.87E-1);
#46=CIRCLE('',#45,1.87E-1);
#51=CIRCLE('',#50,1.E0);
#56=CIRCLE('',#55,8.130026738159E-1);
#61=CIRCLE('',#60,8.130026738159E-1);
#74=CIRCLE('',#73,7.41E-1);
#79=CIRCLE('',#78,7.41E-1);
#84=CIRCLE('',#83,7.41E-1);
#89=CIRCLE('',#88,7.41E-1);
#94=CIRCLE('',#93,4.225E-1);
#99=CIRCLE('',#98,4.225E-1);
#104=CIRCLE('',#103,4.225E-1);
#113=CIRCLE('',#112,4.225E-1);
#122=CIRCLE('',#121,5.E-1);
#127=CIRCLE('',#126,5.E-1);
#132=CIRCLE('',#131,5.E-1);
#145=CIRCLE('',#144,5.15E-2);
#150=CIRCLE('',#149,5.15E-2);
#155=CIRCLE('',#154,5.E-1);
#160=CIRCLE('',#159,5.E-1);
#165=CIRCLE('',#164,5.E-1);
#170=CIRCLE('',#169,5.E-1);
#179=CIRCLE('',#178,5.E-1);
#188=CIRCLE('',#187,4.225E-1);
#193=CIRCLE('',#192,4.225E-1);
#206=CIRCLE('',#205,4.225E-1);
#211=CIRCLE('',#210,4.225E-1);
#216=CIRCLE('',#215,9.5E-1);
#221=CIRCLE('',#220,9.5E-1);
#295=EDGE_CURVE('',#232,#242,#26,.T.);
#297=EDGE_CURVE('',#232,#242,#31,.T.);
#301=EDGE_CURVE('',#276,#277,#6,.T.);
#303=EDGE_CURVE('',#277,#276,#11,.T.);
#313=EDGE_CURVE('',#232,#233,#16,.T.);
#315=EDGE_CURVE('',#233,#243,#51,.T.);
#317=EDGE_CURVE('',#242,#243,#21,.T.);
#331=EDGE_CURVE('',#233,#243,#36,.T.);
#341=EDGE_CURVE('',#233,#235,#41,.T.);
#344=EDGE_CURVE('',#243,#245,#46,.T.);
#346=EDGE_CURVE('',#235,#245,#56,.T.);
#357=EDGE_CURVE('',#235,#245,#61,.T.);
#373=EDGE_CURVE('',#238,#248,#74,.T.);
#375=EDGE_CURVE('',#238,#248,#79,.T.);
#385=EDGE_CURVE('',#238,#239,#65,.T.);
#387=EDGE_CURVE('',#239,#249,#84,.T.);
#389=EDGE_CURVE('',#248,#249,#69,.T.);
#403=EDGE_CURVE('',#239,#249,#89,.T.);
#417=EDGE_CURVE('',#280,#281,#94,.T.);
#419=EDGE_CURVE('',#281,#280,#99,.T.);
#430=EDGE_CURVE('',#272,#280,#117,.T.);
#432=EDGE_CURVE('',#272,#273,#104,.T.);
#434=EDGE_CURVE('',#273,#281,#108,.T.);
#446=EDGE_CURVE('',#272,#273,#113,.T.);
#457=EDGE_CURVE('',#268,#269,#122,.T.);
#459=EDGE_CURVE('',#268,#269,#127,.T.);
#473=EDGE_CURVE('',#289,#288,#132,.T.);
#475=EDGE_CURVE('',#288,#268,#136,.T.);
#478=EDGE_CURVE('',#289,#269,#140,.T.);
#488=EDGE_CURVE('',#288,#284,#150,.T.);
#491=EDGE_CURVE('',#285,#289,#145,.T.);
#493=EDGE_CURVE('',#285,#284,#170,.T.);
#504=EDGE_CURVE('',#288,#289,#155,.T.);
#507=EDGE_CURVE('',#284,#285,#160,.T.);
#530=EDGE_CURVE('',#264,#284,#183,.T.);
#532=EDGE_CURVE('',#264,#265,#165,.T.);
#534=EDGE_CURVE('',#265,#285,#174,.T.);
#546=EDGE_CURVE('',#264,#265,#179,.T.);
#561=EDGE_CURVE('',#253,#257,#188,.T.);
#563=EDGE_CURVE('',#253,#257,#193,.T.);
#573=EDGE_CURVE('',#252,#253,#197,.T.);
#576=EDGE_CURVE('',#256,#257,#201,.T.);
#578=EDGE_CURVE('',#252,#256,#206,.T.);
#589=EDGE_CURVE('',#252,#256,#211,.T.);
#601=EDGE_CURVE('',#260,#261,#216,.T.);
#603=EDGE_CURVE('',#260,#261,#221,.T.);
#618=EDGE_CURVE('',#276,#260,#225,.T.);
#621=EDGE_CURVE('',#277,#261,#229,.T.);
#638=CLOSED_SHELL('',(#307,#322,#335,#350,#363,#379,#394,#407,#423,#438,#451,
#467,#482,#497,#511,#523,#538,#551,#567,#582,#595,#611,#625,#637));
#639=MANIFOLD_SOLID_BREP('',#638);
#641=(LENGTH_UNIT()NAMED_UNIT(*)SI_UNIT(.MILLI.,.METRE.));
#645=(NAMED_UNIT(*)PLANE_ANGLE_UNIT()SI_UNIT($,.RADIAN.));
#648=(NAMED_UNIT(*)SI_UNIT($,.STERADIAN.)SOLID_ANGLE_UNIT());
#651=ADVANCED_BREP_SHAPE_REPRESENTATION('',(#639),#650);
#658=PRODUCT_DEFINITION('design','',#657,#654);
#659=PRODUCT_DEFINITION_SHAPE('','SHAPE FOR 2-332.',#658);
#660=SHAPE_DEFINITION_REPRESENTATION(#659,#651);
ENDSEC;
END-ISO-10303-21;
