  0
SECTION
  2
HEADER
  9
$ACADVER
  1
AC1021
  9
$DWGCODEPAGE
  3
ANSI_1252
  9
$EXTMAX
 10
11.6929133858
 20
8.2677165354
 30
0.0
  9
$EXTMIN
 10
0.0
 20
0.0
 30
0.0
  9
$LIMMIN
 10
0.0
 20
0.0
  9
$LIMMAX
 10
11.6929133858
 20
8.2677165354
  9
$VIEWCTR
 10
5.8464566929
 20
4.1338582677
  9
$VIEWSIZE
 40
8.2677165354
  9
$CLAYER
  8
0
  9
$LTSCALE
 40
0.6431102362
  9
$CELTYPE
  6
BYLAYER
  9
$DIMSCALE
 40
1.0
  9
$DIMASZ
 40
0.1
  9
$DIMEXO
 40
0.0730807087
  9
$DIMDLI
 40
0.4443307087
  9
$DIMEXE
 40
0.2104724409
  9
$DIMCEN
 40
0.1052362205
  9
$DIMLFAC
 40
1.0
  9
$DIMBLK
  1
_FILLED
  9
$DIMTXT
 40
0.08
  9
$DIMTOL
 70
1
  9
$DIMLIM
 70
0
  9
$DIMTFAC
 40
1.0
  9
$DIMTP
 40
0.001
  9
$DIMTM
 40
0.001
  9
$PDMODE
 70
3
  9
$PDSIZE
 40
0.06
  9
$HANDSEED
  5
295
  9
$TILEMODE
 70
1
  9
$MEASUREMENT
 70
0
  9
$INSUNITS
 70
1
  0
ENDSEC
  0
SECTION
  2
CLASSES
  0
CLASS
  1
ACDBDICTIONARYWDFLT
  2
AcDbDictionaryWithDefault
  3
AutoCAD 2000
 90
0
 91
1
280
0
281
0
  0
CLASS
  1
ACDBPLACEHOLDER
  2
AcDbPlaceHolder
  3
AutoCAD 2000
 90
0
 91
1
280
0
281
0
  0
CLASS
  1
LAYOUT
  2
AcDbLayout
  3
AutoCAD 2000
 90
0
 91
0
280
0
281
0
  0
ENDSEC
  0
SECTION
  2
TABLES
  0
TABLE
  2
VPORT
  5
8
100
AcDbSymbolTable
 70
2
  0
VPORT
  5
1F4
100
AcDbSymbolTableRecord
100
AcDbViewportTableRecord
  2
*ACTIVE
 70
0
 10
0.0
 20
0.0
 11
1.0
 21
1.0
 12
5.8464566929
 22
4.1338582677
 13
0.0
 23
0.0
 14
1.0
 24
1.0
 15
0.0
 25
0.0
 16
0.0
 26
0.0
 36
1.0
 17
0.0
 27
0.0
 37
0.0
 40
8.2677165354
 41
1.4142857143
 42
50.0
 43
0.0
 44
0.0
 50
0.0
 51
0.0
 71
0
 72
100
 73
1
 74
1
 75
0
 76
0
 77
0
 78
0
  0
ENDTAB
  0
TABLE
  2
LTYPE
  5
5
100
AcDbSymbolTable
 70
6
  0
LTYPE
  5
14
100
AcDbSymbolTableRecord
100
AcDbLinetypeTableRecord
  2
BYBLOCK
 70
0
  3

 72
65
 73
0
 40
0.0
  0
LTYPE
  5
15
100
AcDbSymbolTableRecord
100
AcDbLinetypeTableRecord
  2
BYLAYER
 70
0
  3

 72
65
 73
0
 40
0.0
  0
LTYPE
  5
16
100
AcDbSymbolTableRecord
100
AcDbLinetypeTableRecord
  2
CONTINUOUS
 70
64
  3
Solid line
 72
65
 73
0
 40
0.0
  0
LTYPE
  5
1F5
100
AcDbSymbolTableRecord
100
AcDbLinetypeTableRecord
  2
CENTER
 70
64
  3
____ _ ____ _ ____ _ ____ _ ____ _ ____ _ ____
 72
65
 73
4
 40
0.6
 49
0.375
 74
0
 49
-0.075
 74
0
 49
0.075
 74
0
 49
-0.075
 74
0
  0
LTYPE
  5
1F6
100
AcDbSymbolTableRecord
100
AcDbLinetypeTableRecord
  2
HIDDEN
 70
64
  3
- - - - - - - - - - - - - - - - - - - -
 72
65
 73
2
 40
0.2
 49
0.1
 74
0
 49
-0.1
 74
0
  0
LTYPE
  5
1F7
100
AcDbSymbolTableRecord
100
AcDbLinetypeTableRecord
  2
PHANTOM
 70
64
  3
_____ _ _ _____ _ _ _____ _ _ _____
 72
65
 73
6
 40
0.8
 49
0.45
 74
0
 49
-0.05
 74
0
 49
0.1
 74
0
 49
-0.05
 74
0
 49
0.1
 74
0
 49
-0.05
 74
0
  0
LTYPE
  5
1F8
100
AcDbSymbolTableRecord
100
AcDbLinetypeTableRecord
  2
DOT
 70
64
  3
. . . . . . . . . . . . . . . . . . . .
 72
65
 73
2
 40
0.2
 49
0.1
 74
0
 49
-0.1
 74
0
  0
LTYPE
  5
1F9
100
AcDbSymbolTableRecord
100
AcDbLinetypeTableRecord
  2
DASHED
 70
64
  3
- - - - - - - - - - - - - - - - - - - -
 72
65
 73
2
 40
0.2
 49
0.1
 74
0
 49
-0.1
 74
0
  0
ENDTAB
  0
TABLE
  2
LAYER
  5
2
100
AcDbSymbolTable
 70
36
  0
LAYER
  5
10
100
AcDbSymbolTableRecord
100
AcDbLayerTableRecord
  2
0
 70
0
 62
7
  6
CONTINUOUS
370
-3
390
F
  0
LAYER
  5
1FA
100
AcDbSymbolTableRecord
100
AcDbLayerTableRecord
  2
DEFAULT_1
 70
0
 62
7
  6
CENTER
370
-3
390
F
  0
LAYER
  5
1FB
100
AcDbSymbolTableRecord
100
AcDbLayerTableRecord
  2
DEFAULT_2
 70
0
 62
8
  6
HIDDEN
370
-3
390
F
  0
LAYER
  5
1FC
100
AcDbSymbolTableRecord
100
AcDbLayerTableRecord
  2
DEFAULT_3
 70
0
 62
7
  6
PHANTOM
370
-3
390
F
  0
LAYER
  5
1FD
100
AcDbSymbolTableRecord
100
AcDbLayerTableRecord
  2
DEFAULT_COORDINATE_SYSTEM
 70
0
 62
7
  6
CONTINUOUS
370
-3
390
F
  0
LAYER
  5
1FE
100
AcDbSymbolTableRecord
100
AcDbLayerTableRecord
  2
DEFAULT_DATUM_AXES
 70
0
 62
7
  6
CONTINUOUS
370
-3
390
F
  0
LAYER
  5
1FF
100
AcDbSymbolTableRecord
100
AcDbLayerTableRecord
  2
DEFAULT_DATUM_CURVES
 70
0
 62
7
  6
CONTINUOUS
370
-3
390
F
  0
LAYER
  5
200
100
AcDbSymbolTableRecord
100
AcDbLayerTableRecord
  2
DEFAULT_DATUM_PLANES
 70
0
 62
7
  6
CONTINUOUS
370
-3
390
F
  0
ENDTAB
  0
TABLE
  2
STYLE
  5
3
100
AcDbSymbolTable
 70
1
  0
STYLE
  5
11
100
AcDbSymbolTableRecord
100
AcDbTextStyleTableRecord
  2
STANDARD
 70
0
 40
0.0
 41
0.8
 50
0.0
 71
0
 42
0.2
  3
txt
  4

  0
STYLE
  5
201
100
AcDbSymbolTableRecord
100
AcDbTextStyleTableRecord
  2
TEXTSTYLE_1
 70
0
 40
0.0
 41
0.8
 50
0.0
 71
0
 42
0.2
  3
gdt
  4

  0
ENDTAB
  0
TABLE
  2
VIEW
  5
6
100
AcDbSymbolTable
 70
0
  0
ENDTAB
  0
TABLE
  2
UCS
  5
7
100
AcDbSymbolTable
 70
0
  0
ENDTAB
  0
TABLE
  2
APPID
  5
9
100
AcDbSymbolTable
 70
1
  0
APPID
  5
202
100
AcDbSymbolTableRecord
100
AcDbRegAppTableRecord
  2
ACAD
 70
0
  0
ENDTAB
  0
TABLE
  2
BLOCK_RECORD
  5
1
100
AcDbSymbolTable
 70
0
  0
BLOCK_RECORD
  5
203
100
AcDbSymbolTableRecord
100
AcDbBlockTableRecord
  2
*Model_Space
  0
BLOCK_RECORD
  5
204
100
AcDbSymbolTableRecord
100
AcDbBlockTableRecord
  2
*Paper_Space
  0
ENDTAB
  0
TABLE
  2
DIMSTYLE
  5
A
100
AcDbSymbolTable
 70
1
100
AcDbDimStyleTable
 71
0
  0
DIMSTYLE
105
205
100
AcDbSymbolTableRecord
100
AcDbDimStyleTableRecord
  2
STANDARD
 70
0
  3

  4

 40
1.0
 41
0.1
 42
0.0625
 43
0.38
 44
0.18
 45
0.0
 46
0.0
 47
0.001
 48
0.001
140
0.08
141
0.09
142
0.0
143
25.4
144
1.0
145
0.0
146
1.0
147
0.09
 71
1.0
 72
0.0
 73
1
 74
1
 75
0
 76
0
 77
0
 78
4
170
0
171
2
172
0
173
0
174
0
175
0
176
0
177
0
178
0
270
2
271
3
272
3
273
2
274
2
275
0
280
0
281
0
282
0
283
1
284
4
285
0
286
0
287
3
288
0
340
11
  0
ENDTAB
  0
ENDSEC
  0
SECTION
  2
BLOCKS
  0
BLOCK
  5
20
100
AcDbEntity
  8
0
100
AcDbBlockBegin
  2
*Model_Space
 70
0
 10
0.0
 20
0.0
 30
0.0
  3
*Model_Space
  1

  0
ENDBLK
  5
21
100
AcDbEntity
  8
0
100
AcDbBlockEnd
  0
BLOCK
  5
1C
100
AcDbEntity
  8
0
100
AcDbBlockBegin
  2
*Paper_Space
 70
0
 10
0.0
 20
0.0
 30
0.0
  3
*Paper_Space
  1

  0
ENDBLK
  5
1D
100
AcDbEntity
  8
0
100
AcDbBlockEnd
  0
ENDSEC
  0
SECTION
  2
ENTITIES
  0
LINE
  5
206
100
AcDbEntity
  8
0
100
AcDbLine
 62
6
  6
CONTINUOUS
 10
4.5589122788
 20
4.0995076566
 11
4.5589122788
 21
4.4180648527
  0
LINE
  5
207
100
AcDbEntity
  8
0
100
AcDbLine
 62
6
  6
CONTINUOUS
 10
4.600552917
 20
4.4437142829
 11
4.60025622
 21
4.4580514324
  0
LINE
  5
208
100
AcDbEntity
  8
0
100
AcDbLine
 62
6
  6
CONTINUOUS
 10
4.602234098
 20
4.1135327779
 11
4.602234098
 21
4.404029872
  0
LINE
  5
209
100
AcDbEntity
  8
0
100
AcDbLine
 62
6
  6
CONTINUOUS
 10
4.5989679614
 20
4.0594984634
 11
4.5992757328
 21
4.0738162178
  0
LINE
  5
20A
100
AcDbEntity
  8
0
100
AcDbLine
 62
6
  6
CONTINUOUS
 10
5.7464122788
 20
3.6904375892
 11
6.3714122788
 21
3.6904375892
  0
LINE
  5
20B
100
AcDbEntity
  8
0
100
AcDbLine
 62
6
  6
CONTINUOUS
 10
6.9950490968
 20
4.0739190982
 11
6.9950108695
 21
4.0739136309
  0
LINE
  5
20C
100
AcDbEntity
  8
0
100
AcDbLine
 62
6
  6
CONTINUOUS
 10
6.8844866534
 20
4.0625871701
 11
6.9949857387
 21
4.0739104157
  0
LINE
  5
20D
100
AcDbEntity
  8
0
100
AcDbLine
 62
6
  6
CONTINUOUS
 10
5.6395113994
 20
4.3688231049
 11
5.6395113994
 21
4.1153585183
  0
LINE
  5
20E
100
AcDbEntity
  8
0
100
AcDbLine
 62
6
  6
CONTINUOUS
 10
5.6589122788
 20
4.4784375892
 11
5.6589122788
 21
4.4547687472
  0
LINE
  5
20F
100
AcDbEntity
  8
0
100
AcDbLine
 62
6
  6
CONTINUOUS
 10
5.6589122788
 20
4.0300355772
 11
5.6589122788
 21
4.0034375892
  0
LWPOLYLINE
  5
210
100
AcDbEntity
  8
0
100
AcDbPolyline
 62
6
  6
CONTINUOUS
 90
7
 70
0
 10
5.6589122854
 20
4.4547687458
 10
5.6584097877
 20
4.4484483575
 10
5.6546467108
 20
4.4367951314
 10
5.6475344596
 20
4.4268264648
 10
5.6377396924
 20
4.4194766982
 10
5.6261805187
 20
4.4154346305
 10
5.6171833054
 20
4.4148061326
  0
LINE
  5
211
100
AcDbEntity
  8
0
100
AcDbLine
 62
6
  6
CONTINUOUS
 10
6.9950108695
 20
4.0739136309
 11
6.9934252503
 21
4.0738159279
  0
LINE
  5
212
100
AcDbEntity
  8
0
100
AcDbLine
 62
6
  6
CONTINUOUS
 10
6.7849715399
 20
4.0595036692
 11
6.8847996131
 21
4.0626074133
  0
LWPOLYLINE
  5
213
100
AcDbEntity
  8
0
100
AcDbPolyline
 62
6
  6
CONTINUOUS
 90
4
 70
0
 10
4.5989677354
 20
4.0594992735
 10
4.9123358486
 20
4.0613434201
 10
5.2651627761
 20
4.0655564935
 10
5.6184697465
 20
4.0700331244
  0
LINE
  5
214
100
AcDbEntity
  8
0
100
AcDbLine
 62
6
  6
CONTINUOUS
 10
6.3714122788
 20
3.9834375892
 11
5.7464122788
 21
3.9834375892
  0
LINE
  5
215
100
AcDbEntity
  8
0
100
AcDbLine
 62
6
  6
CONTINUOUS
 10
5.6589155371
 20
4.0034375892
 11
6.4589090206
 21
4.0034375892
  0
LINE
  5
216
100
AcDbEntity
  8
0
100
AcDbLine
 62
6
  6
CONTINUOUS
 10
6.7851345528
 20
4.0595032476
 11
6.7848309442
 21
4.0595040535
  0
LWPOLYLINE
  5
217
100
AcDbEntity
  8
0
100
AcDbPolyline
 62
6
  6
CONTINUOUS
 90
7
 70
0
 10
5.6184697468
 20
4.0700331283
 10
5.627233129
 20
4.0691605502
 10
5.6384927954
 20
4.0649154223
 10
5.6479805351
 20
4.057513511
 10
5.6548375388
 20
4.0476246695
 10
5.6584431343
 20
4.0361439307
 10
5.6589122852
 20
4.0300355784
  0
LINE
  5
218
100
AcDbEntity
  8
0
100
AcDbLine
 62
7
  6
CONTINUOUS
 10
5.7300352137
 20
4.4370017491
 11
5.7300352137
 21
4.045276231
  0
LINE
  5
219
100
AcDbEntity
  8
0
100
AcDbLine
 62
6
  6
CONTINUOUS
 10
5.7464122788
 20
3.9834375892
 11
5.7464122788
 21
3.6904375892
  0
LINE
  5
21A
100
AcDbEntity
  8
0
100
AcDbLine
 62
6
  6
CONTINUOUS
 10
5.7964122788
 20
4.6034375892
 11
5.7964122788
 21
4.5734375892
  0
LINE
  5
21B
100
AcDbEntity
  8
0
100
AcDbLine
 62
6
  6
CONTINUOUS
 10
6.6084031335
 20
4.1135211819
 11
6.5522208662
 21
4.1135211819
  0
LINE
  5
21C
100
AcDbEntity
  8
0
100
AcDbLine
 62
6
  6
CONTINUOUS
 10
4.5589122788
 20
4.1135211819
 11
4.602234098
 21
4.1135211819
  0
LINE
  5
21D
100
AcDbEntity
  8
0
100
AcDbLine
 62
6
  6
CONTINUOUS
 10
7.0094214241
 20
4.1135211819
 11
7.0294212686
 21
4.1135211819
  0
LWPOLYLINE
  5
21E
100
AcDbEntity
  8
0
100
AcDbPolyline
 62
6
  6
CONTINUOUS
 90
4
 70
0
 10
6.2406744889
 20
4.0705050449
 10
6.4142374602
 20
4.0661769008
 10
6.6007953565
 20
4.0617026376
 10
6.7848310596
 20
4.0595048594
  0
LINE
  5
21F
100
AcDbEntity
  8
0
100
AcDbLine
 62
6
  6
CONTINUOUS
 10
6.0261709264
 20
4.0452804332
 11
6.0261709264
 21
4.4369982171
  0
LINE
  5
220
100
AcDbEntity
  8
0
100
AcDbLine
 62
6
  6
CONTINUOUS
 10
6.6838318294
 20
4.4543370238
 11
6.5833975912
 21
4.4437143075
  0
LWPOLYLINE
  5
221
100
AcDbEntity
  8
0
100
AcDbPolyline
 62
6
  6
CONTINUOUS
 90
3
 70
0
 10
6.4901888765
 20
4.438881073
 10
6.306431085
 20
4.4227349813
 10
6.1416234073
 20
4.4087112653
  0
LINE
  5
222
100
AcDbEntity
  8
0
100
AcDbLine
 62
6
  6
CONTINUOUS
 10
6.1387177697
 20
4.4084740634
 11
6.1387219203
 21
4.408474401
  0
LINE
  5
223
100
AcDbEntity
  8
0
100
AcDbLine
 62
6
  6
CONTINUOUS
 10
6.6838317164
 20
4.4543373434
 11
6.49018886
 21
4.4388810717
  0
LINE
  5
224
100
AcDbEntity
  8
0
100
AcDbLine
 62
6
  6
CONTINUOUS
 10
6.6872553853
 20
4.4545767981
 11
6.6838318294
 21
4.4543370238
  0
LINE
  5
225
100
AcDbEntity
  8
0
100
AcDbLine
 62
6
  6
CONTINUOUS
 10
6.6084031335
 20
4.4040415172
 11
6.5522208662
 21
4.4040415172
  0
LINE
  5
226
100
AcDbEntity
  8
0
100
AcDbLine
 62
6
  6
CONTINUOUS
 10
4.5589122788
 20
4.4040415172
 11
4.602234098
 21
4.4040415172
  0
LINE
  5
227
100
AcDbEntity
  8
0
100
AcDbLine
 62
6
  6
CONTINUOUS
 10
7.0094214241
 20
4.4040415172
 11
7.0294214241
 21
4.4040415172
  0
LWPOLYLINE
  5
228
100
AcDbEntity
  8
0
100
AcDbPolyline
 62
6
  6
CONTINUOUS
 90
4
 70
0
 10
5.6171833053
 20
4.4148061364
 10
5.2648620252
 20
4.4306109063
 10
4.9129048695
 20
4.446141182
 10
4.6002559606
 20
4.4580506376
  0
LINE
  5
229
100
AcDbEntity
  8
0
100
AcDbLine
 62
6
  6
CONTINUOUS
 10
6.1084412566
 20
4.1153585183
 11
6.1084412566
 21
4.3688231049
  0
LINE
  5
22A
100
AcDbEntity
  8
0
100
AcDbLine
 62
6
  6
CONTINUOUS
 10
5.6589155371
 20
4.4784375892
 11
6.4589090206
 21
4.4784375892
  0
LWPOLYLINE
  5
22B
100
AcDbEntity
  8
0
100
AcDbPolyline
 62
6
  6
CONTINUOUS
 90
3
 70
0
 10
6.8716053426
 20
4.4557607809
 10
6.7420135762
 20
4.4573303015
 10
6.6872762891
 20
4.4545782593
  0
LINE
  5
22C
100
AcDbEntity
  8
0
100
AcDbLine
 62
6
  6
CONTINUOUS
 10
6.9949030966
 20
4.4436641257
 11
6.9927861486
 21
4.4437145814
  0
LINE
  5
22D
100
AcDbEntity
  8
0
100
AcDbLine
 62
6
  6
CONTINUOUS
 10
5.7464263201
 20
4.5534375892
 11
6.3713982375
 21
4.5534375892
  0
LINE
  5
22E
100
AcDbEntity
  8
0
100
AcDbLine
 62
6
  6
CONTINUOUS
 10
6.3214122788
 20
4.5734375892
 11
5.7964122788
 21
4.5734375892
  0
LINE
  5
22F
100
AcDbEntity
  8
0
100
AcDbLine
 62
6
  6
CONTINUOUS
 10
6.9949881464
 20
4.4436519752
 11
6.8712926923
 21
4.4557782118
  0
LINE
  5
230
100
AcDbEntity
  8
0
100
AcDbLine
 62
7
  6
CONTINUOUS
 10
6.2857934558
 20
3.8025140973
 11
6.2820063164
 21
3.8294091581
  0
LINE
  5
231
100
AcDbEntity
  8
0
100
AcDbLine
 62
6
  6
CONTINUOUS
 10
6.3214122788
 20
4.6034375892
 11
6.3214122788
 21
4.5734375892
  0
LINE
  5
232
100
AcDbEntity
  8
0
100
AcDbLine
 62
7
  6
CONTINUOUS
 10
6.2820063164
 20
3.8294091581
 11
6.2820136794
 21
3.846439801
  0
LINE
  5
233
100
AcDbEntity
  8
0
100
AcDbLine
 62
6
  6
CONTINUOUS
 10
5.7964240735
 20
4.6034375892
 11
6.3214004841
 21
4.6034375892
  0
LINE
  5
234
100
AcDbEntity
  8
0
100
AcDbLine
 62
6
  6
CONTINUOUS
 10
6.9949197818
 20
4.443661812
 11
6.9949030966
 21
4.4436641257
  0
LINE
  5
235
100
AcDbEntity
  8
0
100
AcDbLine
 62
6
  6
CONTINUOUS
 10
6.3714122788
 20
3.9834375892
 11
6.3714122788
 21
3.6904375892
  0
LINE
  5
236
100
AcDbEntity
  8
0
100
AcDbLine
 62
6
  6
CONTINUOUS
 10
6.4205306963
 20
4.4369993302
 11
6.4205306963
 21
4.4327604762
  0
LINE
  5
237
100
AcDbEntity
  8
0
100
AcDbLine
 62
6
  6
CONTINUOUS
 10
6.4205306963
 20
4.0660259686
 11
6.4205306963
 21
4.0452786743
  0
LINE
  5
238
100
AcDbEntity
  8
0
100
AcDbLine
 62
6
  6
CONTINUOUS
 10
6.4589122788
 20
4.4784375892
 11
6.4589122788
 21
4.4361329185
  0
LINE
  5
239
100
AcDbEntity
  8
0
100
AcDbLine
 62
6
  6
CONTINUOUS
 10
6.4589122788
 20
4.0651054538
 11
6.4589122788
 21
4.0034375892
  0
LINE
  5
23A
100
AcDbEntity
  8
0
100
AcDbLine
 62
6
  6
CONTINUOUS
 10
6.5522208662
 20
4.4040297186
 11
6.5522208662
 21
4.1135326224
  0
LINE
  5
23B
100
AcDbEntity
  8
0
100
AcDbLine
 62
6
  6
CONTINUOUS
 10
6.6084031335
 20
4.4040410866
 11
6.6084031335
 21
4.1135211224
  0
LINE
  5
23C
100
AcDbEntity
  8
0
100
AcDbLine
 62
6
  6
CONTINUOUS
 10
7.0094214241
 20
4.1135206067
 11
7.0094214241
 21
4.4040422917
  0
LINE
  5
23D
100
AcDbEntity
  8
0
100
AcDbLine
 62
6
  6
CONTINUOUS
 10
7.0294214241
 20
4.1135211819
 11
7.0294214241
 21
4.4040415172
  0
ARC
  5
23E
100
AcDbEntity
  8
0
100
AcDbCircle
 62
6
  6
CONTINUOUS
 10
6.4998895418
 20
8.4210773879
 40
4.4013679077
100
AcDbArc
 50
263.8212946227
 51
264.2498332643
  0
ARC
  5
23F
100
AcDbEntity
  8
0
100
AcDbCircle
 62
6
  6
CONTINUOUS
 10
6.4658446256
 20
1.0111759396
 40
3.4539239855
100
AcDbArc
 50
96.766155263
 51
97.3134163219
  0
ARC
  5
240
100
AcDbEntity
  8
0
100
AcDbCircle
 62
6
  6
CONTINUOUS
 10
5.6315439869
 20
6.0379842152
 40
1.9625305206
100
AcDbArc
 50
270.1456917359
 51
270.3934753021
  0
ARC
  5
241
100
AcDbEntity
  8
0
100
AcDbCircle
 62
6
  6
CONTINUOUS
 10
5.5698605019
 20
2.4506964191
 40
1.9591726573
100
AcDbArc
 50
87.8380776427
 51
88.0122376813
  0
ARC
  5
242
100
AcDbEntity
  8
0
100
AcDbCircle
 62
6
  6
CONTINUOUS
 10
6.7889807281
 20
5.5334227285
 40
1.4739245396
100
AcDbArc
 50
262.0072873088
 51
269.8386882944
  0
ARC
  5
243
100
AcDbEntity
  8
0
100
AcDbCircle
 62
6
  6
CONTINUOUS
 10
6.7889423887
 20
5.5268285438
 40
1.4673302669
100
AcDbArc
 50
269.8449026408
 51
278.0106500637
  0
ARC
  5
244
100
AcDbEntity
  8
0
100
AcDbCircle
 62
6
  6
CONTINUOUS
 10
6.7882004677
 20
2.9912796658
 40
1.4667736815
100
AcDbArc
 50
81.9822272161
 51
93.9462805632
  0
ARC
  5
245
100
AcDbEntity
  8
0
100
AcDbCircle
 62
6
  6
CONTINUOUS
 10
6.8089138714
 20
5.5400734591
 40
1.4405747106
100
AcDbArc
 50
261.9991381707
 51
278.0007335273
  0
ARC
  5
246
100
AcDbEntity
  8
0
100
AcDbCircle
 62
6
  6
CONTINUOUS
 10
6.8089161694
 20
2.978508079
 40
1.4395656258
100
AcDbArc
 50
81.9937140917
 51
98.0065992666
  0
ARC
  5
247
100
AcDbEntity
  8
0
100
AcDbCircle
 62
6
  6
CONTINUOUS
 10
5.589282876
 20
3.3414598462
 40
1.0285903801
100
AcDbArc
 50
86.9638071618
 51
87.2009971555
  0
ARC
  5
248
100
AcDbEntity
  8
0
100
AcDbCircle
 62
6
  6
CONTINUOUS
 10
5.6355590069
 20
5.1404974909
 40
1.0251465917
100
AcDbArc
 50
270.2209010599
 51
270.559866681
  0
ARC
  5
249
100
AcDbEntity
  8
0
100
AcDbCircle
 62
6
  6
CONTINUOUS
 10
6.1450211289
 20
4.5505623822
 40
0.4751119147
100
AcDbArc
 50
269.1731172573
 51
269.636051787
  0
ARC
  5
24A
100
AcDbEntity
  8
0
100
AcDbCircle
 62
6
  6
CONTINUOUS
 10
6.1108206247
 20
4.3651298166
 40
0.2497826312
100
AcDbArc
 50
268.8222130272
 51
269.4542061956
  0
ARC
  5
24B
100
AcDbEntity
  8
0
100
AcDbCircle
 62
6
  6
CONTINUOUS
 10
6.5526144532
 20
4.2486016665
 40
0.2300879189
100
AcDbArc
 50
125.0336480782
 51
127.0711123437
  0
ARC
  5
24C
100
AcDbEntity
  8
0
100
AcDbCircle
 62
6
  6
CONTINUOUS
 10
6.5639014536
 20
4.37920253
 40
0.1545821599
100
AcDbArc
 50
158.0442448074
 51
159.7847464427
  0
ARC
  5
24D
100
AcDbEntity
  8
0
100
AcDbCircle
 62
7
  6
CONTINUOUS
 10
6.2326515948
 20
3.8698757276
 40
0.1203722004
100
AcDbArc
 50
11.4650593043
 51
13.8231831139
  0
ARC
  5
24E
100
AcDbEntity
  8
0
100
AcDbCircle
 62
6
  6
CONTINUOUS
 10
5.6714122788
 20
4.5534375892
 40
0.075
100
AcDbArc
 50
270.0
 51
360.0
  0
ARC
  5
24F
100
AcDbEntity
  8
0
100
AcDbCircle
 62
6
  6
CONTINUOUS
 10
6.4464122788
 20
4.5534375892
 40
0.075
100
AcDbArc
 50
180.0
 51
270.0
  0
ARC
  5
250
100
AcDbEntity
  8
0
100
AcDbCircle
 62
6
  6
CONTINUOUS
 10
6.9889904289
 20
4.1135247709
 40
0.0404276509
100
AcDbArc
 50
359.1748813148
 51
359.9951262963
  0
ARC
  5
251
100
AcDbEntity
  8
0
100
AcDbCircle
 62
6
  6
CONTINUOUS
 10
6.9892424971
 20
4.1135142624
 40
0.0401754582
100
AcDbArc
 50
350.7274870005
 51
359.184689638
  0
ARC
  5
252
100
AcDbEntity
  8
0
100
AcDbCircle
 62
6
  6
CONTINUOUS
 10
4.5989122788
 20
4.4180739705
 40
0.04
100
AcDbArc
 50
88.074919024
 51
180.0
  0
ARC
  5
253
100
AcDbEntity
  8
0
100
AcDbCircle
 62
6
  6
CONTINUOUS
 10
4.5989122788
 20
4.0994984706
 40
0.04
100
AcDbArc
 50
180.0
 51
270.0794372307
  0
ARC
  5
254
100
AcDbEntity
  8
0
100
AcDbCircle
 62
6
  6
CONTINUOUS
 10
6.9894228089
 20
4.4040427612
 40
0.0399978729
100
AcDbArc
 50
1.5254348861
 51
82.125014399
  0
ARC
  5
255
100
AcDbEntity
  8
0
100
AcDbCircle
 62
6
  6
CONTINUOUS
 10
6.9894209881
 20
4.1135225804
 40
0.0400007718
100
AcDbArc
 50
278.0329164563
 51
350.6745327389
  0
ARC
  5
256
100
AcDbEntity
  8
0
100
AcDbCircle
 62
6
  6
CONTINUOUS
 10
6.9895863912
 20
4.113458985
 40
0.0398240434
100
AcDbArc
 50
336.6970113717
 51
347.1762411066
  0
ARC
  5
257
100
AcDbEntity
  8
0
100
AcDbCircle
 62
6
  6
CONTINUOUS
 10
6.9898887157
 20
4.404040877
 40
0.0395327084
100
AcDbArc
 50
0.0009277929
 51
1.5461404309
  0
ARC
  5
258
100
AcDbEntity
  8
0
100
AcDbCircle
 62
6
  6
CONTINUOUS
 10
6.1439966062
 20
4.3765362964
 40
0.0322613663
100
AcDbArc
 50
94.6781716895
 51
99.2522285215
  0
ARC
  5
259
100
AcDbEntity
  8
0
100
AcDbCircle
 62
6
  6
CONTINUOUS
 10
6.9884607247
 20
4.4158975451
 40
0.0281513197
100
AcDbArc
 50
76.9834975652
 51
81.1615453005
  0
ARC
  5
25A
100
AcDbEntity
  8
0
100
AcDbCircle
 62
6
  6
CONTINUOUS
 10
5.7764122788
 20
4.5734375892
 40
0.02
100
AcDbArc
 50
270.0000012551
 51
360.0
  0
ARC
  5
25B
100
AcDbEntity
  8
0
100
AcDbCircle
 62
6
  6
CONTINUOUS
 10
6.3414122788
 20
4.5734375892
 40
0.02
100
AcDbArc
 50
180.0
 51
269.9999987449
  0
ARC
  5
25C
100
AcDbEntity
  8
0
100
AcDbCircle
 62
6
  6
CONTINUOUS
 10
6.3914122788
 20
3.9834375892
 40
0.02
100
AcDbArc
 50
90.0000232106
 51
180.0
  0
ARC
  5
25D
100
AcDbEntity
  8
0
100
AcDbCircle
 62
6
  6
CONTINUOUS
 10
5.7264122788
 20
3.9834375892
 40
0.02
100
AcDbArc
 50
0.0
 51
89.9999767895
  0
SPLINE
  5
25E
100
AcDbEntity
  8
0
100
AcDbSpline
 62
7
  6
CONTINUOUS
 70
0
 71
3
 72
31
 73
27
 74
25
 42
0.0000001
 43
0.0000001
 44
0.0000000001
 12
-0.0714768403
 22
-0.0135145873
 32
0.0
 13
0.072456977
 23
0.0064474222
 33
0.0
 40
0.0
 40
0.0
 40
0.0
 40
0.0
 40
0.2272602691
 40
0.4276706518
 40
0.5173240783
 40
0.5997424771
 40
0.6747867857
 40
0.7423197328
 40
0.8022227828
 40
0.854385986
 40
0.8986992113
 40
0.9178810631
 40
0.9350690801
 40
0.9502562304
 40
0.9634354756
 40
0.974599771
 40
0.9837420657
 40
0.987552758
 40
0.9908554412
 40
0.9936499572
 40
0.9959363051
 40
0.9977144842
 40
0.9989844936
 40
0.9994289344
 40
0.9997463325
 40
1.0
 40
1.0
 40
1.0
 40
1.0
 10
5.7300356499
 20
4.0452766491
 30
0.0
 10
5.7246210346
 20
4.0442528729
 30
0.0
 10
5.7144416713
 20
4.0422720956
 30
0.0
 10
5.7021536826
 20
4.0397499916
 30
0.0
 10
5.6933194101
 20
4.0378710185
 30
0.0
 10
5.6874638863
 20
4.0365993043
 30
0.0
 10
5.6821371314
 20
4.0354203979
 30
0.0
 10
5.6773471353
 20
4.0343428502
 30
0.0
 10
5.6731014783
 20
4.0333736168
 30
0.0
 10
5.6694071758
 20
4.0325190407
 30
0.0
 10
5.6666764041
 20
4.0318804032
 30
0.0
 10
5.6647720612
 20
4.0314321648
 30
0.0
 10
5.6635554345
 20
4.0311446342
 30
0.0
 10
5.6624806715
 20
4.0308896604
 30
0.0
 10
5.6615482069
 20
4.0306676611
 30
0.0
 10
5.6607584491
 20
4.0304790528
 30
0.0
 10
5.6601897563
 20
4.0303429004
 30
0.0
 10
5.6598064042
 20
4.0302510338
 30
0.0
 10
5.6595728735
 20
4.0301950591
 30
0.0
 10
5.6593749032
 20
4.0301476353
 30
0.0
 10
5.659213958
 20
4.0301090022
 30
0.0
 10
5.6590861418
 20
4.0300785222
 30
0.0
 10
5.6590079887
 20
4.0300594705
 30
0.0
 10
5.6589544312
 20
4.0300470617
 30
0.0
 10
5.6589403802
 20
4.0300429404
 30
0.0
 10
5.6589078068
 20
4.0300365845
 30
0.0
 10
5.6589139334
 20
4.0300371297
 30
0.0
 11
5.7300356499
 21
4.0452766491
 31
0.0
 11
5.7138084984
 21
4.042118304
 31
0.0
 11
5.6995278153
 21
4.0391865942
 31
0.0
 11
5.6931488362
 21
4.0378297684
 31
0.0
 11
5.6872900388
 21
4.0365573236
 31
0.0
 11
5.6819600241
 21
4.0353777996
 31
0.0
 11
5.6771672456
 21
4.0342995651
 31
0.0
 11
5.6729190127
 21
4.0333296666
 31
0.0
 11
5.6692221025
 21
4.0324745348
 31
0.0
 11
5.6660832806
 21
4.031740589
 31
0.0
 11
5.6647250524
 21
4.0314208715
 31
0.0
 11
5.6635082619
 21
4.0311332913
 31
0.0
 11
5.6624333364
 21
4.0308782695
 31
0.0
 11
5.6615007028
 21
4.0306562269
 31
0.0
 11
5.6607107884
 21
4.0304675844
 31
0.0
 11
5.6600640203
 21
4.0303127629
 31
0.0
 11
5.6597944495
 21
4.0302481666
 31
0.0
 11
5.6595608173
 21
4.0301921752
 31
0.0
 11
5.659363133
 21
4.0301447981
 31
0.0
 11
5.6592013968
 21
4.0301060355
 31
0.0
 11
5.6590756086
 21
4.0300758872
 31
0.0
 11
5.6589857687
 21
4.0300543535
 31
0.0
 11
5.6589543293
 21
4.0300468171
 31
0.0
 11
5.6589318769
 21
4.0300414343
 31
0.0
 11
5.6589139334
 21
4.0300371297
 31
0.0
  0
LINE
  5
25F
100
AcDbEntity
  8
0
100
AcDbLine
 62
6
  6
CONTINUOUS
 10
6.1387216442
 20
4.4084745864
 11
6.1413654087
 21
4.4086901714
  0
LINE
  5
260
100
AcDbEntity
  8
0
100
AcDbLine
 62
6
  6
CONTINUOUS
 10
6.6838317774
 20
4.4543370863
 11
6.6845803679
 21
4.4543901993
  0
SPLINE
  5
261
100
AcDbEntity
  8
0
100
AcDbSpline
 62
7
  6
CONTINUOUS
 70
0
 71
3
 72
31
 73
27
 74
25
 42
0.0000001
 43
0.0000001
 44
0.0000000001
 12
-0.0727043458
 22
0.0094348955
 32
0.0
 13
0.0715325055
 23
-0.0160636172
 33
0.0
 40
0.0
 40
0.0
 40
0.0
 40
0.0
 40
0.0002542949
 40
0.0005724889
 40
0.0010180471
 40
0.0022912558
 40
0.0040739197
 40
0.0063660379
 40
0.0091676093
 40
0.0124786328
 40
0.0162989342
 40
0.0254640169
 40
0.0366554379
 40
0.04986564
 40
0.0650870717
 40
0.0823121877
 40
0.1015334489
 40
0.145930057
 40
0.1981772019
 40
0.2581578628
 40
0.3257551853
 40
0.4008432782
 40
0.4832772894
 40
0.5729106331
 40
0.7731436059
 40
1.0
 40
1.0
 40
1.0
 40
1.0
 10
5.658914013
 20
4.4547671243
 30
0.0
 10
5.6589078502
 20
4.4547679241
 30
0.0
 10
5.6589405201
 20
4.4547603414
 30
0.0
 10
5.6589545743
 20
4.4547557416
 30
0.0
 10
5.6590082375
 20
4.4547413874
 30
0.0
 10
5.6590865186
 20
4.4547195316
 30
0.0
 10
5.6592145634
 20
4.4546844407
 30
0.0
 10
5.6593757897
 20
4.4546400109
 30
0.0
 10
5.6595741087
 20
4.4545854533
 30
0.0
 10
5.6598080496
 20
4.4545210646
 30
0.0
 10
5.6601920688
 20
4.4544153877
 30
0.0
 10
5.6607617338
 20
4.4542587545
 30
0.0
 10
5.6615528141
 20
4.4540417138
 30
0.0
 10
5.6624867875
 20
4.4537861618
 30
0.0
 10
5.6635632198
 20
4.4534925374
 30
0.0
 10
5.6647816504
 20
4.4531612817
 30
0.0
 10
5.666688553
 20
4.4526446793
 30
0.0
 10
5.6694225896
 20
4.4519081369
 30
0.0
 10
5.6731207768
 20
4.4509212924
 30
0.0
 10
5.6773699759
 20
4.4498003252
 30
0.0
 10
5.6821628165
 20
4.4485519194
 30
0.0
 10
5.6874913673
 20
4.4471834106
 30
0.0
 10
5.6933473105
 20
4.4457037036
 30
0.0
 10
5.7021777031
 20
4.4435120866
 30
0.0
 10
5.7144548014
 20
4.4405564541
 30
0.0
 10
5.7246264853
 20
4.4382161631
 30
0.0
 10
5.7300356874
 20
4.4370014516
 30
0.0
 11
5.658914013
 21
4.4547671243
 31
0.0
 11
5.658931987
 21
4.4547621735
 31
0.0
 11
5.6589544783
 21
4.4547559818
 31
0.0
 11
5.6589859726
 21
4.4547473127
 31
0.0
 11
5.65907597
 21
4.4547225421
 31
0.0
 11
5.6592019788
 21
4.4546878617
 31
0.0
 11
5.6593639992
 21
4.4546432716
 31
0.0
 11
5.6595620311
 21
4.4545887718
 31
0.0
 11
5.6597960743
 21
4.4545243624
 31
0.0
 11
5.6600661184
 21
4.4544500536
 31
0.0
 11
5.6607140087
 21
4.4542719349
 31
0.0
 11
5.6615052574
 21
4.4540548512
 31
0.0
 11
5.6624394116
 21
4.4537992466
 31
0.0
 11
5.6635160181
 21
4.4535055652
 31
0.0
 11
5.6647346239
 21
4.453174251
 31
0.0
 11
5.666094776
 21
4.452805748
 31
0.0
 11
5.6692376501
 21
4.4519591881
 31
0.0
 11
5.6729386074
 21
4.4509716501
 31
0.0
 11
5.6771905423
 21
4.4498498842
 31
0.0
 11
5.6819863379
 21
4.4486006521
 31
0.0
 11
5.6873183305
 21
4.4472313628
 31
0.0
 11
5.6931777256
 21
4.445750765
 31
0.0
 11
5.6995555882
 21
4.4441677737
 31
0.0
 11
5.7138275675
 21
4.4407313001
 31
0.0
 11
5.7300356874
 21
4.4370014516
 31
0.0
  0
SPLINE
  5
262
100
AcDbEntity
  8
0
100
AcDbSpline
 62
7
  6
CONTINUOUS
 70
0
 71
3
 72
35
 73
31
 74
29
 42
0.0000001
 43
0.0000001
 44
0.0000000001
 12
0.0076965665
 22
0.1393993674
 32
0.0
 13
0.033398087
 23
-0.1355580634
 33
0.0
 40
0.0
 40
0.0
 40
0.0
 40
0.0
 40
0.0811701166
 40
0.1614988137
 40
0.2404338237
 40
0.3173499527
 40
0.3915244556
 40
0.4273289587
 40
0.4621061915
 40
0.4957213669
 40
0.5280405897
 40
0.5589135413
 40
0.5882170785
 40
0.6158445208
 40
0.6417420875
 40
0.6659578651
 40
0.688662206
 40
0.7101850143
 40
0.7310406932
 40
0.74141949
 40
0.7518622538
 40
0.7732274765
 40
0.795699236
 40
0.8196559031
 40
0.8453266875
 40
0.8727986121
 40
0.902074811
 40
0.9331092791
 40
0.9657998813
 40
1.0
 40
1.0
 40
1.0
 40
1.0
 10
6.2820137252
 20
3.8464387928
 30
0.0
 10
6.2822219689
 20
3.8502104804
 30
0.0
 10
6.2829138676
 20
3.857702517
 30
0.0
 10
6.2847768176
 20
3.8687458792
 30
0.0
 10
6.2874410166
 20
3.8794212971
 30
0.0
 10
6.2908648585
 20
3.8895760939
 30
0.0
 10
6.294346381
 20
3.8975609342
 30
0.0
 10
6.2974795654
 20
3.9035272481
 30
0.0
 10
6.2999525065
 20
3.9077010497
 30
0.0
 10
6.3025640291
 20
3.9115960785
 30
0.0
 10
6.3053000927
 20
3.9151792023
 30
0.0
 10
6.3081445679
 20
3.9184151052
 30
0.0
 10
6.311079702
 20
3.9212649314
 30
0.0
 10
6.3140834485
 20
3.9236905608
 30
0.0
 10
6.3171336325
 20
3.9256516783
 30
0.0
 10
6.3202053913
 20
3.9271080746
 30
0.0
 10
6.3232695934
 20
3.9280291072
 30
0.0
 10
6.3262963481
 20
3.9283745263
 30
0.0
 10
6.3287609497
 20
3.9281689869
 30
0.0
 10
6.3306495811
 20
3.9277149519
 30
0.0
 10
6.332505173
 20
3.9270643994
 30
0.0
 10
6.3347521564
 20
3.9258750166
 30
0.0
 10
6.3372496323
 20
3.9239251021
 30
0.0
 10
6.3395592717
 20
3.9214763821
 30
0.0
 10
6.3416803453
 20
3.9185730989
 30
0.0
 10
6.3436157906
 20
3.9152552306
 30
0.0
 10
6.3453681176
 20
3.911560507
 30
0.0
 10
6.3469435921
 20
3.9075262036
 30
0.0
 10
6.3483478138
 20
3.9031884936
 30
0.0
 10
6.3491567981
 20
3.9001811889
 30
0.0
 10
6.3495375376
 20
3.8986358217
 30
0.0
 11
6.2820137252
 21
3.8464387928
 31
0.0
 11
6.2830587937
 21
3.8577227978
 31
0.0
 11
6.2849307221
 21
3.8687802915
 31
0.0
 11
6.2876078829
 21
3.8794704133
 31
0.0
 11
6.2910522508
 21
3.8896414185
 31
0.0
 11
6.2952120424
 21
3.8991248325
 31
0.0
 11
6.2975397384
 21
3.9035485301
 31
0.0
 11
6.3000189441
 21
3.9077231622
 31
0.0
 11
6.3026376045
 21
3.911617714
 31
0.0
 11
6.3053821193
 21
3.9151992018
 31
0.0
 11
6.308235213
 21
3.9184299745
 31
0.0
 11
6.311178512
 21
3.9212714919
 31
0.0
 11
6.3141885443
 21
3.9236833441
 31
0.0
 11
6.3172390846
 21
3.9256241653
 31
0.0
 11
6.320301469
 21
3.9270565223
 31
0.0
 11
6.3233427249
 21
3.9279500202
 31
0.0
 11
6.3263296655
 21
3.9282774673
 31
0.0
 11
6.3292308876
 21
3.9280307162
 31
0.0
 11
6.3306397991
 21
3.9276922301
 31
0.0
 11
6.3320158716
 21
3.927210577
 31
0.0
 11
6.3346588982
 21
3.9258279302
 31
0.0
 11
6.3371426654
 21
3.9239112461
 31
0.0
 11
6.3394520514
 21
3.9214918889
 31
0.0
 11
6.3415808471
 21
3.9186086851
 31
0.0
 11
6.3435265955
 21
3.9153034819
 31
0.0
 11
6.3452900754
 21
3.9116161856
 31
0.0
 11
6.346876231
 21
3.9075841833
 31
0.0
 11
6.3482902907
 21
3.903244778
 31
0.0
 11
6.3495375376
 21
3.8986358217
 31
0.0
  0
SPLINE
  5
263
100
AcDbEntity
  8
0
100
AcDbSpline
 62
6
  6
CONTINUOUS
 70
0
 71
3
 72
15
 73
11
 74
9
 42
0.0000001
 43
0.0000001
 44
0.0000000001
 12
-0.0561272449
 22
-0.0045655759
 32
0.0
 13
0.0009902607
 23
-0.0563039207
 33
0.0
 40
0.0
 40
0.0
 40
0.0
 40
0.0
 40
0.1175318781
 40
0.2365813183
 40
0.3575181155
 40
0.4809656139
 40
0.6072622168
 40
0.7363461872
 40
0.8677423468
 40
1.0
 40
1.0
 40
1.0
 40
1.0
 10
6.1387216442
 20
4.4084745864
 30
0.0
 10
6.1365227307
 20
4.4082957195
 30
0.0
 10
6.1321229411
 20
4.4074541798
 30
0.0
 10
6.125889569
 20
4.4048462138
 30
0.0
 10
6.1202331694
 20
4.4009488483
 30
0.0
 10
6.1153490826
 20
4.3959336764
 30
0.0
 10
6.1114073306
 20
4.3899675692
 30
0.0
 10
6.1085268115
 20
4.3832618057
 30
0.0
 10
6.1068290877
 20
4.376053168
 30
0.0
 10
6.1064993917
 20
4.3710884731
 30
0.0
 10
6.1065430482
 20
4.3686062649
 30
0.0
 11
6.1387216442
 21
4.4084745864
 31
0.0
 11
6.132219026
 21
4.4072413458
 31
0.0
 11
6.1260329909
 21
4.404657471
 31
0.0
 11
6.1204151475
 21
4.4008078478
 31
0.0
 11
6.1155556995
 21
4.3958368071
 31
0.0
 11
6.1116210639
 21
4.3899122381
 31
0.0
 11
6.108743916
 21
4.383236819
 31
0.0
 11
6.1070339967
 21
4.376037842
 31
0.0
 11
6.1065430482
 21
4.3686062649
 31
0.0
  0
SPLINE
  5
264
100
AcDbEntity
  8
0
100
AcDbSpline
 62
6
  6
CONTINUOUS
 70
0
 71
3
 72
18
 73
14
 74
12
 42
0.0000001
 43
0.0000001
 44
0.0000000001
 12
0.0743529118
 22
-0.0223583921
 32
0.0
 13
0.0776385467
 23
-0.0007136287
 33
0.0
 40
0.0
 40
0.0
 40
0.0
 40
0.0
 40
0.1326274711
 40
0.2645776785
 40
0.3955533543
 40
0.5250768323
 40
0.6523419033
 40
0.714725731
 40
0.7759442741
 40
0.8356407976
 40
0.8933348433
 40
0.9483877999
 40
1.0
 40
1.0
 40
1.0
 40
1.0
 10
6.0604609755
 20
4.4266498364
 30
0.0
 10
6.0637480551
 20
4.4256613907
 30
0.0
 10
6.070307515
 20
4.4236964608
 30
0.0
 10
6.0801251996
 20
4.420795902
 30
0.0
 10
6.0898839129
 20
4.417979681
 30
0.0
 10
6.0995537804
 20
4.4152944749
 30
0.0
 10
6.1075478513
 20
4.4132111429
 30
0.0
 10
6.1138621384
 20
4.4116989478
 30
0.0
 10
6.1184944939
 20
4.4106748386
 30
0.0
 10
6.1230303591
 20
4.4097813959
 30
0.0
 10
6.1274350726
 20
4.4090560682
 30
0.0
 10
6.1316597905
 20
4.4085479143
 30
0.0
 10
6.1344192085
 20
4.4083890585
 30
0.0
 10
6.1357549072
 20
4.4083767812
 30
0.0
 11
6.0604609755
 21
4.4266498364
 31
0.0
 11
6.0703261633
 21
4.4236976639
 31
0.0
 11
6.0801524367
 21
4.4207991459
 31
0.0
 11
6.0899247202
 21
4.4179858002
 31
0.0
 11
6.0996172046
 21
4.4153048081
 31
0.0
 11
6.1091834359
 21
4.4128302962
 31
0.0
 11
6.1138946903
 21
4.4117058016
 31
0.0
 11
6.1185367816
 21
4.4106844629
 31
0.0
 11
6.1230856891
 21
4.409795545
 31
0.0
 11
6.1275072941
 21
4.4090778609
 31
0.0
 11
6.1317529415
 21
4.4085828086
 31
0.0
 11
6.1357549072
 21
4.4083767812
 31
0.0
  0
LINE
  5
265
100
AcDbEntity
  8
0
100
AcDbLine
 62
6
  6
CONTINUOUS
 10
6.1357549072
 20
4.4083767812
 11
6.138717769
 21
4.4084740633
  0
SPLINE
  5
266
100
AcDbEntity
  8
0
100
AcDbSpline
 62
6
  6
CONTINUOUS
 70
0
 71
3
 72
22
 73
18
 74
16
 42
0.0000001
 43
0.0000001
 44
0.0000000001
 12
0.0504880903
 22
-0.0530649172
 32
0.0
 13
0.0727739978
 23
0.0082992739
 33
0.0
 40
0.0
 40
0.0
 40
0.0
 40
0.0
 40
0.1498500347
 40
0.2967304845
 40
0.4394264472
 40
0.5086889739
 40
0.576187116
 40
0.6415703967
 40
0.7044155887
 40
0.7642173689
 40
0.8204079607
 40
0.8723958796
 40
0.8966569429
 40
0.9196963674
 40
0.94150045
 40
0.9620988806
 40
1.0
 40
1.0
 40
1.0
 40
1.0
 10
6.0494535582
 20
4.4122299149
 30
0.0
 10
6.0519754389
 20
4.4095793216
 30
0.0
 10
6.0569930172
 20
4.4043531046
 30
0.0
 10
6.064542531
 20
4.396729394
 30
0.0
 10
6.0708526614
 20
4.3906494771
 30
0.0
 10
6.0758919533
 20
4.3860489649
 30
0.0
 10
6.0796100695
 20
4.3828026471
 30
0.0
 10
6.0832951169
 20
4.3797590254
 30
0.0
 10
6.0869341294
 20
4.376958447
 30
0.0
 10
6.0905096918
 20
4.374449068
 30
0.0
 10
6.0939982442
 20
4.3722876798
 30
0.0
 10
6.0968728023
 20
4.3707959175
 30
0.0
 10
6.0991083684
 20
4.369855138
 30
0.0
 10
6.1007022482
 20
4.369298257
 30
0.0
 10
6.1022473873
 20
4.3688831205
 30
0.0
 10
6.1041784721
 20
4.3685396877
 30
0.0
 10
6.1056236355
 20
4.3685014143
 30
0.0
 10
6.1065430408
 20
4.3686062649
 30
0.0
 11
6.0494535582
 21
4.4122299149
 31
0.0
 11
6.0570637268
 21
4.4043207383
 31
0.0
 11
6.0646445559
 21
4.3966870385
 31
0.0
 11
6.0721869781
 21
4.3894514759
 31
0.0
 11
6.0759364307
 21
4.3860340523
 31
0.0
 11
6.0796638532
 21
4.3827861374
 31
0.0
 11
6.0833604327
 21
4.3797414299
 31
0.0
 11
6.0870136396
 21
4.376940898
 31
0.0
 11
6.0906057639
 21
4.3744343069
 31
0.0
 11
6.0941128731
 21
4.3722803965
 31
0.0
 11
6.097503359
 21
4.3705470057
 31
0.0
 11
6.0991427047
 21
4.3698611918
 31
0.0
 11
6.1007372051
 21
4.3693086019
 31
0.0
 11
6.1022807473
 21
4.3688986466
 31
0.0
 11
6.1037671512
 21
4.3686399591
 31
0.0
 11
6.1065430408
 21
4.3686062649
 31
0.0
  0
LINE
  5
267
100
AcDbEntity
  8
0
100
AcDbLine
 62
6
  6
CONTINUOUS
 10
6.0261684248
 20
4.4370009257
 11
6.0604594227
 21
4.4266482043
  0
LINE
  5
268
100
AcDbEntity
  8
0
100
AcDbLine
 62
6
  6
CONTINUOUS
 10
6.0261709264
 20
4.4369982171
 11
6.0494535582
 21
4.4122299149
  0
SPLINE
  5
269
100
AcDbEntity
  8
0
100
AcDbSpline
 62
6
  6
CONTINUOUS
 70
0
 71
3
 72
23
 73
19
 74
17
 42
0.0000001
 43
0.0000001
 44
0.0000000001
 12
-0.006536623
 22
0.0501360181
 32
0.0
 13
-0.0503785154
 23
-0.004284033
 33
0.0
 40
0.0
 40
0.0
 40
0.0
 40
0.0
 40
0.0794483146
 40
0.1589412033
 40
0.2376686123
 40
0.314958704
 40
0.3902964407
 40
0.463177455
 40
0.5330874956
 40
0.5996127608
 40
0.6624595696
 40
0.7214252455
 40
0.7764066745
 40
0.8273586743
 40
0.8743299823
 40
0.9177936294
 40
0.9590950285
 40
1.0
 40
1.0
 40
1.0
 40
1.0
 10
6.6084031336
 20
4.4040415172
 30
0.0
 10
6.6082300257
 20
4.4053692579
 30
0.0
 10
6.6078537355
 20
4.4080217979
 30
0.0
 10
6.6071601576
 20
4.4119677527
 30
0.0
 10
6.6063002155
 20
4.4158445319
 30
0.0
 10
6.6052320848
 20
4.4195970337
 30
0.0
 10
6.6039738339
 20
4.4231856762
 30
0.0
 10
6.6025529947
 20
4.4265785804
 30
0.0
 10
6.600994788
 20
4.4297460635
 30
0.0
 10
6.5993155725
 20
4.432657871
 30
0.0
 10
6.5975269978
 20
4.4352842662
 30
0.0
 10
6.5956388712
 20
4.4375949002
 30
0.0
 10
6.5936710598
 20
4.439564562
 30
0.0
 10
6.5916552068
 20
4.4411793656
 30
0.0
 10
6.5896167366
 20
4.4424273247
 30
0.0
 10
6.5875616053
 20
4.4432943612
 30
0.0
 10
6.5854808103
 20
4.4437529465
 30
0.0
 10
6.5840842867
 20
4.4437729941
 30
0.0
 10
6.5833973761
 20
4.4437145814
 30
0.0
 11
6.6084031336
 21
4.4040415172
 31
0.0
 11
6.6078319681
 21
4.4080176366
 31
0.0
 11
6.607128643
 21
4.4119748073
 31
0.0
 11
6.6062566137
 21
4.4158585969
 31
0.0
 11
6.605185389
 21
4.4196167189
 31
0.0
 11
6.6039243546
 21
4.4232110263
 31
0.0
 11
6.6024990289
 21
4.4266090921
 31
0.0
 11
6.6009344114
 21
4.4297786191
 31
0.0
 11
6.599247963
 21
4.432688824
 31
0.0
 11
6.5974517759
 21
4.4353100018
 31
0.0
 11
6.5955580679
 21
4.437612645
 31
0.0
 11
6.5935872961
 21
4.4395732034
 31
0.0
 11
6.5915700125
 21
4.441175426
 31
0.0
 11
6.5895373113
 21
4.4424035162
 31
0.0
 11
6.5875065395
 21
4.4432432385
 31
0.0
 11
6.5854653152
 21
4.4436837331
 31
0.0
 11
6.5833973761
 21
4.4437145814
 31
0.0
  0
SPLINE
  5
26A
100
AcDbEntity
  8
0
100
AcDbSpline
 62
6
  6
CONTINUOUS
 70
0
 71
3
 72
21
 73
17
 74
15
 42
0.0000001
 43
0.0000001
 44
0.0000000001
 12
0.0058951406
 22
0.0452148403
 32
0.0
 13
-0.0451534818
 23
0.0063480349
 33
0.0
 40
0.0
 40
0.0
 40
0.0
 40
0.0
 40
0.1624810189
 40
0.2421852724
 40
0.3198669512
 40
0.4670295599
 40
0.5359143791
 40
0.6013202741
 40
0.6630247942
 40
0.7208406332
 40
0.7746733408
 40
0.824756733
 40
0.8716283519
 40
0.9160601123
 40
0.9587681828
 40
1.0
 40
1.0
 40
1.0
 40
1.0
 10
7.009421424
 20
4.4040415172
 30
0.0
 10
7.0097407068
 20
4.4064903683
 30
0.0
 10
7.0099523368
 20
4.4101784483
 30
0.0
 10
7.0098283635
 20
4.4150394999
 30
0.0
 10
7.0094928513
 20
4.4196571949
 30
0.0
 10
7.0088590059
 20
4.4240872801
 30
0.0
 10
7.0078509183
 20
4.4282477867
 30
0.0
 10
7.0069406814
 20
4.4310872929
 30
0.0
 10
7.0058758528
 20
4.433691868
 30
0.0
 10
7.0046700622
 20
4.4360387339
 30
0.0
 10
7.0033353053
 20
4.4381084555
 30
0.0
 10
7.001875773
 20
4.4398831786
 30
0.0
 10
7.0002930524
 20
4.4413481819
 30
0.0
 10
6.9985901493
 20
4.442483455
 30
0.0
 10
6.9967949725
 20
4.4432720322
 30
0.0
 10
6.9955461547
 20
4.4435716979
 30
0.0
 10
6.994925568
 20
4.4436589449
 30
0.0
 11
7.009421424
 21
4.4040415172
 31
0.0
 11
7.0098871662
 21
4.4114355961
 31
0.0
 11
7.0097987557
 21
4.4150688375
 31
0.0
 11
7.0095410483
 21
4.4186015426
 31
0.0
 11
7.0085473653
 21
4.4252378114
 31
0.0
 11
7.0078009162
 21
4.4282888035
 31
0.0
 11
7.0068860014
 21
4.4311273462
 31
0.0
 11
7.0058153115
 21
4.4337292338
 31
0.0
 11
7.0046035195
 21
4.4360704778
 31
0.0
 11
7.0032645814
 21
4.4381277804
 31
0.0
 11
7.0018054933
 21
4.4398845532
 31
0.0
 11
7.0002293368
 21
4.4413279806
 31
0.0
 11
6.9985393137
 21
4.4424453033
 31
0.0
 11
6.996754917
 21
4.4432251922
 31
0.0
 11
6.994925568
 21
4.4436589449
 31
0.0
  0
SPLINE
  5
26B
100
AcDbEntity
  8
0
100
AcDbSpline
 62
6
  6
CONTINUOUS
 70
0
 71
3
 72
22
 73
18
 74
16
 42
0.0000001
 43
0.0000001
 44
0.0000000001
 12
-0.0063986258
 22
-0.0495077486
 32
0.0
 13
-0.0499054323
 23
0.0011863445
 33
0.0
 40
0.0
 40
0.0
 40
0.0
 40
0.0
 40
0.0788818655
 40
0.1578144726
 40
0.2360256728
 40
0.3128724642
 40
0.3878598879
 40
0.4605036931
 40
0.5303096617
 40
0.5968743347
 40
0.7190777333
 40
0.7744881818
 40
0.8259532769
 40
0.8734784411
 40
0.9174544819
 40
0.9590869585
 40
1.0
 40
1.0
 40
1.0
 40
1.0
 10
6.6084031336
 20
4.1135211819
 30
0.0
 10
6.6082348885
 20
4.1122194274
 30
0.0
 10
6.6078686637
 20
4.1096186956
 30
0.0
 10
6.6071936345
 20
4.1057488264
 30
0.0
 10
6.6063579208
 20
4.1019442261
 30
0.0
 10
6.6053222291
 20
4.0982567379
 30
0.0
 10
6.6041033291
 20
4.0947236866
 30
0.0
 10
6.6027270733
 20
4.0913754996
 30
0.0
 10
6.6012167805
 20
4.0882396542
 30
0.0
 10
6.5991057834
 20
4.0844892514
 30
0.0
 10
6.5967417925
 20
4.0811562267
 30
0.0
 10
6.5941022694
 20
4.0783979918
 30
0.0
 10
6.592137242
 20
4.0767345486
 30
0.0
 10
6.590146694
 20
4.0754201847
 30
0.0
 10
6.5881365179
 20
4.0744675583
 30
0.0
 10
6.5860963716
 20
4.0739030815
 30
0.0
 10
6.5847160948
 20
4.0737997489
 30
0.0
 10
6.5840355005
 20
4.0738159279
 30
0.0
 11
6.6084031336
 21
4.1135211819
 31
0.0
 11
6.6078475147
 21
4.1096228324
 31
0.0
 11
6.6071633586
 21
4.1057424037
 31
0.0
 11
6.6063163378
 21
4.1019311241
 31
0.0
 11
6.6052777717
 21
4.0982382293
 31
0.0
 11
6.604056342
 21
4.0946997718
 31
0.0
 11
6.602675906
 21
4.0913464493
 31
0.0
 11
6.6011598348
 21
4.0882088496
 31
0.0
 11
6.5995244003
 21
4.0853162959
 31
0.0
 11
6.595940359
 21
4.0803798243
 31
0.0
 11
6.5940222077
 21
4.0783868859
 31
0.0
 11
6.5920550877
 21
4.0767343779
 31
0.0
 11
6.5900682567
 21
4.0754378651
 31
0.0
 11
6.5880779562
 21
4.0745116443
 31
0.0
 11
6.5860722455
 21
4.0739672676
 31
0.0
 11
6.5840355005
 21
4.0738159279
 31
0.0
  0
SPLINE
  5
26C
100
AcDbEntity
  8
0
100
AcDbSpline
 62
6
  6
CONTINUOUS
 70
0
 71
3
 72
23
 73
19
 74
17
 42
0.0000001
 43
0.0000001
 44
0.0000000001
 12
0.003670602
 22
-0.0453228621
 32
0.0
 13
-0.0449937052
 23
-0.0065727953
 33
0.0
 40
0.0
 40
0.0
 40
0.0
 40
0.0
 40
0.0818176896
 40
0.1628522681
 40
0.242440451
 40
0.3200250139
 40
0.3951801709
 40
0.467510663
 40
0.5366161958
 40
0.6021573293
 40
0.6639408269
 40
0.7218640677
 40
0.7759402684
 40
0.8263190833
 40
0.8732722936
 40
0.9172406874
 40
0.9590686178
 40
1.0
 40
1.0
 40
1.0
 40
1.0
 10
7.009421424
 20
4.1135211819
 30
0.0
 10
7.0095215307
 20
4.1122851113
 30
0.0
 10
7.0096922517
 20
4.1098222958
 30
0.0
 10
7.0098282394
 20
4.1061493463
 30
0.0
 10
7.0098111193
 20
4.1025374313
 30
0.0
 10
7.009601175
 20
4.0990202469
 30
0.0
 10
7.009194295
 20
4.0956311303
 30
0.0
 10
7.0086081487
 20
4.0923989277
 30
0.0
 10
7.0078556818
 20
4.0893510974
 30
0.0
 10
7.0069485564
 20
4.0865127077
 30
0.0
 10
7.005892129
 20
4.0839079205
 30
0.0
 10
7.0046922135
 20
4.0815586782
 30
0.0
 10
7.0033527859
 20
4.079488122
 30
0.0
 10
7.0018889729
 20
4.0777132074
 30
0.0
 10
7.0003167414
 20
4.0762486551
 30
0.0
 10
6.9986476721
 20
4.07510908
 30
0.0
 10
6.9968900912
 20
4.074309804
 30
0.0
 10
6.9956629656
 20
4.07401003
 30
0.0
 10
6.9950490808
 20
4.0739203522
 30
0.0
 11
7.009421424
 21
4.1135211819
 31
0.0
 11
7.0096730375
 21
4.1098093471
 31
0.0
 11
7.0098031812
 21
4.106126902
 31
0.0
 11
7.0097774532
 21
4.1025080188
 31
0.0
 11
7.0095633483
 21
4.0989866542
 31
0.0
 11
7.0091547807
 21
4.0955937659
 31
0.0
 11
7.0085650475
 21
4.0923581112
 31
0.0
 11
7.0078078749
 21
4.089308384
 31
0.0
 11
7.0068946074
 21
4.0864715268
 31
0.0
 11
7.0058317887
 21
4.083870951
 31
0.0
 11
7.0046253855
 21
4.0815296441
 31
0.0
 11
7.0032825567
 21
4.0794697745
 31
0.0
 11
7.0018178125
 21
4.0777084585
 31
0.0
 11
7.0002484633
 21
4.0762608882
 31
0.0
 11
6.9985915601
 21
4.0751420205
 31
0.0
 11
6.9968573898
 21
4.0743609074
 31
0.0
 11
6.9950490808
 21
4.0739203522
 31
0.0
  0
SPLINE
  5
26D
100
AcDbEntity
  8
0
100
AcDbSpline
 62
6
  6
CONTINUOUS
 70
0
 71
3
 72
9
 73
5
 74
3
 42
0.0000001
 43
0.0000001
 44
0.0000000001
 12
0.0079685009
 22
0.0016529494
 32
0.0
 13
0.0071884166
 23
0.0038152215
 33
0.0
 40
0.0
 40
0.0
 40
0.0
 40
0.0
 40
0.4958780615
 40
1.0
 40
1.0
 40
1.0
 40
1.0
 10
6.9949501259
 20
4.0740873103
 30
0.0
 10
6.9962672609
 20
4.0743605307
 30
0.0
 10
6.9988860248
 20
4.0751077727
 30
0.0
 10
7.0013725867
 20
4.0762165516
 30
0.0
 10
7.0025805328
 20
4.0768576639
 30
0.0
 11
6.9949501259
 21
4.0740873103
 31
0.0
 11
6.9988319282
 21
4.0751905127
 31
0.0
 11
7.0025805328
 21
4.0768576639
 31
0.0
  0
SPLINE
  5
26E
100
AcDbEntity
  8
0
100
AcDbSpline
 62
6
  6
CONTINUOUS
 70
0
 71
3
 72
13
 73
9
 74
7
 42
0.0000001
 43
0.0000001
 44
0.0000000001
 12
-0.0262396655
 22
0.0193765772
 32
0.0
 13
-0.0215572533
 23
0.0244797186
 33
0.0
 40
0.0
 40
0.0
 40
0.0
 40
0.0
 40
0.2763391638
 40
0.5384339541
 40
0.6630402401
 40
0.7823380444
 40
0.8951774329
 40
1.0
 40
1.0
 40
1.0
 40
1.0
 10
6.4205307074
 20
4.045276947
 30
0.0
 10
6.4181136917
 20
4.0470617827
 30
0.0
 10
6.413463486
 20
4.0506204172
 30
0.0
 10
6.4078973996
 20
4.0552051494
 30
0.0
 10
6.4037692049
 20
4.0588426343
 30
0.0
 10
6.4009251311
 20
4.0614809577
 30
0.0
 10
6.398318197
 20
4.064056092
 30
0.0
 10
6.3967022395
 20
4.0657866476
 30
0.0
 10
6.3959490106
 20
4.0666419899
 30
0.0
 11
6.4205307074
 21
4.045276947
 31
0.0
 11
6.4133747493
 21
4.0507578863
 31
0.0
 11
6.4067851863
 21
4.0562045179
 31
0.0
 11
6.4037377479
 21
4.0588939637
 31
0.0
 11
6.4008880922
 21
4.0615438453
 31
0.0
 11
6.3982744527
 21
4.0641353992
 31
0.0
 11
6.3959490106
 21
4.0666419899
 31
0.0
  0
SPLINE
  5
26F
100
AcDbEntity
  8
0
100
AcDbSpline
 62
6
  6
CONTINUOUS
 70
0
 71
3
 72
9
 73
5
 74
3
 42
0.0000001
 43
0.0000001
 44
0.0000000001
 12
-0.008013644
 22
0.020425225
 32
0.0
 13
-0.0049997023
 23
0.0213637844
 33
0.0
 40
0.0
 40
0.0
 40
0.0
 40
0.0
 40
0.5080263031
 40
1.0
 40
1.0
 40
1.0
 40
1.0
 10
6.4205306963
 20
4.0452786743
 30
0.0
 10
6.419173649
 20
4.0487375248
 30
0.0
 10
6.4167311136
 20
4.0556381731
 30
0.0
 10
6.4147854992
 20
4.062696217
 30
0.0
 10
6.4139655918
 20
4.0661996903
 30
0.0
 11
6.4205306963
 21
4.0452786743
 31
0.0
 11
6.4168201552
 21
4.0557895689
 31
0.0
 11
6.4139655918
 21
4.0661996903
 31
0.0
  0
LINE
  5
270
100
AcDbEntity
  8
0
100
AcDbLine
 62
6
  6
CONTINUOUS
 10
5.6450214367
 20
4.0754999746
 11
5.6184721015
 21
4.0700344628
  0
SPLINE
  5
271
100
AcDbEntity
  8
0
100
AcDbSpline
 62
6
  6
CONTINUOUS
 70
0
 71
3
 72
20
 73
16
 74
14
 42
0.0000001
 43
0.0000001
 44
0.0000000001
 12
0.3611431299
 22
0.0427332972
 32
0.0
 13
0.3484175717
 23
-0.1041906459
 33
0.0
 40
0.0
 40
0.0
 40
0.0
 40
0.0
 40
0.1552061446
 40
0.2318766668
 40
0.3073764825
 40
0.3813425439
 40
0.4534113683
 40
0.5903913676
 40
0.7156227039
 40
0.7731012505
 40
0.8268061905
 40
0.8765254024
 40
0.9220763079
 40
0.9632868785
 40
1.0
 40
1.0
 40
1.0
 40
1.0
 10
6.0589122788
 20
4.4410730411
 30
0.0
 10
6.0775961564
 20
4.4432838646
 30
0.0
 10
6.1055447197
 20
4.446305916
 30
0.0
 10
6.1426584382
 20
4.4496192062
 30
0.0
 10
6.1699951204
 20
4.4516702463
 30
0.0
 10
6.1968052289
 20
4.4532412144
 30
0.0
 10
6.2310863676
 20
4.4546199073
 30
0.0
 10
6.2716181921
 20
4.4550628266
 30
0.0
 10
6.3103652889
 20
4.4536773265
 30
0.0
 10
6.338940253
 20
4.4514452322
 30
0.0
 10
6.3583349829
 20
4.4493462531
 30
0.0
 10
6.3762199282
 20
4.4468214444
 30
0.0
 10
6.3925130889
 20
4.4439264342
 30
0.0
 10
6.4071373254
 20
4.440719367
 30
0.0
 10
6.4162668641
 20
4.4382762993
 30
0.0
 10
6.4205306963
 20
4.4370012447
 30
0.0
 11
6.0589122788
 21
4.4410730411
 31
0.0
 11
6.1150327489
 21
4.4470953361
 31
0.0
 11
6.1428052902
 21
4.4495657937
 31
0.0
 11
6.1701856435
 21
4.4516086978
 31
0.0
 11
6.1970388968
 21
4.4531715051
 31
0.0
 11
6.2232268289
 21
4.4542155824
 31
0.0
 11
6.2730392289
 21
4.4546734509
 31
0.0
 11
6.3185483829
 21
4.4529452879
 31
0.0
 11
6.3393865284
 21
4.4513025244
 31
0.0
 11
6.358801921
 21
4.4491854195
 31
0.0
 11
6.3767028954
 21
4.4466401612
 31
0.0
 11
6.393008726
 21
4.4437204941
 31
0.0
 11
6.4076421192
 21
4.4404853294
 31
0.0
 11
6.4205306963
 21
4.4370012447
 31
0.0
  0
SPLINE
  5
272
100
AcDbEntity
  8
0
100
AcDbSpline
 62
6
  6
CONTINUOUS
 70
0
 71
3
 72
22
 73
18
 74
16
 42
0.0000001
 43
0.0000001
 44
0.0000000001
 12
-0.3521331953
 22
-0.0886620001
 32
0.0
 13
-0.3613007194
 23
0.0363390659
 33
0.0
 40
0.0
 40
0.0
 40
0.0
 40
0.0
 40
0.0364661541
 40
0.0775203348
 40
0.122984321
 40
0.1726721199
 40
0.2263871574
 40
0.2838928836
 40
0.3449336036
 40
0.4092222429
 40
0.4764552223
 40
0.5463021234
 40
0.6184175903
 40
0.6924334379
 40
0.7679766635
 40
0.8446833034
 40
1.0
 40
1.0
 40
1.0
 40
1.0
 10
6.4205306963
 20
4.0452768827
 30
0.0
 10
6.4162503818
 20
4.0441991619
 30
0.0
 10
6.407095592
 20
4.0421268253
 30
0.0
 10
6.3924598582
 20
4.039392334
 30
0.0
 10
6.3761584998
 20
4.0369092988
 30
0.0
 10
6.3582688801
 20
4.0347331151
 30
0.0
 10
6.3388745936
 20
4.0329197673
 30
0.0
 10
6.3180695516
 20
4.0315085317
 30
0.0
 10
6.2959582461
 20
4.0305395727
 30
0.0
 10
6.2726540369
 20
4.0300318348
 30
0.0
 10
6.2482785829
 20
4.0300040475
 30
0.0
 10
6.2229598946
 20
4.0304507072
 30
0.0
 10
6.1968324598
 20
4.0313656882
 30
0.0
 10
6.1700341385
 20
4.0327245353
 30
0.0
 10
6.1427035833
 20
4.0345021226
 30
0.0
 10
6.1055850307
 20
4.037365298
 30
0.0
 10
6.0776176235
 20
4.0399485573
 30
0.0
 10
6.0589122788
 20
4.0418299118
 30
0.0
 11
6.4205306963
 21
4.0452768827
 31
0.0
 11
6.4076218143
 21
4.0423266405
 31
0.0
 11
6.3929714619
 21
4.039568394
 31
0.0
 11
6.3766533621
 21
4.037064755
 31
0.0
 11
6.3587442963
 21
4.0348719458
 31
0.0
 11
6.339325101
 21
4.0330423109
 31
0.0
 11
6.3184920346
 21
4.0316181869
 31
0.0
 11
6.2963484837
 21
4.0306359516
 31
0.0
 11
6.2730095065
 21
4.0301181208
 31
0.0
 11
6.2485956568
 21
4.0300793655
 31
0.0
 11
6.2232363942
 21
4.0305180761
 31
0.0
 11
6.1970652776
 21
4.0314250236
 31
0.0
 11
6.170222474
 21
4.032778406
 31
0.0
 11
6.1428480485
 21
4.0345474428
 31
0.0
 11
6.1150757976
 21
4.0366797748
 31
0.0
 11
6.0589122788
 21
4.0418299118
 31
0.0
  0
LINE
  5
273
100
AcDbEntity
  8
0
100
AcDbLine
 62
6
  6
CONTINUOUS
 10
5.6171857484
 20
4.4148047458
 11
5.6437677692
 21
4.4084745513
  0
SPLINE
  5
274
100
AcDbEntity
  8
0
100
AcDbSpline
 62
6
  6
CONTINUOUS
 70
0
 71
3
 72
12
 73
8
 74
6
 42
0.0000001
 43
0.0000001
 44
0.0000000001
 12
0.4419506149
 22
0.0360566188
 32
0.0
 13
0.4422395882
 23
0.0323198458
 33
0.0
 40
0.0
 40
0.0
 40
0.0
 40
0.0
 40
0.2494442848
 40
0.3741771694
 40
0.4989975921
 40
0.7490800268
 40
1.0
 40
1.0
 40
1.0
 40
1.0
 10
6.1413654076
 20
4.4086901849
 30
0.0
 10
6.1781127593
 20
4.4116882241
 30
0.0
 10
6.233231608
 20
4.4162313637
 30
0.0
 10
6.3067414866
 20
4.4222396791
 30
0.0
 10
6.3803512479
 20
4.4281834259
 30
0.0
 10
6.4725657532
 20
4.4354544149
 30
0.0
 10
6.5464085255
 20
4.4410113711
 30
0.0
 10
6.5833974407
 20
4.4437146027
 30
0.0
 11
6.1413654076
 21
4.4086901849
 31
0.0
 11
6.2516038242
 21
4.4177287892
 31
0.0
 11
6.3067293238
 21
4.4222296094
 31
0.0
 11
6.3618977195
 21
4.4266817412
 31
0.0
 11
6.4724474401
 21
4.4353789462
 31
0.0
 11
6.5833974407
 21
4.4437146027
 31
0.0
  0
SPLINE
  5
275
100
AcDbEntity
  8
0
100
AcDbSpline
 62
6
  6
CONTINUOUS
 70
0
 71
3
 72
12
 73
8
 74
6
 42
0.0000001
 43
0.0000001
 44
0.0000000001
 12
-1.0372304473
 22
0.0359962736
 32
0.0
 13
-1.0373460215
 23
0.0324956038
 33
0.0
 40
0.0
 40
0.0
 40
0.0
 40
0.0
 40
0.2499760574
 40
0.3749646416
 40
0.4999570697
 40
0.7499609253
 40
1.0
 40
1.0
 40
1.0
 40
1.0
 10
5.6378164404
 20
4.4086901829
 30
0.0
 10
5.5513888478
 20
4.4116895851
 30
0.0
 10
5.4217487411
 20
4.4162310475
 30
0.0
 10
5.2488921269
 20
4.4222381696
 30
0.0
 10
5.0760235488
 20
4.4281775706
 30
0.0
 10
4.8599135161
 20
4.4354405881
 30
0.0
 10
4.6870123196
 20
4.4410062114
 30
0.0
 10
4.6005533065
 20
4.4437146016
 30
0.0
 11
5.6378164404
 21
4.4086901829
 31
0.0
 11
5.3785350678
 21
4.4177287888
 31
0.0
 11
5.2488931618
 21
4.4222296172
 31
0.0
 11
5.1192455827
 21
4.4266817496
 31
0.0
 11
4.8599236668
 21
4.4353789473
 31
0.0
 11
4.6005533065
 21
4.4437146016
 31
0.0
  0
SPLINE
  5
276
100
AcDbEntity
  8
0
100
AcDbSpline
 62
6
  6
CONTINUOUS
 70
0
 71
3
 72
22
 73
18
 74
16
 42
0.0000001
 43
0.0000001
 44
0.0000000001
 12
0.0013887895
 22
0.0400622895
 32
0.0
 13
-0.0295344175
 23
0.0271041318
 33
0.0
 40
0.0
 40
0.0
 40
0.0
 40
0.0
 40
0.1852431836
 40
0.3646489895
 40
0.5310358129
 40
0.6075769777
 40
0.6788195036
 40
0.7441458606
 40
0.8030494781
 40
0.8550564449
 40
0.8997036452
 40
0.9365941874
 40
0.965552543
 40
0.9770461156
 40
0.9865665395
 40
0.9941702676
 40
1.0
 40
1.0
 40
1.0
 40
1.0
 10
5.6395113993
 20
4.3688231049
 30
0.0
 10
5.6395971539
 20
4.3712968603
 30
0.0
 10
5.6397280728
 20
4.3761678179
 30
0.0
 10
5.6398081775
 20
4.3832634129
 30
0.0
 10
5.6397717882
 20
4.3889069802
 30
0.0
 10
5.6396761183
 20
4.3931039548
 30
0.0
 10
5.6395764784
 20
4.3959498978
 30
0.0
 10
5.6394475967
 20
4.3985587445
 30
0.0
 10
5.6392910939
 20
4.4009085892
 30
0.0
 10
5.6391086289
 20
4.402979313
 30
0.0
 10
5.6389024543
 20
4.404752213
 30
0.0
 10
5.638673544
 20
4.4062111208
 30
0.0
 10
5.6384551039
 20
4.4072226252
 30
0.0
 10
5.6382618126
 20
4.4078621195
 30
0.0
 10
5.6381243346
 20
4.4082196278
 30
0.0
 10
5.6379838615
 20
4.4084927797
 30
0.0
 10
5.637873833
 20
4.408637513
 30
0.0
 10
5.6378164404
 20
4.4086901829
 30
0.0
 11
5.6395113993
 21
4.3688231049
 31
0.0
 11
5.6397105779
 21
4.376246157
 31
0.0
 11
5.6397880805
 21
4.3834374641
 31
0.0
 11
5.6397391629
 21
4.3901071258
 31
0.0
 11
5.6396680416
 21
4.3931745576
 31
0.0
 11
5.6395665848
 21
4.396028608
 31
0.0
 11
5.639435506
 21
4.3986440208
 31
0.0
 11
5.6392760554
 21
4.4009998622
 31
0.0
 11
5.6390896173
 21
4.4030762787
 31
0.0
 11
5.6388775759
 21
4.4048534169
 31
0.0
 11
5.6386415558
 21
4.4063132681
 31
0.0
 11
5.6383841425
 21
4.4074452028
 31
0.0
 11
5.6382482966
 21
4.4078854561
 31
0.0
 11
5.6381081621
 21
4.408240436
 31
0.0
 11
5.6379640923
 21
4.4085090443
 31
0.0
 11
5.6378164404
 21
4.4086901829
 31
0.0
  0
SPLINE
  5
277
100
AcDbEntity
  8
0
100
AcDbSpline
 62
6
  6
CONTINUOUS
 70
0
 71
3
 72
13
 73
9
 74
7
 42
0.0000001
 43
0.0000001
 44
0.0000000001
 12
-1.0372437151
 22
0.0362038361
 32
0.0
 13
-1.037370128
 23
0.0323799275
 33
0.0
 40
0.0
 40
0.0
 40
0.0
 40
0.0
 40
0.2500000493
 40
0.3750000781
 40
0.5000000999
 40
0.6250001027
 40
0.7500001003
 40
1.0
 40
1.0
 40
1.0
 40
1.0
 10
5.6395113994
 20
4.3688231049
 30
0.0
 10
5.5530744061
 20
4.3718400919
 30
0.0
 10
5.4234206618
 20
4.3764154558
 30
0.0
 10
5.2505475612
 20
4.3824748206
 30
0.0
 10
5.1208909505
 20
4.3869679964
 30
0.0
 10
4.9912319112
 20
4.3913903984
 30
0.0
 10
4.8183490171
 20
4.3971617402
 30
0.0
 10
4.688681574
 20
4.4013315458
 30
0.0
 10
4.602234098
 20
4.404029872
 30
0.0
 11
5.6395113994
 21
4.3688231049
 31
0.0
 11
5.3802022679
 21
4.3779268703
 31
0.0
 11
5.25054726
 21
4.3824662628
 31
0.0
 11
5.1208905374
 21
4.3869562011
 31
0.0
 11
4.991231382
 21
4.3913747494
 31
0.0
 11
4.8615691285
 21
4.3957012722
 31
0.0
 11
4.602234098
 21
4.404029872
 31
0.0
  0
SPLINE
  5
278
100
AcDbEntity
  8
0
100
AcDbSpline
 62
6
  6
CONTINUOUS
 70
0
 71
3
 72
24
 73
20
 74
18
 42
0.0000001
 43
0.0000001
 44
0.0000000001
 12
0.0022191517
 22
0.0397787716
 32
0.0
 13
-0.0191362884
 23
0.0349439233
 33
0.0
 40
0.0
 40
0.0
 40
0.0
 40
0.0
 40
0.0904648215
 40
0.1804033407
 40
0.2689497722
 40
0.355222294
 40
0.4385129237
 40
0.5182023664
 40
0.5936826841
 40
0.6643728106
 40
0.7297000718
 40
0.789085884
 40
0.8420377215
 40
0.8882125536
 40
0.9273141906
 40
0.9591114744
 40
0.9833996316
 40
0.992669931
 40
1.0
 40
1.0
 40
1.0
 40
1.0
 10
4.602234098
 20
4.4040415172
 30
0.0
 10
4.6023010164
 20
4.4052410437
 30
0.0
 10
4.6023915603
 20
4.4076355696
 30
0.0
 10
4.602440977
 20
4.4112070906
 30
0.0
 10
4.602443183
 20
4.4147231526
 30
0.0
 10
4.6024443642
 20
4.4181508939
 30
0.0
 10
4.6024394449
 20
4.4214610239
 30
0.0
 10
4.6024113477
 20
4.4246277649
 30
0.0
 10
4.6023422889
 20
4.4276265662
 30
0.0
 10
4.6022319671
 20
4.4304332436
 30
0.0
 10
4.6020937447
 20
4.4330246287
 30
0.0
 10
4.6019399768
 20
4.4353790783
 30
0.0
 10
4.6017761957
 20
4.4374778956
 30
0.0
 10
4.6015909539
 20
4.4393044124
 30
0.0
 10
4.6013752039
 20
4.4408449287
 30
0.0
 10
4.6011212973
 20
4.4420840252
 30
0.0
 10
4.6008855864
 20
4.4429208758
 30
0.0
 10
4.6006933047
 20
4.4434289699
 30
0.0
 10
4.6006000685
 20
4.4436292009
 30
0.0
 10
4.6005533117
 20
4.4437145814
 30
0.0
 11
4.602234098
 21
4.4040415172
 31
0.0
 11
4.6023773914
 21
4.4076428425
 31
0.0
 11
4.6024332833
 21
4.4112256132
 31
0.0
 11
4.6024430335
 21
4.4147533448
 31
0.0
 11
4.6024433107
 21
4.4181904959
 31
0.0
 11
4.6024351985
 21
4.4215088366
 31
0.0
 11
4.6024031605
 21
4.4246835521
 31
0.0
 11
4.6023324106
 21
4.4276899026
 31
0.0
 11
4.6022223456
 21
4.4305040898
 31
0.0
 11
4.6020841309
 21
4.4331030962
 31
0.0
 11
4.6019291422
 21
4.435463982
 31
0.0
 11
4.6017605131
 21
4.437566866
 31
0.0
 11
4.6015689053
 21
4.4393964944
 31
0.0
 11
4.6013439607
 21
4.4409380019
 31
0.0
 11
4.601084337
 21
4.4421779365
 31
0.0
 11
4.600812157
 21
4.443106524
 31
0.0
 11
4.6006794493
 21
4.4434511929
 31
0.0
 11
4.6005533117
 21
4.4437145814
 31
0.0
  0
SPLINE
  5
279
100
AcDbEntity
  8
0
100
AcDbSpline
 62
6
  6
CONTINUOUS
 70
0
 71
3
 72
23
 73
19
 74
17
 42
0.0000001
 43
0.0000001
 44
0.0000000001
 12
0.0015088697
 22
0.0398862937
 32
0.0
 13
-0.0185648974
 23
0.0353346529
 33
0.0
 40
0.0
 40
0.0
 40
0.0
 40
0.0
 40
0.1862920501
 40
0.3667108176
 40
0.5339762549
 40
0.610876818
 40
0.6824096228
 40
0.7479430222
 40
0.8069552423
 40
0.8589531874
 40
0.9034464348
 40
0.9399962544
 40
0.9552135611
 40
0.9683615737
 40
0.9794204127
 40
0.9883755799
 40
0.99522479
 40
1.0
 40
1.0
 40
1.0
 40
1.0
 10
5.6437639798
 20
4.368606369
 30
0.0
 10
5.6438576766
 20
4.3710832021
 30
0.0
 10
5.6440235844
 20
4.3759595023
 30
0.0
 10
5.6442111344
 20
4.3830616167
 30
0.0
 10
5.6443113349
 20
4.3887099014
 30
0.0
 10
5.6443522672
 20
4.3929100757
 30
0.0
 10
5.6443629971
 20
4.3957568906
 30
0.0
 10
5.6443544657
 20
4.3983657146
 30
0.0
 10
5.6443269843
 20
4.4007144869
 30
0.0
 10
5.6442810526
 20
4.4027829966
 30
0.0
 10
5.6442171326
 20
4.4045520005
 30
0.0
 10
5.6441459873
 20
4.4058309267
 30
0.0
 10
5.6440772676
 20
4.4066919139
 30
0.0
 10
5.6440249782
 20
4.4072139068
 30
0.0
 10
5.6439690106
 20
4.407651571
 30
0.0
 10
5.643909917
 20
4.4080043739
 30
0.0
 10
5.6438478993
 20
4.4082709157
 30
0.0
 10
5.643797314
 20
4.4084183085
 30
0.0
 10
5.6437677636
 20
4.408474552
 30
0.0
 11
5.6437639798
 21
4.368606369
 31
0.0
 11
5.6440166653
 21
4.3760378886
 31
0.0
 11
5.6442049656
 21
4.3832368095
 31
0.0
 11
5.6443204757
 21
4.3899121806
 31
0.0
 11
5.6443497955
 21
4.3929815129
 31
0.0
 11
5.6443598015
 21
4.3958367147
 31
0.0
 11
5.6443503146
 21
4.3984524515
 31
0.0
 11
5.6443215096
 21
4.4008077377
 31
0.0
 11
5.6442736498
 21
4.4028826746
 31
0.0
 11
5.6442069984
 21
4.4046573635
 31
0.0
 11
5.6441219752
 21
4.4061137635
 31
0.0
 11
5.6440728914
 21
4.4067191731
 31
0.0
 11
5.6440196266
 21
4.4072412636
 31
0.0
 11
5.643962331
 21
4.4076789409
 31
0.0
 11
5.6439011551
 21
4.4080311108
 31
0.0
 11
5.6438362492
 21
4.4082966793
 31
0.0
 11
5.6437677636
 21
4.408474552
 31
0.0
  0
SPLINE
  5
27A
100
AcDbEntity
  8
0
100
AcDbSpline
 62
6
  6
CONTINUOUS
 70
0
 71
3
 72
22
 73
18
 74
16
 42
0.0000001
 43
0.0000001
 44
0.0000000001
 12
-0.0546391657
 22
-0.1017712781
 32
0.0
 13
-0.1153466966
 23
0.0061620662
 33
0.0
 40
0.0
 40
0.0
 40
0.0
 40
0.0
 40
0.1136196395
 40
0.1717825932
 40
0.2307754562
 40
0.2905704196
 40
0.3511573329
 40
0.412523356
 40
0.4746791687
 40
0.5376308413
 40
0.6014061841
 40
0.7313796475
 40
0.7976593156
 40
0.8646806423
 40
0.8984229061
 40
0.9322929091
 40
1.0
 40
1.0
 40
1.0
 40
1.0
 10
5.7300352137
 20
4.4370017491
 30
0.0
 10
5.7279658529
 20
4.4331473438
 30
0.0
 10
5.7246472413
 20
4.4274187217
 30
0.0
 10
5.7198168532
 20
4.4199592367
 30
0.0
 10
5.7159167694
 20
4.4143707203
 30
0.0
 10
5.711753175
 20
4.4088581066
 30
0.0
 10
5.7073143825
 20
4.403445397
 30
0.0
 10
5.7025787755
 20
4.3981668634
 30
0.0
 10
5.6975275417
 20
4.3930601118
 30
0.0
 10
5.6921337722
 20
4.3881743802
 30
0.0
 10
5.6844089471
 20
4.3820033722
 30
0.0
 10
5.6759171423
 20
4.3765953794
 30
0.0
 10
5.6666654962
 20
4.3724141103
 30
0.0
 10
5.6605275552
 20
4.3704334622
 30
0.0
 10
5.6554579388
 20
4.3693317696
 30
0.0
 10
5.6502980335
 20
4.368589577
 30
0.0
 10
5.6463672432
 20
4.3684672971
 30
0.0
 10
5.6437639802
 20
4.368606369
 30
0.0
 11
5.7300352137
 21
4.4370017491
 31
0.0
 11
5.7234547169
 21
4.4256463402
 31
0.0
 11
5.7198021901
 21
4.420007466
 31
0.0
 11
5.7159001349
 21
4.4144209532
 31
0.0
 11
5.7117355872
 21
4.4089106897
 31
0.0
 11
5.707294311
 21
4.4035020313
 31
0.0
 11
5.7025574325
 21
4.3982286768
 31
0.0
 11
5.6975037694
 21
4.3931288287
 31
0.0
 11
5.692109242
 21
4.3882528103
 31
0.0
 11
5.6863471965
 21
4.3836628152
 31
0.0
 11
5.6736233074
 21
4.3756938473
 31
0.0
 11
5.6666387003
 21
4.3725585247
 31
0.0
 11
5.6592641494
 21
4.3702026583
 31
0.0
 11
5.6554547266
 21
4.3693782497
 31
0.0
 11
5.6515818907
 21
4.3688235123
 31
0.0
 11
5.6437639802
 21
4.368606369
 31
0.0
  0
SPLINE
  5
27B
100
AcDbEntity
  8
0
100
AcDbSpline
 62
6
  6
CONTINUOUS
 70
0
 71
3
 72
19
 73
15
 74
13
 42
0.0000001
 43
0.0000001
 44
0.0000000001
 12
-0.0812626463
 22
-0.0427913933
 32
0.0
 13
-0.0916920124
 23
0.0052245468
 33
0.0
 40
0.0
 40
0.0
 40
0.0
 40
0.0
 40
0.214544288
 40
0.3274561411
 40
0.4449939653
 40
0.5684712976
 40
0.6330653762
 40
0.7000284938
 40
0.7345344673
 40
0.7697959349
 40
0.8058784171
 40
0.8428442308
 40
0.9195734733
 40
1.0
 40
1.0
 40
1.0
 40
1.0
 10
5.7300356604
 20
4.4370014244
 30
0.0
 10
5.7242241815
 20
4.4339412081
 30
0.0
 10
5.7152859147
 20
4.4293961812
 30
0.0
 10
5.7029453935
 20
4.4236229757
 30
0.0
 10
5.692998931
 20
4.4193210918
 30
0.0
 10
5.6842594797
 20
4.415968701
 30
0.0
 10
5.676850593
 20
4.4135015776
 30
0.0
 10
5.6719676648
 20
4.4120806345
 30
0.0
 10
5.667910679
 20
4.4110486329
 30
0.0
 10
5.6647496124
 20
4.4103338145
 30
0.0
 10
5.6614947566
 20
4.4096983887
 30
0.0
 10
5.6569675004
 20
4.4089667494
 30
0.0
 10
5.6510490093
 20
4.4083601007
 30
0.0
 10
5.6462259241
 20
4.4083345689
 30
0.0
 10
5.6437677674
 20
4.408474633
 30
0.0
 11
5.7300356604
 21
4.4370014244
 31
0.0
 11
5.712450488
 21
4.4281129145
 31
0.0
 11
5.7030531412
 21
4.4237282981
 31
0.0
 11
5.6931375524
 21
4.4194612205
 31
0.0
 11
5.6825388248
 21
4.4154278316
 31
0.0
 11
5.6769082029
 21
4.4135599224
 31
0.0
 11
5.6710014791
 21
4.4118474968
 31
0.0
 11
5.6679298142
 21
4.4110678954
 31
0.0
 11
5.6647708598
 21
4.4103548067
 31
0.0
 11
5.6615181798
 21
4.4097210716
 31
0.0
 11
5.6581662617
 21
4.4091821373
 31
0.0
 11
5.6511541946
 21
4.4084826414
 31
0.0
 11
5.6437677674
 21
4.408474633
 31
0.0
  0
SPLINE
  5
27C
100
AcDbEntity
  8
0
100
AcDbSpline
 62
6
  6
CONTINUOUS
 70
0
 71
3
 72
10
 73
6
 74
4
 42
0.0000001
 43
0.0000001
 44
0.0000000001
 12
-0.1026098483
 22
0.0024433568
 32
0.0
 13
-0.1023889584
 23
0.0071590619
 33
0.0
 40
0.0
 40
0.0
 40
0.0
 40
0.0
 40
0.4903995819
 40
0.7433850324
 40
1.0
 40
1.0
 40
1.0
 40
1.0
 10
6.240674837
 20
4.0705047716
 30
0.0
 10
6.2239015614
 20
4.0709041787
 30
0.0
 10
6.1984828354
 20
4.0718686859
 30
0.0
 10
6.1643214001
 20
4.0737507596
 30
0.0
 10
6.1469231854
 20
4.0748877863
 30
0.0
 10
6.1381650056
 20
4.0755001604
 30
0.0
 11
6.240674837
 21
4.0705047716
 31
0.0
 11
6.1903751642
 21
4.0723658497
 31
0.0
 11
6.1644479692
 21
4.0737877775
 31
0.0
 11
6.1381650056
 21
4.0755001604
 31
0.0
  0
SPLINE
  5
27D
100
AcDbEntity
  8
0
100
AcDbSpline
 62
6
  6
CONTINUOUS
 70
0
 71
3
 72
13
 73
9
 74
7
 42
0.0000001
 43
0.0000001
 44
0.0000000001
 12
-1.0372757723
 22
-0.0028371462
 32
0.0
 13
-1.0372791536
 23
0.0010172621
 33
0.0
 40
0.0
 40
0.0
 40
0.0
 40
0.0
 40
0.2499999843
 40
0.3749999838
 40
0.4999999866
 40
0.6249999855
 40
0.7499999992
 40
1.0
 40
1.0
 40
1.0
 40
1.0
 10
5.6395113994
 20
4.1153585183
 30
0.0
 10
5.5530717571
 20
4.1151220895
 30
0.0
 10
5.423412432
 20
4.1147181058
 30
0.0
 10
5.2505332065
 20
4.1142213528
 30
0.0
 10
5.1208736422
 20
4.1139004716
 30
0.0
 10
4.9912139102
 20
4.1136507964
 30
0.0
 10
4.8183340783
 20
4.1134437688
 30
0.0
 10
4.6886740277
 20
4.113448006
 30
0.0
 10
4.602234098
 20
4.1135327779
 30
0.0
 11
5.6395113994
 21
4.1153585183
 31
0.0
 11
5.3801926195
 21
4.1145974086
 31
0.0
 11
5.2505331841
 21
4.1142299667
 31
0.0
 11
5.1208736137
 21
4.1139123393
 31
0.0
 11
4.9912138914
 21
4.1136665305
 31
0.0
 11
4.8615540112
 21
4.1135132488
 31
0.0
 11
4.602234098
 21
4.1135327779
 31
0.0
  0
SPLINE
  5
27E
100
AcDbEntity
  8
0
100
AcDbSpline
 62
6
  6
CONTINUOUS
 70
0
 71
3
 72
22
 73
18
 74
16
 42
0.0000001
 43
0.0000001
 44
0.0000000001
 12
0.0304617275
 22
0.0262214994
 32
0.0
 13
-0.0001092162
 23
0.040192934
 33
0.0
 40
0.0
 40
0.0
 40
0.0
 40
0.0
 40
0.005830424
 40
0.0134367592
 40
0.0229615781
 40
0.0344611742
 40
0.063435879
 40
0.100347607
 40
0.1450196673
 40
0.1970533563
 40
0.2559835903
 40
0.3213345003
 40
0.3925974891
 40
0.4691526989
 40
0.6355387506
 40
0.814888866
 40
1.0
 40
1.0
 40
1.0
 40
1.0
 10
5.6365343053
 20
4.0754600079
 30
0.0
 10
5.6365935069
 20
4.0755109687
 30
0.0
 10
5.6367083998
 20
4.0756525549
 30
0.0
 10
5.6368579145
 20
4.0759219164
 30
0.0
 10
5.6370071475
 20
4.0762759762
 30
0.0
 10
5.6372213743
 20
4.0769110202
 30
0.0
 10
5.6374727573
 20
4.0779182853
 30
0.0
 10
5.6377490091
 20
4.0793738265
 30
0.0
 10
5.6380125586
 20
4.0811448995
 30
0.0
 10
5.638261906
 20
4.0832152679
 30
0.0
 10
5.6384941856
 20
4.085566185
 30
0.0
 10
5.6387070818
 20
4.0881774631
 30
0.0
 10
5.6388982599
 20
4.0910271172
 30
0.0
 10
5.639128762
 20
4.095230496
 30
0.0
 10
5.6393461927
 20
4.1008844595
 30
0.0
 10
5.6394933145
 20
4.1079953526
 30
0.0
 10
5.6395181385
 20
4.1128784651
 30
0.0
 10
5.6395113994
 20
4.1153585183
 30
0.0
 11
5.6365343053
 21
4.0754600079
 31
0.0
 11
5.6366880558
 21
4.0756368618
 31
0.0
 11
5.6368410346
 21
4.0759015568
 31
0.0
 11
5.6369928511
 21
4.0762529995
 31
0.0
 11
5.6371431148
 21
4.0766900963
 31
0.0
 11
5.6374374212
 21
4.0778168778
 31
0.0
 11
5.6377208295
 21
4.0792731529
 31
0.0
 11
5.637990397
 21
4.0810483097
 31
0.0
 11
5.6382439102
 21
4.0831242821
 31
0.0
 11
5.6384793371
 21
4.0854811406
 31
0.0
 11
5.6386946461
 21
4.0880989557
 31
0.0
 11
5.6388879057
 21
4.0909567076
 31
0.0
 11
5.6390575851
 21
4.0940290155
 31
0.0
 11
5.6393204812
 21
4.1007114144
 31
0.0
 11
5.6394732691
 21
4.107918429
 31
0.0
 11
5.6395113994
 21
4.1153585183
 31
0.0
  0
SPLINE
  5
27F
100
AcDbEntity
  8
0
100
AcDbSpline
 62
6
  6
CONTINUOUS
 70
0
 71
3
 72
12
 73
8
 74
6
 42
0.0000001
 43
0.0000001
 44
0.0000000001
 12
-1.0372567897
 22
-0.0026286344
 32
0.0
 13
-1.0372597305
 23
0.0008993695
 33
0.0
 40
0.0
 40
0.0
 40
0.0
 40
0.0
 40
0.2499758127
 40
0.3749643207
 40
0.4999567135
 40
0.749960642
 40
1.0
 40
1.0
 40
1.0
 40
1.0
 10
5.6365343053
 20
4.0754600079
 30
0.0
 10
5.5501046023
 20
4.0752409762
 30
0.0
 10
5.4204599503
 20
4.0748705149
 30
0.0
 10
5.2475988003
 20
4.0744254778
 30
0.0
 10
5.0747277652
 20
4.0740488861
 30
0.0
 10
4.8586197404
 20
4.073740985
 30
0.0
 10
4.685727999
 20
4.0737409491
 30
0.0
 10
4.59927608
 20
4.0738159084
 30
0.0
 11
5.6365343053
 21
4.0754600079
 31
0.0
 11
5.3772452996
 21
4.0747633336
 31
0.0
 11
5.247600123
 21
4.0744340394
 31
0.0
 11
5.1179508013
 21
4.0741539024
 31
0.0
 11
4.8586319343
 21
4.0738025668
 31
0.0
 11
4.59927608
 21
4.0738159084
 31
0.0
  0
SPLINE
  5
280
100
AcDbEntity
  8
0
100
AcDbSpline
 62
6
  6
CONTINUOUS
 70
0
 71
3
 72
22
 73
18
 74
16
 42
0.0000001
 43
0.0000001
 44
0.0000000001
 12
0.0263925206
 22
0.0300043594
 32
0.0
 13
0.0006660971
 23
0.0399547625
 33
0.0
 40
0.0
 40
0.0
 40
0.0
 40
0.0
 40
0.0079149824
 40
0.0173448507
 40
0.0284938596
 40
0.041462025
 40
0.0730082206
 40
0.112060938
 40
0.2113343437
 40
0.3360220345
 40
0.4066861394
 40
0.482166348
 40
0.6451401727
 40
0.7313416213
 40
0.8197811622
 40
0.90962338
 40
1.0
 40
1.0
 40
1.0
 40
1.0
 10
4.5992760857
 20
4.0738159279
 30
0.0
 10
4.5993457178
 20
4.0738950892
 30
0.0
 10
4.5994749114
 20
4.0740890541
 30
0.0
 10
4.5996316319
 20
4.0744355782
 30
0.0
 10
4.599773049
 20
4.074860056
 30
0.0
 10
4.5999597821
 20
4.0755779196
 30
0.0
 10
4.6001702494
 20
4.0766716451
 30
0.0
 10
4.6005474062
 20
4.0789025351
 30
0.0
 10
4.6010111309
 20
4.0823768546
 30
0.0
 10
4.601334534
 20
4.0862890356
 30
0.0
 10
4.6015643352
 20
4.0898891741
 30
0.0
 10
4.601795223
 20
4.094000207
 30
0.0
 10
4.6019956934
 20
4.098320318
 30
0.0
 10
4.6021166019
 20
4.1028159294
 30
0.0
 10
4.6021603897
 20
4.1063386676
 30
0.0
 10
4.6021878634
 20
4.1099171017
 30
0.0
 10
4.6022140315
 20
4.1123175231
 30
0.0
 10
4.602234098
 20
4.1135211819
 30
0.0
 11
4.5992760857
 21
4.0738159279
 31
0.0
 11
4.5994565905
 21
4.0740756475
 31
0.0
 11
4.5996166253
 21
4.0744167964
 31
0.0
 11
4.5997609438
 21
4.0748382918
 31
0.0
 11
4.5998942998
 21
4.0753390511
 31
0.0
 11
4.600147139
 21
4.0765740306
 31
0.0
 11
4.600408662
 21
4.07811252
 31
0.0
 11
4.6009370402
 21
4.0820441707
 31
0.0
 11
4.6013740038
 21
4.0870075325
 31
0.0
 11
4.6015567781
 21
4.0898253709
 31
0.0
 11
4.6017267793
 21
4.0928367892
 31
0.0
 11
4.6020154531
 21
4.0993428734
 31
0.0
 11
4.602107607
 21
4.1027862775
 31
0.0
 11
4.6021573805
 21
4.1063199988
 31
0.0
 11
4.6021897319
 21
4.1099099763
 31
0.0
 11
4.602234098
 21
4.1135211819
 31
0.0
  0
SPLINE
  5
281
100
AcDbEntity
  8
0
100
AcDbSpline
 62
6
  6
CONTINUOUS
 70
0
 71
3
 72
23
 73
19
 74
17
 42
0.0000001
 43
0.0000001
 44
0.0000000001
 12
0.0118381727
 22
0.0381224791
 32
0.0
 13
-0.0002783741
 23
0.0399172676
 33
0.0
 40
0.0
 40
0.0
 40
0.0
 40
0.0
 40
0.004512376
 40
0.0111869581
 40
0.0200163868
 40
0.0309813804
 40
0.044058637
 40
0.0592231281
 40
0.0957095438
 40
0.140182414
 40
0.1921927871
 40
0.2512433285
 40
0.3168358793
 40
0.388444471
 40
0.4654333874
 40
0.6328988129
 40
0.8135245229
 40
1.0
 40
1.0
 40
1.0
 40
1.0
 10
5.6450214406
 20
4.0754999725
 30
0.0
 10
5.6450392467
 20
4.0755573135
 30
0.0
 10
5.6450689618
 20
4.0757036364
 30
0.0
 10
5.6451069608
 20
4.0759671471
 30
0.0
 10
5.6451444235
 20
4.0763174718
 30
0.0
 10
5.6451815132
 20
4.0767532815
 30
0.0
 10
5.6452177235
 20
4.077273737
 30
0.0
 10
5.6452678194
 20
4.0781335655
 30
0.0
 10
5.6453250601
 20
4.0794113669
 30
0.0
 10
5.6453851484
 20
4.0811796676
 30
0.0
 10
5.6454394649
 20
4.0832485169
 30
0.0
 10
5.645487485
 20
4.085598601
 30
0.0
 10
5.6455286447
 20
4.0882096251
 30
0.0
 10
5.6455624625
 20
4.0910594605
 30
0.0
 10
5.6455984566
 20
4.095264871
 30
0.0
 10
5.6456218499
 20
4.1009210016
 30
0.0
 10
5.6456171703
 20
4.1080340066
 30
0.0
 10
5.6455933879
 20
4.1129186434
 30
0.0
 10
5.6455760845
 20
4.1153998406
 30
0.0
 11
5.6450214406
 21
4.0754999725
 31
0.0
 11
5.6450618391
 21
4.0756755099
 31
0.0
 11
5.645101482
 21
4.0759389817
 31
0.0
 11
5.6451402706
 21
4.0762892961
 31
0.0
 11
5.645178106
 21
4.076725361
 31
0.0
 11
5.6452148897
 21
4.0772460845
 31
0.0
 11
5.6452505229
 21
4.0778503745
 31
0.0
 11
5.6453179431
 21
4.0793052867
 31
0.0
 11
5.6453796376
 21
4.081079493
 31
0.0
 11
5.6454351212
 21
4.083154914
 31
0.0
 11
5.6454839693
 21
4.0855116013
 31
0.0
 11
5.6455257573
 21
4.0881296069
 31
0.0
 11
5.6455600945
 21
4.0909878895
 31
0.0
 11
5.6455867259
 21
4.094061036
 31
0.0
 11
5.6456159865
 21
4.1007458967
 31
0.0
 11
5.6456122419
 21
4.1079561559
 31
0.0
 11
5.6455760845
 21
4.1153998406
 31
0.0
  0
SPLINE
  5
282
100
AcDbEntity
  8
0
100
AcDbSpline
 62
6
  6
CONTINUOUS
 70
0
 71
3
 72
17
 73
13
 74
11
 42
0.0000001
 43
0.0000001
 44
0.0000000001
 12
-0.0797272213
 22
0.0442104851
 32
0.0
 13
-0.0911321135
 23
-0.0024361263
 33
0.0
 40
0.0
 40
0.0
 40
0.0
 40
0.0
 40
0.10638438
 40
0.2160902996
 40
0.3294569976
 40
0.4472288111
 40
0.5706830385
 40
0.7018629029
 40
0.7712878288
 40
0.8438773137
 40
0.9200659158
 40
1.0
 40
1.0
 40
1.0
 40
1.0
 10
5.7300356323
 20
4.0452766675
 30
0.0
 10
5.7272083886
 20
4.0468444358
 30
0.0
 10
5.7214396455
 20
4.0499823627
 30
0.0
 10
5.7125589939
 20
4.0546061123
 30
0.0
 10
5.7032670541
 20
4.0591846369
 30
0.0
 10
5.6934615779
 20
4.0636581355
 30
0.0
 10
5.6829749162
 20
4.067922868
 30
0.0
 10
5.6736351915
 20
4.0710775319
 30
0.0
 10
5.6656056106
 20
4.0731994495
 30
0.0
 10
5.6591031939
 20
4.0745223535
 30
0.0
 10
5.6522025922
 20
4.0754073645
 30
0.0
 10
5.6474496278
 20
4.075564877
 30
0.0
 10
5.6450214405
 20
4.0754999671
 30
0.0
 11
5.7300356323
 21
4.0452766675
 31
0.0
 11
5.7215147294
 21
4.0499086276
 31
0.0
 11
5.7126411564
 21
4.0545222789
 31
0.0
 11
5.7033653892
 21
4.0590800353
 31
0.0
 11
5.6935895927
 21
4.0635195161
 31
0.0
 11
5.6831528504
 21
4.0677316257
 31
0.0
 11
5.6718064183
 21
4.0715099077
 31
0.0
 11
5.6656847616
 21
4.0731170265
 31
0.0
 11
5.6591972825
 21
4.0744228578
 31
0.0
 11
5.6523054778
 21
4.0752865116
 31
0.0
 11
5.6450214405
 21
4.0754999671
 31
0.0
  0
SPLINE
  5
283
100
AcDbEntity
  8
0
100
AcDbSpline
 62
6
  6
CONTINUOUS
 70
0
 71
3
 72
19
 73
15
 74
13
 42
0.0000001
 43
0.0000001
 44
0.0000000001
 12
-0.0531893926
 22
0.101788947
 32
0.0
 13
-0.1148427152
 23
-0.0011189117
 33
0.0
 40
0.0
 40
0.0
 40
0.0
 40
0.0
 40
0.1142225248
 40
0.2317374788
 40
0.3522945768
 40
0.4758004602
 40
0.5386978476
 40
0.6023729102
 40
0.6668477578
 40
0.7321347846
 40
0.798219169
 40
0.8650284767
 40
0.9323857108
 40
1.0
 40
1.0
 40
1.0
 40
1.0
 10
5.7300352137
 20
4.045276231
 30
0.0
 10
5.7280100714
 20
4.0491517612
 30
0.0
 10
5.7236487244
 20
4.0568851548
 30
0.0
 10
5.7162742507
 20
4.0681891862
 30
0.0
 10
5.7078823492
 20
4.0792142377
 30
0.0
 10
5.6999771898
 20
4.0879361334
 30
0.0
 10
5.6930036886
 20
4.0945022043
 30
0.0
 10
5.6873830234
 20
4.0991899232
 30
0.0
 10
5.6813780053
 20
4.1035346791
 30
0.0
 10
5.6749658028
 20
4.1074377889
 30
0.0
 10
5.6681364559
 20
4.1107712341
 30
0.0
 10
5.660906092
 20
4.1133727802
 30
0.0
 10
5.6533430646
 20
4.1150519366
 30
0.0
 10
5.648164421
 20
4.1154250587
 30
0.0
 10
5.6455760848
 20
4.1153998406
 30
0.0
 11
5.7300352137
 21
4.045276231
 31
0.0
 11
5.7235917559
 21
4.0567029659
 31
0.0
 11
5.7162058836
 21
4.0679990307
 31
0.0
 11
5.7077992968
 21
4.0790005947
 31
0.0
 11
5.6982418527
 21
4.0894816802
 31
0.0
 11
5.6929773967
 21
4.0944280543
 31
0.0
 11
5.687355187
 21
4.0991046131
 31
0.0
 11
5.6813488476
 21
4.1034353424
 31
0.0
 11
5.674936129
 21
4.1073210179
 31
0.0
 11
5.6681073356
 21
4.1106332189
 31
0.0
 11
5.660880136
 21
4.1132103077
 31
0.0
 11
5.6533228827
 21
4.114862994
 31
0.0
 11
5.6455760848
 21
4.1153998406
 31
0.0
  0
SPLINE
  5
284
100
AcDbEntity
  8
0
100
AcDbSpline
 62
6
  6
CONTINUOUS
 70
0
 71
3
 72
19
 73
15
 74
13
 42
0.0000001
 43
0.0000001
 44
0.0000000001
 12
-0.0000000001
 22
0.0641759675
 32
0.0
 13
0.0641223898
 23
-0.0026218184
 33
0.0
 40
0.0
 40
0.0
 40
0.0
 40
0.0
 40
0.1243647423
 40
0.1867912048
 40
0.2491983515
 40
0.3115923547
 40
0.3740050701
 40
0.498830844
 40
0.6238366052
 40
0.6864671289
 40
0.7491534075
 40
0.8119157336
 40
0.8747460797
 40
1.0
 40
1.0
 40
1.0
 40
1.0
 10
4.5589122788
 20
4.4040415171
 30
0.0
 10
4.5589122788
 20
4.4067019264
 30
0.0
 10
4.5593250245
 20
4.4107125392
 30
0.0
 10
4.5606598904
 20
4.4158798026
 30
0.0
 10
4.5620540544
 20
4.4196425202
 30
0.0
 10
4.5638224404
 20
4.4232435299
 30
0.0
 10
4.5666501767
 20
4.4277826888
 30
0.0
 10
4.5710328474
 20
4.4328871357
 30
0.0
 10
4.5763473387
 20
4.4370196329
 30
0.0
 10
4.581028584
 20
4.439635514
 30
0.0
 10
4.5847251711
 20
4.4412410818
 30
0.0
 10
4.5885689143
 20
4.4424687998
 30
0.0
 10
4.5938247685
 20
4.443580072
 30
0.0
 10
4.5978761181
 20
4.4438240457
 30
0.0
 10
4.6005533117
 20
4.4437145814
 30
0.0
 11
4.5589122788
 21
4.4040415171
 31
0.0
 11
4.5597224616
 21
4.4119815171
 31
0.0
 11
4.5607252308
 21
4.4158602697
 31
0.0
 11
4.5621165487
 21
4.4196158751
 31
0.0
 11
4.5638809611
 21
4.4232103752
 31
0.0
 11
4.5659995336
 21
4.4266096179
 31
0.0
 11
4.5712157038
 21
4.43268948
 31
0.0
 11
4.5775491892
 21
4.437613433
 31
0.0
 11
4.5810573894
 21
4.43957504
 31
0.0
 11
4.5847475055
 21
4.4411772856
 31
0.0
 11
4.588584378
 21
4.4424027846
 31
0.0
 11
4.5925291741
 21
4.4432377737
 31
0.0
 11
4.6005533117
 21
4.4437145814
 31
0.0
  0
SPLINE
  5
285
100
AcDbEntity
  8
0
100
AcDbSpline
 62
6
  6
CONTINUOUS
 70
0
 71
3
 72
18
 73
14
 74
12
 42
0.0000001
 43
0.0000001
 44
0.0000000001
 12
-0.0
 22
-0.0628934811
 32
0.0
 13
0.0628886147
 23
0.0007823725
 33
0.0
 40
0.0
 40
0.0
 40
0.0
 40
0.0
 40
0.1242992154
 40
0.186805656
 40
0.2492563486
 40
0.373907764
 40
0.4987505428
 40
0.5613261921
 40
0.6239203787
 40
0.6865459412
 40
0.7492372782
 40
0.8747324776
 40
1.0
 40
1.0
 40
1.0
 40
1.0
 10
4.5589122788
 20
4.1135211819
 30
0.0
 10
4.5589122788
 20
4.1109153118
 30
0.0
 10
4.5593098793
 20
4.1069854719
 30
0.0
 10
4.5605910535
 20
4.1019132327
 30
0.0
 10
4.5623762417
 20
4.0969856818
 30
0.0
 10
4.5655149059
 20
4.0911961559
 30
0.0
 10
4.5697374922
 20
4.0861395941
 30
0.0
 10
4.5736547235
 20
4.0826466391
 30
0.0
 10
4.576842614
 20
4.0803249026
 30
0.0
 10
4.5802467242
 20
4.0783292101
 30
0.0
 10
4.5850271941
 20
4.0761220626
 30
0.0
 10
4.5913739662
 20
4.0742587409
 30
0.0
 10
4.5966501187
 20
4.0737832592
 30
0.0
 10
4.5992760857
 20
4.0738159279
 30
0.0
 11
4.5589122788
 21
4.1135211819
 31
0.0
 11
4.5596904805
 21
4.105742401
 31
0.0
 11
4.5606542485
 21
4.1019311204
 31
0.0
 11
4.5619920359
 21
4.0982382248
 31
0.0
 11
4.5657290414
 21
4.0913464435
 31
0.0
 11
4.5707577549
 21
4.0853162897
 31
0.0
 11
4.5736953266
 21
4.0826972014
 31
0.0
 11
4.5768777573
 21
4.0803798186
 31
0.0
 11
4.5802750898
 21
4.0783868806
 31
0.0
 11
4.5838549633
 21
4.0767343733
 31
0.0
 11
4.5914283528
 21
4.0745116417
 31
0.0
 11
4.5992760857
 21
4.0738159279
 31
0.0
  0
SPLINE
  5
286
100
AcDbEntity
  8
0
100
AcDbSpline
 62
6
  6
CONTINUOUS
 70
0
 71
3
 72
12
 73
8
 74
6
 42
0.0000001
 43
0.0000001
 44
0.0000000001
 12
0.4420289819
 22
-0.0026333292
 32
0.0
 13
0.4420359213
 23
0.0008941359
 33
0.0
 40
0.0
 40
0.0
 40
0.0
 40
0.0
 40
0.2493974205
 40
0.3741105493
 40
0.4989192321
 40
0.7490118527
 40
1.0
 40
1.0
 40
1.0
 40
1.0
 10
6.1420031905
 20
4.0754600088
 30
0.0
 10
6.1787501531
 20
4.0752410936
 30
0.0
 10
6.2338724596
 20
4.0748704828
 30
0.0
 10
6.3073846761
 20
4.0744253513
 30
0.0
 10
6.3809997134
 20
4.0740484904
 30
0.0
 10
6.4732213789
 20
4.0737405934
 30
0.0
 10
6.5470536354
 20
4.0737411036
 30
0.0
 10
6.584035561
 20
4.0738159094
 30
0.0
 11
6.1420031905
 21
4.0754600088
 31
0.0
 11
6.2522438333
 21
4.0747633337
 31
0.0
 11
6.3073706453
 21
4.0744340315
 31
0.0
 11
6.362539968
 21
4.0741538939
 31
0.0
 11
6.4730895579
 21
4.0738025658
 31
0.0
 11
6.584035561
 21
4.0738159094
 31
0.0
  0
SPLINE
  5
287
100
AcDbEntity
  8
0
100
AcDbSpline
 62
6
  6
CONTINUOUS
 70
0
 71
3
 72
15
 73
11
 74
9
 42
0.0000001
 43
0.0000001
 44
0.0000000001
 12
-0.0000664823
 22
-0.057187227
 32
0.0
 13
0.0570103091
 23
-0.0044953319
 33
0.0
 40
0.0
 40
0.0
 40
0.0
 40
0.0
 40
0.1305614562
 40
0.2607556881
 40
0.3892286665
 40
0.5155132065
 40
0.639481942
 40
0.761327418
 40
0.8814621522
 40
1.0
 40
1.0
 40
1.0
 40
1.0
 10
6.1084412565
 20
4.1153585183
 30
0.0
 10
6.1084383632
 20
4.1128697025
 30
0.0
 10
6.1088611214
 20
4.1078892054
 30
0.0
 10
6.1107212369
 20
4.1006706027
 30
0.0
 10
6.1137817637
 20
4.0939585893
 30
0.0
 10
6.1179133067
 20
4.0879898627
 30
0.0
 10
6.1229893608
 20
4.0829756875
 30
0.0
 10
6.1288325609
 20
4.0790816344
 30
0.0
 10
6.1352407283
 20
4.0764777226
 30
0.0
 10
6.1397505641
 20
4.0756376311
 30
0.0
 10
6.1420031905
 20
4.0754600088
 30
0.0
 11
6.1084412565
 21
4.1153585183
 31
0.0
 11
6.1090681439
 21
4.1079184291
 31
0.0
 11
6.110937288
 21
4.1007114146
 31
0.0
 11
6.1139908474
 21
4.0940290158
 31
0.0
 11
6.1181127115
 21
4.0880989562
 31
0.0
 11
6.1231637197
 21
4.0831242827
 31
0.0
 11
6.1289707812
 21
4.0792731536
 31
0.0
 11
6.135336875
 21
4.0766900971
 31
0.0
 11
6.1420031905
 21
4.0754600088
 31
0.0
  0
SPLINE
  5
288
100
AcDbEntity
  8
0
100
AcDbSpline
 62
6
  6
CONTINUOUS
 70
0
 71
3
 72
13
 73
9
 74
7
 42
0.0000001
 43
0.0000001
 44
0.0000000001
 12
0.4437760372
 22
-0.0028368869
 32
0.0
 13
0.4437839388
 23
0.0010172649
 33
0.0
 40
0.0
 40
0.0
 40
0.0
 40
0.0
 40
0.2500022612
 40
0.3750032407
 40
0.500003669
 40
0.6250033988
 40
0.7500024783
 40
1.0
 40
1.0
 40
1.0
 40
1.0
 10
6.1084412566
 20
4.1153585183
 30
0.0
 10
6.1454229275
 20
4.115122109
 30
0.0
 10
6.2008950822
 20
4.1147181046
 30
0.0
 10
6.2748581448
 20
4.1142213472
 30
0.0
 10
6.3303305336
 20
4.1139004862
 30
0.0
 10
6.3858030217
 20
4.1136508143
 30
0.0
 10
6.4597663944
 20
4.1134437097
 30
0.0
 10
6.5152392379
 20
4.1134478511
 30
0.0
 10
6.5522208662
 20
4.1135326224
 30
0.0
 11
6.1084412566
 21
4.1153585183
 31
0.0
 11
6.2193859256
 21
4.1145974077
 31
0.0
 11
6.2748582814
 21
4.1142299643
 31
0.0
 11
6.3303307003
 21
4.1139123503
 31
0.0
 11
6.3858031739
 21
4.1136665376
 31
0.0
 11
6.4412756915
 21
4.1135132045
 31
0.0
 11
6.5522208662
 21
4.1135326224
 31
0.0
  0
SPLINE
  5
289
100
AcDbEntity
  8
0
100
AcDbSpline
 62
6
  6
CONTINUOUS
 70
0
 71
3
 72
20
 73
16
 74
14
 42
0.0000001
 43
0.0000001
 44
0.0000000001
 12
0.0003954142
 22
-0.0554383975
 32
0.0
 13
0.054953083
 23
-0.0073301387
 33
0.0
 40
0.0
 40
0.0
 40
0.0
 40
0.0
 40
0.0652028512
 40
0.1304423146
 40
0.1955184083
 40
0.2603011393
 40
0.3247253663
 40
0.3887181695
 40
0.5150030419
 40
0.5773733624
 40
0.6392203603
 40
0.7612406712
 40
0.8810497781
 40
0.9405019084
 40
1.0
 40
1.0
 40
1.0
 40
1.0
 10
6.5522208662
 20
4.1135211819
 30
0.0
 10
6.5522294602
 20
4.1123162681
 30
0.0
 10
6.5523365682
 20
4.1099053679
 30
0.0
 10
6.5527744979
 20
4.1063152849
 30
0.0
 10
6.5534987966
 20
4.1027789938
 30
0.0
 10
6.5545206438
 20
4.0993325502
 30
0.0
 10
6.5558262477
 20
4.0960045532
 30
0.0
 10
6.5579112612
 20
4.0917801832
 30
0.0
 10
6.5605060876
 20
4.0878652588
 30
0.0
 10
6.5635571162
 20
4.0843767161
 30
0.0
 10
6.5668585363
 20
4.0812366669
 30
0.0
 10
6.5714499415
 20
4.0779504921
 30
0.0
 10
6.5765382795
 20
4.0756002038
 30
0.0
 10
6.580779765
 20
4.0743628873
 30
0.0
 10
6.5829456326
 20
4.0739613043
 30
0.0
 10
6.5840355005
 20
4.0738159279
 30
0.0
 11
6.5522208662
 21
4.1135211819
 31
0.0
 11
6.5523827776
 21
4.1099099763
 31
0.0
 11
6.5528229612
 21
4.1063199988
 31
0.0
 11
6.553550339
 21
4.1027862775
 31
0.0
 11
6.5545711932
 21
4.0993428734
 31
0.0
 11
6.5558753263
 21
4.0960178109
 31
0.0
 11
6.5574461927
 21
4.0928367892
 31
0.0
 11
6.5613239105
 21
4.0870075325
 31
0.0
 11
6.5636019407
 21
4.0844061965
 31
0.0
 11
6.5660873794
 21
4.0820441708
 31
0.0
 11
6.5715923231
 21
4.07811252
 31
0.0
 11
6.5776277692
 21
4.0753390511
 31
0.0
 11
6.5807921268
 21
4.0744167964
 31
0.0
 11
6.5840355005
 21
4.0738159279
 31
0.0
  0
SPLINE
  5
28A
100
AcDbEntity
  8
0
100
AcDbSpline
 62
6
  6
CONTINUOUS
 70
0
 71
3
 72
15
 73
11
 74
9
 42
0.0000001
 43
0.0000001
 44
0.0000000001
 12
-0.0001891805
 22
-0.0564131168
 32
0.0
 13
0.056231747
 23
-0.0045239547
 33
0.0
 40
0.0
 40
0.0
 40
0.0
 40
0.0
 40
0.1323662404
 40
0.2640922941
 40
0.3936063553
 40
0.5202942738
 40
0.6439536462
 40
0.7647990388
 40
0.8833646644
 40
1.0
 40
1.0
 40
1.0
 40
1.0
 10
6.1056864039
 20
4.1153999576
 30
0.0
 10
6.1056780568
 20
4.1129108936
 30
0.0
 10
6.1060762911
 20
4.1079345644
 30
0.0
 10
6.1078623631
 20
4.1007178076
 30
0.0
 10
6.1108134539
 20
4.094006112
 30
0.0
 10
6.1148054046
 20
4.0880360857
 30
0.0
 10
6.1197175501
 20
4.0830189036
 30
0.0
 10
6.1253794263
 20
4.079121317
 30
0.0
 10
6.131596246
 20
4.0765152507
 30
0.0
 10
6.1359784314
 20
4.0756758286
 30
0.0
 10
6.1381646343
 20
4.0754999443
 30
0.0
 11
6.1056864039
 21
4.1153999576
 31
0.0
 11
6.1062782625
 21
4.107956216
 31
0.0
 11
6.1080762858
 21
4.100745901
 31
0.0
 11
6.1110249284
 21
4.094060992
 31
0.0
 11
6.1150118963
 21
4.0881295273
 31
0.0
 11
6.1199024498
 21
4.0831548155
 31
0.0
 11
6.1255288169
 21
4.0793051893
 31
0.0
 11
6.1316999378
 21
4.076725287
 31
0.0
 11
6.1381646343
 21
4.0754999443
 31
0.0
  0
SPLINE
  5
28B
100
AcDbEntity
  8
0
100
AcDbSpline
 62
6
  6
CONTINUOUS
 70
0
 71
3
 72
20
 73
16
 74
14
 42
0.0000001
 43
0.0000001
 44
0.0000000001
 12
0.0500444297
 22
0.0538976468
 32
0.0
 13
0.0735334877
 23
-0.0014924725
 33
0.0
 40
0.0
 40
0.0
 40
0.0
 40
0.0
 40
0.1482995679
 40
0.2938349686
 40
0.4354791136
 40
0.5716083218
 40
0.6369019643
 40
0.6998379125
 40
0.7599495275
 40
0.8166944016
 40
0.8694823548
 40
0.9177631252
 40
0.9401062121
 40
0.9612333294
 40
1.0
 40
1.0
 40
1.0
 40
1.0
 10
6.0491036353
 20
4.0702987662
 30
0.0
 10
6.051577491
 20
4.0729630987
 30
0.0
 10
6.0565028153
 20
4.0782202112
 30
0.0
 10
6.063919942
 20
4.0859002808
 30
0.0
 10
6.0712979607
 20
4.0932001528
 30
0.0
 10
6.0774734451
 20
4.0989143084
 30
0.0
 10
6.0823977069
 20
4.103129394
 30
0.0
 10
6.086001186
 20
4.1060181186
 30
0.0
 10
6.0895506124
 20
4.1086341588
 30
0.0
 10
6.0930253275
 20
4.1109244437
 30
0.0
 10
6.0963983972
 20
4.112827
 30
0.0
 10
6.0991669014
 20
4.1140646926
 30
0.0
 10
6.1013041699
 20
4.1147735005
 30
0.0
 10
6.1032618167
 20
4.1152577663
 30
0.0
 10
6.1047361733
 20
4.1154192437
 30
0.0
 10
6.1056863895
 20
4.1153999576
 30
0.0
 11
6.0491036353
 21
4.0702987662
 31
0.0
 11
6.0565693497
 21
4.0782505447
 31
0.0
 11
6.0640155203
 21
4.0859400605
 31
0.0
 11
6.0714353546
 21
4.0932527359
 31
0.0
 11
6.0788061705
 21
4.1000286905
 31
0.0
 11
6.0824584314
 21
4.1031468106
 31
0.0
 11
6.0860748297
 21
4.1060360913
 31
0.0
 11
6.0896399767
 21
4.1086506833
 31
0.0
 11
6.0931325799
 21
4.1109353913
 31
0.0
 11
6.0965239386
 21
4.1128254577
 31
0.0
 11
6.0997771871
 21
4.1142487867
 31
0.0
 11
6.1013383603
 21
4.1147618018
 31
0.0
 11
6.1028479531
 21
4.1151301001
 31
0.0
 11
6.1056863895
 21
4.1153999576
 31
0.0
  0
SPLINE
  5
28C
100
AcDbEntity
  8
0
100
AcDbSpline
 62
6
  6
CONTINUOUS
 70
0
 71
3
 72
19
 73
15
 74
13
 42
0.0000001
 43
0.0000001
 44
0.0000000001
 12
0.0768445372
 22
0.0242201316
 32
0.0
 13
0.0805162729
 23
-0.0029711081
 33
0.0
 40
0.0
 40
0.0
 40
0.0
 40
0.0
 40
0.1334814949
 40
0.266279212
 40
0.3980720104
 40
0.5283308182
 40
0.6561360732
 40
0.7186480128
 40
0.7798323728
 40
0.8392518816
 40
0.8963087326
 40
0.9502069799
 40
0.9756871811
 40
1.0
 40
1.0
 40
1.0
 40
1.0
 10
6.0602113298
 20
4.0560609776
 30
0.0
 10
6.0636304377
 20
4.057138624
 30
0.0
 10
6.0704538181
 20
4.0592799253
 30
0.0
 10
6.0806676376
 20
4.0624385479
 30
0.0
 10
6.0908201837
 20
4.0655018663
 30
0.0
 10
6.1008771313
 20
4.0684159653
 30
0.0
 10
6.109188246
 20
4.0706672318
 30
0.0
 10
6.1157459943
 20
4.0722873388
 30
0.0
 10
6.1205433551
 20
4.073371549
 30
0.0
 10
6.1252247356
 20
4.0742985309
 30
0.0
 10
6.1297444293
 20
4.0750201568
 30
0.0
 10
6.1333914164
 20
4.0754063754
 30
0.0
 10
6.1361742643
 20
4.0755310005
 30
0.0
 10
6.1375123913
 20
4.0755242423
 30
0.0
 10
6.1381649172
 20
4.0755001636
 30
0.0
 11
6.0602113298
 21
4.0560609776
 31
0.0
 11
6.0704735688
 21
4.0592782803
 31
0.0
 11
6.0806970369
 21
4.0624347508
 31
0.0
 11
6.0908651978
 21
4.0654949827
 31
0.0
 11
6.1009489095
 21
4.0684045719
 31
0.0
 11
6.1108937847
 21
4.0710759081
 31
0.0
 11
6.1157845313
 21
4.0722794367
 31
0.0
 11
6.1205942975
 21
4.0733601716
 31
0.0
 11
6.1252923833
 21
4.0742810862
 31
0.0
 11
6.1298341635
 21
4.0749923192
 31
0.0
 11
6.1341549725
 21
4.0754272078
 31
0.0
 11
6.1362060632
 21
4.0755149627
 31
0.0
 11
6.1381649172
 21
4.0755001636
 31
0.0
  0
LINE
  5
28D
100
AcDbEntity
  8
0
100
AcDbLine
 62
6
  6
CONTINUOUS
 10
6.0261709264
 20
4.0452804332
 11
6.0491036353
 21
4.0702987662
  0
LINE
  5
28E
100
AcDbEntity
  8
0
100
AcDbLine
 62
6
  6
CONTINUOUS
 10
6.0261678402
 20
4.0452770414
 11
6.0602101666
 21
4.0560620778
  0
SPLINE
  5
28F
100
AcDbEntity
  8
0
100
AcDbSpline
 62
6
  6
CONTINUOUS
 70
0
 71
3
 72
13
 73
9
 74
7
 42
0.0000001
 43
0.0000001
 44
0.0000000001
 12
0.4437014867
 22
0.0361988497
 32
0.0
 13
0.4439955825
 23
0.0323927279
 33
0.0
 40
0.0
 40
0.0
 40
0.0
 40
0.0
 40
0.250043867
 40
0.3750639275
 40
0.5000766394
 40
0.6250788225
 40
0.7500676681
 40
1.0
 40
1.0
 40
1.0
 40
1.0
 10
6.1084412566
 20
4.3688231049
 30
0.0
 10
6.1454228685
 20
4.3718402051
 30
0.0
 10
6.2008909516
 20
4.3764153988
 30
0.0
 10
6.2748504767
 20
4.3824746797
 30
0.0
 10
6.330320955
 20
4.3869678227
 30
0.0
 10
6.385792489
 20
4.3913901799
 30
0.0
 10
6.4597522778
 20
4.3971610742
 30
0.0
 10
6.5152312491
 20
4.4013310553
 30
0.0
 10
6.5522208662
 20
4.4040297186
 30
0.0
 11
6.1084412566
 21
4.3688231049
 31
0.0
 11
6.2193817994
 21
4.3779268693
 31
0.0
 11
6.2748522579
 21
4.3824662605
 31
0.0
 11
6.3303234579
 21
4.386956212
 31
0.0
 11
6.3857956894
 21
4.3913747563
 31
0.0
 11
6.4412692224
 21
4.3957012283
 31
0.0
 11
6.5522208662
 21
4.4040297186
 31
0.0
  0
SPLINE
  5
290
100
AcDbEntity
  8
0
100
AcDbSpline
 62
6
  6
CONTINUOUS
 70
0
 71
3
 72
17
 73
13
 74
11
 42
0.0000001
 43
0.0000001
 44
0.0000000001
 12
-0.0535645515
 22
-0.0087138324
 32
0.0
 13
0.0008047677
 23
-0.0542627349
 33
0.0
 40
0.0
 40
0.0
 40
0.0
 40
0.0
 40
0.1189445973
 40
0.1789583476
 40
0.2392997836
 40
0.3610912885
 40
0.4849121885
 40
0.610989616
 40
0.7392537457
 40
0.8041729681
 40
0.8694102104
 40
1.0
 40
1.0
 40
1.0
 40
1.0
 10
6.1388095929
 20
4.4083779459
 30
0.0
 10
6.1366858549
 20
4.4080324582
 30
0.0
 10
6.1335314666
 20
4.4071935573
 30
0.0
 10
6.1295468605
 20
4.4054899059
 30
0.0
 10
6.125699385
 20
4.4033827067
 30
0.0
 10
6.1212487453
 20
4.4000341539
 30
0.0
 10
6.1166772924
 20
4.3950548883
 30
0.0
 10
6.1129967122
 20
4.3892482301
 30
0.0
 10
6.1107647692
 20
4.3838895242
 30
0.0
 10
6.10952261
 20
4.3793778848
 30
0.0
 10
6.1086438938
 20
4.3747399808
 30
0.0
 10
6.1084062259
 20
4.371185158
 30
0.0
 10
6.1084412574
 20
4.3688231049
 30
0.0
 11
6.1388095929
 21
4.4083779459
 31
0.0
 11
6.1325698308
 21
4.4067250717
 31
0.0
 11
6.1295751222
 21
4.405444872
 31
0.0
 11
6.1267026004
 21
4.4038726249
 31
0.0
 11
6.1214140085
 21
4.3999083029
 31
0.0
 11
6.1168624921
 21
4.3949649522
 31
0.0
 11
6.1131893504
 21
4.389192449
 31
0.0
 11
6.1105079386
 21
4.382768917
 31
0.0
 11
6.1095706604
 21
4.3793727992
 31
0.0
 11
6.1089109959
 21
4.3758944586
 31
0.0
 11
6.1084412574
 21
4.3688231049
 31
0.0
  0
SPLINE
  5
291
100
AcDbEntity
  8
0
100
AcDbSpline
 62
6
  6
CONTINUOUS
 70
0
 71
3
 72
22
 73
18
 74
16
 42
0.0000001
 43
0.0000001
 44
0.0000000001
 12
-0.054576889
 22
-0.0074969874
 32
0.0
 13
0.0003957772
 23
-0.0550879751
 33
0.0
 40
0.0
 40
0.0
 40
0.0
 40
0.0
 40
0.0596331455
 40
0.1191328644
 40
0.1788258499
 40
0.2389938938
 40
0.2997045595
 40
0.3609233136
 40
0.4226227122
 40
0.4848367284
 40
0.6108604493
 40
0.6747837834
 40
0.7391870763
 40
0.8039992422
 40
0.8691596578
 40
0.9345536724
 40
1.0
 40
1.0
 40
1.0
 40
1.0
 10
6.5833973761
 20
4.4437145814
 30
0.0
 10
6.5823125123
 20
4.4435655584
 30
0.0
 10
6.5801586021
 20
4.443158548
 30
0.0
 10
6.5770043756
 20
4.4422266471
 30
0.0
 10
6.5739488437
 20
4.4409827473
 30
0.0
 10
6.5710095329
 20
4.4394369932
 30
0.0
 10
6.5682073911
 20
4.4376031534
 30
0.0
 10
6.5655681422
 20
4.4354964628
 30
0.0
 10
6.5631197126
 20
4.4331303394
 30
0.0
 10
6.5601260922
 20
4.4296447639
 30
0.0
 10
6.557593537
 20
4.4257344106
 30
0.0
 10
6.5555741535
 20
4.4215183826
 30
0.0
 10
6.5543183329
 20
4.4181965546
 30
0.0
 10
6.5533466261
 20
4.4147574359
 30
0.0
 10
6.5526724421
 20
4.4112294142
 30
0.0
 10
6.5522850537
 20
4.4076475585
 30
0.0
 10
6.5522122321
 20
4.4052432857
 30
0.0
 10
6.5522208662
 20
4.4040415172
 30
0.0
 11
6.5833973761
 21
4.4437145814
 31
0.0
 11
6.5801693644
 21
4.443104518
 31
0.0
 11
6.5770256905
 21
4.4421764497
 31
0.0
 11
6.5739794668
 21
4.4409377292
 31
0.0
 11
6.5710450101
 21
4.4393964058
 31
0.0
 11
6.5682459041
 21
4.4375658924
 31
0.0
 11
6.5656100352
 21
4.4354620912
 31
0.0
 11
6.5631648533
 21
4.4331011234
 31
0.0
 11
6.5609301417
 21
4.4305025328
 31
0.0
 11
6.5571457609
 21
4.4246820732
 31
0.0
 11
6.5556237279
 21
4.4215064845
 31
0.0
 11
6.5543692391
 21
4.4181877309
 31
0.0
 11
6.5533984052
 21
4.4147517902
 31
0.0
 11
6.5527211986
 21
4.4112266003
 31
0.0
 11
6.5523315648
 21
4.4076452161
 31
0.0
 11
6.5522208662
 21
4.4040415172
 31
0.0
  0
LINE
  5
292
100
AcDbEntity
  8
0
100
AcDbLine
 62
6
  6
CONTINUOUS
 10
6.1065430408
 20
4.3686062649
 11
6.1084412566
 21
4.3688231049
  0
ENDSEC
  0
SECTION
  2
OBJECTS
  0
DICTIONARY
  5
C
100
AcDbDictionary
280
0
281
1
  3
ACAD_GROUP
350
D
  3
ACAD_MLINESTYLE
350
17
  3
ACAD_LAYOUT
350
1A
  3
ACAD_PLOTSETTINGS
350
19
  3
ACAD_PLOTSTYLENAME
350
E
  0
DICTIONARY
  5
D
102
{ACAD_REACTORS
330
C
102
}
100
AcDbDictionary
280
0
281
1
  0
ACDBDICTIONARYWDFLT
  5
E
102
{ACAD_REACTORS
330
C
102
}
100
AcDbDictionary
281
1
  3
Normal
350
F
100
AcDbDictionaryWithDefault
340
F
  0
DICTIONARY
  5
17
102
{ACAD_REACTORS
330
C
102
}
100
AcDbDictionary
280
0
281
1
  3
Standard
350
18
  0
DICTIONARY
  5
19
102
{ACAD_REACTORS
330
C
102
}
100
AcDbDictionary
281
1
  0
DICTIONARY
  5
1A
102
{ACAD_REACTORS
330
C
102
}
100
AcDbDictionary
281
1
  3
Model
350
293
  3
Layout1
350
294
  0
ACDBPLACEHOLDER
  5
F
102
{ACAD_REACTORS
330
E
102
}
  0
MLINESTYLE
  5
18
102
{ACAD_REACTORS
330
17
102
}
100
AcDbMlineStyle
  2
STANDARD
 70
0
  3

 62
256
 51
90.0
 52
90.0
 71
2
 49
0.5
 62
256
  6
BYLAYER
 49
-0.5
 62
256
  6
BYLAYER
  0
LAYOUT
  5
293
102
{ACAD_REACTORS
330
1A
102
}
100
AcDbPlotSettings
  1

  2
none_device
  4
ISO_A4_(297.00_x_210.00_MM)
  6

 40
0.0
 41
0.0
 42
0.0
 43
0.0
 44
297.0
 45
210.0
 46
0.0
 47
0.0
 48
0.0
 49
0.0
140
0.0
141
0.0
142
1.0
143
1.0
 70
1024
 72
0
 73
0
 74
0
  7

 75
0
147
1.0
148
0.0
149
0.0
100
AcDbLayout
  1
Model
 70
0
 71
0
 10
0.0
 20
0.0
 11
11.6929133858
 21
8.2677165354
 12
0.0
 22
0.0
 32
0.0
 14
0.0
 24
0.0
 34
0.0
 15
0.0
 25
0.0
 35
0.0
146
0.0
 13
0.0
 23
0.0
 33
0.0
 16
1.0
 26
0.0
 36
0.0
 17
0.0
 27
1.0
 37
0.0
 76
0
330
203
345
0
346
0
  0
LAYOUT
  5
294
102
{ACAD_REACTORS
330
1A
102
}
100
AcDbPlotSettings
  1

  2
none_device
  4
ISO_A4_(297.00_x_210.00_MM)
  6

 40
0.0
 41
0.0
 42
0.0
 43
0.0
 44
297.0
 45
210.0
 46
0.0
 47
0.0
 48
0.0
 49
0.0
140
0.0
141
0.0
142
1.0
143
1.0
 70
0
 72
0
 73
0
 74
0
  7

 75
0
147
1.0
148
0.0
149
0.0
100
AcDbLayout
  1
Layout1
 70
0
 71
1
 10
0.0
 20
0.0
 11
11.6929133858
 21
8.2677165354
 12
0.0
 22
0.0
 32
0.0
 14
0.0
 24
0.0
 34
0.0
 15
0.0
 25
0.0
 35
0.0
146
0.0
 13
0.0
 23
0.0
 33
0.0
 16
1.0
 26
0.0
 36
0.0
 17
0.0
 27
1.0
 37
0.0
 76
0
330
204
345
0
346
0
  0
ENDSEC
  0
EOF
