  0
SECTION
  2
HEADER
  9
$ACADVER
  1
AC1015
  9
$DWGCODEPAGE
  3
ANSI_1252
  9
$EXTMAX
 10
11.6929133858
 20
8.2677165354
 30
0.0
  9
$EXTMIN
 10
0.0
 20
0.0
 30
0.0
  9
$LIMMIN
 10
0.0
 20
0.0
  9
$LIMMAX
 10
11.6929133858
 20
8.2677165354
  9
$VIEWCTR
 10
5.8464566929
 20
4.1338582677
  9
$VIEWSIZE
 40
8.2677165354
  9
$CLAYER
  8
0
  9
$LTSCALE
 40
0.6431102362
  9
$CELTYPE
  6
BYLAYER
  9
$DIMSCALE
 40
1.0
  9
$DIMASZ
 40
0.1
  9
$DIMEXO
 40
0.0730807087
  9
$DIMDLI
 40
0.4443307087
  9
$DIMEXE
 40
0.2104724409
  9
$DIMCEN
 40
0.1052362205
  9
$DIMLFAC
 40
1.0
  9
$DIMBLK
  1
_FILLED
  9
$DIMTXT
 40
0.08
  9
$DIMTOL
 70
1
  9
$DIMLIM
 70
0
  9
$DIMTFAC
 40
1.0
  9
$DIMTP
 40
0.01
  9
$DIMTM
 40
0.01
  9
$PDMODE
 70
3
  9
$PDSIZE
 40
0.06
  9
$HANDSEED
  5
263
  9
$TILEMODE
 70
1
  9
$MEASUREMENT
 70
0
  9
$INSUNITS
 70
1
  0
ENDSEC
  0
SECTION
  2
CLASSES
  0
CLASS
  1
ACDBDICTIONARYWDFLT
  2
AcDbDictionaryWithDefault
  3
AutoCAD 2000
 90
0
280
0
281
0
  0
CLASS
  1
ACDBPLACEHOLDER
  2
AcDbPlaceHolder
  3
AutoCAD 2000
 90
0
280
0
281
0
  0
CLASS
  1
LAYOUT
  2
AcDbLayout
  3
AutoCAD 2000
 90
0
280
0
281
0
  0
ENDSEC
  0
SECTION
  2
TABLES
  0
TABLE
  2
VPORT
  5
8
100
AcDbSymbolTable
 70
2
  0
VPORT
  5
1F4
100
AcDbSymbolTableRecord
100
AcDbViewportTableRecord
  2
*ACTIVE
 70
0
 10
0.0
 20
0.0
 11
1.0
 21
1.0
 12
5.8464566929
 22
4.1338582677
 13
0.0
 23
0.0
 14
1.0
 24
1.0
 15
0.0
 25
0.0
 16
0.0
 26
0.0
 36
1.0
 17
0.0
 27
0.0
 37
0.0
 40
8.2677165354
 41
1.4142857143
 42
50.0
 43
0.0
 44
0.0
 50
0.0
 51
0.0
 71
0
 72
100
 73
1
 74
1
 75
0
 76
0
 77
0
 78
0
  0
ENDTAB
  0
TABLE
  2
LTYPE
  5
5
100
AcDbSymbolTable
 70
6
  0
LTYPE
  5
14
100
AcDbSymbolTableRecord
100
AcDbLinetypeTableRecord
  2
BYBLOCK
 70
0
  3

 72
65
 73
0
 40
0.0
  0
LTYPE
  5
15
100
AcDbSymbolTableRecord
100
AcDbLinetypeTableRecord
  2
BYLAYER
 70
0
  3

 72
65
 73
0
 40
0.0
  0
LTYPE
  5
16
100
AcDbSymbolTableRecord
100
AcDbLinetypeTableRecord
  2
CONTINUOUS
 70
64
  3
Solid line
 72
65
 73
0
 40
0.0
  0
LTYPE
  5
1F5
100
AcDbSymbolTableRecord
100
AcDbLinetypeTableRecord
  2
CENTER
 70
64
  3
____ _ ____ _ ____ _ ____ _ ____ _ ____ _ ____
 72
65
 73
4
 40
0.6
 49
0.375
 74
0
 49
-0.075
 74
0
 49
0.075
 74
0
 49
-0.075
 74
0
  0
LTYPE
  5
1F6
100
AcDbSymbolTableRecord
100
AcDbLinetypeTableRecord
  2
HIDDEN
 70
64
  3
- - - - - - - - - - - - - - - - - - - -
 72
65
 73
2
 40
0.2
 49
0.1
 74
0
 49
-0.1
 74
0
  0
LTYPE
  5
1F7
100
AcDbSymbolTableRecord
100
AcDbLinetypeTableRecord
  2
PHANTOM
 70
64
  3
_____ _ _ _____ _ _ _____ _ _ _____
 72
65
 73
6
 40
0.8
 49
0.45
 74
0
 49
-0.05
 74
0
 49
0.1
 74
0
 49
-0.05
 74
0
 49
0.1
 74
0
 49
-0.05
 74
0
  0
LTYPE
  5
1F8
100
AcDbSymbolTableRecord
100
AcDbLinetypeTableRecord
  2
DOT
 70
64
  3
. . . . . . . . . . . . . . . . . . . .
 72
65
 73
2
 40
0.2
 49
0.1
 74
0
 49
-0.1
 74
0
  0
LTYPE
  5
1F9
100
AcDbSymbolTableRecord
100
AcDbLinetypeTableRecord
  2
DASHED
 70
64
  3
- - - - - - - - - - - - - - - - - - - -
 72
65
 73
2
 40
0.2
 49
0.1
 74
0
 49
-0.1
 74
0
  0
ENDTAB
  0
TABLE
  2
LAYER
  5
2
100
AcDbSymbolTable
 70
36
  0
LAYER
  5
10
100
AcDbSymbolTableRecord
100
AcDbLayerTableRecord
  2
0
 70
0
 62
7
  6
CONTINUOUS
370
-3
390
F
  0
LAYER
  5
1FA
100
AcDbSymbolTableRecord
100
AcDbLayerTableRecord
  2
DEFAULT_1
 70
0
 62
7
  6
CENTER
370
-3
390
F
  0
LAYER
  5
1FB
100
AcDbSymbolTableRecord
100
AcDbLayerTableRecord
  2
DEFAULT_2
 70
0
 62
8
  6
HIDDEN
370
-3
390
F
  0
LAYER
  5
1FC
100
AcDbSymbolTableRecord
100
AcDbLayerTableRecord
  2
DEFAULT_3
 70
0
 62
7
  6
PHANTOM
370
-3
390
F
  0
LAYER
  5
1FD
100
AcDbSymbolTableRecord
100
AcDbLayerTableRecord
  2
01___PRT_ALL_DTM_PLN
 70
0
 62
7
  6
CONTINUOUS
370
-3
390
F
  0
LAYER
  5
1FE
100
AcDbSymbolTableRecord
100
AcDbLayerTableRecord
  2
01___PRT_DEF_DTM_PLN
 70
0
 62
7
  6
CONTINUOUS
370
-3
390
F
  0
LAYER
  5
1FF
100
AcDbSymbolTableRecord
100
AcDbLayerTableRecord
  2
02___PRT_ALL_AXES
 70
0
 62
7
  6
CONTINUOUS
370
-3
390
F
  0
LAYER
  5
200
100
AcDbSymbolTableRecord
100
AcDbLayerTableRecord
  2
03___PRT_ALL_CURVES
 70
0
 62
7
  6
CONTINUOUS
370
-3
390
F
  0
LAYER
  5
201
100
AcDbSymbolTableRecord
100
AcDbLayerTableRecord
  2
04___PRT_ALL_DTM_PNT
 70
0
 62
7
  6
CONTINUOUS
370
-3
390
F
  0
LAYER
  5
202
100
AcDbSymbolTableRecord
100
AcDbLayerTableRecord
  2
05___PRT_ALL_DTM_CSYS
 70
0
 62
7
  6
CONTINUOUS
370
-3
390
F
  0
LAYER
  5
203
100
AcDbSymbolTableRecord
100
AcDbLayerTableRecord
  2
05___PRT_DEF_DTM_CSYS
 70
0
 62
7
  6
CONTINUOUS
370
-3
390
F
  0
LAYER
  5
204
100
AcDbSymbolTableRecord
100
AcDbLayerTableRecord
  2
06___PRT_ALL_SURFS
 70
0
 62
7
  6
CONTINUOUS
370
-3
390
F
  0
ENDTAB
  0
TABLE
  2
STYLE
  5
3
100
AcDbSymbolTable
 70
1
  0
STYLE
  5
11
100
AcDbSymbolTableRecord
100
AcDbTextStyleTableRecord
  2
STANDARD
 70
0
 40
0.0
 41
0.8
 50
0.0
 71
0
 42
0.2
  3
txt
  4

  0
STYLE
  5
205
100
AcDbSymbolTableRecord
100
AcDbTextStyleTableRecord
  2
TEXTSTYLE_1
 70
0
 40
0.0
 41
0.8
 50
0.0
 71
0
 42
0.2
  3
gdt
  4

  0
ENDTAB
  0
TABLE
  2
VIEW
  5
6
100
AcDbSymbolTable
 70
0
  0
ENDTAB
  0
TABLE
  2
UCS
  5
7
100
AcDbSymbolTable
 70
0
  0
ENDTAB
  0
TABLE
  2
APPID
  5
9
100
AcDbSymbolTable
 70
1
  0
APPID
  5
206
100
AcDbSymbolTableRecord
100
AcDbRegAppTableRecord
  2
ACAD
 70
0
  0
ENDTAB
  0
TABLE
  2
BLOCK_RECORD
  5
1
100
AcDbSymbolTable
 70
0
  0
BLOCK_RECORD
  5
207
100
AcDbSymbolTableRecord
100
AcDbBlockTableRecord
  2
*Model_Space
  0
BLOCK_RECORD
  5
208
100
AcDbSymbolTableRecord
100
AcDbBlockTableRecord
  2
*Paper_Space
  0
ENDTAB
  0
TABLE
  2
DIMSTYLE
  5
A
100
AcDbSymbolTable
 70
1
100
AcDbDimStyleTable
 71
0
  0
DIMSTYLE
105
209
100
AcDbSymbolTableRecord
100
AcDbDimStyleTableRecord
  2
STANDARD
 70
0
  3

  4

 40
1.0
 41
0.1
 42
0.0625
 43
0.38
 44
0.18
 45
0.0
 46
0.0
 47
0.01
 48
0.01
140
0.08
141
0.09
142
0.0
143
25.4
144
1.0
145
0.0
146
1.0
147
0.09
 71
1.0
 72
0.0
 73
1
 74
1
 75
0
 76
0
 77
0
 78
4
170
0
171
2
172
0
173
0
174
0
175
0
176
0
177
0
178
0
270
2
271
2
272
2
273
2
274
2
275
0
280
0
281
0
282
0
283
1
284
4
285
0
286
0
287
3
288
0
340
11
  0
ENDTAB
  0
ENDSEC
  0
SECTION
  2
BLOCKS
  0
BLOCK
  5
20
100
AcDbEntity
  8
0
100
AcDbBlockBegin
  2
*Model_Space
 70
0
 10
0.0
 20
0.0
 30
0.0
  3
*Model_Space
  1

  0
ENDBLK
  5
21
100
AcDbEntity
  8
0
100
AcDbBlockEnd
  0
BLOCK
  5
1C
100
AcDbEntity
  8
0
100
AcDbBlockBegin
  2
*Paper_Space
 70
0
 10
0.0
 20
0.0
 30
0.0
  3
*Paper_Space
  1

  0
ENDBLK
  5
1D
100
AcDbEntity
  8
0
100
AcDbBlockEnd
  0
ENDSEC
  0
SECTION
  2
ENTITIES
  0
LINE
  5
20A
100
AcDbEntity
  8
0
100
AcDbLine
 62
6
  6
CONTINUOUS
 10
3.3268975056
 20
3.5177135745
 11
3.3268975056
 21
3.1177135745
  0
LINE
  5
20B
100
AcDbEntity
  8
0
100
AcDbLine
 62
6
  6
CONTINUOUS
 10
3.4418975056
 20
4.1777135745
 11
3.4418975056
 21
4.1277135745
  0
LINE
  5
20C
100
AcDbEntity
  8
0
100
AcDbLine
 62
6
  6
CONTINUOUS
 10
3.4843975056
 20
4.5327135745
 11
3.4843975056
 21
4.3177135745
  0
LINE
  5
20D
100
AcDbEntity
  8
0
100
AcDbLine
 62
6
  6
CONTINUOUS
 10
3.8743975056
 20
4.5327135745
 11
3.8743975056
 21
4.3177135745
  0
LINE
  5
20E
100
AcDbEntity
  8
0
100
AcDbLine
 62
6
  6
CONTINUOUS
 10
3.9168975056
 20
4.1777135745
 11
3.9168975056
 21
4.1277135745
  0
LINE
  5
20F
100
AcDbEntity
  8
0
100
AcDbLine
 62
6
  6
CONTINUOUS
 10
4.0543975056
 20
3.3797135745
 11
4.04365702
 21
3.3904540601
  0
LINE
  5
210
100
AcDbEntity
  8
0
100
AcDbLine
 62
6
  6
CONTINUOUS
 10
3.9798975056
 20
3.5778527062
 11
4.0318975056
 21
3.5177135745
  0
LINE
  5
211
100
AcDbEntity
  8
0
100
AcDbLine
 62
6
  6
CONTINUOUS
 10
4.0320844382
 20
3.382240921
 11
4.0273437821
 21
3.3903895674
  0
LINE
  5
212
100
AcDbEntity
  8
0
100
AcDbLine
 62
6
  6
CONTINUOUS
 10
4.0318975056
 20
3.5177135745
 11
4.0318975056
 21
3.4098735733
  0
LINE
  5
213
100
AcDbEntity
  8
0
100
AcDbLine
 62
6
  6
CONTINUOUS
 10
4.0318975056
 20
3.2378151345
 11
4.0318975056
 21
3.1177135745
  0
LINE
  5
214
100
AcDbEntity
  8
0
100
AcDbLine
 62
6
  6
CONTINUOUS
 10
4.0343975056
 20
3.2357135745
 11
4.0343975056
 21
3.2492126172
  0
LINE
  5
215
100
AcDbEntity
  8
0
100
AcDbLine
 62
6
  6
CONTINUOUS
 10
4.0513075057
 20
3.2685764934
 11
4.0513075057
 21
3.2526235746
  0
LINE
  5
216
100
AcDbEntity
  8
0
100
AcDbLine
 62
6
  6
CONTINUOUS
 10
4.0543975056
 20
3.2557135745
 11
4.0543975056
 21
3.3797135745
  0
LINE
  5
217
100
AcDbEntity
  8
0
100
AcDbLine
 62
9
  6
CONTINUOUS
 10
4.1293975056
 20
4.7877135745
 11
4.1293975056
 21
5.1777135745
  0
LINE
  5
218
100
AcDbEntity
  8
0
100
AcDbLine
 62
6
  6
CONTINUOUS
 10
3.3788975056
 20
3.5778527062
 11
3.3268975056
 21
3.5177135745
  0
LINE
  5
219
100
AcDbEntity
  8
0
100
AcDbLine
 62
9
  6
CONTINUOUS
 10
4.5953975056
 20
4.7674281779
 11
4.5953975056
 21
5.1979989711
  0
LINE
  5
21A
100
AcDbEntity
  8
0
100
AcDbLine
 62
9
  6
CONTINUOUS
 10
4.6048271769
 20
4.7574444549
 11
4.6048271769
 21
5.2079826941
  0
LINE
  5
21B
100
AcDbEntity
  8
0
100
AcDbLine
 62
6
  6
CONTINUOUS
 10
4.0432871915
 20
3.3903215843
 11
4.0389130623
 21
3.3828035743
  0
LINE
  5
21C
100
AcDbEntity
  8
0
100
AcDbLine
 62
6
  6
CONTINUOUS
 10
3.3268975056
 20
3.1177135745
 11
4.0318975056
 21
3.1177135745
  0
LINE
  5
21D
100
AcDbEntity
  8
0
100
AcDbLine
 62
9
  6
CONTINUOUS
 10
4.7409401234
 20
4.6708224594
 11
4.7409401234
 21
5.2946046896
  0
LINE
  5
21E
100
AcDbEntity
  8
0
100
AcDbLine
 62
6
  6
CONTINUOUS
 10
4.8593975056
 20
4.7007135745
 11
4.8593975056
 21
5.2647135745
  0
LINE
  5
21F
100
AcDbEntity
  8
0
100
AcDbLine
 62
6
  6
CONTINUOUS
 10
4.0426137313
 20
3.2444276061
 11
4.0473819619
 21
3.2526235746
  0
LINE
  5
220
100
AcDbEntity
  8
0
100
AcDbLine
 62
6
  6
CONTINUOUS
 10
4.0343975056
 20
3.2357135745
 11
4.0333779943
 21
3.2357135745
  0
LINE
  5
221
100
AcDbEntity
  8
0
100
AcDbLine
 62
6
  6
CONTINUOUS
 10
4.0470550158
 20
3.2526235746
 11
4.0513075057
 21
3.2526235746
  0
LINE
  5
222
100
AcDbEntity
  8
0
100
AcDbLine
 62
6
  6
CONTINUOUS
 10
4.0392400099
 20
3.3828035743
 11
4.0317569563
 21
3.3828035743
  0
LINE
  5
223
100
AcDbEntity
  8
0
100
AcDbLine
 62
6
  6
CONTINUOUS
 10
4.0412456021
 20
3.2425616711
 11
4.0426137313
 21
3.2444276061
  0
LINE
  5
224
100
AcDbEntity
  8
0
100
AcDbLine
 62
6
  6
CONTINUOUS
 10
3.3268975056
 20
3.5177135745
 11
4.0318975056
 21
3.5177135745
  0
LINE
  5
225
100
AcDbEntity
  8
0
100
AcDbLine
 62
6
  6
CONTINUOUS
 10
3.3788975056
 20
3.5778527062
 11
3.9798975056
 21
3.5778527062
  0
LINE
  5
226
100
AcDbEntity
  8
0
100
AcDbLine
 62
6
  6
CONTINUOUS
 10
4.0543975056
 20
3.2557135745
 11
4.0513075057
 21
3.2526235746
  0
LINE
  5
227
100
AcDbEntity
  8
0
100
AcDbLine
 62
6
  6
CONTINUOUS
 10
4.0412460067
 20
3.2425620756
 11
4.0343975056
 21
3.2357135745
  0
LINE
  5
228
100
AcDbEntity
  8
0
100
AcDbLine
 62
6
  6
CONTINUOUS
 10
4.0392400099
 20
3.3828035743
 11
4.0385855808
 21
3.3822409194
  0
LINE
  5
229
100
AcDbEntity
  8
0
100
AcDbLine
 62
9
  6
CONTINUOUS
 10
3.3641563945
 20
3.8488520104
 11
3.9946386166
 21
3.8488520104
  0
LINE
  5
22A
100
AcDbEntity
  8
0
100
AcDbLine
 62
9
  6
CONTINUOUS
 10
3.4418975056
 20
4.1277135745
 11
3.9168975056
 21
4.1277135745
  0
LINE
  5
22B
100
AcDbEntity
  8
0
100
AcDbLine
 62
9
  6
CONTINUOUS
 10
3.4418975056
 20
4.1777135745
 11
3.9168975056
 21
4.1777135745
  0
LINE
  5
22C
100
AcDbEntity
  8
0
100
AcDbLine
 62
9
  6
CONTINUOUS
 10
3.4230305617
 20
4.1978383146
 11
3.9357644495
 21
4.1978383146
  0
LINE
  5
22D
100
AcDbEntity
  8
0
100
AcDbLine
 62
9
  6
CONTINUOUS
 10
3.4268975056
 20
4.3177135745
 11
3.9318975056
 21
4.3177135745
  0
LINE
  5
22E
100
AcDbEntity
  8
0
100
AcDbLine
 62
6
  6
CONTINUOUS
 10
4.0432871915
 20
3.3903215843
 11
4.04365702
 21
3.3904540601
  0
LINE
  5
22F
100
AcDbEntity
  8
0
100
AcDbLine
 62
9
  6
CONTINUOUS
 10
3.8743975056
 20
4.5327135745
 11
3.4843975056
 21
4.5327135745
  0
LINE
  5
230
100
AcDbEntity
  8
0
100
AcDbLine
 62
6
  6
CONTINUOUS
 10
5.024397509
 20
4.7202135745
 11
4.8593975056
 21
4.7202135745
  0
LINE
  5
231
100
AcDbEntity
  8
0
100
AcDbLine
 62
6
  6
CONTINUOUS
 10
4.5953975056
 20
4.7877135745
 11
4.1293975056
 21
4.7877135745
  0
LINE
  5
232
100
AcDbEntity
  8
0
100
AcDbLine
 62
6
  6
CONTINUOUS
 10
7.7993975056
 20
4.7746383915
 11
5.0243975056
 21
4.7970980445
  0
LINE
  5
233
100
AcDbEntity
  8
0
100
AcDbLine
 62
6
  6
CONTINUOUS
 10
5.0243975056
 20
4.7202135745
 11
7.9028027808
 21
4.5576093531
  0
LINE
  5
234
100
AcDbEntity
  8
0
100
AcDbLine
 62
6
  6
CONTINUOUS
 10
7.7993975056
 20
4.5978616962
 11
5.0243975056
 21
4.7970980445
  0
LINE
  5
235
100
AcDbEntity
  8
0
100
AcDbLine
 62
6
  6
CONTINUOUS
 10
7.7993975056
 20
4.8577135745
 11
5.0243975056
 21
4.9827135745
  0
LINE
  5
236
100
AcDbEntity
  8
0
100
AcDbLine
 62
6
  6
CONTINUOUS
 10
7.7993975056
 20
5.1077135745
 11
5.0243975056
 21
4.9827135745
  0
LINE
  5
237
100
AcDbEntity
  8
0
100
AcDbLine
 62
6
  6
CONTINUOUS
 10
7.7993975056
 20
5.1907887575
 11
5.0243975056
 21
5.1683291046
  0
LINE
  5
238
100
AcDbEntity
  8
0
100
AcDbLine
 62
6
  6
CONTINUOUS
 10
4.5953975056
 20
5.1777135745
 11
4.1293975056
 21
5.1777135745
  0
LINE
  5
239
100
AcDbEntity
  8
0
100
AcDbLine
 62
6
  6
CONTINUOUS
 10
7.7993975056
 20
5.3675654528
 11
5.0243975056
 21
5.1683291046
  0
LINE
  5
23A
100
AcDbEntity
  8
0
100
AcDbLine
 62
6
  6
CONTINUOUS
 10
7.9028027808
 20
5.4078177959
 11
5.0243975056
 21
5.2452135745
  0
LINE
  5
23B
100
AcDbEntity
  8
0
100
AcDbLine
 62
6
  6
CONTINUOUS
 10
5.0243975087
 20
5.2452135745
 11
4.8593975056
 21
5.2452135745
  0
ARC
  5
23C
100
AcDbEntity
  8
0
100
AcDbCircle
 62
6
  6
CONTINUOUS
 10
3.5703975056
 20
3.7241699984
 40
0.241
100
AcDbArc
 50
148.8451540803
 51
217.3819608307
  0
ARC
  5
23D
100
AcDbEntity
  8
0
100
AcDbCircle
 62
6
  6
CONTINUOUS
 10
2.9028812041
 20
4.1277135745
 40
0.5390163015
100
AcDbArc
 50
328.8451540803
 51
360.0
  0
ARC
  5
23E
100
AcDbEntity
  8
0
100
AcDbCircle
 62
6
  6
CONTINUOUS
 10
3.4268975056
 20
4.2577135745
 40
0.06
100
AcDbArc
 50
90.0
 51
266.304779468
  0
ARC
  5
23F
100
AcDbEntity
  8
0
100
AcDbCircle
 62
6
  6
CONTINUOUS
 10
3.4217308389
 20
4.1777135745
 40
0.0201666667
100
AcDbArc
 50
0.0
 51
86.304779468
  0
ARC
  5
240
100
AcDbEntity
  8
0
100
AcDbCircle
 62
6
  6
CONTINUOUS
 10
4.4208459118
 20
3.3080888992
 40
0.4020459956
100
AcDbArc
 50
165.3350169956
 51
168.716989234
  0
ARC
  5
241
100
AcDbEntity
  8
0
100
AcDbCircle
 62
6
  6
CONTINUOUS
 10
3.7883975056
 20
3.7241699984
 40
0.241
100
AcDbArc
 50
322.6180391693
 51
31.1548459197
  0
ARC
  5
242
100
AcDbEntity
  8
0
100
AcDbCircle
 62
6
  6
CONTINUOUS
 10
4.4559138071
 20
4.1277135745
 40
0.5390163015
100
AcDbArc
 50
180.0
 51
211.1548459197
  0
ARC
  5
243
100
AcDbEntity
  8
0
100
AcDbCircle
 62
6
  6
CONTINUOUS
 10
3.9318975056
 20
4.2577135745
 40
0.06
100
AcDbArc
 50
273.695220532
 51
90.0
  0
ARC
  5
244
100
AcDbEntity
  8
0
100
AcDbCircle
 62
6
  6
CONTINUOUS
 10
3.9370641723
 20
4.1777135745
 40
0.0201666667
100
AcDbArc
 50
93.695220532
 51
180.0
  0
ARC
  5
245
100
AcDbEntity
  8
0
100
AcDbCircle
 62
6
  6
CONTINUOUS
 10
4.1293975056
 20
4.5327135745
 40
0.645
100
AcDbArc
 50
90.0
 51
180.0
  0
ARC
  5
246
100
AcDbEntity
  8
0
100
AcDbCircle
 62
6
  6
CONTINUOUS
 10
4.1293975056
 20
4.5327135745
 40
0.255
100
AcDbArc
 50
90.0
 51
180.0
  0
ARC
  5
247
100
AcDbEntity
  8
0
100
AcDbCircle
 62
6
  6
CONTINUOUS
 10
4.5953975056
 20
4.5923760745
 40
0.1653375
100
AcDbArc
 50
28.3243361106
 51
86.7304834094
  0
ARC
  5
248
100
AcDbEntity
  8
0
100
AcDbCircle
 62
6
  6
CONTINUOUS
 10
4.7963975056
 20
4.7007135745
 40
0.063
100
AcDbArc
 50
208.3243361106
 51
360.0
  0
ARC
  5
249
100
AcDbEntity
  8
0
100
AcDbCircle
 62
6
  6
CONTINUOUS
 10
4.6053975056
 20
4.7674281779
 40
0.01
100
AcDbArc
 50
180.0
 51
266.7304834037
  0
ARC
  5
24A
100
AcDbEntity
  8
0
100
AcDbCircle
 62
6
  6
CONTINUOUS
 10
4.5953975056
 20
5.3730510745
 40
0.1653375
100
AcDbArc
 50
273.2695165906
 51
331.6756638894
  0
ARC
  5
24B
100
AcDbEntity
  8
0
100
AcDbCircle
 62
6
  6
CONTINUOUS
 10
4.7963975056
 20
5.2647135745
 40
0.063
100
AcDbArc
 50
0.0
 51
151.6756638894
  0
ARC
  5
24C
100
AcDbEntity
  8
0
100
AcDbCircle
 62
6
  6
CONTINUOUS
 10
4.6053975056
 20
5.1979989711
 40
0.01
100
AcDbArc
 50
93.2695165963
 51
180.0
  0
ARC
  5
24D
100
AcDbEntity
  8
0
100
AcDbCircle
 62
6
  6
CONTINUOUS
 10
7.7993975056
 20
4.9827135745
 40
0.4375
100
AcDbArc
 50
283.6715038208
 51
76.3284961792
  0
SPLINE
  5
24E
100
AcDbEntity
  8
0
100
AcDbSpline
 62
6
  6
CONTINUOUS
 70
0
 71
3
 72
15
 73
11
 74
9
 42
0.0000001
 43
0.0000001
 44
0.0000000001
 12
-0.0004526553
 22
-0.0007773787
 32
0.0
 13
-0.0008995634
 23
-0.0000002955
 33
0.0
 40
0.0
 40
0.0
 40
0.0
 40
0.0
 40
0.1723915721
 40
0.3285795172
 40
0.4693715956
 40
0.5958968945
 40
0.709716017
 40
0.8129737002
 40
0.9085353937
 40
1.0
 40
1.0
 40
1.0
 40
1.0
 10
4.0477094438
 20
3.25318625
 30
0.0
 10
4.0476834325
 20
3.2531415788
 30
0.0
 10
4.047631666
 20
3.2530576705
 30
0.0
 10
4.0475500746
 20
3.2529428475
 30
0.0
 10
4.047468405
 20
3.252845388
 30
0.0
 10
4.0473865766
 20
3.2527652798
 30
0.0
 10
4.0473044557
 20
3.2527025411
 30
0.0
 10
4.0472218499
 20
3.2526572951
 30
0.0
 10
4.04713869
 20
3.2526298418
 30
0.0
 10
4.0470824422
 20
3.2526236339
 30
0.0
 10
4.0470550161
 20
3.2526236248
 30
0.0
 11
4.0477094438
 21
3.25318625
 31
0.0
 11
4.0476276403
 21
3.2530545036
 31
0.0
 11
4.0475458368
 21
3.2529402727
 31
0.0
 11
4.0474640333
 21
3.2528435837
 31
0.0
 11
4.0473822298
 21
3.2527644469
 31
0.0
 11
4.0473004263
 21
3.2527028726
 31
0.0
 11
4.0472186229
 21
3.2526588707
 31
0.0
 11
4.0471368195
 21
3.2526324514
 31
0.0
 11
4.0470550161
 21
3.2526236248
 31
0.0
  0
LINE
  5
24F
100
AcDbEntity
  8
0
100
AcDbLine
 62
6
  6
CONTINUOUS
 10
4.033378022
 20
3.2357135732
 11
4.032857399
 21
3.2361624359
  0
SPLINE
  5
250
100
AcDbEntity
  8
0
100
AcDbSpline
 62
6
  6
CONTINUOUS
 70
0
 71
3
 72
66
 73
62
 74
60
 42
0.0000001
 43
0.0000001
 44
0.0000000001
 12
0.2947147933
 22
-0.027713545
 32
0.0
 13
-0.2916367898
 23
-0.0507230992
 33
0.0
 40
0.0
 40
0.0
 40
0.0
 40
0.0
 40
0.0363697521
 40
0.054398722
 40
0.072294027
 40
0.0900351203
 40
0.1076025597
 40
0.1249828765
 40
0.142166932
 40
0.1591462421
 40
0.1759130673
 40
0.1924606078
 40
0.2087832528
 40
0.2248765022
 40
0.240736799
 40
0.2563617277
 40
0.2717502609
 40
0.3018170129
 40
0.3165139259
 40
0.3309934588
 40
0.3452648279
 40
0.3593391617
 40
0.3732303627
 40
0.3869544332
 40
0.4005286783
 40
0.4139718188
 40
0.4273041226
 40
0.4405476975
 40
0.4537259687
 40
0.4668627717
 40
0.4799823003
 40
0.4931091147
 40
0.50626805
 40
0.5194833731
 40
0.5327782742
 40
0.5461749187
 40
0.5596945043
 40
0.573357231
 40
0.5871812016
 40
0.6011821753
 40
0.6297599123
 40
0.6443695022
 40
0.6592020748
 40
0.6742634688
 40
0.6895577247
 40
0.720846533
 40
0.7368492316
 40
0.7530846041
 40
0.7695473213
 40
0.7862308951
 40
0.8031279052
 40
0.820230201
 40
0.8375288669
 40
0.855014086
 40
0.8726753023
 40
0.8905013968
 40
0.9084807651
 40
0.9265977404
 40
0.9448310039
 40
0.9631583106
 40
1.0
 40
1.0
 40
1.0
 40
1.0
 10
7.7993975056
 20
5.3675654528
 30
0.0
 10
7.8029704069
 20
5.3672294746
 30
0.0
 10
7.8083007718
 20
5.3665585834
 30
0.0
 10
7.8153279587
 20
5.3653274379
 30
0.0
 10
7.8205122625
 20
5.364244124
 30
0.0
 10
7.8256134935
 20
5.3630003228
 30
0.0
 10
7.830620635
 20
5.3615975563
 30
0.0
 10
7.8355237598
 20
5.3600386526
 30
0.0
 10
7.8403141996
 20
5.3583272094
 30
0.0
 10
7.8449835944
 20
5.356466491
 30
0.0
 10
7.849523624
 20
5.3544598377
 30
0.0
 10
7.8539259249
 20
5.3523104714
 30
0.0
 10
7.8581822763
 20
5.3500219916
 30
0.0
 10
7.8622852052
 20
5.3475993115
 30
0.0
 10
7.8662271488
 20
5.3450471978
 30
0.0
 10
7.8700007548
 20
5.3423702599
 30
0.0
 10
7.8747600489
 20
5.3386704015
 30
0.0
 10
7.8791970122
 20
5.3347125577
 30
0.0
 10
7.8832671437
 20
5.3305141135
 30
0.0
 10
7.8860966668
 20
5.3272909247
 30
0.0
 10
7.8887201704
 20
5.3239759561
 30
0.0
 10
7.8911320694
 20
5.3205747672
 30
0.0
 10
7.8933278329
 20
5.3170938151
 30
0.0
 10
7.8953040805
 20
5.3135399915
 30
0.0
 10
7.8970572564
 20
5.3099199694
 30
0.0
 10
7.8985838988
 20
5.3062404772
 30
0.0
 10
7.8998803646
 20
5.3025081603
 30
0.0
 10
7.9009436504
 20
5.2987299459
 30
0.0
 10
7.9017727365
 20
5.2949132493
 30
0.0
 10
7.9023663726
 20
5.2910652801
 30
0.0
 10
7.9027233857
 20
5.287193278
 30
0.0
 10
7.9028425859
 20
5.2833044768
 30
0.0
 10
7.9027228059
 20
5.2794062548
 30
0.0
 10
7.902365252
 20
5.2755060153
 30
0.0
 10
7.9017711371
 20
5.2716110617
 30
0.0
 10
7.9009416586
 20
5.2677287116
 30
0.0
 10
7.8998780757
 20
5.263866242
 30
0.0
 10
7.8985814605
 20
5.2600312052
 30
0.0
 10
7.8970547288
 20
5.2562305498
 30
0.0
 10
7.8947016789
 20
5.2511847687
 30
0.0
 10
7.8919100152
 20
5.2462670192
 30
0.0
 10
7.8887186555
 20
5.2415121806
 30
0.0
 10
7.8860955154
 20
5.2379882567
 30
0.0
 10
7.8832665083
 20
5.2345397516
 30
0.0
 10
7.8791969663
 20
5.2300168734
 30
0.0
 10
7.8747620028
 20
5.2257063273
 30
0.0
 10
7.8700022389
 20
5.2216256982
 30
0.0
 10
7.8662291696
 20
5.2186476011
 30
0.0
 10
7.8622877296
 20
5.2157807927
 30
0.0
 10
7.8581852906
 20
5.2130305047
 30
0.0
 10
7.8539294096
 20
5.2104021069
 30
0.0
 10
7.8495275353
 20
5.2079011039
 30
0.0
 10
7.844987895
 20
5.2055317645
 30
0.0
 10
7.8403188643
 20
5.2032979903
 30
0.0
 10
7.8355287641
 20
5.2012037905
 30
0.0
 10
7.8306259594
 20
5.1992531023
 30
0.0
 10
7.8256190894
 20
5.1974502077
 30
0.0
 10
7.8205180671
 20
5.1957987315
 30
0.0
 10
7.8153339591
 20
5.1943010953
 30
0.0
 10
7.8083152633
 20
5.1925104411
 30
0.0
 10
7.8029789696
 20
5.1914116657
 30
0.0
 10
7.7993975056
 20
5.1907887575
 30
0.0
 11
7.7993975056
 21
5.3675654528
 31
0.0
 11
7.8100788634
 21
5.3662181807
 31
0.0
 11
7.8153355352
 21
5.3652965992
 31
0.0
 11
7.8205206594
 21
5.3642123304
 31
0.0
 11
7.825622579
 21
5.3629673317
 31
0.0
 11
7.8306297651
 21
5.3615636137
 31
0.0
 11
7.8355324913
 21
5.360003938
 31
0.0
 11
7.8403223622
 21
5.35829162
 31
0.0
 11
7.8449910138
 21
5.3564299886
 31
0.0
 11
7.8495300817
 21
5.3544223723
 31
0.0
 11
7.8539312035
 21
5.3522721027
 31
0.0
 11
7.8581862681
 21
5.3499829536
 31
0.0
 11
7.8622876804
 21
5.3475596064
 31
0.0
 11
7.8662279087
 21
5.3450068539
 31
0.0
 11
7.8699994213
 21
5.3423294889
 31
0.0
 11
7.8735946865
 21
5.3395323043
 31
0.0
 11
7.8802285352
 21
5.3335988604
 31
0.0
 11
7.8832555936
 21
5.3304741493
 31
0.0
 11
7.8860820468
 21
5.3272519895
 31
0.0
 11
7.8887023744
 21
5.3239382892
 31
0.0
 11
7.8911111147
 21
5.32053898
 31
0.0
 11
7.8933038639
 21
5.3170604141
 31
0.0
 11
7.8952771318
 21
5.3135093067
 31
0.0
 11
7.8970274579
 21
5.3098923847
 31
0.0
 11
7.898551382
 21
5.3062163753
 31
0.0
 11
7.8998454515
 21
5.302488007
 31
0.0
 11
7.9009069745
 21
5.2987141641
 31
0.0
 11
7.9017346373
 21
5.2949020118
 31
0.0
 11
7.9023272715
 21
5.2910587456
 31
0.0
 11
7.9026837087
 21
5.2871915607
 31
0.0
 11
7.9028027808
 21
5.2833076522
 31
0.0
 11
7.9026837087
 21
5.279414231
 31
0.0
 11
7.9023272715
 21
5.2755185701
 31
0.0
 11
7.9017346373
 21
5.2716279581
 31
0.0
 11
7.9009069745
 21
5.2677496835
 31
0.0
 11
7.8998454515
 21
5.263891035
 31
0.0
 11
7.898551382
 21
5.260059283
 31
0.0
 11
7.8970274579
 21
5.2562615265
 31
0.0
 11
7.8952771318
 21
5.2525047702
 31
0.0
 11
7.8911111147
 21
5.2451422719
 31
0.0
 11
7.8887023744
 21
5.2415505274
 31
0.0
 11
7.8860820468
 21
5.2380274879
 31
0.0
 11
7.8832555936
 21
5.2345795215
 31
0.0
 11
7.8802285352
 21
5.2312129773
 31
0.0
 11
7.8735946865
 21
5.2247495523
 31
0.0
 11
7.8699994213
 21
5.2216651403
 31
0.0
 11
7.8662279087
 21
5.2186864675
 31
0.0
 11
7.8622876804
 21
5.2158189283
 31
0.0
 11
7.8581862681
 21
5.2130679174
 31
0.0
 11
7.8539312035
 21
5.2104388293
 31
0.0
 11
7.8495300817
 21
5.2079369522
 31
0.0
 11
7.8449910138
 21
5.2055667077
 31
0.0
 11
7.8403223622
 21
5.2033320956
 31
0.0
 11
7.8355324913
 21
5.2012371127
 31
0.0
 11
7.8306297651
 21
5.1992857559
 31
0.0
 11
7.825622579
 21
5.1974820116
 31
0.0
 11
7.8205206594
 21
5.1958294182
 31
0.0
 11
7.8153355352
 21
5.1943309075
 31
0.0
 11
7.8100788634
 21
5.1929893681
 31
0.0
 11
7.7993975056
 21
5.1907887575
 31
0.0
  0
SPLINE
  5
251
100
AcDbEntity
  8
0
100
AcDbSpline
 62
6
  6
CONTINUOUS
 70
0
 71
3
 72
71
 73
67
 74
65
 42
0.0000001
 43
0.0000001
 44
0.0000000001
 12
-0.0826696356
 22
0.1424444969
 32
0.0
 13
-0.1646957903
 23
0.0
 33
0.0
 40
0.0
 40
0.0
 40
0.0
 40
0.0
 40
0.0015493305
 40
0.0033495011
 40
0.0054065526
 40
0.0077241833
 40
0.0103046609
 40
0.0131489635
 40
0.0162569918
 40
0.0196281977
 40
0.0232617372
 40
0.0271565524
 40
0.0357243857
 40
0.0453160576
 40
0.0559124959
 40
0.0674932155
 40
0.0800330479
 40
0.0935047699
 40
0.1078801836
 40
0.1231269945
 40
0.1392114358
 40
0.1560988548
 40
0.173750989
 40
0.2111911912
 40
0.2511984593
 40
0.2934158739
 40
0.3374651333
 40
0.3829518162
 40
0.4294686059
 40
0.523918144
 40
0.5710041476
 40
0.617433872
 40
0.6627913963
 40
0.706670069
 40
0.7486767824
 40
0.7884362489
 40
0.8255929332
 40
0.8598153445
 40
0.8757307233
 40
0.8908005454
 40
0.9049921233
 40
0.9182749139
 40
0.9306190516
 40
0.9419987866
 40
0.9523907023
 40
0.9617725675
 40
0.9701272555
 40
0.9739150498
 40
0.9774409759
 40
0.9807037164
 40
0.9837027377
 40
0.9864381161
 40
0.9889104117
 40
0.9911208981
 40
0.9930719463
 40
0.9947677817
 40
0.9955224015
 40
0.9962165045
 40
0.9968519134
 40
0.9974310262
 40
0.9979570347
 40
0.9984342229
 40
0.9988683507
 40
0.9992670788
 40
0.9996402876
 40
1.0
 40
1.0
 40
1.0
 40
1.0
 10
4.032857399
 20
3.2361624359
 30
0.0
 10
4.0328147048
 20
3.2362360004
 30
0.0
 10
4.032730623
 20
3.2363998228
 30
0.0
 10
4.032613591
 20
3.2366727449
 30
0.0
 10
4.0324964001
 20
3.2369909697
 30
0.0
 10
4.0323790813
 20
3.2373544111
 30
0.0
 10
4.0322616626
 20
3.2377629814
 30
0.0
 10
4.0321441646
 20
3.2382164906
 30
0.0
 10
4.0320265917
 20
3.2387146878
 30
0.0
 10
4.0319089604
 20
3.2392572864
 30
0.0
 10
4.031791276
 20
3.2398439913
 30
0.0
 10
4.0316291085
 20
3.2407126636
 30
0.0
 10
4.031428157
 20
3.2419067196
 30
0.0
 10
4.0311936696
 20
3.2434679271
 30
0.0
 10
4.0309589174
 20
3.2451961686
 30
0.0
 10
4.0307239916
 20
3.247087582
 30
0.0
 10
4.0304889059
 20
3.2491379375
 30
0.0
 10
4.0302536867
 20
3.2513426323
 30
0.0
 10
4.0300183949
 20
3.2536967148
 30
0.0
 10
4.0297830175
 20
3.256194894
 30
0.0
 10
4.0295475689
 20
3.2588315487
 30
0.0
 10
4.0293120822
 20
3.2616007476
 30
0.0
 10
4.0289917137
 20
3.2655393343
 30
0.0
 10
4.0285937461
 20
3.2707450105
 30
0.0
 10
4.0281246497
 20
3.2772976929
 30
0.0
 10
4.0276552852
 20
3.2842140595
 30
0.0
 10
4.0271857008
 20
3.2914318814
 30
0.0
 10
4.0267159667
 20
3.2988862035
 30
0.0
 10
4.0260863571
 20
3.3091028324
 30
0.0
 10
4.0254636029
 20
3.3194078426
 30
0.0
 10
4.024836474
 20
3.3297077981
 30
0.0
 10
4.0243666527
 20
3.3373172564
 30
0.0
 10
4.0238969354
 20
3.3447503021
 30
0.0
 10
4.0234273732
 20
3.3519400438
 30
0.0
 10
4.0229580214
 20
3.3588217952
 30
0.0
 10
4.0224889839
 20
3.3653336448
 30
0.0
 10
4.022020344
 20
3.3714170006
 30
0.0
 10
4.0216212457
 20
3.3761927503
 30
0.0
 10
4.0212995114
 20
3.3797580818
 30
0.0
 10
4.021064139
 20
3.3822270419
 30
0.0
 10
4.0208288493
 20
3.3845507921
 30
0.0
 10
4.0205936771
 20
3.3867241056
 30
0.0
 10
4.0203586122
 20
3.388742102
 30
0.0
 10
4.0201237035
 20
3.3906002562
 30
0.0
 10
4.0198890348
 20
3.3922944165
 30
0.0
 10
4.0196545899
 20
3.3938207924
 30
0.0
 10
4.0194535301
 20
3.3949853238
 30
0.0
 10
4.0192912396
 20
3.3958300729
 30
0.0
 10
4.0191735844
 20
3.3963986838
 30
0.0
 10
4.0190559814
 20
3.3969230162
 30
0.0
 10
4.0189384383
 20
3.397402795
 30
0.0
 10
4.0188209733
 20
3.3978378007
 30
0.0
 10
4.0187036008
 20
3.3982278353
 30
0.0
 10
4.0185863425
 20
3.3985727357
 30
0.0
 10
4.0184692083
 20
3.3988723339
 30
0.0
 10
4.0183681401
 20
3.3990920624
 30
0.0
 10
4.0182864214
 20
3.3992441867
 30
0.0
 10
4.0182275404
 20
3.3993423477
 30
0.0
 10
4.0181686557
 20
3.3994290958
 30
0.0
 10
4.0181097455
 20
3.3995044376
 30
0.0
 10
4.0180507794
 20
3.3995683814
 30
0.0
 10
4.0179917032
 20
3.3996209259
 30
0.0
 10
4.0179324429
 20
3.3996620417
 30
0.0
 10
4.0178729034
 20
3.3996916392
 30
0.0
 10
4.0178130753
 20
3.3997095457
 30
0.0
 10
4.0177727362
 20
3.3997135745
 30
0.0
 10
4.0177529885
 20
3.3997135745
 30
0.0
 11
4.032857399
 21
3.2361624359
 31
0.0
 11
4.0327393969
 21
3.2363886798
 31
0.0
 11
4.0326213927
 21
3.2366606645
 31
0.0
 11
4.0325033873
 21
3.2369782363
 31
0.0
 11
4.0323853817
 21
3.2373412413
 31
0.0
 11
4.0322673766
 21
3.2377495238
 31
0.0
 11
4.0321493725
 21
3.2382028619
 31
0.0
 11
4.0320313691
 21
3.2387009537
 31
0.0
 11
4.0319133663
 21
3.2392434925
 31
0.0
 11
4.0317953637
 21
3.2398301715
 31
0.0
 11
4.0316773612
 21
3.2404606839
 31
0.0
 11
4.0314413555
 21
3.2418518939
 31
0.0
 11
4.0312053491
 21
3.2434138729
 31
0.0
 11
4.0309693424
 21
3.2451430301
 31
0.0
 11
4.0307333359
 21
3.247035668
 31
0.0
 11
4.0304973296
 21
3.2490873965
 31
0.0
 11
4.0302613233
 21
3.2512935448
 31
0.0
 11
4.030025317
 21
3.2536493226
 31
0.0
 11
4.0297893106
 21
3.256149293
 31
0.0
 11
4.0295533043
 21
3.2587877987
 31
0.0
 11
4.0293172979
 21
3.2615590543
 31
0.0
 11
4.0290812916
 21
3.2644566913
 31
0.0
 11
4.0286092789
 21
3.2706048426
 31
0.0
 11
4.0281372662
 21
3.277176943
 31
0.0
 11
4.0276652536
 21
3.2841139334
 31
0.0
 11
4.0271932409
 21
3.2913532895
 31
0.0
 11
4.0267212282
 21
3.2988298699
 31
0.0
 11
4.0262492155
 21
3.3064764348
 31
0.0
 11
4.0253051902
 21
3.3220032043
 31
0.0
 11
4.0248331776
 21
3.3297436926
 31
0.0
 11
4.0243611649
 21
3.3373758909
 31
0.0
 11
4.0238891523
 21
3.344831157
 31
0.0
 11
4.0234171397
 21
3.3520423583
 31
0.0
 11
4.0229451271
 21
3.3589445665
 31
0.0
 11
4.0224731144
 21
3.3654757492
 31
0.0
 11
4.0220011018
 21
3.3715770679
 31
0.0
 11
4.0215290893
 21
3.3771935558
 31
0.0
 11
4.0212930829
 21
3.3798041053
 31
0.0
 11
4.0210570763
 21
3.3822747952
 31
0.0
 11
4.0208210698
 21
3.3846001425
 31
0.0
 11
4.0205850637
 21
3.3867749945
 31
0.0
 11
4.0203490586
 21
3.3887942771
 31
0.0
 11
4.0201130532
 21
3.3906535528
 31
0.0
 11
4.0198770457
 21
3.3923487074
 31
0.0
 11
4.019641035
 21
3.3938757303
 31
0.0
 11
4.0194050257
 21
3.3952313209
 31
0.0
 11
4.0192870237
 21
3.3958438927
 31
0.0
 11
4.0191690247
 21
3.3964124828
 31
0.0
 11
4.0190510291
 21
3.3969367274
 31
0.0
 11
4.0189330352
 21
3.3974163528
 31
0.0
 11
4.0188150396
 21
3.397851131
 31
0.0
 11
4.0186970391
 21
3.3982408344
 31
0.0
 11
4.0185790304
 21
3.3985852353
 31
0.0
 11
4.0184610104
 21
3.3988841063
 31
0.0
 11
4.0183429774
 21
3.3991372367
 31
0.0
 11
4.0182839585
 21
3.3992466121
 31
0.0
 11
4.01822494
 21
3.3993445147
 31
0.0
 11
4.0181659235
 21
3.3994309352
 31
0.0
 11
4.0181069103
 21
3.3995058638
 31
0.0
 11
4.0180479022
 21
3.3995692912
 31
0.0
 11
4.0179889004
 21
3.3996212078
 31
0.0
 11
4.0179299067
 21
3.3996616039
 31
0.0
 11
4.0178709225
 21
3.3996904701
 31
0.0
 11
4.0178119492
 21
3.3997077968
 31
0.0
 11
4.0177529885
 21
3.3997135745
 31
0.0
  0
SPLINE
  5
252
100
AcDbEntity
  8
0
100
AcDbSpline
 62
6
  6
CONTINUOUS
 70
0
 71
3
 72
66
 73
62
 74
60
 42
0.0000001
 43
0.0000001
 44
0.0000000001
 12
0.2916367898
 22
-0.0507230992
 32
0.0
 13
-0.2947147933
 23
-0.027713545
 33
0.0
 40
0.0
 40
0.0
 40
0.0
 40
0.0
 40
0.0368416894
 40
0.0551689961
 40
0.0734022596
 40
0.0915192349
 40
0.1094986032
 40
0.1273246977
 40
0.144985914
 40
0.1624711331
 40
0.179769799
 40
0.1968720948
 40
0.2137691049
 40
0.2304526787
 40
0.2469153959
 40
0.2631507684
 40
0.279153467
 40
0.3104422753
 40
0.3257365312
 40
0.3407979252
 40
0.3556304978
 40
0.3702400877
 40
0.3988178247
 40
0.4128187984
 40
0.426642769
 40
0.4403054957
 40
0.4538250813
 40
0.4672217258
 40
0.4805166269
 40
0.49373195
 40
0.5068908853
 40
0.5200176997
 40
0.5331372283
 40
0.5462740313
 40
0.5594523025
 40
0.5726958774
 40
0.5860281812
 40
0.5994713217
 40
0.6130455668
 40
0.6267696373
 40
0.6406608383
 40
0.6547351721
 40
0.6690065412
 40
0.6834860741
 40
0.6981829871
 40
0.7282497391
 40
0.7436382723
 40
0.759263201
 40
0.7751234978
 40
0.7912167472
 40
0.8075393922
 40
0.8240869327
 40
0.8408537579
 40
0.857833068
 40
0.8750171235
 40
0.8923974403
 40
0.9099648797
 40
0.927705973
 40
0.945601278
 40
0.9636302479
 40
1.0
 40
1.0
 40
1.0
 40
1.0
 10
7.7993975056
 20
4.7746383915
 30
0.0
 10
7.8029789696
 20
4.7740154833
 30
0.0
 10
7.8083152633
 20
4.772916708
 30
0.0
 10
7.8153339591
 20
4.7711260537
 30
0.0
 10
7.8205180671
 20
4.7696284176
 30
0.0
 10
7.8256190894
 20
4.7679769414
 30
0.0
 10
7.8306259594
 20
4.7661740468
 30
0.0
 10
7.8355287641
 20
4.7642233585
 30
0.0
 10
7.8403188643
 20
4.7621291587
 30
0.0
 10
7.844987895
 20
4.7598953846
 30
0.0
 10
7.8495275353
 20
4.7575260451
 30
0.0
 10
7.8539294096
 20
4.7550250421
 30
0.0
 10
7.8581852906
 20
4.7523966443
 30
0.0
 10
7.8622877296
 20
4.7496463564
 30
0.0
 10
7.8662291696
 20
4.7467795479
 30
0.0
 10
7.8700022389
 20
4.7438014508
 30
0.0
 10
7.8747620028
 20
4.7397208217
 30
0.0
 10
7.8791969663
 20
4.7354102756
 30
0.0
 10
7.8832665083
 20
4.7308873974
 30
0.0
 10
7.8860955154
 20
4.7274388923
 30
0.0
 10
7.8887186555
 20
4.7239149685
 30
0.0
 10
7.8919100152
 20
4.7191601298
 30
0.0
 10
7.8947016789
 20
4.7142423803
 30
0.0
 10
7.8970547288
 20
4.7091965992
 30
0.0
 10
7.8985814605
 20
4.7053959438
 30
0.0
 10
7.8998780757
 20
4.7015609071
 30
0.0
 10
7.9009416586
 20
4.6976984374
 30
0.0
 10
7.9017711371
 20
4.6938160874
 30
0.0
 10
7.902365252
 20
4.6899211337
 30
0.0
 10
7.9027228059
 20
4.6860208942
 30
0.0
 10
7.9028425859
 20
4.6821226722
 30
0.0
 10
7.9027233857
 20
4.6782338711
 30
0.0
 10
7.9023663726
 20
4.6743618689
 30
0.0
 10
7.9017727365
 20
4.6705138998
 30
0.0
 10
7.9009436504
 20
4.6666972032
 30
0.0
 10
7.8998803646
 20
4.6629189888
 30
0.0
 10
7.8985838988
 20
4.6591866718
 30
0.0
 10
7.8970572564
 20
4.6555071797
 30
0.0
 10
7.8953040805
 20
4.6518871576
 30
0.0
 10
7.8933278329
 20
4.648333334
 30
0.0
 10
7.8911320694
 20
4.6448523818
 30
0.0
 10
7.8887201704
 20
4.6414511929
 30
0.0
 10
7.8860966668
 20
4.6381362243
 30
0.0
 10
7.8832671437
 20
4.6349130355
 30
0.0
 10
7.8791970122
 20
4.6307145914
 30
0.0
 10
7.8747600489
 20
4.6267567476
 30
0.0
 10
7.8700007548
 20
4.6230568891
 30
0.0
 10
7.8662271488
 20
4.6203799512
 30
0.0
 10
7.8622852052
 20
4.6178278375
 30
0.0
 10
7.8581822763
 20
4.6154051575
 30
0.0
 10
7.8539259249
 20
4.6131166776
 30
0.0
 10
7.849523624
 20
4.6109673114
 30
0.0
 10
7.8449835944
 20
4.6089606581
 30
0.0
 10
7.8403141996
 20
4.6070999397
 30
0.0
 10
7.8355237598
 20
4.6053884964
 30
0.0
 10
7.830620635
 20
4.6038295928
 30
0.0
 10
7.8256134935
 20
4.6024268262
 30
0.0
 10
7.8205122625
 20
4.601183025
 30
0.0
 10
7.8153279587
 20
4.6000997111
 30
0.0
 10
7.8083007718
 20
4.5988685657
 30
0.0
 10
7.8029704069
 20
4.5981976745
 30
0.0
 10
7.7993975056
 20
4.5978616962
 30
0.0
 11
7.7993975056
 21
4.7746383915
 31
0.0
 11
7.8100788634
 21
4.772437781
 31
0.0
 11
7.8153355352
 21
4.7710962415
 31
0.0
 11
7.8205206594
 21
4.7695977308
 31
0.0
 11
7.825622579
 21
4.7679451374
 31
0.0
 11
7.8306297651
 21
4.7661413932
 31
0.0
 11
7.8355324913
 21
4.7641900364
 31
0.0
 11
7.8403223622
 21
4.7620950535
 31
0.0
 11
7.8449910138
 21
4.7598604414
 31
0.0
 11
7.8495300817
 21
4.7574901969
 31
0.0
 11
7.8539312035
 21
4.7549883197
 31
0.0
 11
7.8581862681
 21
4.7523592316
 31
0.0
 11
7.8622876804
 21
4.7496082207
 31
0.0
 11
7.8662279087
 21
4.7467406816
 31
0.0
 11
7.8699994213
 21
4.7437620087
 31
0.0
 11
7.8735946865
 21
4.7406775967
 31
0.0
 11
7.8802285352
 21
4.7342141718
 31
0.0
 11
7.8832555936
 21
4.7308476276
 31
0.0
 11
7.8860820468
 21
4.7273996611
 31
0.0
 11
7.8887023744
 21
4.7238766217
 31
0.0
 11
7.8911111147
 21
4.7202848772
 31
0.0
 11
7.8952771318
 21
4.7129223788
 31
0.0
 11
7.8970274579
 21
4.7091656225
 31
0.0
 11
7.898551382
 21
4.7053678661
 31
0.0
 11
7.8998454515
 21
4.7015361141
 31
0.0
 11
7.9009069745
 21
4.6976774655
 31
0.0
 11
7.9017346373
 21
4.693799191
 31
0.0
 11
7.9023272715
 21
4.689908579
 31
0.0
 11
7.9026837087
 21
4.6860129181
 31
0.0
 11
7.9028027808
 21
4.6821194969
 31
0.0
 11
7.9026837087
 21
4.6782355884
 31
0.0
 11
7.9023272715
 21
4.6743684034
 31
0.0
 11
7.9017346373
 21
4.6705251372
 31
0.0
 11
7.9009069745
 21
4.666712985
 31
0.0
 11
7.8998454515
 21
4.662939142
 31
0.0
 11
7.898551382
 21
4.6592107738
 31
0.0
 11
7.8970274579
 21
4.6555347643
 31
0.0
 11
7.8952771318
 21
4.6519178424
 31
0.0
 11
7.8933038639
 21
4.6483667349
 31
0.0
 11
7.8911111147
 21
4.644888169
 31
0.0
 11
7.8887023744
 21
4.6414888599
 31
0.0
 11
7.8860820468
 21
4.6381751595
 31
0.0
 11
7.8832555936
 21
4.6349529997
 31
0.0
 11
7.8802285352
 21
4.6318282886
 31
0.0
 11
7.8735946865
 21
4.6258948448
 31
0.0
 11
7.8699994213
 21
4.6230976601
 31
0.0
 11
7.8662279087
 21
4.6204202951
 31
0.0
 11
7.8622876804
 21
4.6178675426
 31
0.0
 11
7.8581862681
 21
4.6154441954
 31
0.0
 11
7.8539312035
 21
4.6131550463
 31
0.0
 11
7.8495300817
 21
4.6110047768
 31
0.0
 11
7.8449910138
 21
4.6089971605
 31
0.0
 11
7.8403223622
 21
4.607135529
 31
0.0
 11
7.8355324913
 21
4.6054232111
 31
0.0
 11
7.8306297651
 21
4.6038635353
 31
0.0
 11
7.825622579
 21
4.6024598174
 31
0.0
 11
7.8205206594
 21
4.6012148187
 31
0.0
 11
7.8153355352
 21
4.6001305499
 31
0.0
 11
7.8100788634
 21
4.5992089683
 31
0.0
 11
7.7993975056
 21
4.5978616962
 31
0.0
  0
SPLINE
  5
253
100
AcDbEntity
  8
0
100
AcDbSpline
 62
6
  6
CONTINUOUS
 70
0
 71
3
 72
65
 73
61
 74
59
 42
0.0000001
 43
0.0000001
 44
0.0000000001
 12
0.345656039
 22
-0.0654938144
 32
0.0
 13
-0.345656039
 23
-0.0654938144
 33
0.0
 40
0.0
 40
0.0
 40
0.0
 40
0.0
 40
0.0311876799
 40
0.0468066733
 40
0.0624327602
 40
0.0780605833
 40
0.0936853598
 40
0.1093061488
 40
0.124924412
 40
0.1405414542
 40
0.1561585113
 40
0.1717768972
 40
0.1873976097
 40
0.2030205127
 40
0.2186451239
 40
0.2498901056
 40
0.2655172213
 40
0.2811451478
 40
0.2967739212
 40
0.3124034314
 40
0.3280335855
 40
0.3436644694
 40
0.3592962933
 40
0.3749290187
 40
0.3905624254
 40
0.4061962779
 40
0.4218304901
 40
0.4374652113
 40
0.4531004656
 40
0.4687360542
 40
0.5
 40
0.5312639458
 40
0.5468995344
 40
0.5625347887
 40
0.5781695099
 40
0.5938037221
 40
0.6094375746
 40
0.6250709813
 40
0.6407037067
 40
0.6563355306
 40
0.6719664145
 40
0.6875965686
 40
0.7032260788
 40
0.7188548522
 40
0.7344827787
 40
0.7501098944
 40
0.7813548761
 40
0.7969794873
 40
0.8126023903
 40
0.8282231028
 40
0.8438414887
 40
0.8594585458
 40
0.875075588
 40
0.8906938512
 40
0.9063146402
 40
0.9219394167
 40
0.9375672398
 40
0.9531933267
 40
0.9688123201
 40
1.0
 40
1.0
 40
1.0
 40
1.0
 10
7.7993975056
 20
5.1077135745
 30
0.0
 10
7.8029909089
 20
5.1070327078
 30
0.0
 10
7.8083430819
 20
5.1057746424
 30
0.0
 10
7.8153485231
 20
5.1036418801
 30
0.0
 10
7.8205348339
 20
5.1018152416
 30
0.0
 10
7.8256378846
 20
5.0997661488
 30
0.0
 10
7.8306465643
 20
5.0974974614
 30
0.0
 10
7.8355509071
 20
5.0950137914
 30
0.0
 10
7.8403423837
 20
5.092320671
 30
0.0
 10
7.8450126116
 20
5.0894232092
 30
0.0
 10
7.8495532698
 20
5.086326614
 30
0.0
 10
7.8539559073
 20
5.0830359869
 30
0.0
 10
7.8582121506
 20
5.0795570696
 30
0.0
 10
7.8623148275
 20
5.0758970109
 30
0.0
 10
7.8675692021
 20
5.0707860537
 30
0.0
 10
7.8724887963
 20
5.065338894
 30
0.0
 10
7.8770380207
 20
5.0595901151
 30
0.0
 10
7.8802611486
 20
5.0551337079
 30
0.0
 10
7.8832890947
 20
5.0505422928
 30
0.0
 10
7.8861164496
 20
5.0458243583
 30
0.0
 10
7.8887377352
 20
5.0409886135
 30
0.0
 10
7.8911472145
 20
5.0360436071
 30
0.0
 10
7.8933404975
 20
5.0309986721
 30
0.0
 10
7.8953143321
 20
5.0258635977
 30
0.0
 10
7.897065209
 20
5.020648038
 30
0.0
 10
7.8985897258
 20
5.0153616925
 30
0.0
 10
7.899884284
 20
5.0100142031
 30
0.0
 10
7.9009459586
 20
5.004615516
 30
0.0
 10
7.9017738213
 20
4.9991758167
 30
0.0
 10
7.9025641361
 20
4.9918832617
 30
0.0
 10
7.9029618649
 20
4.9827135745
 30
0.0
 10
7.9025641361
 20
4.9735438873
 30
0.0
 10
7.9017738213
 20
4.9662513323
 30
0.0
 10
7.9009459586
 20
4.9608116331
 30
0.0
 10
7.899884284
 20
4.955412946
 30
0.0
 10
7.8985897258
 20
4.9500654565
 30
0.0
 10
7.897065209
 20
4.944779111
 30
0.0
 10
7.8953143321
 20
4.9395635513
 30
0.0
 10
7.8933404975
 20
4.9344284769
 30
0.0
 10
7.8911472145
 20
4.929383542
 30
0.0
 10
7.8887377352
 20
4.9244385356
 30
0.0
 10
7.8861164496
 20
4.9196027908
 30
0.0
 10
7.8832890947
 20
4.9148848563
 30
0.0
 10
7.8802611486
 20
4.9102934411
 30
0.0
 10
7.8770380207
 20
4.9058370339
 30
0.0
 10
7.8724887963
 20
4.9000882551
 30
0.0
 10
7.8675692021
 20
4.8946410953
 30
0.0
 10
7.8623148275
 20
4.8895301381
 30
0.0
 10
7.8582121506
 20
4.8858700794
 30
0.0
 10
7.8539559073
 20
4.8823911622
 30
0.0
 10
7.8495532698
 20
4.8791005351
 30
0.0
 10
7.8450126116
 20
4.8760039398
 30
0.0
 10
7.8403423837
 20
4.873106478
 30
0.0
 10
7.8355509071
 20
4.8704133577
 30
0.0
 10
7.8306465643
 20
4.8679296876
 30
0.0
 10
7.8256378846
 20
4.8656610002
 30
0.0
 10
7.8205348339
 20
4.8636119074
 30
0.0
 10
7.8153485231
 20
4.861785269
 30
0.0
 10
7.8083430819
 20
4.8596525066
 30
0.0
 10
7.8029909089
 20
4.8583944412
 30
0.0
 10
7.7993975056
 20
4.8577135745
 30
0.0
 11
7.7993975056
 21
5.1077135745
 31
0.0
 11
7.8100788634
 21
5.1052048426
 31
0.0
 11
7.8153355352
 21
5.1036045744
 31
0.0
 11
7.8205206594
 21
5.1017782735
 31
0.0
 11
7.825622579
 21
5.0997293665
 31
0.0
 11
7.8306297651
 21
5.0974613483
 31
0.0
 11
7.8355324913
 21
5.0949786733
 31
0.0
 11
7.8403223622
 21
5.0922865051
 31
0.0
 11
7.8449910138
 21
5.0893900235
 31
0.0
 11
7.8495300817
 21
5.0862944084
 31
0.0
 11
7.8539312035
 21
5.0830048439
 31
0.0
 11
7.8581862681
 21
5.0795271251
 31
0.0
 11
7.8622876804
 21
5.0758683014
 31
0.0
 11
7.8662279087
 21
5.0720355764
 31
0.0
 11
7.8735946865
 21
5.0638772368
 31
0.0
 11
7.8770063924
 21
5.0595661893
 31
0.0
 11
7.8802285352
 21
5.0551113268
 31
0.0
 11
7.8832555936
 21
5.0505213162
 31
0.0
 11
7.8860820468
 21
5.0458048247
 31
0.0
 11
7.8887023744
 21
5.0409705196
 31
0.0
 11
7.8911111147
 21
5.0360270981
 31
0.0
 11
7.8933038639
 21
5.0309837923
 31
0.0
 11
7.8952771318
 21
5.0258502959
 31
0.0
 11
7.8970274579
 21
5.020636318
 31
0.0
 11
7.898551382
 21
5.0153515675
 31
0.0
 11
7.8998454515
 21
5.0100057552
 31
0.0
 11
7.9009069745
 21
5.0046087687
 31
0.0
 11
7.9017346373
 21
4.9991708158
 31
0.0
 11
7.9023272715
 21
4.993702138
 31
0.0
 11
7.9028027808
 21
4.9827135745
 31
0.0
 11
7.9023272715
 21
4.971725011
 31
0.0
 11
7.9017346373
 21
4.9662563333
 31
0.0
 11
7.9009069745
 21
4.9608183803
 31
0.0
 11
7.8998454515
 21
4.9554213938
 31
0.0
 11
7.898551382
 21
4.9500755816
 31
0.0
 11
7.8970274579
 21
4.944790831
 31
0.0
 11
7.8952771318
 21
4.9395768531
 31
0.0
 11
7.8933038639
 21
4.9344433567
 31
0.0
 11
7.8911111147
 21
4.9294000509
 31
0.0
 11
7.8887023744
 21
4.9244566295
 31
0.0
 11
7.8860820468
 21
4.9196223244
 31
0.0
 11
7.8832555936
 21
4.9149058329
 31
0.0
 11
7.8802285352
 21
4.9103158223
 31
0.0
 11
7.8770063924
 21
4.9058609598
 31
0.0
 11
7.8735946865
 21
4.9015499122
 31
0.0
 11
7.8662279087
 21
4.8933915727
 31
0.0
 11
7.8622876804
 21
4.8895588477
 31
0.0
 11
7.8581862681
 21
4.885900024
 31
0.0
 11
7.8539312035
 21
4.8824223051
 31
0.0
 11
7.8495300817
 21
4.8791327406
 31
0.0
 11
7.8449910138
 21
4.8760371256
 31
0.0
 11
7.8403223622
 21
4.873140644
 31
0.0
 11
7.8355324913
 21
4.8704484757
 31
0.0
 11
7.8306297651
 21
4.8679658008
 31
0.0
 11
7.825622579
 21
4.8656977825
 31
0.0
 11
7.8205206594
 21
4.8636488755
 31
0.0
 11
7.8153355352
 21
4.8618225746
 31
0.0
 11
7.8100788634
 21
4.8602223064
 31
0.0
 11
7.7993975056
 21
4.8577135745
 31
0.0
  0
SPLINE
  5
254
100
AcDbEntity
  8
0
100
AcDbSpline
 62
6
  6
CONTINUOUS
 70
0
 71
3
 72
44
 73
40
 74
38
 42
0.0000001
 43
0.0000001
 44
0.0000000001
 12
0.0000002869
 22
-0.1856185024
 32
0.0
 13
0.0000001568
 23
-0.1856185024
 33
0.0
 40
0.0
 40
0.0
 40
0.0
 40
0.0
 40
0.0248236781
 40
0.0502461753
 40
0.0762490092
 40
0.1028133108
 40
0.1299201015
 40
0.143671035
 40
0.1575505517
 40
0.1715563565
 40
0.185686256
 40
0.1999381703
 40
0.2143100086
 40
0.2434049946
 40
0.2729541645
 40
0.3029402935
 40
0.3333460794
 40
0.364154219
 40
0.3953467524
 40
0.4269042083
 40
0.4588069141
 40
0.4910351944
 40
0.5235693713
 40
0.5563897649
 40
0.589476707
 40
0.6228106083
 40
0.6563718778
 40
0.6901409313
 40
0.7240982594
 40
0.7411414706
 40
0.7582245035
 40
0.7753449703
 40
0.7925004675
 40
0.8096882171
 40
0.8269051703
 40
0.8614143611
 40
0.8960032557
 40
0.930646976
 40
1.0
 40
1.0
 40
1.0
 40
1.0
 10
5.0243975094
 20
5.168329116
 30
0.0
 10
5.0243975117
 20
5.1667932047
 30
0.0
 10
5.024408203
 20
5.1636843289
 30
0.0
 10
5.0244461973
 20
5.1589667319
 30
0.0
 10
5.0244976104
 20
5.1541415639
 30
0.0
 10
5.0245537051
 20
5.1492122323
 30
0.0
 10
5.0245968594
 20
5.1450408607
 30
0.0
 10
5.0246250898
 20
5.1416542288
 30
0.0
 10
5.0246421106
 20
5.1390781303
 30
0.0
 10
5.0246536656
 20
5.1364785528
 30
0.0
 10
5.0246591491
 20
5.1338559143
 30
0.0
 10
5.0246593983
 20
5.1312106232
 30
0.0
 10
5.0246535273
 20
5.1276394046
 30
0.0
 10
5.0246361669
 20
5.1231217264
 30
0.0
 10
5.0246047836
 20
5.117638008
 30
0.0
 10
5.0245679897
 20
5.1120732197
 30
0.0
 10
5.0245309321
 20
5.1064305355
 30
0.0
 10
5.024499061
 20
5.1007131728
 30
0.0
 10
5.0244766211
 20
5.0949245069
 30
0.0
 10
5.0244631171
 20
5.0890680897
 30
0.0
 10
5.0244586766
 20
5.0831475739
 30
0.0
 10
5.0244632473
 20
5.0771666258
 30
0.0
 10
5.0244768639
 20
5.0711289115
 30
0.0
 10
5.0244993943
 20
5.0650380954
 30
0.0
 10
5.0245312922
 20
5.0588978401
 30
0.0
 10
5.0245682971
 20
5.0527117742
 30
0.0
 10
5.024604984
 20
5.0464835011
 30
0.0
 10
5.0246362302
 20
5.0402166235
 30
0.0
 10
5.0246533723
 20
5.0349717121
 30
0.0
 10
5.0246592064
 20
5.0307591913
 30
0.0
 10
5.0246589713
 20
5.0275884108
 30
0.0
 10
5.0246535202
 20
5.0244106871
 30
0.0
 10
5.0246420185
 20
5.0212265002
 30
0.0
 10
5.0246250259
 20
5.0180363685
 30
0.0
 10
5.0245966568
 20
5.013772564
 30
0.0
 10
5.0245531884
 20
5.0084321834
 30
0.0
 10
5.0244970642
 20
5.0020136277
 30
0.0
 10
5.0244285599
 20
4.9934392229
 30
0.0
 10
5.0243975058
 20
4.9870046552
 30
0.0
 10
5.0243975094
 20
4.9827135871
 30
0.0
 11
5.0243975094
 21
5.168329116
 31
0.0
 11
5.0244115771
 21
5.1637214035
 31
0.0
 11
5.0244479308
 21
5.1590026577
 31
0.0
 11
5.0244978168
 21
5.1541763084
 31
0.0
 11
5.0245524818
 21
5.1492457856
 31
0.0
 11
5.0246031723
 21
5.144214519
 31
0.0
 11
5.0246242916
 21
5.1416621787
 31
0.0
 11
5.0246411348
 21
5.1390859387
 31
0.0
 11
5.024652616
 21
5.1364862275
 31
0.0
 11
5.0246582643
 21
5.1338634628
 31
0.0
 11
5.0246586344
 21
5.1312180439
 31
0.0
 11
5.0246543784
 21
5.1285503682
 31
0.0
 11
5.0246345956
 21
5.1231498367
 31
0.0
 11
5.0246041317
 21
5.1176650486
 31
0.0
 11
5.0245682024
 21
5.1120991842
 31
0.0
 11
5.0245320234
 21
5.1064554237
 31
0.0
 11
5.0245008018
 21
5.1007369482
 31
0.0
 11
5.0244782155
 21
5.0949470809
 31
0.0
 11
5.024464677
 21
5.0890894489
 31
0.0
 11
5.0244601786
 21
5.0831677181
 31
0.0
 11
5.0244647124
 21
5.0771855547
 31
0.0
 11
5.0244782708
 21
5.0711466247
 31
0.0
 11
5.0245008459
 21
5.0650545943
 31
0.0
 11
5.0245320155
 21
5.0589131247
 31
0.0
 11
5.0245681188
 21
5.0527258412
 31
0.0
 11
5.0246039722
 21
5.0464963518
 31
0.0
 11
5.0246343828
 21
5.0402282644
 31
0.0
 11
5.024654158
 21
5.0339251871
 31
0.0
 11
5.0246584346
 21
5.0307616546
 31
0.0
 11
5.0246581051
 21
5.0275907277
 31
0.0
 11
5.0246525203
 21
5.0244128572
 31
0.0
 11
5.0246411167
 21
5.0212284999
 31
0.0
 11
5.0246243306
 21
5.0180381797
 31
0.0
 11
5.0246032484
 21
5.0148424642
 31
0.0
 11
5.024552584
 21
5.0084371202
 31
0.0
 11
5.0244979006
 21
5.0020170143
 31
0.0
 11
5.0244479756
 21
4.9955866926
 31
0.0
 11
5.0243975094
 21
4.9827135871
 31
0.0
  0
SPLINE
  5
255
100
AcDbEntity
  8
0
100
AcDbSpline
 62
6
  6
CONTINUOUS
 70
0
 71
3
 72
46
 73
42
 74
40
 42
0.0000001
 43
0.0000001
 44
0.0000000001
 12
0.0000001579
 22
-0.1856185158
 32
0.0
 13
0.0000000001
 23
-0.1856185158
 33
0.0
 40
0.0
 40
0.0
 40
0.0
 40
0.0
 40
0.0693533049
 40
0.1039973424
 40
0.1385866424
 40
0.1730963043
 40
0.1903135101
 40
0.2075015192
 40
0.2246572771
 40
0.2417779705
 40
0.2588611886
 40
0.275904548
 40
0.3098620767
 40
0.3436312255
 40
0.3771925088
 40
0.4105263643
 40
0.4436132237
 40
0.4764335251
 40
0.5089676191
 40
0.5411958383
 40
0.5730985139
 40
0.6046559766
 40
0.6358485567
 40
0.6513018758
 40
0.6666567522
 40
0.6819110219
 40
0.6970625237
 40
0.7270485679
 40
0.7565975847
 40
0.78569235
 40
0.8000640515
 40
0.8143158102
 40
0.8284455336
 40
0.8424511432
 40
0.8563304582
 40
0.8700811889
 40
0.8971875867
 40
0.9237515365
 40
0.9497540862
 40
0.9751763924
 40
1.0
 40
1.0
 40
1.0
 40
1.0
 10
5.0243975094
 20
4.9827135871
 30
0.0
 10
5.024397513
 20
4.9784225013
 30
0.0
 10
5.0244284958
 20
4.971987896
 30
0.0
 10
5.0244969046
 20
4.9634134277
 30
0.0
 10
5.0245529993
 20
4.9569947974
 30
0.0
 10
5.0245965112
 20
4.951654347
 30
0.0
 10
5.0246249796
 20
4.947390482
 30
0.0
 10
5.0246420773
 20
4.9442003029
 30
0.0
 10
5.0246537471
 20
4.9410160701
 30
0.0
 10
5.0246592982
 20
4.9378383047
 30
0.0
 10
5.0246595621
 20
4.9346674893
 30
0.0
 10
5.0246536892
 20
4.9304549352
 30
0.0
 10
5.0246363767
 20
4.9252099963
 30
0.0
 10
5.0246048097
 20
4.9189431007
 30
0.0
 10
5.0245677608
 20
4.9127148254
 30
0.0
 10
5.0245304437
 20
4.906528768
 30
0.0
 10
5.0244983156
 20
4.9003885271
 30
0.0
 10
5.0244759115
 20
4.8942977258
 30
0.0
 10
5.0244626935
 20
4.8882600247
 30
0.0
 10
5.0244586511
 20
4.8822790865
 30
0.0
 10
5.0244636303
 20
4.876358576
 30
0.0
 10
5.0244775295
 20
4.8705021579
 30
0.0
 10
5.0244964626
 20
4.8656635288
 30
0.0
 10
5.024516054
 20
4.8618274145
 30
0.0
 10
5.0245326111
 20
4.858977447
 30
0.0
 10
5.0245503659
 20
4.8561461614
 30
0.0
 10
5.0245747173
 20
4.8524096277
 30
0.0
 10
5.0246049791
 20
4.847788657
 30
0.0
 10
5.0246360344
 20
4.8423049648
 30
0.0
 10
5.0246532175
 20
4.8377873173
 30
0.0
 10
5.0246590442
 20
4.8342161301
 30
0.0
 10
5.0246588202
 20
4.8315708678
 30
0.0
 10
5.0246534313
 20
4.8289482616
 30
0.0
 10
5.0246420456
 20
4.8263487186
 30
0.0
 10
5.0246251324
 20
4.8237726563
 30
0.0
 10
5.0245970032
 20
4.8203860727
 30
0.0
 10
5.0245538957
 20
4.8162147588
 30
0.0
 10
5.0244977741
 20
4.8112854908
 30
0.0
 10
5.0244462904
 20
4.8064603744
 30
0.0
 10
5.0244082234
 20
4.8017428115
 30
0.0
 10
5.0243975093
 20
4.7986339516
 30
0.0
 10
5.0243975093
 20
4.7970980445
 30
0.0
 11
5.0243975094
 21
4.9827135871
 31
0.0
 11
5.0244478874
 21
4.9698404281
 31
0.0
 11
5.0244977479
 21
4.9634100466
 31
0.0
 11
5.0245524085
 21
4.9569898648
 31
0.0
 11
5.0246031331
 21
4.9505844334
 31
0.0
 11
5.0246242895
 21
4.9473886712
 31
0.0
 11
5.0246411861
 21
4.9441983032
 31
0.0
 11
5.0246527361
 21
4.9410138979
 31
0.0
 11
5.0246584201
 21
4.9378359853
 31
0.0
 11
5.0246587806
 21
4.9346650237
 31
0.0
 11
5.0246544763
 21
4.9315014635
 31
0.0
 11
5.0246345091
 21
4.9251983491
 31
0.0
 11
5.0246037899
 21
4.9189302451
 31
0.0
 11
5.0245675896
 21
4.9127007547
 31
0.0
 11
5.0245311796
 21
4.906513481
 31
0.0
 11
5.0244998264
 21
4.9003720273
 31
0.0
 11
5.024477365
 21
4.8942800131
 31
0.0
 11
5.0244641825
 21
4.8882410972
 31
0.0
 11
5.0244601575
 21
4.8822589444
 31
0.0
 11
5.0244651688
 21
4.8763372192
 31
0.0
 11
5.0244790948
 21
4.8704795863
 31
0.0
 11
5.0245018143
 21
4.8646897105
 31
0.0
 11
5.024516422
 21
4.8618213255
 31
0.0
 11
5.0245328671
 21
4.8589712236
 31
0.0
 11
5.0245505223
 21
4.8561398038
 31
0.0
 11
5.0245687456
 21
4.8533274635
 31
0.0
 11
5.0246043287
 21
4.8477616122
 31
0.0
 11
5.0246344804
 21
4.8422768505
 31
0.0
 11
5.0246540652
 21
4.8368763588
 31
0.0
 11
5.02465829
 21
4.8342087083
 31
0.0
 11
5.0246579472
 21
4.831563318
 31
0.0
 11
5.0246523947
 21
4.8289405856
 31
0.0
 11
5.0246410602
 21
4.8263409098
 31
0.0
 11
5.0246243294
 21
4.8237647063
 31
0.0
 11
5.0246032861
 21
4.8212124028
 31
0.0
 11
5.0245526587
 21
4.8161812082
 31
0.0
 11
5.0244979728
 21
4.8112507505
 31
0.0
 11
5.0244480228
 21
4.8064244543
 31
0.0
 11
5.0244116034
 21
4.8017057441
 31
0.0
 11
5.0243975093
 21
4.7970980445
 31
0.0
  0
SPLINE
  5
256
100
AcDbEntity
  8
0
100
AcDbSpline
 62
6
  6
CONTINUOUS
 70
0
 71
3
 72
68
 73
64
 74
62
 42
0.0000001
 43
0.0000001
 44
0.0000000001
 12
0.0000000007
 22
-0.0769010867
 32
0.0
 13
-0.0769010848
 23
0.0
 33
0.0
 40
0.0
 40
0.0
 40
0.0
 40
0.0
 40
0.0584618321
 40
0.1154611774
 40
0.1709591151
 40
0.2249156302
 40
0.2772902205
 40
0.302871682
 40
0.3280426188
 40
0.3527981676
 40
0.3771341725
 40
0.4010476355
 40
0.424535628
 40
0.4702231791
 40
0.5141723745
 40
0.5563580869
 40
0.5967547909
 40
0.6353368598
 40
0.6720804026
 40
0.7399727159
 40
0.7710829956
 40
0.800277019
 40
0.8275356433
 40
0.8404332503
 40
0.8528402952
 40
0.8761764812
 40
0.8975315413
 40
0.916892527
 40
0.9342468217
 40
0.9495831733
 40
0.9564920041
 40
0.9628938016
 40
0.9687886804
 40
0.9741767709
 40
0.9790579067
 40
0.9834316206
 40
0.9872971455
 40
0.9890390261
 40
0.9906534359
 40
0.9921401955
 40
0.9934991069
 40
0.9947299539
 40
0.9958325018
 40
0.9968064979
 40
0.9976516712
 40
0.9983677327
 40
0.9986772518
 40
0.9989543765
 40
0.9991990654
 40
0.9994112765
 40
0.9995909662
 40
0.9997380902
 40
0.9997994258
 40
0.9998526028
 40
0.9998976153
 40
0.9999344574
 40
0.999963123
 40
0.9999743877
 40
0.9999836061
 40
0.9999907772
 40
0.9999959005
 40
0.999998975
 40
1.0
 40
1.0
 40
1.0
 40
1.0
 10
5.0243975093
 20
4.7970980445
 30
0.0
 10
5.0243975093
 20
4.7955994517
 30
0.0
 10
5.0244074943
 20
4.7926397499
 30
0.0
 10
5.024445009
 20
4.788257585
 30
0.0
 10
5.024496158
 20
4.783991061
 30
0.0
 10
5.0245522194
 20
4.7798431642
 30
0.0
 10
5.0245961231
 20
4.7764620406
 30
0.0
 10
5.024624842
 20
4.7738186694
 30
0.0
 10
5.024641981
 20
4.7718831959
 30
0.0
 10
5.0246537094
 20
4.769979607
 30
0.0
 10
5.0246593085
 20
4.768108224
 30
0.0
 10
5.0246596029
 20
4.7662693256
 30
0.0
 10
5.0246538035
 20
4.7638831152
 30
0.0
 10
5.0246367816
 20
4.760983351
 30
0.0
 10
5.0246053093
 20
4.7576043969
 30
0.0
 10
5.0245682767
 20
4.7543611345
 30
0.0
 10
5.0245309049
 20
4.7512554664
 30
0.0
 10
5.0244986192
 20
4.7482892485
 30
0.0
 10
5.0244693573
 20
4.7446181573
 30
0.0
 10
5.0244568914
 20
4.7411384736
 30
0.0
 10
5.0244635906
 20
4.7378523199
 30
0.0
 10
5.0244773288
 20
4.7356077939
 30
0.0
 10
5.0244962985
 20
4.7338301838
 30
0.0
 10
5.0245161022
 20
4.7324829368
 30
0.0
 10
5.0245376351
 20
4.7312362772
 30
0.0
 10
5.0245673138
 20
4.7297729352
 30
0.0
 10
5.024603604
 20
4.7281314418
 30
0.0
 10
5.0246347422
 20
4.7266432071
 30
0.0
 10
5.0246557003
 20
4.7253090886
 30
0.0
 10
5.0246607635
 20
4.7242939762
 30
0.0
 10
5.0246536392
 20
4.7235596674
 30
0.0
 10
5.0246425393
 20
4.7230674686
 30
0.0
 10
5.0246259066
 20
4.7226144329
 30
0.0
 10
5.0246049766
 20
4.722200603
 30
0.0
 10
5.0245808188
 20
4.7218260163
 30
0.0
 10
5.024554541
 20
4.7214907104
 30
0.0
 10
5.0245310448
 20
4.7212359297
 30
0.0
 10
5.0245120834
 20
4.7210517802
 30
0.0
 10
5.0244985206
 20
4.720928377
 30
0.0
 10
5.0244852533
 20
4.7208148202
 30
0.0
 10
5.0244724189
 20
4.7207111143
 30
0.0
 10
5.0244601549
 20
4.720617264
 30
0.0
 10
5.0244485991
 20
4.720533274
 30
0.0
 10
5.024437889
 20
4.7204591487
 30
0.0
 10
5.0244281621
 20
4.720394893
 30
0.0
 10
5.0244206666
 20
4.7203475276
 30
0.0
 10
5.0244152734
 20
4.7203145728
 30
0.0
 10
5.024411761
 20
4.7202935541
 30
0.0
 10
5.0244085977
 20
4.7202750061
 30
0.0
 10
5.0244058005
 20
4.7202589295
 30
0.0
 10
5.0244033867
 20
4.7202453247
 30
0.0
 10
5.0244016161
 20
4.7202355338
 30
0.0
 10
5.0244004053
 20
4.7202289373
 30
0.0
 10
5.0243996602
 20
4.7202249166
 30
0.0
 10
5.0243990242
 20
4.7202215139
 30
0.0
 10
5.0243984982
 20
4.7202187308
 30
0.0
 10
5.0243981316
 20
4.7202167957
 30
0.0
 10
5.024397892
 20
4.7202155613
 30
0.0
 10
5.0243977628
 20
4.7202148593
 30
0.0
 10
5.0243976454
 20
4.7202143331
 30
0.0
 10
5.0243975987
 20
4.7202139118
 30
0.0
 10
5.0243975036
 20
4.7202137404
 30
0.0
 10
5.024397535
 20
4.7202135745
 30
0.0
 10
5.0243975087
 20
4.7202135745
 30
0.0
 11
5.0243975093
 21
4.7970980445
 31
0.0
 11
5.0244115565
 21
4.792602288
 31
0.0
 11
5.0244478755
 21
4.7882191269
 31
0.0
 11
5.0244977329
 21
4.7839515664
 31
0.0
 11
5.024552395
 21
4.7798026118
 31
0.0
 11
5.0246031283
 21
4.7757752684
 31
0.0
 11
5.0246242923
 21
4.7738081401
 31
0.0
 11
5.024641199
 21
4.7718725415
 31
0.0
 11
5.0246527616
 21
4.769968848
 31
0.0
 11
5.0246584499
 21
4.7680973915
 31
0.0
 11
5.0246588036
 21
4.7662584202
 31
0.0
 11
5.0246544833
 21
4.7644521732
 31
0.0
 11
5.0246344644
 21
4.7609388079
 31
0.0
 11
5.024603679
 21
4.7575592072
 31
0.0
 11
5.0245674134
 21
4.7543152828
 31
0.0
 11
5.0245309536
 21
4.7512089464
 31
0.0
 11
5.024499582
 21
4.7482421092
 31
0.0
 11
5.0244771729
 21
4.7454165797
 31
0.0
 11
5.0244602222
 21
4.7401956145
 31
0.0
 11
5.0244653701
 21
4.7378032057
 31
0.0
 11
5.0244793934
 21
4.7355581974
 31
0.0
 11
5.0245021367
 21
4.733462103
 31
0.0
 11
5.0245167204
 21
4.7324703702
 31
0.0
 11
5.0245331288
 21
4.7315163961
 31
0.0
 11
5.0245689137
 21
4.7297221748
 31
0.0
 11
5.0246043938
 21
4.7280803308
 31
0.0
 11
5.0246344545
 21
4.7265917535
 31
0.0
 11
5.0246539813
 21
4.7252573322
 31
0.0
 11
5.0246578597
 21
4.7240779565
 31
0.0
 11
5.0246523324
 21
4.7235466886
 31
0.0
 11
5.024641038
 21
4.723054513
 31
0.0
 11
5.0246243386
 21
4.7226014981
 31
0.0
 11
5.0246033167
 21
4.7221876817
 31
0.0
 11
5.0245790728
 21
4.7218131008
 31
0.0
 11
5.0245527077
 21
4.7214777924
 31
0.0
 11
5.0245253221
 21
4.7211817935
 31
0.0
 11
5.0245115906
 21
4.7210485466
 31
0.0
 11
5.0244980167
 21
4.720925141
 31
0.0
 11
5.0244847381
 21
4.7208115813
 31
0.0
 11
5.0244718922
 21
4.7207078721
 31
0.0
 11
5.0244596168
 21
4.720614018
 31
0.0
 11
5.0244480494
 21
4.7205300236
 31
0.0
 11
5.0244373276
 21
4.7204558936
 31
0.0
 11
5.0244275889
 21
4.7203916326
 31
0.0
 11
5.0244189711
 21
4.7203372453
 31
0.0
 11
5.0244151254
 21
4.7203137556
 31
0.0
 11
5.0244116115
 21
4.7202927361
 31
0.0
 11
5.0244084466
 21
4.7202741873
 31
0.0
 11
5.0244056479
 21
4.7202581099
 31
0.0
 11
5.0244032326
 21
4.7202445043
 31
0.0
 11
5.0244012179
 21
4.7202333711
 31
0.0
 11
5.0244003661
 21
4.7202287319
 31
0.0
 11
5.0243996209
 21
4.720224711
 31
0.0
 11
5.0243989845
 21
4.7202213085
 31
0.0
 11
5.0243984589
 21
4.7202185244
 31
0.0
 11
5.0243980465
 21
4.720216359
 31
0.0
 11
5.0243978833
 21
4.7202155082
 31
0.0
 11
5.0243977491
 21
4.7202148121
 31
0.0
 11
5.0243976444
 21
4.7202142707
 31
0.0
 11
5.0243975692
 21
4.7202138839
 31
0.0
 11
5.0243975239
 21
4.7202136519
 31
0.0
 11
5.0243975087
 21
4.7202135745
 31
0.0
  0
SPLINE
  5
257
100
AcDbEntity
  8
0
100
AcDbSpline
 62
6
  6
CONTINUOUS
 70
0
 71
3
 72
28
 73
24
 74
22
 42
0.0000001
 43
0.0000001
 44
0.0000000001
 12
-0.013917238
 22
0.1261257918
 32
0.0
 13
-0.0108620891
 23
0.1264255507
 33
0.0
 40
0.0
 40
0.0
 40
0.0
 40
0.0
 40
0.0206425018
 40
0.0428852018
 40
0.0666517297
 40
0.0918667545
 40
0.1184558439
 40
0.1463412939
 40
0.2056525838
 40
0.2368969449
 40
0.2690740097
 40
0.3358311698
 40
0.4051068366
 40
0.4760518088
 40
0.5477961324
 40
0.6194607354
 40
0.6901675944
 40
0.7590492507
 40
0.8252609703
 40
0.8879919573
 40
0.9464759004
 40
0.9739002906
 40
1.0
 40
1.0
 40
1.0
 40
1.0
 10
4.0343975056
 20
3.2492126172
 30
0.0
 10
4.0343017434
 20
3.2500804678
 30
0.0
 10
4.0341113573
 20
3.2518843941
 30
0.0
 10
4.0338364069
 20
3.2546901489
 30
0.0
 10
4.0335613136
 20
3.2576901593
 30
0.0
 10
4.0332861525
 20
3.2608747252
 30
0.0
 10
4.033010907
 20
3.2642341155
 30
0.0
 10
4.0326360952
 20
3.2690323185
 30
0.0
 10
4.0322704368
 20
3.2740287031
 30
0.0
 10
4.0319093741
 20
3.2792073712
 30
0.0
 10
4.0315375126
 20
3.2847009809
 30
0.0
 10
4.031075274
 20
3.2918007516
 30
0.0
 10
4.030526878
 20
3.3005381245
 30
0.0
 10
4.0299783236
 20
3.3094868328
 30
0.0
 10
4.0294296914
 20
3.3185367673
 30
0.0
 10
4.0288810649
 20
3.3275766123
 30
0.0
 10
4.0283325268
 20
3.3364951563
 30
0.0
 10
4.0277841674
 20
3.3451826266
 30
0.0
 10
4.0272361097
 20
3.3535320695
 30
0.0
 10
4.0266884697
 20
3.3614407561
 30
0.0
 10
4.0262232416
 20
3.3677105743
 30
0.0
 10
4.0258481093
 20
3.3724333243
 30
0.0
 10
4.0256597858
 20
3.3746894011
 30
0.0
 10
4.0255652866
 20
3.3757892912
 30
0.0
 11
4.0343975056
 21
3.2492126172
 31
0.0
 11
4.0341215838
 21
3.251817398
 31
0.0
 11
4.0338455191
 21
3.2546262697
 31
0.0
 11
4.0335694595
 21
3.257629374
 31
0.0
 11
4.0332934524
 21
3.2608170146
 31
0.0
 11
4.0330174606
 21
3.2641796318
 31
0.0
 11
4.032741456
 21
3.2677072722
 31
0.0
 11
4.0321894352
 21
3.2752130875
 31
0.0
 11
4.0319134312
 21
3.2791681066
 31
0.0
 11
4.0316374284
 21
3.2832417572
 31
0.0
 11
4.03108542
 21
3.2916946558
 31
0.0
 11
4.0305334089
 21
3.3004677867
 31
0.0
 11
4.0299813968
 21
3.3094531469
 31
0.0
 11
4.0294293862
 21
3.318540127
 31
0.0
 11
4.0288773735
 21
3.3276169724
 31
0.0
 11
4.0283253545
 21
3.3365720606
 31
0.0
 11
4.0277733338
 21
3.3452950949
 31
0.0
 11
4.0272213169
 21
3.3536786326
 31
0.0
 11
4.026669307
 21
3.3616194864
 31
0.0
 11
4.026117299
 21
3.369020032
 31
0.0
 11
4.0258412934
 21
3.372488986
 31
0.0
 11
4.0255652866
 21
3.3757892912
 31
0.0
  0
SPLINE
  5
258
100
AcDbEntity
  8
0
100
AcDbSpline
 62
6
  6
CONTINUOUS
 70
0
 71
3
 72
46
 73
42
 74
40
 42
0.0000001
 43
0.0000001
 44
0.0000000001
 12
0.0864192333
 22
-0.0864192333
 32
0.0
 13
0.009531392
 23
-0.1218430151
 33
0.0
 40
0.0
 40
0.0
 40
0.0
 40
0.0
 40
0.0007263661
 40
0.0016099187
 40
0.0026622387
 40
0.0038900138
 40
0.0052973215
 40
0.0068867599
 40
0.0086600391
 40
0.0106183075
 40
0.0127622222
 40
0.0150919005
 40
0.0203078793
 40
0.0262641368
 40
0.0329571641
 40
0.0403816546
 40
0.0485292274
 40
0.057390798
 40
0.0669570547
 40
0.0772172942
 40
0.0881584301
 40
0.1120295626
 40
0.1384537989
 40
0.167295132
 40
0.1984051805
 40
0.2316186849
 40
0.2667587775
 40
0.303634743
 40
0.3817760168
 40
0.4643009324
 40
0.5493263647
 40
0.6348712864
 40
0.7189020294
 40
0.7597101304
 40
0.7993756267
 40
0.8376510836
 40
0.874293955
 40
0.9090678631
 40
0.9417523884
 40
0.972136653
 40
1.0
 40
1.0
 40
1.0
 40
1.0
 10
4.04365702
 20
3.3904540601
 30
0.0
 10
4.043677944
 20
3.3904331361
 30
0.0
 10
4.0437191546
 20
3.3903816267
 30
0.0
 10
4.043775208
 20
3.3902885952
 30
0.0
 10
4.0438313926
 20
3.3901724445
 30
0.0
 10
4.0438876972
 20
3.3900330959
 30
0.0
 10
4.0439441393
 20
3.3898704548
 30
0.0
 10
4.0440006967
 20
3.389684505
 30
0.0
 10
4.0440573555
 20
3.3894752434
 30
0.0
 10
4.044114098
 20
3.3892426884
 30
0.0
 10
4.0441709149
 20
3.3889868826
 30
0.0
 10
4.0442497663
 20
3.388600084
 30
0.0
 10
4.0443473503
 20
3.3880586927
 30
0.0
 10
4.0444609038
 20
3.3873397643
 30
0.0
 10
4.0445747955
 20
3.3865299276
 30
0.0
 10
4.0446889928
 20
3.3856300789
 30
0.0
 10
4.0448034792
 20
3.3846412806
 30
0.0
 10
4.0449182313
 20
3.3835647271
 30
0.0
 10
4.0450332215
 20
3.3824016818
 30
0.0
 10
4.0451484359
 20
3.381153556
 30
0.0
 10
4.0453070058
 20
3.3793242253
 30
0.0
 10
4.0455040729
 20
3.3768373087
 30
0.0
 10
4.0457352788
 20
3.373621686
 30
0.0
 10
4.0459674902
 20
3.3701105346
 30
0.0
 10
4.0462006367
 20
3.366322302
 30
0.0
 10
4.0464347021
 20
3.3622770693
 30
0.0
 10
4.0466696514
 20
3.3579966216
 30
0.0
 10
4.0469902946
 20
3.3518878544
 30
0.0
 10
4.0473888929
 20
3.3438501626
 30
0.0
 10
4.0478622193
 20
3.33385227
 30
0.0
 10
4.0483390141
 20
3.3235525988
 30
0.0
 10
4.0488191248
 20
3.3131916713
 30
0.0
 10
4.0492256328
 20
3.3046306099
 30
0.0
 10
4.0495557512
 20
3.2979370969
 30
0.0
 10
4.0498017724
 20
3.2931057056
 30
0.0
 10
4.0500486269
 20
3.2884442697
 30
0.0
 10
4.0502962961
 20
3.2839824442
 30
0.0
 10
4.0505447659
 20
3.2797487983
 30
0.0
 10
4.0507940157
 20
3.2757706287
 30
0.0
 10
4.0510440161
 20
3.2720746263
 30
0.0
 10
4.0512189802
 20
3.2697081448
 30
0.0
 10
4.0513075057
 20
3.2685764934
 30
0.0
 11
4.04365702
 21
3.3904540601
 31
0.0
 11
4.0437136421
 21
3.3903856892
 31
0.0
 11
4.0437703256
 21
3.3902937793
 31
0.0
 11
4.0438270673
 21
3.3901783635
 31
0.0
 11
4.0438838638
 21
3.390039475
 31
0.0
 11
4.0439407121
 21
3.3898771471
 31
0.0
 11
4.0439976089
 21
3.3896914128
 31
0.0
 11
4.0440545509
 21
3.3894823053
 31
0.0
 11
4.044111535
 21
3.3892498579
 31
0.0
 11
4.044168559
 21
3.3889941192
 31
0.0
 11
4.0442256235
 21
3.3887151741
 31
0.0
 11
4.0443398782
 21
3.3880880245
 31
0.0
 11
4.0444543068
 21
3.387369129
 31
0.0
 11
4.0445689171
 21
3.3865592079
 31
0.0
 11
4.0446837146
 21
3.385659113
 31
0.0
 11
4.0447986989
 21
3.3846700165
 31
0.0
 11
4.0449138688
 21
3.3835931385
 31
0.0
 11
4.045029223
 21
3.3824297007
 31
0.0
 11
4.0451447612
 21
3.3811810771
 31
0.0
 11
4.0452604851
 21
3.3798489204
 31
0.0
 11
4.0454924971
 21
3.3769407441
 31
0.0
 11
4.0457252706
 21
3.3737196993
 31
0.0
 11
4.045958812
 21
3.3702025938
 31
0.0
 11
4.0461931273
 21
3.3664076983
 31
0.0
 11
4.0464282229
 21
3.3623553153
 31
0.0
 11
4.0466641065
 21
3.3580671428
 31
0.0
 11
4.0469007871
 21
3.3535665565
 31
0.0
 11
4.0473765785
 21
3.3440283606
 31
0.0
 11
4.0478556684
 21
3.3339539424
 31
0.0
 11
4.0483381152
 21
3.3235737432
 31
0.0
 11
4.0488239861
 21
3.3131301451
 31
0.0
 11
4.0493133638
 21
3.3028719732
 31
0.0
 11
4.0495593898
 21
3.2978906728
 31
0.0
 11
4.0498063193
 21
3.2930492372
 31
0.0
 11
4.0500541679
 21
3.2883779632
 31
0.0
 11
4.0503029403
 21
3.2839065604
 31
0.0
 11
4.0505526325
 21
3.2796639999
 31
0.0
 11
4.0508032945
 21
3.2756773248
 31
0.0
 11
4.0510549805
 21
3.2719724434
 31
0.0
 11
4.0513075057
 21
3.2685764934
 31
0.0
  0
SPLINE
  5
259
100
AcDbEntity
  8
0
100
AcDbSpline
 62
6
  6
CONTINUOUS
 70
0
 71
3
 72
34
 73
30
 74
28
 42
0.0000001
 43
0.0000001
 44
0.0000000001
 12
0.0036611253
 22
-0.010964743
 32
0.0
 13
0.0081743371
 23
0.0081737164
 33
0.0
 40
0.0
 40
0.0
 40
0.0
 40
0.0
 40
0.1083393889
 40
0.2090465658
 40
0.3020462525
 40
0.3872965458
 40
0.4648147946
 40
0.500715579
 40
0.5347410342
 40
0.5669247375
 40
0.5973095383
 40
0.625949742
 40
0.6529138135
 40
0.6782883782
 40
0.7021827316
 40
0.7247310976
 40
0.7460963307
 40
0.7664730936
 40
0.7860890679
 40
0.8052028204
 40
0.8240972898
 40
0.8430687799
 40
0.8624120707
 40
0.8824067811
 40
0.9033076108
 40
0.9253390051
 40
0.9486939225
 40
0.9735355215
 40
1.0
 40
1.0
 40
1.0
 40
1.0
 10
4.0343975056
 20
3.2492126172
 30
0.0
 10
4.0345297203
 20
3.248816646
 30
0.0
 10
4.0347937533
 20
3.2480555217
 30
0.0
 10
4.0352061799
 20
3.246966993
 30
0.0
 10
4.0356205737
 20
3.2459749165
 30
0.0
 10
4.0360368758
 20
3.2450812855
 30
0.0
 10
4.0363940234
 20
3.2444036782
 30
0.0
 10
4.0366822387
 20
3.2439139595
 30
0.0
 10
4.0368933679
 20
3.243581842
 30
0.0
 10
4.0371050373
 20
3.2432755618
 30
0.0
 10
4.0373172735
 20
3.2429952733
 30
0.0
 10
4.0375301014
 20
3.2427411286
 30
0.0
 10
4.0377435589
 20
3.2425132807
 30
0.0
 10
4.0379576959
 20
3.2423118796
 30
0.0
 10
4.0381725545
 20
3.2421370526
 30
0.0
 10
4.0383881932
 20
3.2419889406
 30
0.0
 10
4.038604672
 20
3.241867711
 30
0.0
 10
4.0388220373
 20
3.2417735652
 30
0.0
 10
4.0390402989
 20
3.2417067367
 30
0.0
 10
4.039259408
 20
3.2416674667
 30
0.0
 10
4.0394792507
 20
3.2416559779
 30
0.0
 10
4.0396996629
 20
3.2416723851
 30
0.0
 10
4.0399204949
 20
3.2417166684
 30
0.0
 10
4.0401416512
 20
3.2417887608
 30
0.0
 10
4.040363101
 20
3.2418885763
 30
0.0
 10
4.0405848654
 20
3.2420160463
 30
0.0
 10
4.040806998
 20
3.2421711373
 30
0.0
 10
4.0410295492
 20
3.2423538348
 30
0.0
 10
4.0411734914
 20
3.2424895829
 30
0.0
 10
4.0412456013
 20
3.2425616873
 30
0.0
 11
4.0343975056
 21
3.2492126172
 31
0.0
 11
4.0348091429
 21
3.2480298155
 31
0.0
 11
4.0352229904
 21
3.2469417019
 31
0.0
 11
4.0356389825
 21
3.2459503877
 31
0.0
 11
4.0360570534
 21
3.2450579844
 31
0.0
 11
4.0364771592
 21
3.2442664663
 31
0.0
 11
4.036687986
 21
3.2439089995
 31
0.0
 11
4.0368993385
 21
3.243577281
 31
0.0
 11
4.037111224
 21
3.2432714761
 31
0.0
 11
4.03732365
 21
3.2429917499
 31
0.0
 11
4.0375366236
 21
3.2427382676
 31
0.0
 11
4.0377501522
 21
3.2425111943
 31
0.0
 11
4.0379642422
 21
3.2423106818
 31
0.0
 11
4.0381788974
 21
3.2421368499
 31
0.0
 11
4.0383941216
 21
3.2419898138
 31
0.0
 11
4.0386099182
 21
3.2418696886
 31
0.0
 11
4.0388262909
 21
3.2417765894
 31
0.0
 11
4.0390432433
 21
3.2417106314
 31
0.0
 11
4.0392607789
 21
3.2416719296
 31
0.0
 11
4.0394789014
 21
3.2416605983
 31
0.0
 11
4.0396976152
 21
3.2416767185
 31
0.0
 11
4.0399169253
 21
3.2417203332
 31
0.0
 11
4.040136837
 21
3.2417914834
 31
0.0
 11
4.0403573555
 21
3.2418902099
 31
0.0
 11
4.0405784859
 21
3.2420165534
 31
0.0
 11
4.0408002336
 21
3.2421705548
 31
0.0
 11
4.0410226036
 21
3.242352255
 31
0.0
 11
4.0412456013
 21
3.2425616873
 31
0.0
  0
SPLINE
  5
25A
100
AcDbEntity
  8
0
100
AcDbSpline
 62
6
  6
CONTINUOUS
 70
0
 71
3
 72
66
 73
62
 74
60
 42
0.0000001
 43
0.0000001
 44
0.0000000001
 12
-0.1309715951
 22
-0.0000430201
 32
0.0
 13
-0.0659076759
 23
0.1131801168
 33
0.0
 40
0.0
 40
0.0
 40
0.0
 40
0.0
 40
0.0004478076
 40
0.0009060139
 40
0.001889503
 40
0.0024325753
 40
0.0030174415
 40
0.0043293328
 40
0.0058529237
 40
0.0076047474
 40
0.0095953572
 40
0.0118316601
 40
0.0143181372
 40
0.0170571842
 40
0.0200500226
 40
0.0232971726
 40
0.0267986582
 40
0.0305541441
 40
0.038823667
 40
0.0480938183
 40
0.0583484215
 40
0.0695696933
 40
0.0817351883
 40
0.0948192939
 40
0.108795809
 40
0.1236353497
 40
0.1393052737
 40
0.1730021338
 40
0.2095945977
 40
0.2487654232
 40
0.2901714144
 40
0.3334503158
 40
0.3782228935
 40
0.4240954812
 40
0.4706655547
 40
0.5642577796
 40
0.6104573596
 40
0.6557162948
 40
0.6996375211
 40
0.7418348936
 40
0.7819393836
 40
0.819600112
 40
0.8544880977
 40
0.8707974328
 40
0.886302167
 40
0.9009689632
 40
0.914767641
 40
0.9276684567
 40
0.9396441267
 40
0.9506716973
 40
0.9607292678
 40
0.9697974237
 40
0.9778627055
 40
0.9815160368
 40
0.984915033
 40
0.9880591097
 40
0.9909486744
 40
0.9935849124
 40
0.9959698093
 40
0.9981065252
 40
1.0
 40
1.0
 40
1.0
 40
1.0
 10
4.0470550161
 20
3.2526236248
 30
0.0
 10
4.0470354661
 20
3.2526236184
 30
0.0
 10
4.0469958437
 20
3.2526266903
 30
0.0
 10
4.0469152501
 20
3.252645467
 30
0.0
 10
4.0468360911
 20
3.2526833942
 30
0.0
 10
4.0467604617
 20
3.2527362121
 30
0.0
 10
4.04667926
 20
3.2528053994
 30
0.0
 10
4.0465784491
 20
3.2529163153
 30
0.0
 10
4.0464621155
 20
3.2530797093
 30
0.0
 10
4.046345843
 20
3.2532783159
 30
0.0
 10
4.0462295475
 20
3.25351216
 30
0.0
 10
4.0461131862
 20
3.2537812798
 30
0.0
 10
4.0459967678
 20
3.2540856143
 30
0.0
 10
4.0458802801
 20
3.2544250311
 30
0.0
 10
4.0457637307
 20
3.2547993505
 30
0.0
 10
4.0456471299
 20
3.2552083756
 30
0.0
 10
4.0455304808
 20
3.2556519008
 30
0.0
 10
4.0453696894
 20
3.2563104271
 30
0.0
 10
4.0451704564
 20
3.2572186467
 30
0.0
 10
4.0449380518
 20
3.2584096813
 30
0.0
 10
4.044705385
 20
3.259731713
 30
0.0
 10
4.044472544
 20
3.2611818712
 30
0.0
 10
4.0442395558
 20
3.2627569826
 30
0.0
 10
4.044006427
 20
3.264453568
 30
0.0
 10
4.0437732172
 20
3.2662679047
 30
0.0
 10
4.0435399351
 20
3.2681959922
 30
0.0
 10
4.0432210138
 20
3.2709808743
 30
0.0
 10
4.0428254333
 20
3.2747127735
 30
0.0
 10
4.0423608883
 20
3.2794689013
 30
0.0
 10
4.0418959819
 20
3.284563041
 30
0.0
 10
4.0414307577
 20
3.2899502
 30
0.0
 10
4.0409653222
 20
3.2955827628
 30
0.0
 10
4.0404997387
 20
3.3014109508
 30
0.0
 10
4.0400340448
 20
3.3073832574
 30
0.0
 10
4.0394120325
 20
3.3154811667
 30
0.0
 10
4.0387946565
 20
3.3235937481
 30
0.0
 10
4.0381710272
 20
3.3316484415
 30
0.0
 10
4.0377053883
 20
3.3375403747
 30
0.0
 10
4.037239893
 20
3.3432570368
 30
0.0
 10
4.036774573
 20
3.348747915
 30
0.0
 10
4.0363095257
 20
3.3539644803
 30
0.0
 10
4.0358448265
 20
3.3588606318
 30
0.0
 10
4.0354496236
 20
3.3627197975
 30
0.0
 10
4.0351312427
 20
3.3656143782
 30
0.0
 10
4.0348979022
 20
3.367630155
 30
0.0
 10
4.0346646188
 20
3.3695355595
 30
0.0
 10
4.0344314315
 20
3.3713263985
 30
0.0
 10
4.0341983449
 20
3.372998709
 30
0.0
 10
4.0339653595
 20
3.3745488038
 30
0.0
 10
4.033732549
 20
3.3759732935
 30
0.0
 10
4.0334999649
 20
3.3772690621
 30
0.0
 10
4.0332675939
 20
3.3784332643
 30
0.0
 10
4.0330682603
 20
3.3793187361
 30
0.0
 10
4.0329073516
 20
3.3799588455
 30
0.0
 10
4.0327907276
 20
3.380388475
 30
0.0
 10
4.0326741444
 20
3.3807834704
 30
0.0
 10
4.0325576107
 20
3.3811436405
 30
0.0
 10
4.0324411417
 20
3.3814688365
 30
0.0
 10
4.0323247419
 20
3.3817589425
 30
0.0
 10
4.032208424
 20
3.3820138297
 30
0.0
 10
4.0321260365
 20
3.38216948
 30
0.0
 10
4.0320844383
 20
3.3822409146
 30
0.0
 11
4.0470550161
 21
3.2526236248
 31
0.0
 11
4.0469965373
 21
3.2526281041
 31
0.0
 11
4.0469380585
 21
3.2526415828
 31
0.0
 11
4.046821101
 21
3.2526955524
 31
0.0
 11
4.0467626222
 21
3.2527360405
 31
0.0
 11
4.0467041434
 21
3.252785517
 31
0.0
 11
4.0465871858
 21
3.2529113868
 31
0.0
 11
4.0464702282
 21
3.2530730654
 31
0.0
 11
4.0463532705
 21
3.2532704565
 31
0.0
 11
4.0462363129
 21
3.2535034637
 31
0.0
 11
4.0461193553
 21
3.2537719907
 31
0.0
 11
4.0460023976
 21
3.2540759216
 31
0.0
 11
4.04588544
 21
3.2544150579
 31
0.0
 11
4.0457684824
 21
3.2547891792
 31
0.0
 11
4.0456515248
 21
3.2551980652
 31
0.0
 11
4.0455345672
 21
3.2556414955
 31
0.0
 11
4.0454176095
 21
3.2561192498
 31
0.0
 11
4.0451836943
 21
3.257176761
 31
0.0
 11
4.0449497791
 21
3.2583681413
 31
0.0
 11
4.0447158638
 21
3.2596906763
 31
0.0
 11
4.0444819486
 21
3.2611416096
 31
0.0
 11
4.0442480333
 21
3.2627176801
 31
0.0
 11
4.0440141181
 21
3.2644152864
 31
0.0
 11
4.0437802028
 21
3.2662308059
 31
0.0
 11
4.0435462876
 21
3.2681602366
 31
0.0
 11
4.0433123723
 21
3.2701991777
 31
0.0
 11
4.0428445418
 21
3.2745876435
 31
0.0
 11
4.0423767113
 21
3.2793573287
 31
0.0
 11
4.0419088807
 21
3.2844662191
 31
0.0
 11
4.0414410502
 21
3.2898690111
 31
0.0
 11
4.0409732196
 21
3.2955179791
 31
0.0
 11
4.0405053891
 21
3.3013632235
 31
0.0
 11
4.0400375585
 21
3.3073529877
 31
0.0
 11
4.039569728
 21
3.3134343767
 31
0.0
 11
4.0386340668
 21
3.3256565381
 31
0.0
 11
4.0381662362
 21
3.3316892584
 31
0.0
 11
4.0376984057
 21
3.3375984034
 31
0.0
 11
4.0372305751
 21
3.3433317815
 31
0.0
 11
4.0367627445
 21
3.3488386025
 31
0.0
 11
4.0362949139
 21
3.3540702761
 31
0.0
 11
4.0358270833
 21
3.3589805258
 31
0.0
 11
4.0353592527
 21
3.3635258487
 31
0.0
 11
4.0351253374
 21
3.365649062
 31
0.0
 11
4.0348914221
 21
3.3676662245
 31
0.0
 11
4.0346575068
 21
3.369572863
 31
0.0
 11
4.0344235914
 21
3.3713648958
 31
0.0
 11
4.0341896761
 21
3.3730382663
 31
0.0
 11
4.0339557608
 21
3.3745891983
 31
0.0
 11
4.0337218455
 21
3.3760144289
 31
0.0
 11
4.0334879302
 21
3.3773107495
 31
0.0
 11
4.0332540149
 21
3.3784751575
 31
0.0
 11
4.0330200996
 21
3.3795052553
 31
0.0
 11
4.0329031419
 21
3.3799692236
 31
0.0
 11
4.0327861843
 21
3.3803987571
 31
0.0
 11
4.0326692266
 21
3.3807935831
 31
0.0
 11
4.0325522689
 21
3.3811535081
 31
0.0
 11
4.0324353113
 21
3.3814783679
 31
0.0
 11
4.0323183536
 21
3.3817679983
 31
0.0
 11
4.032201396
 21
3.3820222353
 31
0.0
 11
4.0320844383
 21
3.3822409146
 31
0.0
  0
SPLINE
  5
25B
100
AcDbEntity
  8
0
100
AcDbSpline
 62
6
  6
CONTINUOUS
 70
0
 71
3
 72
68
 73
64
 74
62
 42
0.0000001
 43
0.0000001
 44
0.0000000001
 12
0.0769010671
 22
-0.0000000026
 32
0.0
 13
0.0000001182
 23
-0.076901066
 33
0.0
 40
0.0
 40
0.0
 40
0.0
 40
0.0
 40
0.000001025
 40
0.0000040996
 40
0.000009223
 40
0.0000163943
 40
0.0000256129
 40
0.0000368779
 40
0.0000655441
 40
0.0001023869
 40
0.0001474002
 40
0.0002005782
 40
0.0002619149
 40
0.0004090413
 40
0.0005887338
 40
0.0008009477
 40
0.0010456396
 40
0.0013227672
 40
0.0016322891
 40
0.0023483559
 40
0.0031935334
 40
0.0041675321
 40
0.0052700809
 40
0.0065009266
 40
0.0078598347
 40
0.0093465888
 40
0.0109609909
 40
0.0127028617
 40
0.016568362
 40
0.0209420471
 40
0.0258231543
 40
0.0312112224
 40
0.0371060923
 40
0.0435079026
 40
0.0504167652
 40
0.0657532158
 40
0.0831076339
 40
0.1024687509
 40
0.1238239414
 40
0.1471602552
 40
0.159567364
 40
0.1724650385
 40
0.1997238528
 40
0.2289181363
 40
0.2600287269
 40
0.3279217004
 40
0.3646655168
 40
0.4032478214
 40
0.4436447777
 40
0.4858307045
 40
0.529780017
 40
0.5754675202
 40
0.5989554023
 40
0.6228686829
 40
0.6472044208
 40
0.6719596342
 40
0.6971302445
 40
0.7227113975
 40
0.7750854385
 40
0.8290415074
 40
0.8845391116
 40
0.9415382447
 40
1.0
 40
1.0
 40
1.0
 40
1.0
 10
5.024397509
 20
5.2452135745
 30
0.0
 10
5.0243975353
 20
5.2452135745
 30
0.0
 10
5.0243975039
 20
5.2452134086
 30
0.0
 10
5.0243975991
 20
5.2452132372
 30
0.0
 10
5.0243976459
 20
5.2452128159
 30
0.0
 10
5.0243977634
 20
5.2452122898
 30
0.0
 10
5.0243978928
 20
5.2452115878
 30
0.0
 10
5.0243981327
 20
5.2452103534
 30
0.0
 10
5.0243984998
 20
5.2452084184
 30
0.0
 10
5.0243990265
 20
5.2452056353
 30
0.0
 10
5.0243996634
 20
5.2452022328
 30
0.0
 10
5.0244004094
 20
5.2451982122
 30
0.0
 10
5.0244016219
 20
5.2451916158
 30
0.0
 10
5.0244033948
 20
5.2451818252
 30
0.0
 10
5.0244058116
 20
5.2451682208
 30
0.0
 10
5.0244086123
 20
5.2451521445
 30
0.0
 10
5.0244117795
 20
5.245133597
 30
0.0
 10
5.0244152961
 20
5.2451125787
 30
0.0
 10
5.0244206956
 20
5.2450796247
 30
0.0
 10
5.0244281995
 20
5.2450322604
 30
0.0
 10
5.0244379368
 20
5.2449680059
 30
0.0
 10
5.0244486577
 20
5.244893882
 30
0.0
 10
5.0244602243
 20
5.2448098934
 30
0.0
 10
5.0244724986
 20
5.2447160446
 30
0.0
 10
5.0244853427
 20
5.2446123402
 30
0.0
 10
5.0244986188
 20
5.2444987848
 30
0.0
 10
5.0245121889
 20
5.2443753831
 30
0.0
 10
5.0245311582
 20
5.2441912356
 30
0.0
 10
5.0245546586
 20
5.2439364568
 30
0.0
 10
5.0245809304
 20
5.2436011526
 30
0.0
 10
5.0246050689
 20
5.2432265668
 30
0.0
 10
5.0246259632
 20
5.2428127367
 30
0.0
 10
5.0246425422
 20
5.2423596995
 30
0.0
 10
5.024653563
 20
5.2418674981
 30
0.0
 10
5.0246605898
 20
5.241133185
 30
0.0
 10
5.0246554266
 20
5.2401180671
 30
0.0
 10
5.0246343891
 20
5.2387839412
 30
0.0
 10
5.0246032133
 20
5.2372956979
 30
0.0
 10
5.0245669332
 20
5.2356541947
 30
0.0
 10
5.024537306
 20
5.2341908438
 30
0.0
 10
5.024515842
 20
5.2329441767
 30
0.0
 10
5.0244961312
 20
5.2315969205
 30
0.0
 10
5.0244773455
 20
5.2298192955
 30
0.0
 10
5.0244638676
 20
5.227574749
 30
0.0
 10
5.024457517
 20
5.224288564
 30
0.0
 10
5.0244701918
 20
5.2208088509
 30
0.0
 10
5.0244993376
 20
5.21713773
 30
0.0
 10
5.02453135
 20
5.2141714905
 30
0.0
 10
5.0245684451
 20
5.2110658019
 30
0.0
 10
5.0246052103
 20
5.2078225224
 30
0.0
 10
5.0246364815
 20
5.2044435601
 30
0.0
 10
5.0246534284
 20
5.2015437975
 30
0.0
 10
5.0246592452
 20
5.1991575966
 30
0.0
 10
5.0246590085
 20
5.197318713
 30
0.0
 10
5.0246535213
 20
5.1954473504
 30
0.0
 10
5.0246419512
 20
5.1935437849
 30
0.0
 10
5.0246249119
 20
5.1916083358
 30
0.0
 10
5.0245962862
 20
5.1889649947
 30
0.0
 10
5.0245524198
 20
5.1855839049
 30
0.0
 10
5.0244963243
 20
5.1814360437
 30
0.0
 10
5.0244451014
 20
5.1771695472
 30
0.0
 10
5.0244075134
 20
5.1727874
 30
0.0
 10
5.024397507
 20
5.1698277064
 30
0.0
 10
5.0243975094
 20
5.168329116
 30
0.0
 11
5.024397509
 21
5.2452135745
 31
0.0
 11
5.0243975242
 21
5.2452134972
 31
0.0
 11
5.0243975696
 21
5.2452132651
 31
0.0
 11
5.0243976448
 21
5.2452128784
 31
0.0
 11
5.0243977498
 21
5.245212337
 31
0.0
 11
5.0243978841
 21
5.2452116409
 31
0.0
 11
5.0243980475
 21
5.2452107902
 31
0.0
 11
5.0243984605
 21
5.2452086247
 31
0.0
 11
5.0243989868
 21
5.2452058408
 31
0.0
 11
5.024399624
 21
5.2452024384
 31
0.0
 11
5.0244003702
 21
5.2451984176
 31
0.0
 11
5.0244012231
 21
5.2451937785
 31
0.0
 11
5.0244032405
 21
5.2451826456
 31
0.0
 11
5.0244056588
 21
5.2451690403
 31
0.0
 11
5.024408461
 21
5.2451529632
 31
0.0
 11
5.0244116298
 21
5.2451344149
 31
0.0
 11
5.0244151479
 21
5.2451133959
 31
0.0
 11
5.0244189981
 21
5.2450899068
 31
0.0
 11
5.0244276257
 21
5.2450355205
 31
0.0
 11
5.0244373748
 21
5.2449712608
 31
0.0
 11
5.0244481073
 21
5.2448971322
 31
0.0
 11
5.0244596855
 21
5.2448131393
 31
0.0
 11
5.0244719714
 21
5.2447192867
 31
0.0
 11
5.0244848269
 21
5.2446155789
 31
0.0
 11
5.0244981143
 21
5.2445020207
 31
0.0
 11
5.0245116956
 21
5.2443786165
 31
0.0
 11
5.0245254328
 21
5.2442453711
 31
0.0
 11
5.0245528235
 21
5.2439493746
 31
0.0
 11
5.0245791829
 21
5.2436140681
 31
0.0
 11
5.0246034076
 21
5.2432394882
 31
0.0
 11
5.0246243942
 21
5.2428256719
 31
0.0
 11
5.0246410393
 21
5.2423726558
 31
0.0
 11
5.0246522604
 21
5.2418804776
 31
0.0
 11
5.0246577165
 21
5.2413492068
 31
0.0
 11
5.0246537199
 21
5.2401698241
 31
0.0
 11
5.0246341116
 21
5.2388353949
 31
0.0
 11
5.0246040118
 21
5.2373468087
 31
0.0
 11
5.0245685404
 21
5.2357049549
 31
0.0
 11
5.0245328175
 21
5.2339107231
 31
0.0
 11
5.0245164617
 21
5.2329567434
 31
0.0
 11
5.0245019477
 21
5.2319650047
 31
0.0
 11
5.0244794092
 21
5.229868894
 31
0.0
 11
5.0244656378
 21
5.2276238647
 31
0.0
 11
5.0244607362
 21
5.2252314321
 31
0.0
 11
5.0244779518
 21
5.2200104185
 31
0.0
 11
5.0245002741
 21
5.217184868
 31
0.0
 11
5.0245314045
 21
5.2142180109
 31
0.0
 11
5.0245675893
 21
5.2111116527
 31
0.0
 11
5.0246035959
 21
5.2078677098
 31
0.0
 11
5.0246341855
 21
5.2044880992
 31
0.0
 11
5.0246541192
 21
5.2009747381
 31
0.0
 11
5.024658453
 21
5.1991685001
 31
0.0
 11
5.0246581582
 21
5.1973295434
 31
0.0
 11
5.02465258
 21
5.1954581075
 31
0.0
 11
5.0246411584
 21
5.1935544394
 31
0.0
 11
5.0246243564
 21
5.1916188656
 31
0.0
 11
5.024603262
 21
5.1896517608
 31
0.0
 11
5.0245525824
 21
5.1856244601
 31
0.0
 11
5.0244978935
 21
5.1814755413
 31
0.0
 11
5.0244479691
 21
5.1772080084
 31
0.0
 11
5.0244115831
 21
5.1728248653
 31
0.0
 11
5.0243975094
 21
5.168329116
 31
0.0
  0
SPLINE
  5
25C
100
AcDbEntity
  8
0
100
AcDbSpline
 62
6
  6
CONTINUOUS
 70
0
 71
3
 72
50
 73
46
 74
44
 42
0.0000001
 43
0.0000001
 44
0.0000000001
 12
-0.0133386923
 22
0.1144847389
 32
0.0
 13
-0.1152591624
 23
-0.0000405876
 33
0.0
 40
0.0
 40
0.0
 40
0.0
 40
0.0
 40
0.0294544388
 40
0.0611926916
 40
0.0950152081
 40
0.1307308507
 40
0.1681445168
 40
0.2070412412
 40
0.2471991607
 40
0.2883884002
 40
0.3729190431
 40
0.4587050379
 40
0.5437889751
 40
0.5854590826
 40
0.6262298469
 40
0.6658680501
 40
0.7041485059
 40
0.7408523809
 40
0.7757720714
 40
0.8087084903
 40
0.8394767532
 40
0.8679027251
 40
0.8938293427
 40
0.9058094884
 40
0.9171130719
 40
0.9277249781
 40
0.9376305048
 40
0.9468174949
 40
0.9552759013
 40
0.9629963647
 40
0.9699706719
 40
0.9761944347
 40
0.9816670205
 40
0.9841225633
 40
0.9863918742
 40
0.9884763429
 40
0.9903782809
 40
0.9921012526
 40
0.9936502376
 40
0.9950322707
 40
0.9962574628
 40
0.9973405489
 40
0.9983030648
 40
0.9991758023
 40
1.0
 40
1.0
 40
1.0
 40
1.0
 10
4.0513075057
 20
3.2685764934
 30
0.0
 10
4.0511765445
 20
3.2697005213
 30
0.0
 10
4.0509165543
 20
3.2720371456
 30
0.0
 10
4.0505413317
 20
3.2756682948
 30
0.0
 10
4.0501659204
 20
3.279541176
 30
0.0
 10
4.04979035
 20
3.2836330499
 30
0.0
 10
4.0494146692
 20
3.2879206417
 30
0.0
 10
4.0490388511
 20
3.2923795184
 30
0.0
 10
4.0486629719
 20
3.2969839423
 30
0.0
 10
4.0481573571
 20
3.3033368362
 30
0.0
 10
4.0475309292
 20
3.3114386592
 30
0.0
 10
4.0467852486
 20
3.321222702
 30
0.0
 10
4.0461597524
 20
3.3293644438
 30
0.0
 10
4.0456549695
 20
3.3357808779
 30
0.0
 10
4.0452790532
 20
3.3404560364
 30
0.0
 10
4.0449031962
 20
3.3450005399
 30
0.0
 10
4.0445274408
 20
3.3493882536
 30
0.0
 10
4.0441517843
 20
3.3535940037
 30
0.0
 10
4.0437762962
 20
3.3575935993
 30
0.0
 10
4.0434009776
 20
3.3613641106
 30
0.0
 10
4.0430259444
 20
3.3648838576
 30
0.0
 10
4.0426511986
 20
3.3681326817
 30
0.0
 10
4.0423314954
 20
3.3706611121
 30
0.0
 10
4.0420737981
 20
3.372534133
 30
0.0
 10
4.0418857084
 20
3.3738227563
 30
0.0
 10
4.0416976934
 20
3.3750307884
 30
0.0
 10
4.0415097384
 20
3.3761564677
 30
0.0
 10
4.0413218654
 20
3.3771981957
 30
0.0
 10
4.041134116
 20
3.3781545361
 30
0.0
 10
4.0409465243
 20
3.3790241317
 30
0.0
 10
4.0407591052
 20
3.3798057508
 30
0.0
 10
4.0405718965
 20
3.380498325
 30
0.0
 10
4.0404108854
 20
3.3810178494
 30
0.0
 10
4.0402807692
 20
3.3813874414
 30
0.0
 10
4.0401867733
 20
3.3816316303
 30
0.0
 10
4.0400928097
 20
3.3818529041
 30
0.0
 10
4.0399988679
 20
3.3820512033
 30
0.0
 10
4.0399049489
 20
3.3822265072
 30
0.0
 10
4.0398110307
 20
3.3823788189
 30
0.0
 10
4.0397170644
 20
3.3825081588
 30
0.0
 10
4.0396229413
 20
3.3826145575
 30
0.0
 10
4.0395284638
 20
3.3826980166
 30
0.0
 10
4.0394332792
 20
3.3827584001
 30
0.0
 10
4.0393371257
 20
3.38279521
 30
0.0
 10
4.0392716751
 20
3.3828035529
 30
0.0
 10
4.0392400096
 20
3.3828035418
 30
0.0
 11
4.0513075057
 21
3.2685764934
 31
0.0
 11
4.0509305056
 21
3.2719503899
 31
0.0
 11
4.0505532851
 21
3.2755890133
 31
0.0
 11
4.0501761493
 21
3.2794690831
 31
0.0
 11
4.04979907
 21
3.2835683317
 31
0.0
 11
4.0494219673
 21
3.2878640795
 31
0.0
 11
4.04904485
 21
3.2923313944
 31
0.0
 11
4.0486677392
 21
3.2969445748
 31
0.0
 11
4.0482906322
 21
3.3016770111
 31
0.0
 11
4.0475364135
 21
3.3113907062
 31
0.0
 11
4.0467821951
 21
3.3212495212
 31
0.0
 11
4.0460279766
 21
3.3310271793
 31
0.0
 11
4.0456508673
 21
3.3358152135
 31
0.0
 11
4.0452737581
 21
3.3404992621
 31
0.0
 11
4.0448966488
 21
3.3450523381
 31
0.0
 11
4.0445195396
 21
3.3494483663
 31
0.0
 11
4.0441424303
 21
3.3536619829
 31
0.0
 11
4.043765321
 21
3.3576690916
 31
0.0
 11
4.0433882118
 21
3.3614465388
 31
0.0
 11
4.0430111025
 21
3.3649727557
 31
0.0
 11
4.0426339932
 21
3.3682273346
 31
0.0
 11
4.0422568839
 21
3.3711917246
 31
0.0
 11
4.0420683293
 21
3.3725596119
 31
0.0
 11
4.0418797747
 21
3.373848737
 31
0.0
 11
4.04169122
 21
3.3750572354
 31
0.0
 11
4.0415026654
 21
3.3761832605
 31
0.0
 11
4.0413141107
 21
3.3772252222
 31
0.0
 11
4.0411255561
 21
3.3781817234
 31
0.0
 11
4.0409370014
 21
3.3790513714
 31
0.0
 11
4.0407484468
 21
3.3798327974
 31
0.0
 11
4.0405598922
 21
3.3805249188
 31
0.0
 11
4.0403713375
 21
3.3811268428
 31
0.0
 11
4.0402770602
 21
3.3813937028
 31
0.0
 11
4.0401827829
 21
3.3816376799
 31
0.0
 11
4.0400885055
 21
3.3818586637
 31
0.0
 11
4.0399942282
 21
3.3820565711
 31
0.0
 11
4.0398999509
 21
3.3822313541
 31
0.0
 11
4.0398056736
 21
3.3823829669
 31
0.0
 11
4.0397113963
 21
3.3825113637
 31
0.0
 11
4.0396171189
 21
3.3826164986
 31
0.0
 11
4.0395228416
 21
3.3826983259
 31
0.0
 11
4.0394285643
 21
3.3827567999
 31
0.0
 11
4.039334287
 21
3.382791876
 31
0.0
 11
4.0392400096
 21
3.3828035418
 31
0.0
  0
LINE
  5
25D
100
AcDbEntity
  8
0
100
AcDbLine
 62
6
  6
CONTINUOUS
 10
7.7993975056
 20
5.4019763203
 11
7.7993975056
 21
5.3675654528
  0
LINE
  5
25E
100
AcDbEntity
  8
0
100
AcDbLine
 62
6
  6
CONTINUOUS
 10
7.7993975056
 20
5.1077135745
 11
7.7993975056
 21
5.1907887575
  0
LINE
  5
25F
100
AcDbEntity
  8
0
100
AcDbLine
 62
6
  6
CONTINUOUS
 10
7.7993975056
 20
4.7746383915
 11
7.7993975056
 21
4.8577135745
  0
LINE
  5
260
100
AcDbEntity
  8
0
100
AcDbLine
 62
6
  6
CONTINUOUS
 10
7.7993975056
 20
4.5634508287
 11
7.7993975056
 21
4.5978616962
  0
ENDSEC
  0
SECTION
  2
OBJECTS
  0
DICTIONARY
  5
C
100
AcDbDictionary
280
0
281
1
  3
ACAD_GROUP
350
D
  3
ACAD_MLINESTYLE
350
17
  3
ACAD_LAYOUT
350
1A
  3
ACAD_PLOTSETTINGS
350
19
  3
ACAD_PLOTSTYLENAME
350
E
  0
DICTIONARY
  5
D
102
{ACAD_REACTORS
330
C
102
}
100
AcDbDictionary
280
0
281
1
  0
ACDBDICTIONARYWDFLT
  5
E
102
{ACAD_REACTORS
330
C
102
}
100
AcDbDictionary
281
1
  3
Normal
350
F
100
AcDbDictionaryWithDefault
340
F
  0
DICTIONARY
  5
17
102
{ACAD_REACTORS
330
C
102
}
100
AcDbDictionary
280
0
281
1
  3
Standard
350
18
  0
DICTIONARY
  5
19
102
{ACAD_REACTORS
330
C
102
}
100
AcDbDictionary
281
1
  0
DICTIONARY
  5
1A
102
{ACAD_REACTORS
330
C
102
}
100
AcDbDictionary
281
1
  3
Model
350
261
  3
Layout1
350
262
  0
ACDBPLACEHOLDER
  5
F
102
{ACAD_REACTORS
330
E
102
}
  0
MLINESTYLE
  5
18
102
{ACAD_REACTORS
330
17
102
}
100
AcDbMlineStyle
  2
STANDARD
 70
0
  3

 62
256
 51
90.0
 52
90.0
 71
2
 49
0.5
 62
256
  6
BYLAYER
 49
-0.5
 62
256
  6
BYLAYER
  0
LAYOUT
  5
261
102
{ACAD_REACTORS
330
1A
102
}
100
AcDbPlotSettings
  1

  2
none_device
  4
ISO_A4_(297.00_x_210.00_MM)
  6

 40
0.0
 41
0.0
 42
0.0
 43
0.0
 44
297.0
 45
210.0
 46
0.0
 47
0.0
 48
0.0
 49
0.0
140
0.0
141
0.0
142
1.0
143
1.0
 70
1024
 72
0
 73
0
 74
0
  7

 75
0
147
1.0
148
0.0
149
0.0
100
AcDbLayout
  1
Model
 70
0
 71
0
 10
0.0
 20
0.0
 11
11.6929133858
 21
8.2677165354
 12
0.0
 22
0.0
 32
0.0
 14
0.0
 24
0.0
 34
0.0
 15
0.0
 25
0.0
 35
0.0
146
0.0
 13
0.0
 23
0.0
 33
0.0
 16
1.0
 26
0.0
 36
0.0
 17
0.0
 27
1.0
 37
0.0
 76
0
330
207
345
0
346
0
  0
LAYOUT
  5
262
102
{ACAD_REACTORS
330
1A
102
}
100
AcDbPlotSettings
  1

  2
none_device
  4
ISO_A4_(297.00_x_210.00_MM)
  6

 40
0.0
 41
0.0
 42
0.0
 43
0.0
 44
297.0
 45
210.0
 46
0.0
 47
0.0
 48
0.0
 49
0.0
140
0.0
141
0.0
142
1.0
143
1.0
 70
0
 72
0
 73
0
 74
0
  7

 75
0
147
1.0
148
0.0
149
0.0
100
AcDbLayout
  1
Layout1
 70
0
 71
1
 10
0.0
 20
0.0
 11
11.6929133858
 21
8.2677165354
 12
0.0
 22
0.0
 32
0.0
 14
0.0
 24
0.0
 34
0.0
 15
0.0
 25
0.0
 35
0.0
146
0.0
 13
0.0
 23
0.0
 33
0.0
 16
1.0
 26
0.0
 36
0.0
 17
0.0
 27
1.0
 37
0.0
 76
0
330
208
345
0
346
0
  0
ENDSEC
  0
EOF
