  0
SECTION
  2
HEADER
  9
$ACADVER
  1
AC1015
  9
$DWGCODEPAGE
  3
ANSI_1252
  9
$EXTMAX
 10
11.6929133858
 20
8.2677165354
 30
0.0
  9
$EXTMIN
 10
0.0
 20
0.0
 30
0.0
  9
$LIMMIN
 10
0.0
 20
0.0
  9
$LIMMAX
 10
11.6929133858
 20
8.2677165354
  9
$VIEWCTR
 10
5.8464566929
 20
4.1338582677
  9
$VIEWSIZE
 40
8.2677165354
  9
$CLAYER
  8
0
  9
$LTSCALE
 40
0.6431102362
  9
$CELTYPE
  6
BYLAYER
  9
$DIMSCALE
 40
1.0
  9
$DIMASZ
 40
0.1
  9
$DIMEXO
 40
0.0730807087
  9
$DIMDLI
 40
0.4443307087
  9
$DIMEXE
 40
0.2104724409
  9
$DIMCEN
 40
0.1052362205
  9
$DIMLFAC
 40
1.0
  9
$DIMBLK
  1
_FILLED
  9
$DIMTXT
 40
0.08
  9
$DIMTOL
 70
1
  9
$DIMLIM
 70
0
  9
$DIMTFAC
 40
1.0
  9
$DIMTP
 40
0.01
  9
$DIMTM
 40
0.01
  9
$PDMODE
 70
3
  9
$PDSIZE
 40
0.06
  9
$HANDSEED
  5
242
  9
$TILEMODE
 70
1
  9
$MEASUREMENT
 70
0
  9
$INSUNITS
 70
1
  0
ENDSEC
  0
SECTION
  2
CLASSES
  0
CLASS
  1
ACDBDICTIONARYWDFLT
  2
AcDbDictionaryWithDefault
  3
AutoCAD 2000
 90
0
280
0
281
0
  0
CLASS
  1
ACDBPLACEHOLDER
  2
AcDbPlaceHolder
  3
AutoCAD 2000
 90
0
280
0
281
0
  0
CLASS
  1
LAYOUT
  2
AcDbLayout
  3
AutoCAD 2000
 90
0
280
0
281
0
  0
ENDSEC
  0
SECTION
  2
TABLES
  0
TABLE
  2
VPORT
  5
8
100
AcDbSymbolTable
 70
2
  0
VPORT
  5
1F4
100
AcDbSymbolTableRecord
100
AcDbViewportTableRecord
  2
*ACTIVE
 70
0
 10
0.0
 20
0.0
 11
1.0
 21
1.0
 12
5.8464566929
 22
4.1338582677
 13
0.0
 23
0.0
 14
1.0
 24
1.0
 15
0.0
 25
0.0
 16
0.0
 26
0.0
 36
1.0
 17
0.0
 27
0.0
 37
0.0
 40
8.2677165354
 41
1.4142857143
 42
50.0
 43
0.0
 44
0.0
 50
0.0
 51
0.0
 71
0
 72
100
 73
1
 74
1
 75
0
 76
0
 77
0
 78
0
  0
ENDTAB
  0
TABLE
  2
LTYPE
  5
5
100
AcDbSymbolTable
 70
6
  0
LTYPE
  5
14
100
AcDbSymbolTableRecord
100
AcDbLinetypeTableRecord
  2
BYBLOCK
 70
0
  3

 72
65
 73
0
 40
0.0
  0
LTYPE
  5
15
100
AcDbSymbolTableRecord
100
AcDbLinetypeTableRecord
  2
BYLAYER
 70
0
  3

 72
65
 73
0
 40
0.0
  0
LTYPE
  5
16
100
AcDbSymbolTableRecord
100
AcDbLinetypeTableRecord
  2
CONTINUOUS
 70
64
  3
Solid line
 72
65
 73
0
 40
0.0
  0
LTYPE
  5
1F5
100
AcDbSymbolTableRecord
100
AcDbLinetypeTableRecord
  2
CENTER
 70
64
  3
____ _ ____ _ ____ _ ____ _ ____ _ ____ _ ____
 72
65
 73
4
 40
0.6
 49
0.375
 74
0
 49
-0.075
 74
0
 49
0.075
 74
0
 49
-0.075
 74
0
  0
LTYPE
  5
1F6
100
AcDbSymbolTableRecord
100
AcDbLinetypeTableRecord
  2
HIDDEN
 70
64
  3
- - - - - - - - - - - - - - - - - - - -
 72
65
 73
2
 40
0.2
 49
0.1
 74
0
 49
-0.1
 74
0
  0
LTYPE
  5
1F7
100
AcDbSymbolTableRecord
100
AcDbLinetypeTableRecord
  2
PHANTOM
 70
64
  3
_____ _ _ _____ _ _ _____ _ _ _____
 72
65
 73
6
 40
0.8
 49
0.45
 74
0
 49
-0.05
 74
0
 49
0.1
 74
0
 49
-0.05
 74
0
 49
0.1
 74
0
 49
-0.05
 74
0
  0
LTYPE
  5
1F8
100
AcDbSymbolTableRecord
100
AcDbLinetypeTableRecord
  2
DOT
 70
64
  3
. . . . . . . . . . . . . . . . . . . .
 72
65
 73
2
 40
0.2
 49
0.1
 74
0
 49
-0.1
 74
0
  0
LTYPE
  5
1F9
100
AcDbSymbolTableRecord
100
AcDbLinetypeTableRecord
  2
DASHED
 70
64
  3
- - - - - - - - - - - - - - - - - - - -
 72
65
 73
2
 40
0.2
 49
0.1
 74
0
 49
-0.1
 74
0
  0
ENDTAB
  0
TABLE
  2
LAYER
  5
2
100
AcDbSymbolTable
 70
36
  0
LAYER
  5
10
100
AcDbSymbolTableRecord
100
AcDbLayerTableRecord
  2
0
 70
0
 62
7
  6
CONTINUOUS
370
-3
390
F
  0
LAYER
  5
1FA
100
AcDbSymbolTableRecord
100
AcDbLayerTableRecord
  2
DEFAULT_1
 70
0
 62
7
  6
CENTER
370
-3
390
F
  0
LAYER
  5
1FB
100
AcDbSymbolTableRecord
100
AcDbLayerTableRecord
  2
DEFAULT_2
 70
0
 62
8
  6
HIDDEN
370
-3
390
F
  0
LAYER
  5
1FC
100
AcDbSymbolTableRecord
100
AcDbLayerTableRecord
  2
DEFAULT_3
 70
0
 62
7
  6
PHANTOM
370
-3
390
F
  0
LAYER
  5
1FD
100
AcDbSymbolTableRecord
100
AcDbLayerTableRecord
  2
01___PRT_ALL_DTM_PLN
 70
0
 62
7
  6
CONTINUOUS
370
-3
390
F
  0
LAYER
  5
1FE
100
AcDbSymbolTableRecord
100
AcDbLayerTableRecord
  2
01___PRT_DEF_DTM_PLN
 70
0
 62
7
  6
CONTINUOUS
370
-3
390
F
  0
LAYER
  5
1FF
100
AcDbSymbolTableRecord
100
AcDbLayerTableRecord
  2
02___PRT_ALL_AXES
 70
0
 62
7
  6
CONTINUOUS
370
-3
390
F
  0
LAYER
  5
200
100
AcDbSymbolTableRecord
100
AcDbLayerTableRecord
  2
03___PRT_ALL_CURVES
 70
0
 62
7
  6
CONTINUOUS
370
-3
390
F
  0
LAYER
  5
201
100
AcDbSymbolTableRecord
100
AcDbLayerTableRecord
  2
04___PRT_ALL_DTM_PNT
 70
0
 62
7
  6
CONTINUOUS
370
-3
390
F
  0
LAYER
  5
202
100
AcDbSymbolTableRecord
100
AcDbLayerTableRecord
  2
05___PRT_ALL_DTM_CSYS
 70
0
 62
7
  6
CONTINUOUS
370
-3
390
F
  0
LAYER
  5
203
100
AcDbSymbolTableRecord
100
AcDbLayerTableRecord
  2
05___PRT_DEF_DTM_CSYS
 70
0
 62
7
  6
CONTINUOUS
370
-3
390
F
  0
LAYER
  5
204
100
AcDbSymbolTableRecord
100
AcDbLayerTableRecord
  2
06___PRT_ALL_SURFS
 70
0
 62
7
  6
CONTINUOUS
370
-3
390
F
  0
ENDTAB
  0
TABLE
  2
STYLE
  5
3
100
AcDbSymbolTable
 70
1
  0
STYLE
  5
11
100
AcDbSymbolTableRecord
100
AcDbTextStyleTableRecord
  2
STANDARD
 70
0
 40
0.0
 41
0.8
 50
0.0
 71
0
 42
0.2
  3
txt
  4

  0
STYLE
  5
205
100
AcDbSymbolTableRecord
100
AcDbTextStyleTableRecord
  2
TEXTSTYLE_1
 70
0
 40
0.0
 41
0.8
 50
0.0
 71
0
 42
0.2
  3
gdt
  4

  0
ENDTAB
  0
TABLE
  2
VIEW
  5
6
100
AcDbSymbolTable
 70
0
  0
ENDTAB
  0
TABLE
  2
UCS
  5
7
100
AcDbSymbolTable
 70
0
  0
ENDTAB
  0
TABLE
  2
APPID
  5
9
100
AcDbSymbolTable
 70
1
  0
APPID
  5
206
100
AcDbSymbolTableRecord
100
AcDbRegAppTableRecord
  2
ACAD
 70
0
  0
ENDTAB
  0
TABLE
  2
BLOCK_RECORD
  5
1
100
AcDbSymbolTable
 70
0
  0
BLOCK_RECORD
  5
207
100
AcDbSymbolTableRecord
100
AcDbBlockTableRecord
  2
*Model_Space
  0
BLOCK_RECORD
  5
208
100
AcDbSymbolTableRecord
100
AcDbBlockTableRecord
  2
*Paper_Space
  0
ENDTAB
  0
TABLE
  2
DIMSTYLE
  5
A
100
AcDbSymbolTable
 70
1
100
AcDbDimStyleTable
 71
0
  0
DIMSTYLE
105
209
100
AcDbSymbolTableRecord
100
AcDbDimStyleTableRecord
  2
STANDARD
 70
0
  3

  4

 40
1.0
 41
0.1
 42
0.0625
 43
0.38
 44
0.18
 45
0.0
 46
0.0
 47
0.01
 48
0.01
140
0.08
141
0.09
142
0.0
143
25.4
144
1.0
145
0.0
146
1.0
147
0.09
 71
1.0
 72
0.0
 73
1
 74
1
 75
0
 76
0
 77
0
 78
4
170
0
171
2
172
0
173
0
174
0
175
0
176
0
177
0
178
0
270
2
271
2
272
2
273
2
274
2
275
0
280
0
281
0
282
0
283
1
284
4
285
0
286
0
287
3
288
0
340
11
  0
ENDTAB
  0
ENDSEC
  0
SECTION
  2
BLOCKS
  0
BLOCK
  5
20
100
AcDbEntity
  8
0
100
AcDbBlockBegin
  2
*Model_Space
 70
0
 10
0.0
 20
0.0
 30
0.0
  3
*Model_Space
  1

  0
ENDBLK
  5
21
100
AcDbEntity
  8
0
100
AcDbBlockEnd
  0
BLOCK
  5
1C
100
AcDbEntity
  8
0
100
AcDbBlockBegin
  2
*Paper_Space
 70
0
 10
0.0
 20
0.0
 30
0.0
  3
*Paper_Space
  1

  0
ENDBLK
  5
1D
100
AcDbEntity
  8
0
100
AcDbBlockEnd
  0
ENDSEC
  0
SECTION
  2
ENTITIES
  0
LINE
  5
20A
100
AcDbEntity
  8
0
100
AcDbLine
 62
6
  6
CONTINUOUS
 10
5.1676266205
 20
3.3405046761
 11
5.8726074043
 21
3.3405046761
  0
LINE
  5
20B
100
AcDbEntity
  8
0
100
AcDbLine
 62
6
  6
CONTINUOUS
 10
5.1676170124
 20
3.7405046761
 11
5.8726170124
 21
3.7405046761
  0
LINE
  5
20C
100
AcDbEntity
  8
0
100
AcDbLine
 62
6
  6
CONTINUOUS
 10
5.2196170124
 20
3.8006438077
 11
5.8206170124
 21
3.8006438077
  0
LINE
  5
20D
100
AcDbEntity
  8
0
100
AcDbLine
 62
9
  6
CONTINUOUS
 10
5.2048759013
 20
4.0716431119
 11
5.8353581234
 21
4.0716431119
  0
LINE
  5
20E
100
AcDbEntity
  8
0
100
AcDbLine
 62
6
  6
CONTINUOUS
 10
5.1676170124
 20
3.7405046761
 11
5.1676170124
 21
3.3405046761
  0
LINE
  5
20F
100
AcDbEntity
  8
0
100
AcDbLine
 62
6
  6
CONTINUOUS
 10
5.2826170124
 20
4.4005046761
 11
5.2826170124
 21
4.3505046761
  0
LINE
  5
210
100
AcDbEntity
  8
0
100
AcDbLine
 62
6
  6
CONTINUOUS
 10
5.3251170124
 20
4.8141530543
 11
5.3251170124
 21
4.5405046761
  0
LINE
  5
211
100
AcDbEntity
  8
0
100
AcDbLine
 62
6
  6
CONTINUOUS
 10
5.8206170124
 20
3.8006438077
 11
5.8726170124
 21
3.7405046761
  0
LINE
  5
212
100
AcDbEntity
  8
0
100
AcDbLine
 62
9
  6
CONTINUOUS
 10
5.2826170124
 20
4.3505046761
 11
5.7576170124
 21
4.3505046761
  0
LINE
  5
213
100
AcDbEntity
  8
0
100
AcDbLine
 62
9
  6
CONTINUOUS
 10
5.2826170124
 20
4.4005046761
 11
5.7576170124
 21
4.4005046761
  0
LINE
  5
214
100
AcDbEntity
  8
0
100
AcDbLine
 62
9
  6
CONTINUOUS
 10
5.2637500685
 20
4.4206294162
 11
5.7764839562
 21
4.4206294162
  0
LINE
  5
215
100
AcDbEntity
  8
0
100
AcDbLine
 62
9
  6
CONTINUOUS
 10
5.2676170124
 20
4.5405046761
 11
5.7726170124
 21
4.5405046761
  0
LINE
  5
216
100
AcDbEntity
  8
0
100
AcDbLine
 62
6
  6
CONTINUOUS
 10
5.7151170124
 20
4.8141530269
 11
5.7151170124
 21
4.5405046761
  0
LINE
  5
217
100
AcDbEntity
  8
0
100
AcDbLine
 62
6
  6
CONTINUOUS
 10
5.7576170124
 20
4.4005046761
 11
5.7576170124
 21
4.3505046761
  0
LINE
  5
218
100
AcDbEntity
  8
0
100
AcDbLine
 62
6
  6
CONTINUOUS
 10
5.2196170124
 20
3.8006438077
 11
5.1676170124
 21
3.7405046761
  0
LINE
  5
219
100
AcDbEntity
  8
0
100
AcDbLine
 62
9
  6
CONTINUOUS
 10
5.7151170124
 20
4.7555046761
 11
5.3251170124
 21
4.7555046761
  0
LINE
  5
21A
100
AcDbEntity
  8
0
100
AcDbLine
 62
6
  6
CONTINUOUS
 10
5.8726170124
 20
3.7405046761
 11
5.8726170124
 21
3.3405046761
  0
ARC
  5
21B
100
AcDbEntity
  8
0
100
AcDbCircle
 62
6
  6
CONTINUOUS
 10
4.7436007109
 20
4.3505046761
 40
0.5390163015
100
AcDbArc
 50
328.8451540803
 51
360.0
  0
ARC
  5
21C
100
AcDbEntity
  8
0
100
AcDbCircle
 62
6
  6
CONTINUOUS
 10
6.2966333139
 20
4.3505046761
 40
0.5390163015
100
AcDbArc
 50
180.0
 51
211.1548459197
  0
ARC
  5
21D
100
AcDbEntity
  8
0
100
AcDbCircle
 62
6
  6
CONTINUOUS
 10
5.5201128786
 20
5.2055029638
 40
0.4374955228
100
AcDbArc
 50
196.6014893813
 51
208.3985106185
  0
ARC
  5
21E
100
AcDbEntity
  8
0
100
AcDbCircle
 62
6
  6
CONTINUOUS
 10
5.5201128768
 20
5.2055063891
 40
0.4374955209
100
AcDbArc
 50
151.6014893549
 51
163.398510645
  0
ARC
  5
21F
100
AcDbEntity
  8
0
100
AcDbCircle
 62
6
  6
CONTINUOUS
 10
5.5201187339
 20
5.2055005199
 40
0.4374954986
100
AcDbArc
 50
286.6014890551
 51
298.3985109449
  0
ARC
  5
220
100
AcDbEntity
  8
0
100
AcDbCircle
 62
6
  6
CONTINUOUS
 10
5.5201211685
 20
5.2055029545
 40
0.4374954986
100
AcDbArc
 50
331.6014890551
 51
343.3985109449
  0
ARC
  5
221
100
AcDbEntity
  8
0
100
AcDbCircle
 62
6
  6
CONTINUOUS
 10
5.5201211685
 20
5.2055063976
 40
0.4374954986
100
AcDbArc
 50
16.6014890551
 51
28.3985109449
  0
ARC
  5
222
100
AcDbEntity
  8
0
100
AcDbCircle
 62
6
  6
CONTINUOUS
 10
5.5201187339
 20
5.2055088322
 40
0.4374954986
100
AcDbArc
 50
61.6014890551
 51
73.3985109449
  0
ARC
  5
223
100
AcDbEntity
  8
0
100
AcDbCircle
 62
6
  6
CONTINUOUS
 10
5.5201152859
 20
5.2055088441
 40
0.4374954858
100
AcDbArc
 50
106.601488882
 51
118.3985111179
  0
ARC
  5
224
100
AcDbEntity
  8
0
100
AcDbCircle
 62
6
  6
CONTINUOUS
 10
5.5201152859
 20
5.2055005081
 40
0.4374954858
100
AcDbArc
 50
241.601488882
 51
253.3985111178
  0
ARC
  5
225
100
AcDbEntity
  8
0
100
AcDbCircle
 62
6
  6
CONTINUOUS
 10
5.4111170124
 20
3.9469610999
 40
0.241
100
AcDbArc
 50
148.8451540803
 51
217.3819608307
  0
ARC
  5
226
100
AcDbEntity
  8
0
100
AcDbCircle
 62
6
  6
CONTINUOUS
 10
5.6291170124
 20
3.9469610999
 40
0.241
100
AcDbArc
 50
322.6180391693
 51
31.1548459197
  0
ARC
  5
227
100
AcDbEntity
  8
0
100
AcDbCircle
 62
6
  6
CONTINUOUS
 10
5.5201183757
 20
3.5405059168
 40
0.0921579103
100
AcDbArc
 50
352.9264757994
 51
131.4868798914
  0
ARC
  5
228
100
AcDbEntity
  8
0
100
AcDbCircle
 62
6
  6
CONTINUOUS
 10
5.5201170124
 20
3.5405046761
 40
0.082
100
AcDbArc
 50
89.9999901444
 51
281.7447639377
  0
ARC
  5
229
100
AcDbEntity
  8
0
100
AcDbCircle
 62
7
  6
CONTINUOUS
 10
5.5201169983
 20
3.5405047217
 40
0.0819999544
100
AcDbArc
 50
338.228466938
 51
89.9999901444
  0
ARC
  5
22A
100
AcDbEntity
  8
0
100
AcDbCircle
 62
6
  6
CONTINUOUS
 10
5.5201170124
 20
3.5405046761
 40
0.0650899999
100
AcDbArc
 50
229.0174920094
 51
318.9886794061
  0
ARC
  5
22B
100
AcDbEntity
  8
0
100
AcDbCircle
 62
6
  6
CONTINUOUS
 10
5.5199899151
 20
3.5403582394
 40
0.0648960994
100
AcDbArc
 50
228.3764935053
 51
229.0174121783
  0
CIRCLE
  5
22C
100
AcDbEntity
  8
0
100
AcDbCircle
 62
6
  6
CONTINUOUS
 10
5.5201170124
 20
3.5405046761
 40
0.062
  0
ARC
  5
22D
100
AcDbEntity
  8
0
100
AcDbCircle
 62
6
  6
CONTINUOUS
 10
5.2676170124
 20
4.4805046761
 40
0.06
100
AcDbArc
 50
90.0
 51
266.304779468
  0
ARC
  5
22E
100
AcDbEntity
  8
0
100
AcDbCircle
 62
6
  6
CONTINUOUS
 10
5.7726170124
 20
4.4805046761
 40
0.06
100
AcDbArc
 50
273.695220532
 51
90.0
  0
ARC
  5
22F
100
AcDbEntity
  8
0
100
AcDbCircle
 62
6
  6
CONTINUOUS
 10
5.2624503457
 20
4.4005046761
 40
0.0201666667
100
AcDbArc
 50
0.0
 51
86.304779468
  0
ARC
  5
230
100
AcDbEntity
  8
0
100
AcDbCircle
 62
6
  6
CONTINUOUS
 10
5.777783679
 20
4.4005046761
 40
0.0201666667
100
AcDbArc
 50
93.695220532
 51
180.0
  0
SPLINE
  5
231
100
AcDbEntity
  8
0
100
AcDbSpline
 62
7
  6
CONTINUOUS
 70
0
 71
3
 72
16
 73
12
 74
10
 42
0.0000001
 43
0.0000001
 44
0.0000000001
 12
-0.0149311269
 22
-0.0279681418
 32
0.0
 13
-0.0251015519
 23
-0.0193666621
 33
0.0
 40
0.0
 40
0.0
 40
0.0
 40
0.0
 40
0.1252410486
 40
0.2504680705
 40
0.375656425
 40
0.4382146396
 40
0.5007249934
 40
0.625616565
 40
0.750425397
 40
0.8752109641
 40
1.0
 40
1.0
 40
1.0
 40
1.0
 10
5.6115757488
 20
3.5291572136
 30
0.0
 10
5.6109524188
 20
3.5279896271
 30
0.0
 10
5.6096303663
 20
3.5256940789
 30
0.0
 10
5.6074426078
 20
3.5223787816
 30
0.0
 10
5.6054643828
 20
3.5197257055
 30
0.0
 10
5.6037982288
 20
3.5176714676
 30
0.0
 10
5.6020803766
 20
3.5156643726
 30
0.0
 10
5.5998380219
 20
3.5132418616
 30
0.0
 10
5.5970067322
 20
3.5104744249
 30
0.0
 10
5.5940464602
 20
3.5078472709
 30
0.0
 10
5.5919940171
 20
3.5061890695
 30
0.0
 10
5.5909498843
 20
3.5053834872
 30
0.0
 11
5.6115757488
 21
3.5291572136
 31
0.0
 11
5.6095961308
 21
3.525715223
 31
0.0
 11
5.6074112643
 21
3.522400255
 31
0.0
 11
5.6050403801
 21
3.5192172014
 31
0.0
 11
5.603791191
 21
3.5176766713
 31
0.0
 11
5.6025026347
 21
3.5161709116
 31
0.0
 11
5.5998137974
 21
3.5132642857
 31
0.0
 11
5.5969849255
 21
3.510497512
 31
0.0
 11
5.5940267277
 21
3.5078705781
 31
0.0
 11
5.5909498843
 21
3.5053834872
 31
0.0
  0
SPLINE
  5
232
100
AcDbEntity
  8
0
100
AcDbSpline
 62
6
  6
CONTINUOUS
 70
0
 71
3
 72
63
 73
59
 74
57
 42
0.0000001
 43
0.0000001
 44
0.0000000001
 12
-0.2204043907
 22
-0.1191645059
 32
0.0
 13
-0.1191645059
 23
-0.2204043907
 33
0.0
 40
0.0
 40
0.0
 40
0.0
 40
0.0
 40
0.0022373817
 40
0.0047003221
 40
0.00738854
 40
0.010301411
 40
0.013438069
 40
0.0167974721
 40
0.0203784488
 40
0.0241797288
 40
0.0324376801
 40
0.0415597515
 40
0.0515298831
 40
0.0623287976
 40
0.0739368406
 40
0.0863341392
 40
0.0995006468
 40
0.1134137719
 40
0.1280458433
 40
0.1433685019
 40
0.1593533306
 40
0.175971868
 40
0.2109896657
 40
0.2481565162
 40
0.2871971125
 40
0.3278248595
 40
0.3697330978
 40
0.412612238
 40
0.4561431403
 40
0.5
 40
0.5438568597
 40
0.587387762
 40
0.6302669022
 40
0.6721751405
 40
0.7128028875
 40
0.7518434838
 40
0.7890103343
 40
0.824028132
 40
0.8406466694
 40
0.8566314981
 40
0.8719541567
 40
0.8865862281
 40
0.9004993532
 40
0.9136658608
 40
0.9260631594
 40
0.9376712024
 40
0.9484701169
 40
0.9584402485
 40
0.9675623199
 40
0.9758202712
 40
0.9796215512
 40
0.9832025279
 40
0.986561931
 40
0.989698589
 40
0.99261146
 40
0.9952996779
 40
0.9977626183
 40
1.0
 40
1.0
 40
1.0
 40
1.0
 10
5.3120418294
 20
5.5903565543
 30
0.0
 10
5.3118774531
 20
5.5902676822
 30
0.0
 10
5.3115352873
 20
5.5900751127
 30
0.0
 10
5.3110056213
 20
5.5897583993
 30
0.0
 10
5.3104352519
 20
5.5894001537
 30
0.0
 10
5.3098245445
 20
5.5890005987
 30
0.0
 10
5.3091738569
 20
5.5885599563
 30
0.0
 10
5.3084835519
 20
5.5880784554
 30
0.0
 10
5.307753988
 20
5.5875563329
 30
0.0
 10
5.3066999494
 20
5.5867847482
 30
0.0
 10
5.3052878842
 20
5.58571896
 30
0.0
 10
5.3034860657
 20
5.5843148398
 30
0.0
 10
5.3015367067
 20
5.5827551498
 30
0.0
 10
5.2994436121
 20
5.5810430459
 30
0.0
 10
5.2972108021
 20
5.5791817878
 30
0.0
 10
5.2948422859
 20
5.5771746755
 30
0.0
 10
5.2923422353
 20
5.575025137
 30
0.0
 10
5.289715249
 20
5.5727370613
 30
0.0
 10
5.2869663224
 20
5.5703149037
 30
0.0
 10
5.2841008243
 20
5.5677634043
 30
0.0
 10
5.2811241502
 20
5.56508735
 30
0.0
 10
5.2769409279
 20
5.5612930746
 30
0.0
 10
5.2714785486
 20
5.5562759661
 30
0.0
 10
5.2646819483
 20
5.5499435043
 30
0.0
 10
5.2575854213
 20
5.5432459325
 30
0.0
 10
5.2502421515
 20
5.5362331301
 30
0.0
 10
5.2427066848
 20
5.5289576264
 30
0.0
 10
5.2350357072
 20
5.5214736086
 30
0.0
 10
5.2272864006
 20
5.5138370253
 30
0.0
 10
5.2195166126
 20
5.5061050758
 30
0.0
 10
5.2117846631
 20
5.4983352878
 30
0.0
 10
5.2041480798
 20
5.4905859812
 30
0.0
 10
5.196664062
 20
5.4829150036
 30
0.0
 10
5.1893885583
 20
5.4753795369
 30
0.0
 10
5.1823757559
 20
5.4680362671
 30
0.0
 10
5.1756781841
 20
5.4609397402
 30
0.0
 10
5.1693457224
 20
5.4541431399
 30
0.0
 10
5.1643286138
 20
5.4486807605
 30
0.0
 10
5.1605343384
 20
5.4444975382
 30
0.0
 10
5.1578582842
 20
5.4415208642
 30
0.0
 10
5.1553067847
 20
5.438655366
 30
0.0
 10
5.1528846272
 20
5.4359064395
 30
0.0
 10
5.1505965514
 20
5.4332794531
 30
0.0
 10
5.1484470129
 20
5.4307794025
 30
0.0
 10
5.1464399006
 20
5.4284108863
 30
0.0
 10
5.1445786425
 20
5.4261780764
 30
0.0
 10
5.1428665387
 20
5.4240849817
 30
0.0
 10
5.1413068487
 20
5.4221356227
 30
0.0
 10
5.1399027284
 20
5.4203338043
 30
0.0
 10
5.1388369402
 20
5.4189217391
 30
0.0
 10
5.1380653555
 20
5.4178677004
 30
0.0
 10
5.137543233
 20
5.4171381365
 30
0.0
 10
5.1370617321
 20
5.4164478316
 30
0.0
 10
5.1366210897
 20
5.4157971439
 30
0.0
 10
5.1362215348
 20
5.4151864366
 30
0.0
 10
5.1358632891
 20
5.4146160672
 30
0.0
 10
5.1355465758
 20
5.4140864011
 30
0.0
 10
5.1353540062
 20
5.4137442353
 30
0.0
 10
5.1352651341
 20
5.4135798591
 30
0.0
 11
5.3120418294
 21
5.5903565543
 31
0.0
 11
5.311552888
 21
5.5900823344
 31
0.0
 11
5.3110228983
 21
5.5897662193
 31
0.0
 11
5.3104522216
 21
5.5894084537
 31
0.0
 11
5.3098412188
 21
5.5890092823
 31
0.0
 11
5.309190251
 21
5.5885689497
 31
0.0
 11
5.3084996794
 21
5.5880877007
 31
0.0
 11
5.3077698649
 21
5.5875657799
 31
0.0
 11
5.3070011687
 21
5.5870034319
 31
0.0
 11
5.3053485753
 21
5.5857584332
 31
0.0
 11
5.303544831
 21
5.5843547153
 31
0.0
 11
5.3015934742
 21
5.5827950395
 31
0.0
 11
5.2994984913
 21
5.5810827216
 31
0.0
 11
5.2972638792
 21
5.5792210901
 31
0.0
 11
5.2948936347
 21
5.5772134738
 31
0.0
 11
5.2923917575
 21
5.5750632042
 31
0.0
 11
5.2897626695
 21
5.5727740552
 31
0.0
 11
5.2870116586
 21
5.570350708
 31
0.0
 11
5.2841441194
 21
5.5677979554
 31
0.0
 11
5.2811654466
 21
5.5651205904
 31
0.0
 11
5.2780810346
 21
5.5623234058
 31
0.0
 11
5.2716176096
 21
5.556389962
 31
0.0
 11
5.264803099
 21
5.550043091
 31
0.0
 11
5.257688315
 21
5.5433300816
 31
0.0
 11
5.2503258167
 21
5.5363004082
 31
0.0
 11
5.2427713039
 21
5.5290074768
 31
0.0
 11
5.2350809034
 21
5.5215052656
 31
0.0
 11
5.2273120168
 21
5.5138498472
 31
0.0
 11
5.2195229347
 21
5.5060987537
 31
0.0
 11
5.2117718413
 21
5.4983096716
 31
0.0
 11
5.2041164228
 21
5.490540785
 31
0.0
 11
5.1966142116
 21
5.4828503845
 31
0.0
 11
5.1893212802
 21
5.4752958717
 31
0.0
 11
5.1822916069
 21
5.4679333734
 31
0.0
 11
5.1755785974
 21
5.4608185894
 31
0.0
 11
5.1692317265
 21
5.4540040788
 31
0.0
 11
5.1632982826
 21
5.4475406538
 31
0.0
 11
5.160501098
 21
5.4444562418
 31
0.0
 11
5.157823733
 21
5.441477569
 31
0.0
 11
5.1552709805
 21
5.4386100299
 31
0.0
 11
5.1528476333
 21
5.435859019
 31
0.0
 11
5.1505584842
 21
5.4332299309
 31
0.0
 11
5.1484082146
 21
5.4307280537
 31
0.0
 11
5.1464005983
 21
5.4283578092
 31
0.0
 11
5.1445389669
 21
5.4261231971
 31
0.0
 11
5.1428266489
 21
5.4240282142
 31
0.0
 11
5.1412669732
 21
5.4220768574
 31
0.0
 11
5.1398632552
 21
5.4202731131
 31
0.0
 11
5.1386182565
 21
5.4186205198
 31
0.0
 11
5.1380559086
 21
5.4178518235
 31
0.0
 11
5.1375339877
 21
5.4171220091
 31
0.0
 11
5.1370527387
 21
5.4164314374
 31
0.0
 11
5.1366124062
 21
5.4157804696
 31
0.0
 11
5.1362132348
 21
5.4151694668
 31
0.0
 11
5.1358554692
 21
5.4145987901
 31
0.0
 11
5.1355393541
 21
5.4140688005
 31
0.0
 11
5.1352651341
 21
5.4135798591
 31
0.0
  0
SPLINE
  5
233
100
AcDbEntity
  8
0
100
AcDbSpline
 62
6
  6
CONTINUOUS
 70
0
 71
3
 72
34
 73
30
 74
28
 42
0.0000001
 43
0.0000001
 44
0.0000000001
 12
-0.125277946
 22
0.0
 32
0.0
 13
-0.1200557157
 23
-0.0357936989
 33
0.0
 40
0.0
 40
0.0
 40
0.0
 40
0.0
 40
0.0876296211
 40
0.1747372527
 40
0.2605528525
 40
0.344377394
 40
0.4256169589
 40
0.5036878567
 40
0.5780222584
 40
0.6480618649
 40
0.7132691144
 40
0.7439135973
 40
0.7731766214
 40
0.8010018415
 40
0.8273341466
 40
0.852128191
 40
0.8753438545
 40
0.8969413747
 40
0.9168814267
 40
0.935125428
 40
0.951641151
 40
0.9592436077
 40
0.9664054551
 40
0.9731241585
 40
0.9793973793
 40
0.9852230392
 40
0.9905994108
 40
0.9955252504
 40
1.0
 40
1.0
 40
1.0
 40
1.0
 10
5.5201170124
 20
5.6306088975
 30
0.0
 10
5.5164576594
 20
5.6306088975
 30
0.0
 10
5.509160739
 20
5.6305910325
 30
0.0
 10
5.4982804803
 20
5.6305113556
 30
0.0
 10
5.487559636
 20
5.6303792176
 30
0.0
 10
5.477084635
 20
5.6301953703
 30
0.0
 10
5.4669341198
 20
5.6299616458
 30
0.0
 10
5.457181289
 20
5.6296795222
 30
0.0
 10
5.4478978693
 20
5.6293513499
 30
0.0
 10
5.4391537107
 20
5.6289797859
 30
0.0
 10
5.432234977
 20
5.6286292021
 30
0.0
 10
5.4270190055
 20
5.628326871
 30
0.0
 10
5.4233626223
 20
5.6280958046
 30
0.0
 10
5.4198872688
 20
5.6278561592
 30
0.0
 10
5.4165996092
 20
5.6276083122
 30
0.0
 10
5.4135056436
 20
5.6273527631
 30
0.0
 10
5.4106107544
 20
5.6270900387
 30
0.0
 10
5.4079201124
 20
5.6268206407
 30
0.0
 10
5.4054388678
 20
5.6265451069
 30
0.0
 10
5.4031719488
 20
5.6262638979
 30
0.0
 10
5.4014198596
 20
5.6260190463
 30
0.0
 10
5.4001289653
 20
5.6258193232
 30
0.0
 10
5.3992439025
 20
5.6256726414
 30
0.0
 10
5.3984153234
 20
5.6255249957
 30
0.0
 10
5.3976436484
 20
5.6253764721
 30
0.0
 10
5.3969292954
 20
5.6252271654
 30
0.0
 10
5.3962726735
 20
5.6250771716
 30
0.0
 10
5.3956741981
 20
5.6249265914
 30
0.0
 10
5.3952960855
 20
5.6248208111
 30
0.0
 10
5.3951170124
 20
5.6247674218
 30
0.0
 11
5.5201170124
 21
5.6306088975
 31
0.0
 11
5.5091389863
 21
5.6305820336
 31
0.0
 11
5.4982266161
 21
5.6305017958
 31
0.0
 11
5.4874766377
 21
5.6303687227
 31
0.0
 11
5.4769769005
 21
5.6301837497
 31
0.0
 11
5.4668020962
 21
5.6299484006
 31
0.0
 11
5.4570256615
 21
5.6296643001
 31
0.0
 11
5.4477190732
 21
5.6293336241
 31
0.0
 11
5.4389526616
 21
5.6289588703
 31
0.0
 11
5.4307942384
 21
5.6285427141
 31
0.0
 11
5.4269616187
 21
5.6283201262
 31
0.0
 11
5.423302936
 21
5.628088433
 31
0.0
 11
5.419825347
 21
5.6278480607
 31
0.0
 11
5.4165358721
 21
5.6275994383
 31
0.0
 11
5.4134403269
 21
5.6273430235
 31
0.0
 11
5.4105438987
 21
5.6270792889
 31
0.0
 11
5.4078517694
 21
5.6268087071
 31
0.0
 11
5.4053691211
 21
5.6265317507
 31
0.0
 11
5.4031011204
 21
5.6262488941
 31
0.0
 11
5.4010522359
 21
5.6259606851
 31
0.0
 11
5.4001110585
 21
5.6258147765
 31
0.0
 11
5.3992259614
 21
5.6256677749
 31
0.0
 11
5.3983973721
 21
5.6255197625
 31
0.0
 11
5.3976257183
 21
5.6253708218
 31
0.0
 11
5.3969114278
 21
5.6252210351
 31
0.0
 11
5.3962549281
 21
5.6250704846
 31
0.0
 11
5.3956566471
 21
5.6249192528
 31
0.0
 11
5.3951170124
 21
5.6247674218
 31
0.0
  0
SPLINE
  5
234
100
AcDbEntity
  8
0
100
AcDbSpline
 62
6
  6
CONTINUOUS
 70
0
 71
3
 72
34
 73
30
 74
28
 42
0.0000001
 43
0.0000001
 44
0.0000000001
 12
0.1200557157
 22
-0.0357936989
 32
0.0
 13
0.125277946
 23
-0.0
 33
0.0
 40
0.0
 40
0.0
 40
0.0
 40
0.0
 40
0.0044747496
 40
0.0094005892
 40
0.0147769608
 40
0.0206026207
 40
0.0268758415
 40
0.0335945449
 40
0.0407563923
 40
0.048358849
 40
0.064874572
 40
0.0831185733
 40
0.1030586253
 40
0.1246561455
 40
0.147871809
 40
0.1726658534
 40
0.1989981585
 40
0.2268233786
 40
0.2560864027
 40
0.2867308856
 40
0.3519381351
 40
0.4219777416
 40
0.4963121433
 40
0.5743830411
 40
0.655622606
 40
0.7394471475
 40
0.8252627473
 40
0.9123703789
 40
1.0
 40
1.0
 40
1.0
 40
1.0
 10
5.3951170124
 20
4.7862419303
 30
0.0
 10
5.3952960855
 20
4.786188541
 30
0.0
 10
5.3956741981
 20
4.7860827607
 30
0.0
 10
5.3962726735
 20
4.7859321806
 30
0.0
 10
5.3969292954
 20
4.7857821868
 30
0.0
 10
5.3976436484
 20
4.78563288
 30
0.0
 10
5.3984153234
 20
4.7854843565
 30
0.0
 10
5.3992439025
 20
4.7853367108
 30
0.0
 10
5.4001289653
 20
4.7851900289
 30
0.0
 10
5.4014198596
 20
4.7849903058
 30
0.0
 10
5.4031719488
 20
4.7847454542
 30
0.0
 10
5.4054388678
 20
4.7844642452
 30
0.0
 10
5.4079201124
 20
4.7841887114
 30
0.0
 10
5.4106107544
 20
4.7839193134
 30
0.0
 10
5.4135056436
 20
4.7836565891
 30
0.0
 10
5.4165996092
 20
4.7834010399
 30
0.0
 10
5.4198872688
 20
4.7831531929
 30
0.0
 10
5.4233626223
 20
4.7829135475
 30
0.0
 10
5.4270190055
 20
4.7826824811
 30
0.0
 10
5.432234977
 20
4.78238015
 30
0.0
 10
5.4391537107
 20
4.7820295663
 30
0.0
 10
5.4478978693
 20
4.7816580023
 30
0.0
 10
5.457181289
 20
4.7813298299
 30
0.0
 10
5.4669341198
 20
4.7810477063
 30
0.0
 10
5.477084635
 20
4.7808139818
 30
0.0
 10
5.487559636
 20
4.7806301345
 30
0.0
 10
5.4982804803
 20
4.7804979966
 30
0.0
 10
5.509160739
 20
4.7804183196
 30
0.0
 10
5.5164576594
 20
4.7804004547
 30
0.0
 10
5.5201170124
 20
4.7804004547
 30
0.0
 11
5.3951170124
 21
4.7862419303
 31
0.0
 11
5.3956566471
 21
4.7860900994
 31
0.0
 11
5.3962549281
 21
4.7859388675
 31
0.0
 11
5.3969114278
 21
4.785788317
 31
0.0
 11
5.3976257183
 21
4.7856385303
 31
0.0
 11
5.3983973721
 21
4.7854895896
 31
0.0
 11
5.3992259614
 21
4.7853415773
 31
0.0
 11
5.4001110585
 21
4.7851945756
 31
0.0
 11
5.4010522359
 21
4.785048667
 31
0.0
 11
5.4031011204
 21
4.784760458
 31
0.0
 11
5.4053691211
 21
4.7844776014
 31
0.0
 11
5.4078517694
 21
4.784200645
 31
0.0
 11
5.4105438987
 21
4.7839300632
 31
0.0
 11
5.4134403269
 21
4.7836663286
 31
0.0
 11
5.4165358721
 21
4.7834099139
 31
0.0
 11
5.419825347
 21
4.7831612915
 31
0.0
 11
5.423302936
 21
4.7829209191
 31
0.0
 11
5.4269616187
 21
4.782689226
 31
0.0
 11
5.4307942384
 21
4.782466638
 31
0.0
 11
5.4389526616
 21
4.7820504818
 31
0.0
 11
5.4477190732
 21
4.781675728
 31
0.0
 11
5.4570256615
 21
4.781345052
 31
0.0
 11
5.4668020962
 21
4.7810609516
 31
0.0
 11
5.4769769005
 21
4.7808256024
 31
0.0
 11
5.4874766377
 21
4.7806406294
 31
0.0
 11
5.4982266161
 21
4.7805075563
 31
0.0
 11
5.5091389863
 21
4.7804273186
 31
0.0
 11
5.5201170124
 21
4.7804004547
 31
0.0
  0
SPLINE
  5
235
100
AcDbEntity
  8
0
100
AcDbSpline
 62
6
  6
CONTINUOUS
 70
0
 71
3
 72
63
 73
59
 74
57
 42
0.0000001
 43
0.0000001
 44
0.0000000001
 12
0.1191645059
 22
-0.2204043907
 32
0.0
 13
0.2204043907
 23
-0.1191645059
 33
0.0
 40
0.0
 40
0.0
 40
0.0
 40
0.0
 40
0.0022373817
 40
0.0047003221
 40
0.00738854
 40
0.010301411
 40
0.013438069
 40
0.0167974721
 40
0.0203784488
 40
0.0241797288
 40
0.0324376801
 40
0.0415597515
 40
0.0515298831
 40
0.0623287976
 40
0.0739368406
 40
0.0863341392
 40
0.0995006468
 40
0.1134137719
 40
0.1280458433
 40
0.1433685019
 40
0.1593533306
 40
0.175971868
 40
0.2109896657
 40
0.2481565162
 40
0.2871971125
 40
0.3278248595
 40
0.3697330978
 40
0.412612238
 40
0.4561431403
 40
0.5
 40
0.5438568597
 40
0.587387762
 40
0.6302669022
 40
0.6721751405
 40
0.7128028875
 40
0.7518434838
 40
0.7890103343
 40
0.824028132
 40
0.8406466694
 40
0.8566314981
 40
0.8719541567
 40
0.8865862281
 40
0.9004993532
 40
0.9136658608
 40
0.9260631594
 40
0.9376712024
 40
0.9484701169
 40
0.9584402485
 40
0.9675623199
 40
0.9758202712
 40
0.9796215512
 40
0.9832025279
 40
0.986561931
 40
0.989698589
 40
0.99261146
 40
0.9952996779
 40
0.9977626183
 40
1.0
 40
1.0
 40
1.0
 40
1.0
 10
5.1352651341
 20
4.9974294931
 30
0.0
 10
5.1353540062
 20
4.9972651168
 30
0.0
 10
5.1355465758
 20
4.996922951
 30
0.0
 10
5.1358632891
 20
4.996393285
 30
0.0
 10
5.1362215348
 20
4.9958229156
 30
0.0
 10
5.1366210897
 20
4.9952122082
 30
0.0
 10
5.1370617321
 20
4.9945615205
 30
0.0
 10
5.137543233
 20
4.9938712156
 30
0.0
 10
5.1380653555
 20
4.9931416517
 30
0.0
 10
5.1388369402
 20
4.9920876131
 30
0.0
 10
5.1399027284
 20
4.9906755478
 30
0.0
 10
5.1413068487
 20
4.9888737294
 30
0.0
 10
5.1428665387
 20
4.9869243704
 30
0.0
 10
5.1445786425
 20
4.9848312757
 30
0.0
 10
5.1464399006
 20
4.9825984658
 30
0.0
 10
5.1484470129
 20
4.9802299496
 30
0.0
 10
5.1505965514
 20
4.977729899
 30
0.0
 10
5.1528846272
 20
4.9751029127
 30
0.0
 10
5.1553067847
 20
4.9723539861
 30
0.0
 10
5.1578582842
 20
4.9694884879
 30
0.0
 10
5.1605343384
 20
4.9665118139
 30
0.0
 10
5.1643286138
 20
4.9623285916
 30
0.0
 10
5.1693457224
 20
4.9568662123
 30
0.0
 10
5.1756781841
 20
4.950069612
 30
0.0
 10
5.1823757559
 20
4.942973085
 30
0.0
 10
5.1893885583
 20
4.9356298152
 30
0.0
 10
5.196664062
 20
4.9280943485
 30
0.0
 10
5.2041480798
 20
4.9204233709
 30
0.0
 10
5.2117846631
 20
4.9126740643
 30
0.0
 10
5.2195166126
 20
4.9049042763
 30
0.0
 10
5.2272864006
 20
4.8971723268
 30
0.0
 10
5.2350357072
 20
4.8895357435
 30
0.0
 10
5.2427066848
 20
4.8820517257
 30
0.0
 10
5.2502421515
 20
4.874776222
 30
0.0
 10
5.2575854213
 20
4.8677634196
 30
0.0
 10
5.2646819483
 20
4.8610658478
 30
0.0
 10
5.2714785486
 20
4.8547333861
 30
0.0
 10
5.2769409279
 20
4.8497162775
 30
0.0
 10
5.2811241502
 20
4.8459220021
 30
0.0
 10
5.2841008243
 20
4.8432459478
 30
0.0
 10
5.2869663224
 20
4.8406944484
 30
0.0
 10
5.289715249
 20
4.8382722909
 30
0.0
 10
5.2923422353
 20
4.8359842151
 30
0.0
 10
5.2948422859
 20
4.8338346766
 30
0.0
 10
5.2972108021
 20
4.8318275643
 30
0.0
 10
5.2994436121
 20
4.8299663062
 30
0.0
 10
5.3015367067
 20
4.8282542024
 30
0.0
 10
5.3034860657
 20
4.8266945123
 30
0.0
 10
5.3052878842
 20
4.8252903921
 30
0.0
 10
5.3066999494
 20
4.8242246039
 30
0.0
 10
5.307753988
 20
4.8234530192
 30
0.0
 10
5.3084835519
 20
4.8229308967
 30
0.0
 10
5.3091738569
 20
4.8224493958
 30
0.0
 10
5.3098245445
 20
4.8220087534
 30
0.0
 10
5.3104352519
 20
4.8216091985
 30
0.0
 10
5.3110056213
 20
4.8212509528
 30
0.0
 10
5.3115352873
 20
4.8209342394
 30
0.0
 10
5.3118774531
 20
4.8207416699
 30
0.0
 10
5.3120418294
 20
4.8206527978
 30
0.0
 11
5.1352651341
 21
4.9974294931
 31
0.0
 11
5.1355393541
 21
4.9969405517
 31
0.0
 11
5.1358554692
 21
4.996410562
 31
0.0
 11
5.1362132348
 21
4.9958398853
 31
0.0
 11
5.1366124062
 21
4.9952288825
 31
0.0
 11
5.1370527387
 21
4.9945779147
 31
0.0
 11
5.1375339877
 21
4.9938873431
 31
0.0
 11
5.1380559086
 21
4.9931575286
 31
0.0
 11
5.1386182565
 21
4.9923888323
 31
0.0
 11
5.1398632552
 21
4.990736239
 31
0.0
 11
5.1412669732
 21
4.9889324947
 31
0.0
 11
5.1428266489
 21
4.9869811379
 31
0.0
 11
5.1445389669
 21
4.984886155
 31
0.0
 11
5.1464005983
 21
4.9826515429
 31
0.0
 11
5.1484082146
 21
4.9802812984
 31
0.0
 11
5.1505584842
 21
4.9777794212
 31
0.0
 11
5.1528476333
 21
4.9751503331
 31
0.0
 11
5.1552709805
 21
4.9723993223
 31
0.0
 11
5.157823733
 21
4.9695317831
 31
0.0
 11
5.160501098
 21
4.9665531103
 31
0.0
 11
5.1632982826
 21
4.9634686983
 31
0.0
 11
5.1692317265
 21
4.9570052733
 31
0.0
 11
5.1755785974
 21
4.9501907627
 31
0.0
 11
5.1822916069
 21
4.9430759787
 31
0.0
 11
5.1893212802
 21
4.9357134804
 31
0.0
 11
5.1966142116
 21
4.9281589676
 31
0.0
 11
5.2041164228
 21
4.9204685671
 31
0.0
 11
5.2117718413
 21
4.9126996805
 31
0.0
 11
5.2195229347
 21
4.9049105984
 31
0.0
 11
5.2273120168
 21
4.8971595049
 31
0.0
 11
5.2350809034
 21
4.8895040865
 31
0.0
 11
5.2427713039
 21
4.8820018753
 31
0.0
 11
5.2503258167
 21
4.8747089439
 31
0.0
 11
5.257688315
 21
4.8676792706
 31
0.0
 11
5.264803099
 21
4.8609662611
 31
0.0
 11
5.2716176096
 21
4.8546193901
 31
0.0
 11
5.2780810346
 21
4.8486859463
 31
0.0
 11
5.2811654466
 21
4.8458887617
 31
0.0
 11
5.2841441194
 21
4.8432113967
 31
0.0
 11
5.2870116586
 21
4.8406586442
 31
0.0
 11
5.2897626695
 21
4.838235297
 31
0.0
 11
5.2923917575
 21
4.8359461479
 31
0.0
 11
5.2948936347
 21
4.8337958783
 31
0.0
 11
5.2972638792
 21
4.831788262
 31
0.0
 11
5.2994984913
 21
4.8299266306
 31
0.0
 11
5.3015934742
 21
4.8282143126
 31
0.0
 11
5.303544831
 21
4.8266546368
 31
0.0
 11
5.3053485753
 21
4.8252509189
 31
0.0
 11
5.3070011687
 21
4.8240059202
 31
0.0
 11
5.3077698649
 21
4.8234435722
 31
0.0
 11
5.3084996794
 21
4.8229216514
 31
0.0
 11
5.309190251
 21
4.8224404024
 31
0.0
 11
5.3098412188
 21
4.8220000699
 31
0.0
 11
5.3104522216
 21
4.8216008985
 31
0.0
 11
5.3110228983
 21
4.8212431329
 31
0.0
 11
5.311552888
 21
4.8209270177
 31
0.0
 11
5.3120418294
 21
4.8206527978
 31
0.0
  0
SPLINE
  5
236
100
AcDbEntity
  8
0
100
AcDbSpline
 62
6
  6
CONTINUOUS
 70
0
 71
3
 72
63
 73
59
 74
57
 42
0.0000001
 43
0.0000001
 44
0.0000000001
 12
-0.0715874091
 22
-0.2401114695
 32
0.0
 13
0.071587409
 23
-0.2401114695
 33
0.0
 40
0.0
 40
0.0
 40
0.0
 40
0.0
 40
0.0022373817
 40
0.0047003221
 40
0.00738854
 40
0.010301411
 40
0.013438069
 40
0.0167974721
 40
0.0203784488
 40
0.0241797288
 40
0.0324376801
 40
0.0415597515
 40
0.0515298831
 40
0.0623287976
 40
0.0739368406
 40
0.0863341392
 40
0.0995006468
 40
0.1134137719
 40
0.1280458433
 40
0.1433685019
 40
0.1593533306
 40
0.175971868
 40
0.2109896657
 40
0.2481565162
 40
0.2871971125
 40
0.3278248595
 40
0.3697330978
 40
0.412612238
 40
0.4561431403
 40
0.5
 40
0.5438568597
 40
0.587387762
 40
0.6302669022
 40
0.6721751405
 40
0.7128028875
 40
0.7518434838
 40
0.7890103343
 40
0.824028132
 40
0.8406466694
 40
0.8566314981
 40
0.8719541567
 40
0.8865862281
 40
0.9004993532
 40
0.9136658608
 40
0.9260631594
 40
0.9376712024
 40
0.9484701169
 40
0.9584402485
 40
0.9675623199
 40
0.9758202712
 40
0.9796215512
 40
0.9832025279
 40
0.986561931
 40
0.989698589
 40
0.99261146
 40
0.9952996779
 40
0.9977626183
 40
1.0
 40
1.0
 40
1.0
 40
1.0
 10
5.1008542666
 20
5.3305046761
 30
0.0
 10
5.1008008771
 20
5.3303256024
 30
0.0
 10
5.1006950966
 20
5.3299474874
 30
0.0
 10
5.1005445163
 20
5.3293490068
 30
0.0
 10
5.1003945222
 20
5.3286923768
 30
0.0
 10
5.1002452148
 20
5.3279780135
 30
0.0
 10
5.1000966904
 20
5.3272063266
 30
0.0
 10
5.0999490437
 20
5.3263777347
 30
0.0
 10
5.0998023604
 20
5.3254926588
 30
0.0
 10
5.0996026354
 20
5.3242017481
 30
0.0
 10
5.0993577805
 20
5.3224496412
 30
0.0
 10
5.0990765654
 20
5.3201827002
 30
0.0
 10
5.0988010279
 20
5.3177014279
 30
0.0
 10
5.0985316267
 20
5.3150107462
 30
0.0
 10
5.0982688998
 20
5.3121158029
 30
0.0
 10
5.0980133487
 20
5.3090217663
 30
0.0
 10
5.0977654992
 20
5.3057340104
 30
0.0
 10
5.0975258532
 20
5.3022585366
 30
0.0
 10
5.0972947926
 20
5.298602028
 30
0.0
 10
5.097072762
 20
5.2947716322
 30
0.0
 10
5.0968601917
 20
5.2907745497
 30
0.0
 10
5.0965851647
 20
5.285133607
 30
0.0
 10
5.0962703107
 20
5.27772349
 30
0.0
 10
5.0959421152
 20
5.2684398412
 30
0.0
 10
5.0956600113
 20
5.2586859405
 30
0.0
 10
5.0954263356
 20
5.2485346645
 30
0.0
 10
5.095242514
 20
5.2380617269
 30
0.0
 10
5.0951103134
 20
5.2273455268
 30
0.0
 10
5.095030606
 20
5.2164660597
 30
0.0
 10
5.0950038502
 20
5.2055046761
 30
0.0
 10
5.095030606
 20
5.1945432924
 30
0.0
 10
5.0951103134
 20
5.1836638253
 30
0.0
 10
5.095242514
 20
5.1729476253
 30
0.0
 10
5.0954263356
 20
5.1624746876
 30
0.0
 10
5.0956600113
 20
5.1523234116
 30
0.0
 10
5.0959421152
 20
5.1425695109
 30
0.0
 10
5.0962703107
 20
5.1332858621
 30
0.0
 10
5.0965851647
 20
5.1258757451
 30
0.0
 10
5.0968601917
 20
5.1202348024
 30
0.0
 10
5.097072762
 20
5.1162377199
 30
0.0
 10
5.0972947926
 20
5.1124073242
 30
0.0
 10
5.0975258532
 20
5.1087508155
 30
0.0
 10
5.0977654992
 20
5.1052753417
 30
0.0
 10
5.0980133487
 20
5.1019875858
 30
0.0
 10
5.0982688998
 20
5.0988935492
 30
0.0
 10
5.0985316267
 20
5.0959986059
 30
0.0
 10
5.0988010279
 20
5.0933079243
 30
0.0
 10
5.0990765654
 20
5.0908266519
 30
0.0
 10
5.0993577805
 20
5.0885597109
 30
0.0
 10
5.0996026354
 20
5.086807604
 30
0.0
 10
5.0998023604
 20
5.0855166933
 30
0.0
 10
5.0999490437
 20
5.0846316174
 30
0.0
 10
5.1000966904
 20
5.0838030255
 30
0.0
 10
5.1002452148
 20
5.0830313386
 30
0.0
 10
5.1003945222
 20
5.0823169753
 30
0.0
 10
5.1005445163
 20
5.0816603453
 30
0.0
 10
5.1006950966
 20
5.0810618647
 30
0.0
 10
5.1008008771
 20
5.0806837497
 30
0.0
 10
5.1008542666
 20
5.0805046761
 30
0.0
 11
5.1008542666
 21
5.3305046761
 31
0.0
 11
5.1007024356
 21
5.3299650395
 31
0.0
 11
5.1005512035
 21
5.3293667531
 31
0.0
 11
5.1004006526
 21
5.3287102452
 31
0.0
 11
5.1002508652
 21
5.3279959442
 31
0.0
 11
5.1001019236
 21
5.3272242783
 31
0.0
 11
5.0999539101
 21
5.326395676
 31
0.0
 11
5.0998069071
 21
5.3255105654
 31
0.0
 11
5.0996609968
 21
5.3245693751
 31
0.0
 11
5.0993727839
 21
5.3225204681
 31
0.0
 11
5.0990899225
 21
5.3202524498
 31
0.0
 11
5.0988129622
 21
5.3177697749
 31
0.0
 11
5.0985423773
 21
5.3150776066
 31
0.0
 11
5.0982786401
 21
5.312181125
 31
0.0
 11
5.0980222232
 21
5.3090855099
 31
0.0
 11
5.0977735991
 21
5.3057959454
 31
0.0
 11
5.0975332259
 21
5.3023182266
 31
0.0
 11
5.0973015327
 21
5.2986594029
 31
0.0
 11
5.097078945
 21
5.2948266779
 31
0.0
 11
5.0968658882
 21
5.2908272552
 31
0.0
 11
5.0966627877
 21
5.2866683383
 31
0.0
 11
5.0962880345
 21
5.2779024283
 31
0.0
 11
5.0959573633
 21
5.2685959262
 31
0.0
 11
5.0956732658
 21
5.2588181997
 31
0.0
 11
5.095437923
 21
5.2486413975
 31
0.0
 11
5.0952529571
 21
5.238142669
 31
0.0
 11
5.0951198871
 21
5.2273998702
 31
0.0
 11
5.095039653
 21
5.2164932396
 31
0.0
 11
5.095012791
 21
5.2055046761
 31
0.0
 11
5.095039653
 21
5.1945161126
 31
0.0
 11
5.0951198871
 21
5.1836094819
 31
0.0
 11
5.0952529571
 21
5.1728666831
 31
0.0
 11
5.095437923
 21
5.1623679546
 31
0.0
 11
5.0956732658
 21
5.1521911525
 31
0.0
 11
5.0959573633
 21
5.1424134259
 31
0.0
 11
5.0962880345
 21
5.1331069238
 31
0.0
 11
5.0966627877
 21
5.1243410138
 31
0.0
 11
5.0968658882
 21
5.1201820969
 31
0.0
 11
5.097078945
 21
5.1161826742
 31
0.0
 11
5.0973015327
 21
5.1123499492
 31
0.0
 11
5.0975332259
 21
5.1086911255
 31
0.0
 11
5.0977735991
 21
5.1052134067
 31
0.0
 11
5.0980222232
 21
5.1019238422
 31
0.0
 11
5.0982786401
 21
5.0988282271
 31
0.0
 11
5.0985423773
 21
5.0959317455
 31
0.0
 11
5.0988129622
 21
5.0932395773
 31
0.0
 11
5.0990899225
 21
5.0907569023
 31
0.0
 11
5.0993727839
 21
5.0884888841
 31
0.0
 11
5.0996609968
 21
5.0864399771
 31
0.0
 11
5.0998069071
 21
5.0854987867
 31
0.0
 11
5.0999539101
 21
5.0846136761
 31
0.0
 11
5.1001019236
 21
5.0837850738
 31
0.0
 11
5.1002508652
 21
5.0830134079
 31
0.0
 11
5.1004006526
 21
5.0822991069
 31
0.0
 11
5.1005512035
 21
5.081642599
 31
0.0
 11
5.1007024356
 21
5.0810443127
 31
0.0
 11
5.1008542666
 21
5.0805046761
 31
0.0
  0
SPLINE
  5
237
100
AcDbEntity
  8
0
100
AcDbSpline
 62
6
  6
CONTINUOUS
 70
0
 71
3
 72
34
 73
30
 74
28
 42
0.0000001
 43
0.0000001
 44
0.0000000001
 12
0.125277946
 22
0.0
 32
0.0
 13
0.1200557157
 23
0.0357936989
 33
0.0
 40
0.0
 40
0.0
 40
0.0
 40
0.0
 40
0.0876296211
 40
0.1747372527
 40
0.2605528525
 40
0.344377394
 40
0.4256169589
 40
0.5036878567
 40
0.5780222584
 40
0.6480618649
 40
0.7132691144
 40
0.7439135973
 40
0.7731766214
 40
0.8010018415
 40
0.8273341466
 40
0.852128191
 40
0.8753438545
 40
0.8969413747
 40
0.9168814267
 40
0.935125428
 40
0.951641151
 40
0.9592436077
 40
0.9664054551
 40
0.9731241585
 40
0.9793973793
 40
0.9852230392
 40
0.9905994108
 40
0.9955252504
 40
1.0
 40
1.0
 40
1.0
 40
1.0
 10
5.5201170124
 20
4.7804004547
 30
0.0
 10
5.5237763654
 20
4.7804004547
 30
0.0
 10
5.5310732858
 20
4.7804183196
 30
0.0
 10
5.5419535445
 20
4.7804979966
 30
0.0
 10
5.5526743887
 20
4.7806301345
 30
0.0
 10
5.5631493897
 20
4.7808139818
 30
0.0
 10
5.573299905
 20
4.7810477063
 30
0.0
 10
5.5830527358
 20
4.7813298299
 30
0.0
 10
5.5923361555
 20
4.7816580023
 30
0.0
 10
5.6010803141
 20
4.7820295663
 30
0.0
 10
5.6079990477
 20
4.78238015
 30
0.0
 10
5.6132150192
 20
4.7826824811
 30
0.0
 10
5.6168714025
 20
4.7829135475
 30
0.0
 10
5.6203467559
 20
4.7831531929
 30
0.0
 10
5.6236344156
 20
4.7834010399
 30
0.0
 10
5.6267283812
 20
4.7836565891
 30
0.0
 10
5.6296232704
 20
4.7839193134
 30
0.0
 10
5.6323139124
 20
4.7841887114
 30
0.0
 10
5.6347951569
 20
4.7844642452
 30
0.0
 10
5.6370620759
 20
4.7847454542
 30
0.0
 10
5.6388141651
 20
4.7849903058
 30
0.0
 10
5.6401050595
 20
4.7851900289
 30
0.0
 10
5.6409901223
 20
4.7853367108
 30
0.0
 10
5.6418187013
 20
4.7854843565
 30
0.0
 10
5.6425903763
 20
4.78563288
 30
0.0
 10
5.6433047293
 20
4.7857821868
 30
0.0
 10
5.6439613513
 20
4.7859321806
 30
0.0
 10
5.6445598267
 20
4.7860827607
 30
0.0
 10
5.6449379393
 20
4.786188541
 30
0.0
 10
5.6451170124
 20
4.7862419303
 30
0.0
 11
5.5201170124
 21
4.7804004547
 31
0.0
 11
5.5310950384
 21
4.7804273186
 31
0.0
 11
5.5420074086
 21
4.7805075563
 31
0.0
 11
5.5527573871
 21
4.7806406294
 31
0.0
 11
5.5632571243
 21
4.7808256024
 31
0.0
 11
5.5734319286
 21
4.7810609516
 31
0.0
 11
5.5832083632
 21
4.781345052
 31
0.0
 11
5.5925149516
 21
4.781675728
 31
0.0
 11
5.6012813631
 21
4.7820504818
 31
0.0
 11
5.6094397864
 21
4.782466638
 31
0.0
 11
5.613272406
 21
4.782689226
 31
0.0
 11
5.6169310887
 21
4.7829209191
 31
0.0
 11
5.6204086777
 21
4.7831612915
 31
0.0
 11
5.6236981526
 21
4.7834099139
 31
0.0
 11
5.6267936979
 21
4.7836663286
 31
0.0
 11
5.6296901261
 21
4.7839300632
 31
0.0
 11
5.6323822554
 21
4.784200645
 31
0.0
 11
5.6348649037
 21
4.7844776014
 31
0.0
 11
5.6371329043
 21
4.784760458
 31
0.0
 11
5.6391817889
 21
4.785048667
 31
0.0
 11
5.6401229662
 21
4.7851945756
 31
0.0
 11
5.6410080634
 21
4.7853415773
 31
0.0
 11
5.6418366527
 21
4.7854895896
 31
0.0
 11
5.6426083065
 21
4.7856385303
 31
0.0
 11
5.643322597
 21
4.785788317
 31
0.0
 11
5.6439790966
 21
4.7859388675
 31
0.0
 11
5.6445773776
 21
4.7860900994
 31
0.0
 11
5.6451170124
 21
4.7862419303
 31
0.0
  0
SPLINE
  5
238
100
AcDbEntity
  8
0
100
AcDbSpline
 62
6
  6
CONTINUOUS
 70
0
 71
3
 72
34
 73
30
 74
28
 42
0.0000001
 43
0.0000001
 44
0.0000000001
 12
-0.1200557157
 22
0.0357936989
 32
0.0
 13
-0.125277946
 23
0.0
 33
0.0
 40
0.0
 40
0.0
 40
0.0
 40
0.0
 40
0.0044747496
 40
0.0094005892
 40
0.0147769608
 40
0.0206026207
 40
0.0268758415
 40
0.0335945449
 40
0.0407563923
 40
0.048358849
 40
0.064874572
 40
0.0831185733
 40
0.1030586253
 40
0.1246561455
 40
0.147871809
 40
0.1726658534
 40
0.1989981585
 40
0.2268233786
 40
0.2560864027
 40
0.2867308856
 40
0.3519381351
 40
0.4219777416
 40
0.4963121433
 40
0.5743830411
 40
0.655622606
 40
0.7394471475
 40
0.8252627473
 40
0.9123703789
 40
1.0
 40
1.0
 40
1.0
 40
1.0
 10
5.6451170124
 20
5.6247674218
 30
0.0
 10
5.6449379393
 20
5.6248208111
 30
0.0
 10
5.6445598267
 20
5.6249265914
 30
0.0
 10
5.6439613513
 20
5.6250771716
 30
0.0
 10
5.6433047293
 20
5.6252271654
 30
0.0
 10
5.6425903763
 20
5.6253764721
 30
0.0
 10
5.6418187013
 20
5.6255249957
 30
0.0
 10
5.6409901223
 20
5.6256726414
 30
0.0
 10
5.6401050595
 20
5.6258193232
 30
0.0
 10
5.6388141651
 20
5.6260190463
 30
0.0
 10
5.6370620759
 20
5.6262638979
 30
0.0
 10
5.6347951569
 20
5.6265451069
 30
0.0
 10
5.6323139124
 20
5.6268206407
 30
0.0
 10
5.6296232704
 20
5.6270900387
 30
0.0
 10
5.6267283812
 20
5.6273527631
 30
0.0
 10
5.6236344156
 20
5.6276083122
 30
0.0
 10
5.6203467559
 20
5.6278561592
 30
0.0
 10
5.6168714025
 20
5.6280958046
 30
0.0
 10
5.6132150192
 20
5.628326871
 30
0.0
 10
5.6079990477
 20
5.6286292021
 30
0.0
 10
5.6010803141
 20
5.6289797859
 30
0.0
 10
5.5923361555
 20
5.6293513499
 30
0.0
 10
5.5830527358
 20
5.6296795222
 30
0.0
 10
5.573299905
 20
5.6299616458
 30
0.0
 10
5.5631493897
 20
5.6301953703
 30
0.0
 10
5.5526743887
 20
5.6303792176
 30
0.0
 10
5.5419535445
 20
5.6305113556
 30
0.0
 10
5.5310732858
 20
5.6305910325
 30
0.0
 10
5.5237763654
 20
5.6306088975
 30
0.0
 10
5.5201170124
 20
5.6306088975
 30
0.0
 11
5.6451170124
 21
5.6247674218
 31
0.0
 11
5.6445773776
 21
5.6249192528
 31
0.0
 11
5.6439790966
 21
5.6250704846
 31
0.0
 11
5.643322597
 21
5.6252210351
 31
0.0
 11
5.6426083065
 21
5.6253708218
 31
0.0
 11
5.6418366527
 21
5.6255197625
 31
0.0
 11
5.6410080634
 21
5.6256677749
 31
0.0
 11
5.6401229662
 21
5.6258147765
 31
0.0
 11
5.6391817889
 21
5.6259606851
 31
0.0
 11
5.6371329043
 21
5.6262488941
 31
0.0
 11
5.6348649037
 21
5.6265317507
 31
0.0
 11
5.6323822554
 21
5.6268087071
 31
0.0
 11
5.6296901261
 21
5.6270792889
 31
0.0
 11
5.6267936979
 21
5.6273430235
 31
0.0
 11
5.6236981526
 21
5.6275994383
 31
0.0
 11
5.6204086777
 21
5.6278480607
 31
0.0
 11
5.6169310887
 21
5.628088433
 31
0.0
 11
5.613272406
 21
5.6283201262
 31
0.0
 11
5.6094397864
 21
5.6285427141
 31
0.0
 11
5.6012813631
 21
5.6289588703
 31
0.0
 11
5.5925149516
 21
5.6293336241
 31
0.0
 11
5.5832083632
 21
5.6296643001
 31
0.0
 11
5.5734319286
 21
5.6299484006
 31
0.0
 11
5.5632571243
 21
5.6301837497
 31
0.0
 11
5.5527573871
 21
5.6303687227
 31
0.0
 11
5.5420074086
 21
5.6305017958
 31
0.0
 11
5.5310950384
 21
5.6305820336
 31
0.0
 11
5.5201170124
 21
5.6306088975
 31
0.0
  0
SPLINE
  5
239
100
AcDbEntity
  8
0
100
AcDbSpline
 62
6
  6
CONTINUOUS
 70
0
 71
3
 72
63
 73
59
 74
57
 42
0.0000001
 43
0.0000001
 44
0.0000000001
 12
-0.1191645059
 22
0.2204043907
 32
0.0
 13
-0.2204043907
 23
0.1191645059
 33
0.0
 40
0.0
 40
0.0
 40
0.0
 40
0.0
 40
0.0022373817
 40
0.0047003221
 40
0.00738854
 40
0.010301411
 40
0.013438069
 40
0.0167974721
 40
0.0203784488
 40
0.0241797288
 40
0.0324376801
 40
0.0415597515
 40
0.0515298831
 40
0.0623287976
 40
0.0739368406
 40
0.0863341392
 40
0.0995006468
 40
0.1134137719
 40
0.1280458433
 40
0.1433685019
 40
0.1593533306
 40
0.175971868
 40
0.2109896657
 40
0.2481565162
 40
0.2871971125
 40
0.3278248595
 40
0.3697330978
 40
0.412612238
 40
0.4561431403
 40
0.5
 40
0.5438568597
 40
0.587387762
 40
0.6302669022
 40
0.6721751405
 40
0.7128028875
 40
0.7518434838
 40
0.7890103343
 40
0.824028132
 40
0.8406466694
 40
0.8566314981
 40
0.8719541567
 40
0.8865862281
 40
0.9004993532
 40
0.9136658608
 40
0.9260631594
 40
0.9376712024
 40
0.9484701169
 40
0.9584402485
 40
0.9675623199
 40
0.9758202712
 40
0.9796215512
 40
0.9832025279
 40
0.986561931
 40
0.989698589
 40
0.99261146
 40
0.9952996779
 40
0.9977626183
 40
1.0
 40
1.0
 40
1.0
 40
1.0
 10
5.9049688907
 20
5.4135798591
 30
0.0
 10
5.9048800185
 20
5.4137442353
 30
0.0
 10
5.904687449
 20
5.4140864011
 30
0.0
 10
5.9043707356
 20
5.4146160672
 30
0.0
 10
5.90401249
 20
5.4151864366
 30
0.0
 10
5.9036129351
 20
5.4157971439
 30
0.0
 10
5.9031722926
 20
5.4164478316
 30
0.0
 10
5.9026907917
 20
5.4171381365
 30
0.0
 10
5.9021686692
 20
5.4178677004
 30
0.0
 10
5.9013970845
 20
5.4189217391
 30
0.0
 10
5.9003312963
 20
5.4203338043
 30
0.0
 10
5.8989271761
 20
5.4221356227
 30
0.0
 10
5.8973674861
 20
5.4240849817
 30
0.0
 10
5.8956553822
 20
5.4261780764
 30
0.0
 10
5.8937941241
 20
5.4284108863
 30
0.0
 10
5.8917870118
 20
5.4307794025
 30
0.0
 10
5.8896374734
 20
5.4332794531
 30
0.0
 10
5.8873493976
 20
5.4359064395
 30
0.0
 10
5.88492724
 20
5.438655366
 30
0.0
 10
5.8823757406
 20
5.4415208642
 30
0.0
 10
5.8796996864
 20
5.4444975382
 30
0.0
 10
5.875905411
 20
5.4486807605
 30
0.0
 10
5.8708883024
 20
5.4541431399
 30
0.0
 10
5.8645558406
 20
5.4609397402
 30
0.0
 10
5.8578582688
 20
5.4680362671
 30
0.0
 10
5.8508454664
 20
5.4753795369
 30
0.0
 10
5.8435699627
 20
5.4829150036
 30
0.0
 10
5.8360859449
 20
5.4905859812
 30
0.0
 10
5.8284493616
 20
5.4983352878
 30
0.0
 10
5.8207174121
 20
5.5061050758
 30
0.0
 10
5.8129476242
 20
5.5138370253
 30
0.0
 10
5.8051983175
 20
5.5214736086
 30
0.0
 10
5.7975273399
 20
5.5289576264
 30
0.0
 10
5.7899918732
 20
5.5362331301
 30
0.0
 10
5.7826486034
 20
5.5432459325
 30
0.0
 10
5.7755520765
 20
5.5499435043
 30
0.0
 10
5.7687554762
 20
5.5562759661
 30
0.0
 10
5.7632930968
 20
5.5612930746
 30
0.0
 10
5.7591098745
 20
5.56508735
 30
0.0
 10
5.7561332005
 20
5.5677634043
 30
0.0
 10
5.7532677023
 20
5.5703149037
 30
0.0
 10
5.7505187758
 20
5.5727370613
 30
0.0
 10
5.7478917894
 20
5.575025137
 30
0.0
 10
5.7453917388
 20
5.5771746755
 30
0.0
 10
5.7430232226
 20
5.5791817878
 30
0.0
 10
5.7407904127
 20
5.5810430459
 30
0.0
 10
5.738697318
 20
5.5827551498
 30
0.0
 10
5.736747959
 20
5.5843148398
 30
0.0
 10
5.7349461406
 20
5.58571896
 30
0.0
 10
5.7335340754
 20
5.5867847482
 30
0.0
 10
5.7324800368
 20
5.5875563329
 30
0.0
 10
5.7317504729
 20
5.5880784554
 30
0.0
 10
5.7310601679
 20
5.5885599563
 30
0.0
 10
5.7304094802
 20
5.5890005987
 30
0.0
 10
5.7297987729
 20
5.5894001537
 30
0.0
 10
5.7292284035
 20
5.5897583993
 30
0.0
 10
5.7286987374
 20
5.5900751127
 30
0.0
 10
5.7283565716
 20
5.5902676822
 30
0.0
 10
5.7281921954
 20
5.5903565543
 30
0.0
 11
5.9049688907
 21
5.4135798591
 31
0.0
 11
5.9046946707
 21
5.4140688005
 31
0.0
 11
5.9043785556
 21
5.4145987901
 31
0.0
 11
5.90402079
 21
5.4151694668
 31
0.0
 11
5.9036216186
 21
5.4157804696
 31
0.0
 11
5.903181286
 21
5.4164314374
 31
0.0
 11
5.902700037
 21
5.4171220091
 31
0.0
 11
5.9021781162
 21
5.4178518235
 31
0.0
 11
5.9016157682
 21
5.4186205198
 31
0.0
 11
5.9003707695
 21
5.4202731131
 31
0.0
 11
5.8989670516
 21
5.4220768574
 31
0.0
 11
5.8974073758
 21
5.4240282142
 31
0.0
 11
5.8956950579
 21
5.4261231971
 31
0.0
 11
5.8938334264
 21
5.4283578092
 31
0.0
 11
5.8918258101
 21
5.4307280537
 31
0.0
 11
5.8896755405
 21
5.4332299309
 31
0.0
 11
5.8873863915
 21
5.435859019
 31
0.0
 11
5.8849630443
 21
5.4386100299
 31
0.0
 11
5.8824102918
 21
5.441477569
 31
0.0
 11
5.8797329268
 21
5.4444562418
 31
0.0
 11
5.8769357421
 21
5.4475406538
 31
0.0
 11
5.8710022983
 21
5.4540040788
 31
0.0
 11
5.8646554274
 21
5.4608185894
 31
0.0
 11
5.8579424179
 21
5.4679333734
 31
0.0
 11
5.8509127445
 21
5.4752958717
 31
0.0
 11
5.8436198131
 21
5.4828503845
 31
0.0
 11
5.8361176019
 21
5.490540785
 31
0.0
 11
5.8284621835
 21
5.4983096716
 31
0.0
 11
5.82071109
 21
5.5060987537
 31
0.0
 11
5.8129220079
 21
5.5138498472
 31
0.0
 11
5.8051531214
 21
5.5215052656
 31
0.0
 11
5.7974627208
 21
5.5290074768
 31
0.0
 11
5.7899082081
 21
5.5363004082
 31
0.0
 11
5.7825457097
 21
5.5433300816
 31
0.0
 11
5.7754309258
 21
5.550043091
 31
0.0
 11
5.7686164151
 21
5.556389962
 31
0.0
 11
5.7621529901
 21
5.5623234058
 31
0.0
 11
5.7590685781
 21
5.5651205904
 31
0.0
 11
5.7560899053
 21
5.5677979554
 31
0.0
 11
5.7532223662
 21
5.570350708
 31
0.0
 11
5.7504713553
 21
5.5727740552
 31
0.0
 11
5.7478422672
 21
5.5750632042
 31
0.0
 11
5.74534039
 21
5.5772134738
 31
0.0
 11
5.7429701455
 21
5.5792210901
 31
0.0
 11
5.7407355334
 21
5.5810827216
 31
0.0
 11
5.7386405505
 21
5.5827950395
 31
0.0
 11
5.7366891937
 21
5.5843547153
 31
0.0
 11
5.7348854495
 21
5.5857584332
 31
0.0
 11
5.7332328561
 21
5.5870034319
 31
0.0
 11
5.7324641599
 21
5.5875657799
 31
0.0
 11
5.7317343454
 21
5.5880877007
 31
0.0
 11
5.7310437737
 21
5.5885689497
 31
0.0
 11
5.7303928059
 21
5.5890092823
 31
0.0
 11
5.7297818031
 21
5.5894084537
 31
0.0
 11
5.7292111264
 21
5.5897662193
 31
0.0
 11
5.7286811368
 21
5.5900823344
 31
0.0
 11
5.7281921954
 21
5.5903565543
 31
0.0
  0
SPLINE
  5
23A
100
AcDbEntity
  8
0
100
AcDbSpline
 62
6
  6
CONTINUOUS
 70
0
 71
3
 72
63
 73
59
 74
57
 42
0.0000001
 43
0.0000001
 44
0.0000000001
 12
0.0715874091
 22
0.2401114695
 32
0.0
 13
-0.0715874091
 23
0.2401114695
 33
0.0
 40
0.0
 40
0.0
 40
0.0
 40
0.0
 40
0.0022373817
 40
0.0047003221
 40
0.00738854
 40
0.010301411
 40
0.013438069
 40
0.0167974721
 40
0.0203784488
 40
0.0241797288
 40
0.0324376801
 40
0.0415597515
 40
0.0515298831
 40
0.0623287976
 40
0.0739368406
 40
0.0863341392
 40
0.0995006468
 40
0.1134137719
 40
0.1280458433
 40
0.1433685019
 40
0.1593533306
 40
0.175971868
 40
0.2109896657
 40
0.2481565162
 40
0.2871971125
 40
0.3278248595
 40
0.3697330978
 40
0.412612238
 40
0.4561431403
 40
0.5
 40
0.5438568597
 40
0.587387762
 40
0.6302669022
 40
0.6721751405
 40
0.7128028875
 40
0.7518434838
 40
0.7890103343
 40
0.824028132
 40
0.8406466694
 40
0.8566314981
 40
0.8719541567
 40
0.8865862281
 40
0.9004993532
 40
0.9136658608
 40
0.9260631594
 40
0.9376712024
 40
0.9484701169
 40
0.9584402485
 40
0.9675623199
 40
0.9758202712
 40
0.9796215512
 40
0.9832025279
 40
0.986561931
 40
0.989698589
 40
0.99261146
 40
0.9952996779
 40
0.9977626183
 40
1.0
 40
1.0
 40
1.0
 40
1.0
 10
5.9393797582
 20
5.0805046761
 30
0.0
 10
5.9394331476
 20
5.0806837497
 30
0.0
 10
5.9395389282
 20
5.0810618647
 30
0.0
 10
5.9396895084
 20
5.0816603453
 30
0.0
 10
5.9398395026
 20
5.0823169753
 30
0.0
 10
5.9399888099
 20
5.0830313386
 30
0.0
 10
5.9401373343
 20
5.0838030255
 30
0.0
 10
5.9402849811
 20
5.0846316174
 30
0.0
 10
5.9404316643
 20
5.0855166933
 30
0.0
 10
5.9406313894
 20
5.086807604
 30
0.0
 10
5.9408762442
 20
5.0885597109
 30
0.0
 10
5.9411574593
 20
5.0908266519
 30
0.0
 10
5.9414329969
 20
5.0933079243
 30
0.0
 10
5.9417023981
 20
5.0959986059
 30
0.0
 10
5.9419651249
 20
5.0988935492
 30
0.0
 10
5.9422206761
 20
5.1019875858
 30
0.0
 10
5.9424685256
 20
5.1052753417
 30
0.0
 10
5.9427081715
 20
5.1087508155
 30
0.0
 10
5.9429392321
 20
5.1124073242
 30
0.0
 10
5.9431612627
 20
5.1162377199
 30
0.0
 10
5.943373833
 20
5.1202348024
 30
0.0
 10
5.94364886
 20
5.1258757451
 30
0.0
 10
5.943963714
 20
5.1332858621
 30
0.0
 10
5.9442919095
 20
5.1425695109
 30
0.0
 10
5.9445740134
 20
5.1523234116
 30
0.0
 10
5.9448076891
 20
5.1624746876
 30
0.0
 10
5.9449915107
 20
5.1729476253
 30
0.0
 10
5.9451237113
 20
5.1836638253
 30
0.0
 10
5.9452034187
 20
5.1945432924
 30
0.0
 10
5.9452301745
 20
5.2055046761
 30
0.0
 10
5.9452034187
 20
5.2164660597
 30
0.0
 10
5.9451237113
 20
5.2273455268
 30
0.0
 10
5.9449915107
 20
5.2380617269
 30
0.0
 10
5.9448076891
 20
5.2485346645
 30
0.0
 10
5.9445740134
 20
5.2586859405
 30
0.0
 10
5.9442919095
 20
5.2684398412
 30
0.0
 10
5.943963714
 20
5.27772349
 30
0.0
 10
5.94364886
 20
5.285133607
 30
0.0
 10
5.943373833
 20
5.2907745497
 30
0.0
 10
5.9431612627
 20
5.2947716322
 30
0.0
 10
5.9429392321
 20
5.298602028
 30
0.0
 10
5.9427081715
 20
5.3022585366
 30
0.0
 10
5.9424685256
 20
5.3057340104
 30
0.0
 10
5.9422206761
 20
5.3090217663
 30
0.0
 10
5.9419651249
 20
5.3121158029
 30
0.0
 10
5.9417023981
 20
5.3150107462
 30
0.0
 10
5.9414329969
 20
5.3177014279
 30
0.0
 10
5.9411574593
 20
5.3201827002
 30
0.0
 10
5.9408762442
 20
5.3224496412
 30
0.0
 10
5.9406313894
 20
5.3242017481
 30
0.0
 10
5.9404316643
 20
5.3254926588
 30
0.0
 10
5.9402849811
 20
5.3263777347
 30
0.0
 10
5.9401373343
 20
5.3272063266
 30
0.0
 10
5.9399888099
 20
5.3279780135
 30
0.0
 10
5.9398395026
 20
5.3286923768
 30
0.0
 10
5.9396895084
 20
5.3293490068
 30
0.0
 10
5.9395389282
 20
5.3299474874
 30
0.0
 10
5.9394331476
 20
5.3303256024
 30
0.0
 10
5.9393797582
 20
5.3305046761
 30
0.0
 11
5.9393797582
 21
5.0805046761
 31
0.0
 11
5.9395315891
 21
5.0810443127
 31
0.0
 11
5.9396828213
 21
5.081642599
 31
0.0
 11
5.9398333722
 21
5.0822991069
 31
0.0
 11
5.9399831596
 21
5.0830134079
 31
0.0
 11
5.9401321012
 21
5.0837850738
 31
0.0
 11
5.9402801147
 21
5.0846136761
 31
0.0
 11
5.9404271177
 21
5.0854987867
 31
0.0
 11
5.9405730279
 21
5.0864399771
 31
0.0
 11
5.9408612409
 21
5.0884888841
 31
0.0
 11
5.9411441022
 21
5.0907569023
 31
0.0
 11
5.9414210625
 21
5.0932395773
 31
0.0
 11
5.9416916475
 21
5.0959317455
 31
0.0
 11
5.9419553847
 21
5.0988282271
 31
0.0
 11
5.9422118015
 21
5.1019238422
 31
0.0
 11
5.9424604256
 21
5.1052134067
 31
0.0
 11
5.9427007988
 21
5.1086911255
 31
0.0
 11
5.942932492
 21
5.1123499492
 31
0.0
 11
5.9431550798
 21
5.1161826742
 31
0.0
 11
5.9433681366
 21
5.1201820969
 31
0.0
 11
5.943571237
 21
5.1243410138
 31
0.0
 11
5.9439459903
 21
5.1331069238
 31
0.0
 11
5.9442766615
 21
5.1424134259
 31
0.0
 11
5.9445607589
 21
5.1521911525
 31
0.0
 11
5.9447961017
 21
5.1623679546
 31
0.0
 11
5.9449810677
 21
5.1728666831
 31
0.0
 11
5.9451141376
 21
5.1836094819
 31
0.0
 11
5.9451943717
 21
5.1945161126
 31
0.0
 11
5.9452212338
 21
5.2055046761
 31
0.0
 11
5.9451943717
 21
5.2164932396
 31
0.0
 11
5.9451141376
 21
5.2273998702
 31
0.0
 11
5.9449810677
 21
5.238142669
 31
0.0
 11
5.9447961017
 21
5.2486413975
 31
0.0
 11
5.9445607589
 21
5.2588181997
 31
0.0
 11
5.9442766615
 21
5.2685959262
 31
0.0
 11
5.9439459903
 21
5.2779024283
 31
0.0
 11
5.943571237
 21
5.2866683383
 31
0.0
 11
5.9433681366
 21
5.2908272552
 31
0.0
 11
5.9431550798
 21
5.2948266779
 31
0.0
 11
5.942932492
 21
5.2986594029
 31
0.0
 11
5.9427007988
 21
5.3023182266
 31
0.0
 11
5.9424604256
 21
5.3057959454
 31
0.0
 11
5.9422118015
 21
5.3090855099
 31
0.0
 11
5.9419553847
 21
5.312181125
 31
0.0
 11
5.9416916475
 21
5.3150776066
 31
0.0
 11
5.9414210625
 21
5.3177697749
 31
0.0
 11
5.9411441022
 21
5.3202524498
 31
0.0
 11
5.9408612409
 21
5.3225204681
 31
0.0
 11
5.9405730279
 21
5.3245693751
 31
0.0
 11
5.9404271177
 21
5.3255105654
 31
0.0
 11
5.9402801147
 21
5.326395676
 31
0.0
 11
5.9401321012
 21
5.3272242783
 31
0.0
 11
5.9399831596
 21
5.3279959442
 31
0.0
 11
5.9398333722
 21
5.3287102452
 31
0.0
 11
5.9396828213
 21
5.3293667531
 31
0.0
 11
5.9395315891
 21
5.3299650395
 31
0.0
 11
5.9393797582
 21
5.3305046761
 31
0.0
  0
SPLINE
  5
23B
100
AcDbEntity
  8
0
100
AcDbSpline
 62
6
  6
CONTINUOUS
 70
0
 71
3
 72
63
 73
59
 74
57
 42
0.0000001
 43
0.0000001
 44
0.0000000001
 12
0.2204043907
 22
0.1191645059
 32
0.0
 13
0.1191645059
 23
0.2204043907
 33
0.0
 40
0.0
 40
0.0
 40
0.0
 40
0.0
 40
0.0022373817
 40
0.0047003221
 40
0.00738854
 40
0.010301411
 40
0.013438069
 40
0.0167974721
 40
0.0203784488
 40
0.0241797288
 40
0.0324376801
 40
0.0415597515
 40
0.0515298831
 40
0.0623287976
 40
0.0739368406
 40
0.0863341392
 40
0.0995006468
 40
0.1134137719
 40
0.1280458433
 40
0.1433685019
 40
0.1593533306
 40
0.175971868
 40
0.2109896657
 40
0.2481565162
 40
0.2871971125
 40
0.3278248595
 40
0.3697330978
 40
0.412612238
 40
0.4561431403
 40
0.5
 40
0.5438568597
 40
0.587387762
 40
0.6302669022
 40
0.6721751405
 40
0.7128028875
 40
0.7518434838
 40
0.7890103343
 40
0.824028132
 40
0.8406466694
 40
0.8566314981
 40
0.8719541567
 40
0.8865862281
 40
0.9004993532
 40
0.9136658608
 40
0.9260631594
 40
0.9376712024
 40
0.9484701169
 40
0.9584402485
 40
0.9675623199
 40
0.9758202712
 40
0.9796215512
 40
0.9832025279
 40
0.986561931
 40
0.989698589
 40
0.99261146
 40
0.9952996779
 40
0.9977626183
 40
1.0
 40
1.0
 40
1.0
 40
1.0
 10
5.7281921954
 20
4.8206527978
 30
0.0
 10
5.7283565716
 20
4.8207416699
 30
0.0
 10
5.7286987374
 20
4.8209342394
 30
0.0
 10
5.7292284035
 20
4.8212509528
 30
0.0
 10
5.7297987729
 20
4.8216091985
 30
0.0
 10
5.7304094802
 20
4.8220087534
 30
0.0
 10
5.7310601679
 20
4.8224493958
 30
0.0
 10
5.7317504729
 20
4.8229308967
 30
0.0
 10
5.7324800368
 20
4.8234530192
 30
0.0
 10
5.7335340754
 20
4.8242246039
 30
0.0
 10
5.7349461406
 20
4.8252903921
 30
0.0
 10
5.736747959
 20
4.8266945123
 30
0.0
 10
5.738697318
 20
4.8282542024
 30
0.0
 10
5.7407904127
 20
4.8299663062
 30
0.0
 10
5.7430232226
 20
4.8318275643
 30
0.0
 10
5.7453917388
 20
4.8338346766
 30
0.0
 10
5.7478917894
 20
4.8359842151
 30
0.0
 10
5.7505187758
 20
4.8382722909
 30
0.0
 10
5.7532677023
 20
4.8406944484
 30
0.0
 10
5.7561332005
 20
4.8432459478
 30
0.0
 10
5.7591098745
 20
4.8459220021
 30
0.0
 10
5.7632930968
 20
4.8497162775
 30
0.0
 10
5.7687554762
 20
4.8547333861
 30
0.0
 10
5.7755520765
 20
4.8610658478
 30
0.0
 10
5.7826486034
 20
4.8677634196
 30
0.0
 10
5.7899918732
 20
4.874776222
 30
0.0
 10
5.7975273399
 20
4.8820517257
 30
0.0
 10
5.8051983175
 20
4.8895357435
 30
0.0
 10
5.8129476242
 20
4.8971723268
 30
0.0
 10
5.8207174121
 20
4.9049042763
 30
0.0
 10
5.8284493616
 20
4.9126740643
 30
0.0
 10
5.8360859449
 20
4.9204233709
 30
0.0
 10
5.8435699627
 20
4.9280943485
 30
0.0
 10
5.8508454664
 20
4.9356298152
 30
0.0
 10
5.8578582688
 20
4.942973085
 30
0.0
 10
5.8645558406
 20
4.950069612
 30
0.0
 10
5.8708883024
 20
4.9568662123
 30
0.0
 10
5.875905411
 20
4.9623285916
 30
0.0
 10
5.8796996864
 20
4.9665118139
 30
0.0
 10
5.8823757406
 20
4.9694884879
 30
0.0
 10
5.88492724
 20
4.9723539861
 30
0.0
 10
5.8873493976
 20
4.9751029127
 30
0.0
 10
5.8896374734
 20
4.977729899
 30
0.0
 10
5.8917870118
 20
4.9802299496
 30
0.0
 10
5.8937941241
 20
4.9825984658
 30
0.0
 10
5.8956553822
 20
4.9848312757
 30
0.0
 10
5.8973674861
 20
4.9869243704
 30
0.0
 10
5.8989271761
 20
4.9888737294
 30
0.0
 10
5.9003312963
 20
4.9906755478
 30
0.0
 10
5.9013970845
 20
4.9920876131
 30
0.0
 10
5.9021686692
 20
4.9931416517
 30
0.0
 10
5.9026907917
 20
4.9938712156
 30
0.0
 10
5.9031722926
 20
4.9945615205
 30
0.0
 10
5.9036129351
 20
4.9952122082
 30
0.0
 10
5.90401249
 20
4.9958229156
 30
0.0
 10
5.9043707356
 20
4.996393285
 30
0.0
 10
5.904687449
 20
4.996922951
 30
0.0
 10
5.9048800185
 20
4.9972651168
 30
0.0
 10
5.9049688907
 20
4.9974294931
 30
0.0
 11
5.7281921954
 21
4.8206527978
 31
0.0
 11
5.7286811368
 21
4.8209270177
 31
0.0
 11
5.7292111264
 21
4.8212431329
 31
0.0
 11
5.7297818031
 21
4.8216008985
 31
0.0
 11
5.7303928059
 21
4.8220000699
 31
0.0
 11
5.7310437737
 21
4.8224404024
 31
0.0
 11
5.7317343454
 21
4.8229216514
 31
0.0
 11
5.7324641599
 21
4.8234435722
 31
0.0
 11
5.7332328561
 21
4.8240059202
 31
0.0
 11
5.7348854495
 21
4.8252509189
 31
0.0
 11
5.7366891937
 21
4.8266546368
 31
0.0
 11
5.7386405505
 21
4.8282143126
 31
0.0
 11
5.7407355334
 21
4.8299266306
 31
0.0
 11
5.7429701455
 21
4.831788262
 31
0.0
 11
5.74534039
 21
4.8337958783
 31
0.0
 11
5.7478422672
 21
4.8359461479
 31
0.0
 11
5.7504713553
 21
4.838235297
 31
0.0
 11
5.7532223662
 21
4.8406586442
 31
0.0
 11
5.7560899053
 21
4.8432113967
 31
0.0
 11
5.7590685781
 21
4.8458887617
 31
0.0
 11
5.7621529901
 21
4.8486859463
 31
0.0
 11
5.7686164151
 21
4.8546193901
 31
0.0
 11
5.7754309258
 21
4.8609662611
 31
0.0
 11
5.7825457097
 21
4.8676792706
 31
0.0
 11
5.7899082081
 21
4.8747089439
 31
0.0
 11
5.7974627208
 21
4.8820018753
 31
0.0
 11
5.8051531214
 21
4.8895040865
 31
0.0
 11
5.8129220079
 21
4.8971595049
 31
0.0
 11
5.82071109
 21
4.9049105984
 31
0.0
 11
5.8284621835
 21
4.9126996805
 31
0.0
 11
5.8361176019
 21
4.9204685671
 31
0.0
 11
5.8436198131
 21
4.9281589676
 31
0.0
 11
5.8509127445
 21
4.9357134804
 31
0.0
 11
5.8579424179
 21
4.9430759787
 31
0.0
 11
5.8646554274
 21
4.9501907627
 31
0.0
 11
5.8710022983
 21
4.9570052733
 31
0.0
 11
5.8769357421
 21
4.9634686983
 31
0.0
 11
5.8797329268
 21
4.9665531103
 31
0.0
 11
5.8824102918
 21
4.9695317831
 31
0.0
 11
5.8849630443
 21
4.9723993223
 31
0.0
 11
5.8873863915
 21
4.9751503331
 31
0.0
 11
5.8896755405
 21
4.9777794212
 31
0.0
 11
5.8918258101
 21
4.9802812984
 31
0.0
 11
5.8938334264
 21
4.9826515429
 31
0.0
 11
5.8956950579
 21
4.984886155
 31
0.0
 11
5.8974073758
 21
4.9869811379
 31
0.0
 11
5.8989670516
 21
4.9889324947
 31
0.0
 11
5.9003707695
 21
4.990736239
 31
0.0
 11
5.9016157682
 21
4.9923888323
 31
0.0
 11
5.9021781162
 21
4.9931575286
 31
0.0
 11
5.902700037
 21
4.9938873431
 31
0.0
 11
5.903181286
 21
4.9945779147
 31
0.0
 11
5.9036216186
 21
4.9952288825
 31
0.0
 11
5.90402079
 21
4.9958398853
 31
0.0
 11
5.9043785556
 21
4.996410562
 31
0.0
 11
5.9046946707
 21
4.9969405517
 31
0.0
 11
5.9049688907
 21
4.9974294931
 31
0.0
  0
SPLINE
  5
23C
100
AcDbEntity
  8
0
100
AcDbSpline
 62
6
  6
CONTINUOUS
 70
0
 71
3
 72
55
 73
51
 74
49
 42
0.0000001
 43
0.0000001
 44
0.0000000001
 12
-0.167202836
 22
-0.0072478581
 32
0.0
 13
0.1315044227
 23
-0.1035176634
 33
0.0
 40
0.0
 40
0.0
 40
0.0
 40
0.0
 40
0.0312426221
 40
0.0625010385
 40
0.0781306972
 40
0.093758447
 40
0.1250066717
 40
0.1562565344
 40
0.1875066812
 40
0.218755951
 40
0.2500046576
 40
0.2656318047
 40
0.2812589591
 40
0.2968860485
 40
0.31251314
 40
0.3281402462
 40
0.3437672452
 40
0.3593940889
 40
0.3750208685
 40
0.390647588
 40
0.4062741716
 40
0.4219006424
 40
0.4375271396
 40
0.4531536391
 40
0.4687800864
 40
0.4844065518
 40
0.5000331528
 40
0.5312807078
 40
0.5469072561
 40
0.5625338388
 40
0.5937809228
 40
0.6250275456
 40
0.656273599
 40
0.687519407
 40
0.7187649069
 40
0.7343906656
 40
0.7500163638
 40
0.7656418862
 40
0.7812672802
 40
0.7968926159
 40
0.8125178688
 40
0.828143117
 40
0.8437685441
 40
0.8593939178
 40
0.8750188581
 40
0.890643126
 40
0.9062670152
 40
0.9375114953
 40
0.9687638659
 40
1.0
 40
1.0
 40
1.0
 40
1.0
 10
5.5201170124
 20
3.6132451617
 30
0.0
 10
5.5183757274
 20
3.613169681
 30
0.0
 10
5.5148965176
 20
3.6128929039
 30
0.0
 10
5.510583866
 20
3.6122347514
 30
0.0
 10
5.5071692834
 20
3.6115217174
 30
0.0
 10
5.5037833937
 20
3.6106854729
 30
0.0
 10
5.4996113236
 20
3.6094103954
 30
0.0
 10
5.4947303103
 20
3.6075196487
 30
0.0
 10
5.4900000344
 20
3.6052776622
 30
0.0
 10
5.485447235
 20
3.6026946824
 30
0.0
 10
5.4818211621
 20
3.6002689235
 30
0.0
 10
5.4790344298
 20
3.5981721018
 30
0.0
 10
5.4770036027
 20
3.5965231375
 30
0.0
 10
5.475035218
 20
3.5948001692
 30
0.0
 10
5.4731321711
 20
3.593005281
 30
0.0
 10
5.4712971844
 20
3.5911408786
 30
0.0
 10
5.4695328047
 20
3.5892095394
 30
0.0
 10
5.4678416154
 20
3.5872138159
 30
0.0
 10
5.4662262522
 20
3.5851562522
 30
0.0
 10
5.4646890101
 20
3.5830397039
 30
0.0
 10
5.4632320866
 20
3.5808671061
 30
0.0
 10
5.4618577102
 20
3.5786413799
 30
0.0
 10
5.460568123
 20
3.5763654815
 30
0.0
 10
5.4593651346
 20
3.5740426429
 30
0.0
 10
5.4582505529
 20
3.5716761271
 30
0.0
 10
5.4572261982
 20
3.569269112
 30
0.0
 10
5.4559832253
 20
3.5660108255
 30
0.0
 10
5.4549263355
 20
3.5626839575
 30
0.0
 10
5.454061939
 20
3.5593054058
 30
0.0
 10
5.4533270648
 20
3.5558962958
 30
0.0
 10
5.4526531315
 20
3.551585978
 30
0.0
 10
5.45224348
 20
3.5463675887
 30
0.0
 10
5.452235694
 20
3.5411329973
 30
0.0
 10
5.4526320927
 20
3.5359136574
 30
0.0
 10
5.4532979127
 20
3.5316020959
 30
0.0
 10
5.4540303969
 20
3.5281926749
 30
0.0
 10
5.4546789283
 20
3.5256585441
 30
0.0
 10
5.4554257348
 20
3.5231516736
 30
0.0
 10
5.4562700464
 20
3.5206759458
 30
0.0
 10
5.4572107194
 20
3.5182352217
 30
0.0
 10
5.4582463336
 20
3.5158332496
 30
0.0
 10
5.4593755208
 20
3.5134738093
 30
0.0
 10
5.4605969025
 20
3.511160739
 30
0.0
 10
5.4619085556
 20
3.5088976532
 30
0.0
 10
5.4633084838
 20
3.5066881724
 30
0.0
 10
5.4647947877
 20
3.5045358858
 30
0.0
 10
5.4668886374
 20
3.5017475362
 30
0.0
 10
5.4697117622
 20
3.4984207565
 30
0.0
 10
5.4734064508
 20
3.4947131651
 30
0.0
 10
5.4760598996
 20
3.4924454255
 30
0.0
 10
5.4774291295
 20
3.491367595
 30
0.0
 11
5.5201170124
 21
3.6132451617
 31
0.0
 11
5.5149047138
 21
3.6128305766
 31
0.0
 11
5.5097332448
 21
3.6120409594
 31
0.0
 11
5.5071726971
 21
3.6115062757
 31
0.0
 11
5.504633543
 21
3.6108791261
 31
0.0
 11
5.4996322968
 21
3.6093503095
 31
0.0
 11
5.494755457
 21
3.607461118
 31
0.0
 11
5.490029561
 21
3.6052208022
 31
0.0
 11
5.4854808088
 21
3.6026400219
 31
0.0
 11
5.4811341897
 21
3.5997318456
 31
0.0
 11
5.4790443312
 21
3.5981594005
 31
0.0
 11
5.4770140066
 21
3.5965108009
 31
0.0
 11
5.4750461074
 21
3.5947881824
 31
0.0
 11
5.4731435145
 21
3.5929936953
 31
0.0
 11
5.4713089465
 21
3.5911297164
 31
0.0
 11
5.4695449953
 21
3.5891987999
 31
0.0
 11
5.4678542492
 21
3.5872035044
 31
0.0
 11
5.4662392689
 21
3.5851464168
 31
0.0
 11
5.4647023905
 21
3.5830303538
 31
0.0
 11
5.4632458399
 21
3.5808582444
 31
0.0
 11
5.461871842
 21
3.5786330185
 31
0.0
 11
5.4605825561
 21
3.576357658
 31
0.0
 11
5.4593798676
 21
3.5740353605
 31
0.0
 11
5.4582655915
 21
3.571669379
 31
0.0
 11
5.4572415418
 21
3.5692629672
 31
0.0
 11
5.4563093953
 21
3.5668194621
 31
0.0
 11
5.4547263384
 21
3.5618352368
 31
0.0
 11
5.4540781305
 21
3.5593015843
 31
0.0
 11
5.4535270413
 21
3.5567450439
 31
0.0
 11
5.4527196339
 21
3.5515782422
 31
0.0
 11
5.4523104558
 21
3.5463648447
 31
0.0
 11
5.4523030589
 21
3.5411355151
 31
0.0
 11
5.4526991875
 21
3.5359212467
 31
0.0
 11
5.4534976348
 21
3.530753321
 31
0.0
 11
5.4540469175
 21
3.5281965328
 31
0.0
 11
5.454695311
 21
3.5256630748
 31
0.0
 11
5.4554419888
 21
3.523156854
 31
0.0
 11
5.4562861086
 21
3.5206817743
 31
0.0
 11
5.4572265452
 21
3.5182416748
 31
0.0
 11
5.4582619288
 21
3.5158403387
 31
0.0
 11
5.4593908816
 21
3.5134815476
 31
0.0
 11
5.4606119507
 21
3.5111690647
 31
0.0
 11
5.4619232863
 21
3.5089065576
 31
0.0
 11
5.4633229081
 21
3.506697662
 31
0.0
 11
5.4648088339
 21
3.5045460123
 31
0.0
 11
5.4663789716
 21
3.5024551014
 31
0.0
 11
5.469762699
 21
3.4984684263
 31
0.0
 11
5.4734546978
 21
3.4947635449
 31
0.0
 11
5.4774291295
 21
3.491367595
 31
0.0
  0
SPLINE
  5
23D
100
AcDbEntity
  8
0
100
AcDbSpline
 62
6
  6
CONTINUOUS
 70
0
 71
3
 72
63
 73
59
 74
57
 42
0.0000001
 43
0.0000001
 44
0.0000000001
 12
0.2206568861
 22
0.0547986342
 32
0.0
 13
-0.2271462145
 23
-0.0098462656
 33
0.0
 40
0.0
 40
0.0
 40
0.0
 40
0.0
 40
0.0312421937
 40
0.0468735564
 40
0.0625028579
 40
0.0781297524
 40
0.0937556112
 40
0.1093818532
 40
0.1250087854
 40
0.1406359612
 40
0.1562631092
 40
0.1718901718
 40
0.1875171166
 40
0.203144051
 40
0.2187710786
 40
0.2343980335
 40
0.2500248529
 40
0.2656516099
 40
0.2812782218
 40
0.2969046812
 40
0.3125311263
 40
0.3437759564
 40
0.375020896
 40
0.3906472938
 40
0.4062737391
 40
0.4375183578
 40
0.4687626138
 40
0.4843886427
 40
0.5000146784
 40
0.5156407299
 40
0.5312667428
 40
0.5468928556
 40
0.5625190311
 40
0.5781451173
 40
0.5937711687
 40
0.6093971587
 40
0.6250229551
 40
0.6406486317
 40
0.656274236
 40
0.6718997258
 40
0.6875252583
 40
0.7031508622
 40
0.7187764196
 40
0.7344020219
 40
0.7500276575
 40
0.76565318
 40
0.7812786574
 40
0.7969040623
 40
0.8125292309
 40
0.8281542272
 40
0.8437791662
 40
0.8594041416
 40
0.8750294216
 40
0.9062703554
 40
0.9375093509
 40
0.9531354728
 40
0.9687643765
 40
1.0
 40
1.0
 40
1.0
 40
1.0
 10
5.5368082992
 20
3.4602214216
 30
0.0
 10
5.5391062343
 20
3.4607920981
 30
0.0
 10
5.5425191141
 20
3.4617989025
 30
0.0
 10
5.5469665104
 20
3.4634323343
 30
0.0
 10
5.5502466073
 20
3.4648022533
 30
0.0
 10
5.5534632639
 20
3.4663138615
 30
0.0
 10
5.5566106425
 20
3.4679644603
 30
0.0
 10
5.559682649
 20
3.4697514244
 30
0.0
 10
5.5626734137
 20
3.4716714536
 30
0.0
 10
5.5655771037
 20
3.4737209156
 30
0.0
 10
5.5683877095
 20
3.4758963083
 30
0.0
 10
5.5710995824
 20
3.47819358
 30
0.0
 10
5.5737074556
 20
3.4806082475
 30
0.0
 10
5.5762059017
 20
3.4831359797
 30
0.0
 10
5.5785897565
 20
3.4857720582
 30
0.0
 10
5.5808543624
 20
3.4885112528
 30
0.0
 10
5.5829948977
 20
3.491348443
 30
0.0
 10
5.5850067234
 20
3.4942782827
 30
0.0
 10
5.5868858941
 20
3.4972948704
 30
0.0
 10
5.5886283762
 20
3.5003924865
 30
0.0
 10
5.5907637004
 20
3.5046218105
 30
0.0
 10
5.5930741073
 20
3.5100817631
 30
0.0
 10
5.5948832836
 20
3.5157276751
 30
0.0
 10
5.5960204165
 20
3.5203270982
 30
0.0
 10
5.5969478607
 20
3.5249733191
 30
0.0
 10
5.5977108211
 20
3.5308527627
 30
0.0
 10
5.5979351896
 20
3.5367773495
 30
0.0
 10
5.5977901306
 20
3.5415128844
 30
0.0
 10
5.5975186238
 20
3.5450565289
 30
0.0
 10
5.5970849284
 20
3.5485839258
 30
0.0
 10
5.5964897777
 20
3.5520877309
 30
0.0
 10
5.5957337497
 20
3.5555603894
 30
0.0
 10
5.5948183909
 20
3.5589944968
 30
0.0
 10
5.5937455009
 20
3.5623826978
 30
0.0
 10
5.5925167126
 20
3.565717519
 30
0.0
 10
5.5911345741
 20
3.5689917337
 30
0.0
 10
5.5896019521
 20
3.5721982445
 30
0.0
 10
5.5879215386
 20
3.57532981
 30
0.0
 10
5.5860968658
 20
3.5783795459
 30
0.0
 10
5.5841318013
 20
3.581340765
 30
0.0
 10
5.5820300558
 20
3.584206602
 30
0.0
 10
5.5797961444
 20
3.5869706615
 30
0.0
 10
5.5774348904
 20
3.5896267789
 30
0.0
 10
5.574950987
 20
3.5921685855
 30
0.0
 10
5.5723498747
 20
3.5945903092
 30
0.0
 10
5.5696372713
 20
3.5968864594
 30
0.0
 10
5.5668187904
 20
3.5990513206
 30
0.0
 10
5.5639007135
 20
3.6010798893
 30
0.0
 10
5.5608895635
 20
3.6029674879
 30
0.0
 10
5.5577917754
 20
3.6047092145
 30
0.0
 10
5.5546143591
 20
3.6063009648
 30
0.0
 10
5.5513643621
 20
3.6077390007
 30
0.0
 10
5.5469449406
 20
3.6094456482
 30
0.0
 10
5.5412745548
 20
3.6111779472
 30
0.0
 10
5.5354634038
 20
3.612355053
 30
0.0
 10
5.5307637519
 20
3.6129559843
 30
0.0
 10
5.5260410847
 20
3.6133275895
 30
0.0
 10
5.5224820303
 20
3.6133476797
 30
0.0
 10
5.5201170124
 20
3.6132451617
 30
0.0
 11
5.5368082992
 21
3.4602214216
 31
0.0
 11
5.5436212758
 21
3.4622311345
 31
0.0
 11
5.5469572899
 21
3.4634564886
 31
0.0
 11
5.5502362643
 21
3.46482597
 31
0.0
 11
5.5534518228
 21
3.466337078
 31
0.0
 11
5.5565980549
 21
3.4679871732
 31
0.0
 11
5.5596690499
 21
3.469773566
 31
0.0
 11
5.5626588763
 21
3.4716930092
 31
0.0
 11
5.56556159
 21
3.4737419044
 31
0.0
 11
5.5683712613
 21
3.4759166274
 31
0.0
 11
5.5710822579
 21
3.4782131537
 31
0.0
 11
5.5736892187
 21
3.4806270924
 31
0.0
 11
5.5761867982
 21
3.4831540322
 31
0.0
 11
5.5785698862
 21
3.4857892495
 31
0.0
 11
5.5808336924
 21
3.4885275962
 31
0.0
 11
5.5829734514
 21
3.491363892
 31
0.0
 11
5.5849846227
 21
3.4942927537
 31
0.0
 11
5.5868631206
 21
3.4973083885
 31
0.0
 11
5.588604914
 21
3.5004049537
 31
0.0
 11
5.590206164
 21
3.5035764732
 31
0.0
 11
5.5929738637
 21
3.510118946
 31
0.0
 11
5.5951415918
 21
3.5168839603
 31
0.0
 11
5.5959942019
 21
3.5203329481
 31
0.0
 11
5.5966896646
 21
3.5238170362
 31
0.0
 11
5.5976031111
 21
3.5308618246
 31
0.0
 11
5.5978718834
 21
3.5379604173
 31
0.0
 11
5.5977630142
 21
3.5415114752
 31
0.0
 11
5.5974915924
 21
3.54505382
 31
0.0
 11
5.5970580189
 21
3.5485799958
 31
0.0
 11
5.5964629666
 21
3.5520825309
 31
0.0
 11
5.5957071958
 21
3.5555539587
 31
0.0
 11
5.5947921335
 21
3.558986853
 31
0.0
 11
5.5937195162
 21
3.5623738059
 31
0.0
 11
5.5924911512
 21
3.5657074256
 31
0.0
 11
5.5911094856
 21
3.5689804674
 31
0.0
 11
5.5895773139
 21
3.5721857661
 31
0.0
 11
5.5878974908
 21
3.5753161799
 31
0.0
 11
5.5860734616
 21
3.578364802
 31
0.0
 11
5.584109023
 21
3.5813248654
 31
0.0
 11
5.582008032
 21
3.5841896341
 31
0.0
 11
5.579774919
 21
3.5869526732
 31
0.0
 11
5.5774144515
 21
3.5896077243
 31
0.0
 11
5.5749314536
 21
3.5921485702
 31
0.0
 11
5.5723312852
 21
3.594569387
 31
0.0
 11
5.5696196201
 21
3.5968645819
 31
0.0
 11
5.566802183
 21
3.599028611
 31
0.0
 11
5.5638851813
 21
3.6010564075
 31
0.0
 11
5.5608751076
 21
3.6029431856
 31
0.0
 11
5.5577784981
 21
3.6046842216
 31
0.0
 11
5.5546022681
 21
3.6062753431
 31
0.0
 11
5.5513535417
 21
3.607712681
 31
0.0
 11
5.5480395041
 21
3.6089924506
 31
0.0
 11
5.5412462737
 21
3.6110669496
 31
0.0
 11
5.5342851178
 21
3.6124767631
 31
0.0
 11
5.5307610521
 21
3.612927292
 31
0.0
 11
5.5272186209
 21
3.6132060232
 31
0.0
 11
5.5201170124
 21
3.6132451617
 31
0.0
  0
SPLINE
  5
23E
100
AcDbEntity
  8
0
100
AcDbSpline
 62
6
  6
CONTINUOUS
 70
0
 71
3
 72
31
 73
27
 74
25
 42
0.0000001
 43
0.0000001
 44
0.0000000001
 12
0.0968422929
 22
-0.0455255084
 32
0.0
 13
0.0547347927
 23
0.0919516398
 33
0.0
 40
0.0
 40
0.0
 40
0.0
 40
0.0
 40
0.0626235354
 40
0.0939513561
 40
0.1252732063
 40
0.1565861188
 40
0.1878918638
 40
0.2191932675
 40
0.2504924987
 40
0.3130648976
 40
0.3756192695
 40
0.4068964662
 40
0.4381692008
 40
0.469437417
 40
0.5007002107
 40
0.531957902
 40
0.5632107663
 40
0.6256817784
 40
0.6881297694
 40
0.7193534102
 40
0.7505717699
 40
0.8129672949
 40
0.8753319948
 40
0.9065181441
 40
0.9377035517
 40
1.0
 40
1.0
 40
1.0
 40
1.0
 10
5.4750435297
 20
3.4720037187
 30
0.0
 10
5.4770650653
 20
3.4710533959
 30
0.0
 10
5.4801589517
 20
3.4697523429
 30
0.0
 10
5.4843790335
 20
3.4682806152
 30
0.0
 10
5.4875883667
 20
3.4673106588
 30
0.0
 10
5.4908350222
 20
3.4664776233
 30
0.0
 10
5.4941134566
 20
3.4657834678
 30
0.0
 10
5.4974181826
 20
3.4652303251
 30
0.0
 10
5.5018506339
 20
3.4646835857
 30
0.0
 10
5.507428495
 20
3.4643606774
 30
0.0
 10
5.5130126367
 20
3.4645289474
 30
0.0
 10
5.5174554299
 20
3.4649603214
 30
0.0
 10
5.5207695634
 20
3.4654328465
 30
0.0
 10
5.5240584545
 20
3.4660543111
 30
0.0
 10
5.5273152695
 20
3.4668241648
 30
0.0
 10
5.5305330136
 20
3.4677420754
 30
0.0
 10
5.5347603695
 20
3.4691617613
 30
0.0
 10
5.5399131944
 20
3.4713010013
 30
0.0
 10
5.5448409984
 20
3.473915638
 30
0.0
 10
5.5486178737
 20
3.4762807911
 30
0.0
 10
5.552274682
 20
3.4788243525
 30
0.0
 10
5.5566064916
 20
3.4823308243
 30
0.0
 10
5.5605705833
 20
3.4862470845
 30
0.0
 10
5.563492777
 20
3.4896045834
 30
0.0
 10
5.5662392144
 20
3.4931036722
 30
0.0
 10
5.5680960262
 20
3.4958826685
 30
0.0
 10
5.5692326206
 20
3.4977920887
 30
0.0
 11
5.4750435297
 21
3.4720037187
 31
0.0
 11
5.4812211117
 21
3.4694066134
 31
0.0
 11
5.4843865725
 21
3.4683028737
 31
0.0
 11
5.4875950206
 21
3.467333358
 31
0.0
 11
5.4908406859
 21
3.4665006834
 31
0.0
 11
5.4941180705
 21
3.4658069253
 31
0.0
 11
5.4974216848
 21
3.4652541412
 31
0.0
 11
5.5007458159
 21
3.4648442229
 31
0.0
 11
5.5074305515
 21
3.4644588979
 31
0.0
 11
5.5141213868
 21
3.4646615271
 31
0.0
 11
5.5174526539
 21
3.4649851803
 31
0.0
 11
5.5207655998
 21
3.4654577102
 31
0.0
 11
5.5240533852
 21
3.4660791015
 31
0.0
 11
5.5273090222
 21
3.4668489098
 31
0.0
 11
5.530525517
 21
3.4677666705
 31
0.0
 11
5.53369581
 21
3.4688315233
 31
0.0
 11
5.5398691244
 21
3.4713965148
 31
0.0
 11
5.5457715556
 21
3.4745297826
 31
0.0
 11
5.5486032153
 21
3.4763033285
 31
0.0
 11
5.5513455919
 21
3.4782110382
 31
0.0
 11
5.5565339449
 21
3.4824136624
 31
0.0
 11
5.561280287
 21
3.4871050648
 31
0.0
 11
5.5634710111
 21
3.489622543
 31
0.0
 11
5.5655312915
 21
3.4922477444
 31
0.0
 11
5.5692326206
 21
3.4977920887
 31
0.0
  0
SPLINE
  5
23F
100
AcDbEntity
  8
0
100
AcDbSpline
 62
6
  6
CONTINUOUS
 70
0
 71
3
 72
12
 73
8
 74
6
 42
0.0000001
 43
0.0000001
 44
0.0000000001
 12
0.0072117975
 22
0.0366809817
 32
0.0
 13
0.0192900471
 23
0.0320218444
 33
0.0
 40
0.0
 40
0.0
 40
0.0
 40
0.0
 40
0.2502644424
 40
0.5003977667
 40
0.6254554551
 40
0.7504454614
 40
1.0
 40
1.0
 40
1.0
 40
1.0
 10
5.4457253201
 20
3.5748110659
 30
0.0
 10
5.4463269389
 20
3.5778710477
 30
0.0
 10
5.4477935546
 20
3.5839407285
 30
0.0
 10
5.4502707689
 20
3.5913409003
 30
0.0
 10
5.4526285452
 20
3.5971125122
 30
0.0
 10
5.4552316865
 20
3.6027692129
 30
0.0
 10
5.4574611634
 20
3.6068787248
 30
0.0
 10
5.459065803
 20
3.609542457
 30
0.0
 11
5.4457253201
 21
3.5748110659
 31
0.0
 11
5.4479228284
 21
3.5839050123
 31
0.0
 11
5.4508917521
 21
3.5927719569
 31
0.0
 11
5.4526599233
 21
3.5970997435
 31
0.0
 11
5.4546136044
 21
3.6013442276
 31
0.0
 11
5.459065803
 21
3.609542457
 31
0.0
  0
ENDSEC
  0
SECTION
  2
OBJECTS
  0
DICTIONARY
  5
C
100
AcDbDictionary
280
0
281
1
  3
ACAD_GROUP
350
D
  3
ACAD_MLINESTYLE
350
17
  3
ACAD_LAYOUT
350
1A
  3
ACAD_PLOTSETTINGS
350
19
  3
ACAD_PLOTSTYLENAME
350
E
  0
DICTIONARY
  5
D
102
{ACAD_REACTORS
330
C
102
}
100
AcDbDictionary
280
0
281
1
  0
ACDBDICTIONARYWDFLT
  5
E
102
{ACAD_REACTORS
330
C
102
}
100
AcDbDictionary
281
1
  3
Normal
350
F
100
AcDbDictionaryWithDefault
340
F
  0
DICTIONARY
  5
17
102
{ACAD_REACTORS
330
C
102
}
100
AcDbDictionary
280
0
281
1
  3
Standard
350
18
  0
DICTIONARY
  5
19
102
{ACAD_REACTORS
330
C
102
}
100
AcDbDictionary
281
1
  0
DICTIONARY
  5
1A
102
{ACAD_REACTORS
330
C
102
}
100
AcDbDictionary
281
1
  3
Model
350
240
  3
Layout1
350
241
  0
ACDBPLACEHOLDER
  5
F
102
{ACAD_REACTORS
330
E
102
}
  0
MLINESTYLE
  5
18
102
{ACAD_REACTORS
330
17
102
}
100
AcDbMlineStyle
  2
STANDARD
 70
0
  3

 62
256
 51
90.0
 52
90.0
 71
2
 49
0.5
 62
256
  6
BYLAYER
 49
-0.5
 62
256
  6
BYLAYER
  0
LAYOUT
  5
240
102
{ACAD_REACTORS
330
1A
102
}
100
AcDbPlotSettings
  1

  2
none_device
  4
ISO_A4_(297.00_x_210.00_MM)
  6

 40
0.0
 41
0.0
 42
0.0
 43
0.0
 44
297.0
 45
210.0
 46
0.0
 47
0.0
 48
0.0
 49
0.0
140
0.0
141
0.0
142
1.0
143
1.0
 70
1024
 72
0
 73
0
 74
0
  7

 75
0
147
1.0
148
0.0
149
0.0
100
AcDbLayout
  1
Model
 70
0
 71
0
 10
0.0
 20
0.0
 11
11.6929133858
 21
8.2677165354
 12
0.0
 22
0.0
 32
0.0
 14
0.0
 24
0.0
 34
0.0
 15
0.0
 25
0.0
 35
0.0
146
0.0
 13
0.0
 23
0.0
 33
0.0
 16
1.0
 26
0.0
 36
0.0
 17
0.0
 27
1.0
 37
0.0
 76
0
330
207
345
0
346
0
  0
LAYOUT
  5
241
102
{ACAD_REACTORS
330
1A
102
}
100
AcDbPlotSettings
  1

  2
none_device
  4
ISO_A4_(297.00_x_210.00_MM)
  6

 40
0.0
 41
0.0
 42
0.0
 43
0.0
 44
297.0
 45
210.0
 46
0.0
 47
0.0
 48
0.0
 49
0.0
140
0.0
141
0.0
142
1.0
143
1.0
 70
0
 72
0
 73
0
 74
0
  7

 75
0
147
1.0
148
0.0
149
0.0
100
AcDbLayout
  1
Layout1
 70
0
 71
1
 10
0.0
 20
0.0
 11
11.6929133858
 21
8.2677165354
 12
0.0
 22
0.0
 32
0.0
 14
0.0
 24
0.0
 34
0.0
 15
0.0
 25
0.0
 35
0.0
146
0.0
 13
0.0
 23
0.0
 33
0.0
 16
1.0
 26
0.0
 36
0.0
 17
0.0
 27
1.0
 37
0.0
 76
0
330
208
345
0
346
0
  0
ENDSEC
  0
EOF
