999
DXF file: 2-470_TOP.dxf
999
Pro/ENGINEER 2009300 by Parametric Technology Corporation
  0
SECTION
  2
HEADER
  9
$ACADVER
  1
AC1015
  9
$DWGCODEPAGE
  3
ANSI_1252
  9
$EXTMAX
 10
11.6929133858
 20
8.2677165354
 30
0.0
  9
$EXTMIN
 10
0.0
 20
0.0
 30
0.0
  9
$LIMMIN
 10
0.0
 20
0.0
  9
$LIMMAX
 10
11.6929133858
 20
8.2677165354
  9
$VIEWCTR
 10
5.8464566929
 20
4.1338582677
  9
$VIEWSIZE
 40
8.2677165354
  9
$CLAYER
  8
0
  9
$LTSCALE
 40
0.6431102362
  9
$CELTYPE
  6
BYLAYER
  9
$DIMSCALE
 40
1.0
  9
$DIMASZ
 40
0.1
  9
$DIMEXO
 40
0.0730807087
  9
$DIMDLI
 40
0.4443307087
  9
$DIMEXE
 40
0.2104724409
  9
$DIMCEN
 40
0.1052362205
  9
$DIMLFAC
 40
1.0
  9
$DIMBLK
  1
_FILLED
  9
$DIMTXT
 40
0.08
  9
$DIMTOL
 70
1
  9
$DIMLIM
 70
0
  9
$DIMTFAC
 40
1.0
  9
$DIMTP
 40
0.01
  9
$DIMTM
 40
0.01
  9
$PDMODE
 70
3
  9
$PDSIZE
 40
0.06
  9
$HANDSEED
  5
236
  9
$TILEMODE
 70
1
  9
$MEASUREMENT
 70
0
  9
$INSUNITS
 70
1
  0
ENDSEC
  0
SECTION
  2
CLASSES
  0
CLASS
  1
ACDBDICTIONARYWDFLT
  2
AcDbDictionaryWithDefault
  3
AutoCAD 2000
 90
0
280
0
281
0
  0
CLASS
  1
ACDBPLACEHOLDER
  2
AcDbPlaceHolder
  3
AutoCAD 2000
 90
0
280
0
281
0
  0
CLASS
  1
LAYOUT
  2
AcDbLayout
  3
AutoCAD 2000
 90
0
280
0
281
0
  0
ENDSEC
  0
SECTION
  2
TABLES
  0
TABLE
  2
VPORT
  5
8
100
AcDbSymbolTable
 70
2
  0
VPORT
  5
1F4
100
AcDbSymbolTableRecord
100
AcDbViewportTableRecord
  2
*ACTIVE
 70
0
 10
0.0
 20
0.0
 11
1.0
 21
1.0
 12
5.8464566929
 22
4.1338582677
 13
0.0
 23
0.0
 14
1.0
 24
1.0
 15
0.0
 25
0.0
 16
0.0
 26
0.0
 36
1.0
 17
0.0
 27
0.0
 37
0.0
 40
8.2677165354
 41
1.4142857143
 42
50.0
 43
0.0
 44
0.0
 50
0.0
 51
0.0
 71
0
 72
100
 73
1
 74
1
 75
0
 76
0
 77
0
 78
0
  0
ENDTAB
  0
TABLE
  2
LTYPE
  5
5
100
AcDbSymbolTable
 70
6
  0
LTYPE
  5
14
100
AcDbSymbolTableRecord
100
AcDbLinetypeTableRecord
  2
BYBLOCK
 70
0
  3

 72
65
 73
0
 40
0.0
  0
LTYPE
  5
15
100
AcDbSymbolTableRecord
100
AcDbLinetypeTableRecord
  2
BYLAYER
 70
0
  3

 72
65
 73
0
 40
0.0
  0
LTYPE
  5
16
100
AcDbSymbolTableRecord
100
AcDbLinetypeTableRecord
  2
CONTINUOUS
 70
64
  3
Solid line
 72
65
 73
0
 40
0.0
  0
LTYPE
  5
1F5
100
AcDbSymbolTableRecord
100
AcDbLinetypeTableRecord
  2
CENTER
 70
64
  3
____ _ ____ _ ____ _ ____ _ ____ _ ____ _ ____
 72
65
 73
4
 40
0.6
 49
0.375
 74
0
 49
-0.075
 74
0
 49
0.075
 74
0
 49
-0.075
 74
0
  0
LTYPE
  5
1F6
100
AcDbSymbolTableRecord
100
AcDbLinetypeTableRecord
  2
HIDDEN
 70
64
  3
- - - - - - - - - - - - - - - - - - - -
 72
65
 73
2
 40
0.2
 49
0.1
 74
0
 49
-0.1
 74
0
  0
LTYPE
  5
1F7
100
AcDbSymbolTableRecord
100
AcDbLinetypeTableRecord
  2
PHANTOM
 70
64
  3
_____ _ _ _____ _ _ _____ _ _ _____
 72
65
 73
6
 40
0.8
 49
0.45
 74
0
 49
-0.05
 74
0
 49
0.1
 74
0
 49
-0.05
 74
0
 49
0.1
 74
0
 49
-0.05
 74
0
  0
LTYPE
  5
1F8
100
AcDbSymbolTableRecord
100
AcDbLinetypeTableRecord
  2
DOT
 70
64
  3
. . . . . . . . . . . . . . . . . . . .
 72
65
 73
2
 40
0.2
 49
0.1
 74
0
 49
-0.1
 74
0
  0
LTYPE
  5
1F9
100
AcDbSymbolTableRecord
100
AcDbLinetypeTableRecord
  2
DASHED
 70
64
  3
- - - - - - - - - - - - - - - - - - - -
 72
65
 73
2
 40
0.2
 49
0.1
 74
0
 49
-0.1
 74
0
  0
ENDTAB
  0
TABLE
  2
LAYER
  5
2
100
AcDbSymbolTable
 70
36
  0
LAYER
  5
10
100
AcDbSymbolTableRecord
100
AcDbLayerTableRecord
  2
0
 70
0
 62
7
  6
CONTINUOUS
370
-3
390
F
  0
LAYER
  5
1FA
100
AcDbSymbolTableRecord
100
AcDbLayerTableRecord
  2
DEFAULT_1
 70
0
 62
7
  6
CENTER
370
-3
390
F
  0
LAYER
  5
1FB
100
AcDbSymbolTableRecord
100
AcDbLayerTableRecord
  2
DEFAULT_2
 70
0
 62
8
  6
HIDDEN
370
-3
390
F
  0
LAYER
  5
1FC
100
AcDbSymbolTableRecord
100
AcDbLayerTableRecord
  2
DEFAULT_3
 70
0
 62
7
  6
PHANTOM
370
-3
390
F
  0
LAYER
  5
1FD
100
AcDbSymbolTableRecord
100
AcDbLayerTableRecord
  2
01___PRT_ALL_DTM_PLN
 70
0
 62
7
  6
CONTINUOUS
370
-3
390
F
  0
LAYER
  5
1FE
100
AcDbSymbolTableRecord
100
AcDbLayerTableRecord
  2
01___PRT_DEF_DTM_PLN
 70
0
 62
7
  6
CONTINUOUS
370
-3
390
F
  0
LAYER
  5
1FF
100
AcDbSymbolTableRecord
100
AcDbLayerTableRecord
  2
02___PRT_ALL_AXES
 70
0
 62
7
  6
CONTINUOUS
370
-3
390
F
  0
LAYER
  5
200
100
AcDbSymbolTableRecord
100
AcDbLayerTableRecord
  2
03___PRT_ALL_CURVES
 70
0
 62
7
  6
CONTINUOUS
370
-3
390
F
  0
LAYER
  5
201
100
AcDbSymbolTableRecord
100
AcDbLayerTableRecord
  2
04___PRT_ALL_DTM_PNT
 70
0
 62
7
  6
CONTINUOUS
370
-3
390
F
  0
LAYER
  5
202
100
AcDbSymbolTableRecord
100
AcDbLayerTableRecord
  2
05___PRT_ALL_DTM_CSYS
 70
0
 62
7
  6
CONTINUOUS
370
-3
390
F
  0
LAYER
  5
203
100
AcDbSymbolTableRecord
100
AcDbLayerTableRecord
  2
05___PRT_DEF_DTM_CSYS
 70
0
 62
7
  6
CONTINUOUS
370
-3
390
F
  0
LAYER
  5
204
100
AcDbSymbolTableRecord
100
AcDbLayerTableRecord
  2
06___PRT_ALL_SURFS
 70
0
 62
7
  6
CONTINUOUS
370
-3
390
F
  0
ENDTAB
  0
TABLE
  2
STYLE
  5
3
100
AcDbSymbolTable
 70
1
  0
STYLE
  5
11
100
AcDbSymbolTableRecord
100
AcDbTextStyleTableRecord
  2
STANDARD
 70
0
 40
0.0
 41
0.8
 50
0.0
 71
0
 42
0.2
  3
txt
  4

  0
STYLE
  5
205
100
AcDbSymbolTableRecord
100
AcDbTextStyleTableRecord
  2
TEXTSTYLE_1
 70
0
 40
0.0
 41
0.8
 50
0.0
 71
0
 42
0.2
  3
gdt
  4

  0
ENDTAB
  0
TABLE
  2
VIEW
  5
6
100
AcDbSymbolTable
 70
0
  0
ENDTAB
  0
TABLE
  2
UCS
  5
7
100
AcDbSymbolTable
 70
0
  0
ENDTAB
  0
TABLE
  2
APPID
  5
9
100
AcDbSymbolTable
 70
1
  0
APPID
  5
206
100
AcDbSymbolTableRecord
100
AcDbRegAppTableRecord
  2
ACAD
 70
0
  0
ENDTAB
  0
TABLE
  2
BLOCK_RECORD
  5
1
100
AcDbSymbolTable
 70
0
  0
BLOCK_RECORD
  5
207
100
AcDbSymbolTableRecord
100
AcDbBlockTableRecord
  2
*Model_Space
  0
BLOCK_RECORD
  5
208
100
AcDbSymbolTableRecord
100
AcDbBlockTableRecord
  2
*Paper_Space
  0
ENDTAB
  0
TABLE
  2
DIMSTYLE
  5
A
100
AcDbSymbolTable
 70
1
100
AcDbDimStyleTable
 71
0
  0
DIMSTYLE
105
209
100
AcDbSymbolTableRecord
100
AcDbDimStyleTableRecord
  2
STANDARD
 70
0
  3

  4

 40
1.0
 41
0.1
 42
0.0625
 43
0.38
 44
0.18
 45
0.0
 46
0.0
 47
0.01
 48
0.01
140
0.08
141
0.09
142
0.0
143
25.4
144
1.0
145
0.0
146
1.0
147
0.09
 71
1.0
 72
0.0
 73
1
 74
1
 75
0
 76
0
 77
0
 78
4
170
0
171
2
172
0
173
0
174
0
175
0
176
0
177
0
178
0
270
2
271
2
272
2
273
2
274
2
275
0
280
0
281
0
282
0
283
1
284
4
285
0
286
0
287
3
288
0
340
11
  0
ENDTAB
  0
ENDSEC
  0
SECTION
  2
BLOCKS
  0
BLOCK
  5
20
100
AcDbEntity
  8
0
100
AcDbBlockBegin
  2
*Model_Space
 70
0
 10
0.0
 20
0.0
 30
0.0
  3
*Model_Space
  1

  0
ENDBLK
  5
21
100
AcDbEntity
  8
0
100
AcDbBlockEnd
  0
BLOCK
  5
1C
100
AcDbEntity
  8
0
100
AcDbBlockBegin
  2
*Paper_Space
 70
0
 10
0.0
 20
0.0
 30
0.0
  3
*Paper_Space
  1

  0
ENDBLK
  5
1D
100
AcDbEntity
  8
0
100
AcDbBlockEnd
  0
ENDSEC
  0
SECTION
  2
ENTITIES
  0
LINE
  5
20A
100
AcDbEntity
  8
0
100
AcDbLine
 62
9
  6
CONTINUOUS
 10
4.0742326285
 20
4.1485085507
 11
4.0742326285
 21
4.5385085507
  0
LINE
  5
20B
100
AcDbEntity
  8
0
100
AcDbLine
 62
9
  6
CONTINUOUS
 10
4.5402326285
 20
4.1282289349
 11
4.5402326285
 21
4.5587881665
  0
LINE
  5
20C
100
AcDbEntity
  8
0
100
AcDbLine
 62
9
  6
CONTINUOUS
 10
4.5496622996
 20
4.1182394311
 11
4.5496622996
 21
4.5687776703
  0
LINE
  5
20D
100
AcDbEntity
  8
0
100
AcDbLine
 62
9
  6
CONTINUOUS
 10
4.6857752463
 20
4.0316174356
 11
4.6857752463
 21
4.6553996658
  0
LINE
  5
20E
100
AcDbEntity
  8
0
100
AcDbLine
 62
9
  6
CONTINUOUS
 10
4.8042326285
 20
4.0615162372
 11
4.8042326285
 21
4.6255008642
  0
LINE
  5
20F
100
AcDbEntity
  8
0
100
AcDbLine
 62
6
  6
CONTINUOUS
 10
4.8042326285
 20
4.0810085507
 11
4.9692326324
 21
4.0810085507
  0
LINE
  5
210
100
AcDbEntity
  8
0
100
AcDbLine
 62
6
  6
CONTINUOUS
 10
4.5402326285
 20
4.1485085507
 11
3.6242326285
 21
4.1485085507
  0
LINE
  5
211
100
AcDbEntity
  8
0
100
AcDbLine
 62
6
  6
CONTINUOUS
 10
7.7442326285
 20
4.1354333677
 11
4.9692326285
 21
4.1578930206
  0
LINE
  5
212
100
AcDbEntity
  8
0
100
AcDbLine
 62
6
  6
CONTINUOUS
 10
4.9692326285
 20
4.0810085507
 11
7.8476379037
 21
3.9184043293
  0
LINE
  5
213
100
AcDbEntity
  8
0
100
AcDbLine
 62
6
  6
CONTINUOUS
 10
7.7442326285
 20
3.9586566724
 11
4.9692326285
 21
4.1578930206
  0
LINE
  5
214
100
AcDbEntity
  8
0
100
AcDbLine
 62
6
  6
CONTINUOUS
 10
7.7442326285
 20
4.2185085507
 11
4.9692326285
 21
4.3435085507
  0
LINE
  5
215
100
AcDbEntity
  8
0
100
AcDbLine
 62
6
  6
CONTINUOUS
 10
7.7442326285
 20
4.4685085507
 11
4.9692326285
 21
4.3435085507
  0
LINE
  5
216
100
AcDbEntity
  8
0
100
AcDbLine
 62
6
  6
CONTINUOUS
 10
7.7442326285
 20
4.728360429
 11
4.9692326285
 21
4.5291240808
  0
LINE
  5
217
100
AcDbEntity
  8
0
100
AcDbLine
 62
6
  6
CONTINUOUS
 10
7.8476379037
 20
4.7686127721
 11
4.9692326285
 21
4.6060085507
  0
LINE
  5
218
100
AcDbEntity
  8
0
100
AcDbLine
 62
6
  6
CONTINUOUS
 10
7.7442326285
 20
4.5515837337
 11
4.9692326285
 21
4.5291240808
  0
LINE
  5
219
100
AcDbEntity
  8
0
100
AcDbLine
 62
6
  6
CONTINUOUS
 10
4.5402326285
 20
4.5385085507
 11
3.6242326285
 21
4.5385085507
  0
LINE
  5
21A
100
AcDbEntity
  8
0
100
AcDbLine
 62
6
  6
CONTINUOUS
 10
4.8042326285
 20
4.6060085507
 11
4.9692326324
 21
4.6060085507
  0
ARC
  5
21B
100
AcDbEntity
  8
0
100
AcDbCircle
 62
6
  6
CONTINUOUS
 10
7.7442326285
 20
4.3435085507
 40
0.4375
100
AcDbArc
 50
283.6715038208
 51
76.3284961792
  0
ARC
  5
21C
100
AcDbEntity
  8
0
100
AcDbCircle
 62
6
  6
CONTINUOUS
 10
3.6242326285
 20
4.3435085507
 40
0.3525
100
AcDbArc
 50
33.6886998261
 51
326.3113001739
  0
ARC
  5
21D
100
AcDbEntity
  8
0
100
AcDbCircle
 62
6
  6
CONTINUOUS
 10
3.6242326285
 20
4.3435085507
 40
0.35
100
AcDbArc
 50
33.869079547
 51
326.130920453
  0
ARC
  5
21E
100
AcDbEntity
  8
0
100
AcDbCircle
 62
9
  6
CONTINUOUS
 10
3.6242326285
 20
4.3435085507
 40
0.3152411111
100
AcDbArc
 50
38.3897086139
 51
321.6102913861
  0
ARC
  5
21F
100
AcDbEntity
  8
0
100
AcDbCircle
 62
6
  6
CONTINUOUS
 10
3.6242326285
 20
4.3435085507
 40
0.3125
100
AcDbArc
 50
38.6195565962
 51
321.3804434038
  0
ARC
  5
220
100
AcDbEntity
  8
0
100
AcDbCircle
 62
9
  6
CONTINUOUS
 10
3.6242326285
 20
4.3435085507
 40
0.2525
100
AcDbArc
 50
50.8962611038
 51
309.1037388962
  0
ARC
  5
221
100
AcDbEntity
  8
0
100
AcDbCircle
 62
9
  6
CONTINUOUS
 10
3.6242326285
 20
4.3435085507
 40
0.195
100
AcDbArc
 50
90.0
 51
270.0
  0
ARC
  5
222
100
AcDbEntity
  8
0
100
AcDbCircle
 62
6
  6
CONTINUOUS
 10
4.5402326285
 20
4.7338460507
 40
0.1653375
100
AcDbArc
 50
273.269516506
 51
331.6756638894
  0
ARC
  5
223
100
AcDbEntity
  8
0
100
AcDbCircle
 62
6
  6
CONTINUOUS
 10
4.5402326285
 20
3.9531710507
 40
0.1653375
100
AcDbArc
 50
28.3243361106
 51
86.730483494
  0
ARC
  5
224
100
AcDbEntity
  8
0
100
AcDbCircle
 62
6
  6
CONTINUOUS
 10
4.7412326285
 20
4.6255085507
 40
0.063
100
AcDbArc
 50
0.0
 51
151.6756638894
  0
ARC
  5
225
100
AcDbEntity
  8
0
100
AcDbCircle
 62
6
  6
CONTINUOUS
 10
4.7412326285
 20
4.0615085507
 40
0.063
100
AcDbArc
 50
208.3243361106
 51
360.0
  0
ARC
  5
226
100
AcDbEntity
  8
0
100
AcDbCircle
 62
6
  6
CONTINUOUS
 10
4.5502326285
 20
4.5587939473
 40
0.01
100
AcDbArc
 50
93.2695179893
 51
180.000023165
  0
ARC
  5
227
100
AcDbEntity
  8
0
100
AcDbCircle
 62
6
  6
CONTINUOUS
 10
4.5502326285
 20
4.1282231541
 40
0.01
100
AcDbArc
 50
179.999976835
 51
266.7304820107
  0
SPLINE
  5
228
100
AcDbEntity
  8
0
100
AcDbSpline
 62
6
  6
CONTINUOUS
 70
0
 71
3
 72
44
 73
40
 74
38
 42
0.0000001
 43
0.0000001
 44
0.0000000001
 12
0.0000000005
 22
-0.185618481
 32
0.0
 13
0.0000002853
 23
-0.185618481
 33
0.0
 40
0.0
 40
0.0
 40
0.0
 40
0.0
 40
0.0693526954
 40
0.1039960561
 40
0.1385844933
 40
0.1730931537
 40
0.1903098228
 40
0.2074972808
 40
0.2246524869
 40
0.2417727026
 40
0.2758985704
 40
0.3098556851
 40
0.3436246535
 40
0.3771859446
 40
0.4105199543
 40
0.4270955993
 40
0.4436070733
 40
0.4764276852
 40
0.5089621074
 40
0.5411906491
 40
0.5730936235
 40
0.6046513489
 40
0.6358441485
 40
0.666652567
 40
0.6970586678
 40
0.7270451248
 40
0.7565946101
 40
0.7856898729
 40
0.8000618271
 40
0.8143138381
 40
0.8284438119
 40
0.8424496666
 40
0.8563292108
 40
0.8700801532
 40
0.8971869186
 40
0.9237511582
 40
0.9497539173
 40
0.9751763505
 40
1.0
 40
1.0
 40
1.0
 40
1.0
 10
4.9692326319
 20
4.3435085507
 30
0.0
 10
4.9692326319
 20
4.3392175034
 30
0.0
 10
4.9692637852
 20
4.3327829792
 30
0.0
 10
4.96933241
 20
4.3242086473
 30
0.0
 10
4.9693885682
 20
4.317790176
 30
0.0
 10
4.9694319775
 20
4.3124498743
 30
0.0
 10
4.969460219
 20
4.3081861377
 30
0.0
 10
4.9694770765
 20
4.3049960594
 30
0.0
 10
4.9694883692
 20
4.3018119236
 30
0.0
 10
4.9694954637
 20
4.2975797464
 30
0.0
 10
4.9694914818
 20
4.292307977
 30
0.0
 10
4.9694710548
 20
4.2860061378
 30
0.0
 10
4.9694401366
 20
4.2797392761
 30
0.0
 10
4.9694038302
 20
4.2735109989
 30
0.0
 10
4.9693733036
 20
4.2683465057
 30
0.0
 10
4.9693512963
 20
4.2642369014
 30
0.0
 10
4.9693319163
 20
4.2601590496
 30
0.0
 10
4.969313157
 20
4.2550937702
 30
0.0
 10
4.9692993256
 20
4.2490560123
 30
0.0
 10
4.9692943685
 20
4.2430750173
 30
0.0
 10
4.9692983667
 20
4.2371544524
 30
0.0
 10
4.9693114601
 20
4.2312979851
 30
0.0
 10
4.9693336228
 20
4.2255092683
 30
0.0
 10
4.9693654238
 20
4.2197918526
 30
0.0
 10
4.9694024864
 20
4.214149112
 30
0.0
 10
4.969439362
 20
4.2085842656
 30
0.0
 10
4.9694708742
 20
4.2031004917
 30
0.0
 10
4.9694883641
 20
4.1985827707
 30
0.0
 10
4.9694943398
 20
4.1950115224
 30
0.0
 10
4.9694941664
 20
4.1923662138
 30
0.0
 10
4.9694887538
 20
4.1897435618
 30
0.0
 10
4.9694772604
 20
4.1871439749
 30
0.0
 10
4.96946028
 20
4.1845678711
 30
0.0
 10
4.9694320823
 20
4.1811812386
 30
0.0
 10
4.9693889345
 20
4.1770098723
 30
0.0
 10
4.9693328128
 20
4.1720805515
 30
0.0
 10
4.969281358
 20
4.167255397
 30
0.0
 10
4.9692433278
 20
4.1625378112
 30
0.0
 10
4.9692326299
 20
4.1594289414
 30
0.0
 10
4.9692326323
 20
4.1578930321
 30
0.0
 11
4.9692326319
 21
4.3435085507
 31
0.0
 11
4.9692832302
 21
4.3306355082
 31
0.0
 11
4.9693332372
 21
4.3242052546
 31
0.0
 11
4.9693879464
 21
4.3177852345
 31
0.0
 11
4.9694385305
 21
4.3113799891
 31
0.0
 11
4.9694595171
 21
4.3081843261
 31
0.0
 11
4.9694761622
 21
4.3049940597
 31
0.0
 11
4.9694873833
 21
4.3018097561
 31
0.0
 11
4.9694928394
 21
4.2986319324
 31
0.0
 11
4.9694888428
 21
4.2922975419
 31
0.0
 11
4.9694692345
 21
4.2859945044
 31
0.0
 11
4.9694391347
 21
4.279726432
 31
0.0
 11
4.9694036633
 21
4.2734969371
 31
0.0
 11
4.9693679404
 21
4.267309632
 31
0.0
 11
4.9693515846
 21
4.2642329294
 31
0.0
 11
4.9693370706
 21
4.2611681291
 31
0.0
 11
4.9693145321
 21
4.2550760586
 31
0.0
 11
4.9693007607
 21
4.2490370843
 31
0.0
 11
4.9692958591
 21
4.2430548734
 31
0.0
 11
4.9692999296
 21
4.2371330931
 31
0.0
 11
4.9693130747
 21
4.2312754108
 31
0.0
 11
4.969335397
 21
4.2254854938
 31
0.0
 11
4.9693665274
 21
4.2197669666
 31
0.0
 11
4.9694027122
 21
4.2141231484
 31
0.0
 11
4.9694387188
 21
4.2085572243
 31
0.0
 11
4.9694693084
 21
4.203072379
 31
0.0
 11
4.9694892421
 21
4.1976717973
 31
0.0
 11
4.9694935759
 21
4.1950041005
 31
0.0
 11
4.9694932811
 21
4.1923586639
 31
0.0
 11
4.9694877029
 21
4.1897358855
 31
0.0
 11
4.9694762813
 21
4.1871361651
 31
0.0
 11
4.9694594793
 21
4.18455992
 31
0.0
 11
4.9694383849
 21
4.1820075782
 31
0.0
 11
4.9693877053
 21
4.1769763168
 31
0.0
 11
4.9693330163
 21
4.1720458063
 31
0.0
 11
4.969283092
 21
4.1672194718
 31
0.0
 11
4.969246706
 21
4.1625007387
 31
0.0
 11
4.9692326323
 21
4.1578930321
 31
0.0
  0
SPLINE
  5
229
100
AcDbEntity
  8
0
100
AcDbSpline
 62
6
  6
CONTINUOUS
 70
0
 71
3
 72
71
 73
67
 74
65
 42
0.0000001
 43
0.0000001
 44
0.0000000001
 12
0.0000001189
 22
-0.0769011214
 32
0.0
 13
0.076777846
 23
-0.0043525227
 33
0.0
 40
0.0
 40
0.0
 40
0.0
 40
0.0
 40
0.0584617718
 40
0.1154609651
 40
0.1709586447
 40
0.224914779
 40
0.2772888501
 40
0.3028699963
 40
0.3280405795
 40
0.3527957404
 40
0.3771313894
 40
0.401044545
 40
0.424532271
 40
0.4702193875
 40
0.5141682492
 40
0.5563537048
 40
0.5967502127
 40
0.6353321335
 40
0.6720757279
 40
0.7069610589
 40
0.7399687069
 40
0.7710793115
 40
0.8002735885
 40
0.8275323529
 40
0.8404299974
 40
0.852837135
 40
0.8761736699
 40
0.8975292197
 40
0.9168907314
 40
0.9342454874
 40
0.9421667387
 40
0.9495822774
 40
0.9564912236
 40
0.9628931257
 40
0.9687881221
 40
0.9741763343
 40
0.9790575869
 40
0.9834314056
 40
0.9872970185
 40
0.9890389356
 40
0.9906533768
 40
0.9921401624
 40
0.9934990945
 40
0.9947299571
 40
0.9958325158
 40
0.9968065182
 40
0.997651694
 40
0.998025883
 40
0.9983677558
 40
0.9986772735
 40
0.9989543961
 40
0.9991990828
 40
0.9994112911
 40
0.9995909781
 40
0.9997380992
 40
0.9997994334
 40
0.999852609
 40
0.9998976202
 40
0.999934461
 40
0.9999631255
 40
0.9999743897
 40
0.9999836076
 40
0.9999907783
 40
0.9999959012
 40
0.9999989753
 40
1.0
 40
1.0
 40
1.0
 40
1.0
 10
4.9692326323
 20
4.1578930321
 30
0.0
 10
4.9692326346
 20
4.1563944401
 30
0.0
 10
4.9692426351
 20
4.1534347425
 30
0.0
 10
4.9692801875
 20
4.1490525879
 30
0.0
 10
4.9693313687
 20
4.1447860827
 30
0.0
 10
4.9693874366
 20
4.1406382138
 30
0.0
 10
4.9694313085
 20
4.1372571194
 30
0.0
 10
4.9694599671
 20
4.1346137768
 30
0.0
 10
4.9694770466
 20
4.1326783289
 30
0.0
 10
4.969488678
 20
4.1307747667
 30
0.0
 10
4.9694942361
 20
4.1289034099
 30
0.0
 10
4.9694945485
 20
4.1270645345
 30
0.0
 10
4.969488835
 20
4.1246783487
 30
0.0
 10
4.969472016
 20
4.1217786087
 30
0.0
 10
4.9694408745
 20
4.1183996763
 30
0.0
 10
4.9694041932
 20
4.1151564287
 30
0.0
 10
4.9693671038
 20
4.112050771
 30
0.0
 10
4.9693350291
 20
4.1090845577
 30
0.0
 10
4.969312318
 20
4.1062595324
 30
0.0
 10
4.9692985461
 20
4.1035773404
 30
0.0
 10
4.9692938056
 20
4.1010395109
 30
0.0
 10
4.9692980512
 20
4.0986475625
 30
0.0
 10
4.9693112934
 20
4.096403014
 30
0.0
 10
4.9693300844
 20
4.0946253895
 30
0.0
 10
4.9693499888
 20
4.0932781364
 30
0.0
 10
4.9693716717
 20
4.0920314664
 30
0.0
 10
4.9694016154
 20
4.0905681055
 30
0.0
 10
4.9694382942
 20
4.088926584
 30
0.0
 10
4.96946978
 20
4.0874383214
 30
0.0
 10
4.9694880258
 20
4.0862942265
 30
0.0
 10
4.969494253
 20
4.0854562381
 30
0.0
 10
4.9694941848
 20
4.0848859908
 30
0.0
 10
4.9694889635
 20
4.0843547108
 30
0.0
 10
4.9694777385
 20
4.0838625059
 30
0.0
 10
4.9694610207
 20
4.0834094645
 30
0.0
 10
4.9694400297
 20
4.0829956284
 30
0.0
 10
4.9694158343
 20
4.0826210352
 30
0.0
 10
4.9693895382
 20
4.0822857227
 30
0.0
 10
4.9693660398
 20
4.0820309362
 30
0.0
 10
4.9693470833
 20
4.0818467822
 30
0.0
 10
4.9693335268
 20
4.0817233758
 30
0.0
 10
4.9693202679
 20
4.0816098159
 30
0.0
 10
4.9693074436
 20
4.0815061072
 30
0.0
 10
4.969295191
 20
4.0814122542
 30
0.0
 10
4.9692836474
 20
4.0813282615
 30
0.0
 10
4.9692729498
 20
4.0812541339
 30
0.0
 10
4.9692645455
 20
4.081198541
 30
0.0
 10
4.9692583564
 20
4.0811590021
 30
0.0
 10
4.9692542036
 20
4.0811330427
 30
0.0
 10
4.9692503652
 20
4.081109553
 30
0.0
 10
4.9692468582
 20
4.0810885335
 30
0.0
 10
4.9692436999
 20
4.0810699848
 30
0.0
 10
4.9692409074
 20
4.0810539076
 30
0.0
 10
4.9692384978
 20
4.0810403023
 30
0.0
 10
4.9692367305
 20
4.081030511
 30
0.0
 10
4.9692355218
 20
4.0810239142
 30
0.0
 10
4.9692347785
 20
4.0810198933
 30
0.0
 10
4.9692341432
 20
4.0810164905
 30
0.0
 10
4.96923362
 20
4.0810137072
 30
0.0
 10
4.9692332505
 20
4.0810117722
 30
0.0
 10
4.9692330172
 20
4.0810105375
 30
0.0
 10
4.9692328764
 20
4.0810098358
 30
0.0
 10
4.9692327904
 20
4.0810093087
 30
0.0
 10
4.9692326738
 20
4.0810088894
 30
0.0
 10
4.969232702
 20
4.0810087145
 30
0.0
 10
4.9692326061
 20
4.0810085522
 30
0.0
 10
4.9692326323
 20
4.0810085507
 30
0.0
 11
4.9692326323
 21
4.1578930321
 31
0.0
 11
4.9692467
 21
4.1533972783
 31
0.0
 11
4.9692830537
 21
4.1490141271
 31
0.0
 11
4.9693329397
 21
4.1447465849
 31
0.0
 11
4.9693876047
 21
4.1405976578
 31
0.0
 11
4.9694382952
 21
4.136570352
 31
0.0
 11
4.9694594145
 21
4.1346032465
 31
0.0
 11
4.9694762577
 21
4.1326676737
 31
0.0
 11
4.9694877389
 21
4.1307640087
 31
0.0
 11
4.9694933872
 21
4.1288925785
 31
0.0
 11
4.9694937573
 21
4.1270536301
 31
0.0
 11
4.9694895013
 21
4.1252474026
 31
0.0
 11
4.9694697185
 21
4.1217340678
 31
0.0
 11
4.9694392546
 21
4.1183544884
 31
0.0
 11
4.9694033253
 21
4.1151105785
 31
0.0
 11
4.9693671463
 21
4.1120042524
 31
0.0
 11
4.9693359247
 21
4.1090374237
 31
0.0
 11
4.9693133384
 21
4.1062118904
 31
0.0
 11
4.9692997999
 21
4.1035292035
 31
0.0
 11
4.9692953015
 21
4.1009908823
 31
0.0
 11
4.9692998353
 21
4.0985984462
 31
0.0
 11
4.9693133937
 21
4.0963534145
 31
0.0
 11
4.9693359688
 21
4.0942573066
 31
0.0
 11
4.9693506156
 21
4.0932655714
 31
0.0
 11
4.9693671384
 21
4.0923115917
 31
0.0
 11
4.9694032417
 21
4.0905173492
 31
0.0
 11
4.9694390951
 21
4.0888754748
 31
0.0
 11
4.9694695057
 21
4.0873868635
 31
0.0
 11
4.9694892809
 21
4.0860524098
 31
0.0
 11
4.9694935575
 21
4.0854432717
 31
0.0
 11
4.969493228
 21
4.0848730085
 31
0.0
 11
4.9694876432
 21
4.0843417322
 31
0.0
 11
4.9694762396
 21
4.0838495508
 31
0.0
 11
4.9694594535
 21
4.0833965299
 31
0.0
 11
4.9694383713
 21
4.082982707
 31
0.0
 11
4.9694140901
 21
4.0826081193
 31
0.0
 11
4.9693877069
 21
4.0822728041
 31
0.0
 11
4.969360319
 21
4.0819767985
 31
0.0
 11
4.9693465912
 21
4.0818435484
 31
0.0
 11
4.9693330235
 21
4.0817201396
 31
0.0
 11
4.9693197533
 21
4.0816065768
 31
0.0
 11
4.9693069177
 21
4.0815028647
 31
0.0
 11
4.9692946537
 21
4.0814090078
 31
0.0
 11
4.9692830985
 21
4.0813250109
 31
0.0
 11
4.9692723893
 21
4.0812508786
 31
0.0
 11
4.9692626632
 21
4.0811866155
 31
0.0
 11
4.9692582117
 21
4.0811581863
 31
0.0
 11
4.9692540574
 21
4.0811322262
 31
0.0
 11
4.9692502175
 21
4.0811087357
 31
0.0
 11
4.969246709
 21
4.0810877155
 31
0.0
 11
4.9692435492
 21
4.081069166
 31
0.0
 11
4.9692407551
 21
4.0810530879
 31
0.0
 11
4.969238344
 21
4.0810394818
 31
0.0
 11
4.969236333
 21
4.0810283482
 31
0.0
 11
4.9692354828
 21
4.0810237087
 31
0.0
 11
4.9692347391
 21
4.0810196877
 31
0.0
 11
4.969234104
 21
4.081016285
 31
0.0
 11
4.9692335796
 21
4.0810135009
 31
0.0
 11
4.9692331681
 21
4.0810113353
 31
0.0
 11
4.9692330054
 21
4.0810104845
 31
0.0
 11
4.9692328716
 21
4.0810097884
 31
0.0
 11
4.9692327672
 21
4.0810092469
 31
0.0
 11
4.9692326923
 21
4.0810088601
 31
0.0
 11
4.9692326473
 21
4.0810086281
 31
0.0
 11
4.9692326323
 21
4.0810085507
 31
0.0
  0
SPLINE
  5
22A
100
AcDbEntity
  8
0
100
AcDbSpline
 62
6
  6
CONTINUOUS
 70
0
 71
3
 72
44
 73
40
 74
38
 42
0.0000001
 43
0.0000001
 44
0.0000000001
 12
0.0000000016
 22
-0.1856185022
 32
0.0
 13
-0.0000000005
 23
-0.1856185022
 33
0.0
 40
0.0
 40
0.0
 40
0.0
 40
0.0
 40
0.0248237111
 40
0.0502463071
 40
0.0762493046
 40
0.1028138345
 40
0.1299209175
 40
0.1436720205
 40
0.1575517216
 40
0.1715577246
 40
0.1856878279
 40
0.1999399477
 40
0.2143119915
 40
0.2434073799
 40
0.2729569229
 40
0.3029433713
 40
0.333349397
 40
0.3641576747
 40
0.3953503135
 40
0.4269078797
 40
0.4588106922
 40
0.4910390634
 40
0.5235732997
 40
0.5563937017
 40
0.5729050588
 40
0.5894805789
 40
0.6228143256
 40
0.6563753556
 40
0.6901440891
 40
0.7241010197
 40
0.7582267789
 40
0.7753469767
 40
0.792502191
 40
0.8096896745
 40
0.8269063821
 40
0.8614151464
 40
0.8960037041
 40
0.9306471797
 40
1.0
 40
1.0
 40
1.0
 40
1.0
 10
4.9692326322
 20
4.5291240808
 30
0.0
 10
4.9692326322
 20
4.5275881674
 30
0.0
 10
4.9692433072
 20
4.5244792834
 30
0.0
 10
4.9692812636
 20
4.5197616679
 30
0.0
 10
4.9693326449
 20
4.5149364692
 30
0.0
 10
4.9693887339
 20
4.5100070952
 30
0.0
 10
4.9694319209
 20
4.5058356812
 30
0.0
 10
4.9694602112
 20
4.5024490098
 30
0.0
 10
4.969477292
 20
4.4998728776
 30
0.0
 10
4.9694889439
 20
4.4972732643
 30
0.0
 10
4.9694944674
 20
4.4946505882
 30
0.0
 10
4.969494698
 20
4.492005259
 30
0.0
 10
4.969488739
 20
4.4884339902
 30
0.0
 10
4.9694711702
 20
4.483916252
 30
0.0
 10
4.9694394542
 20
4.4784324678
 30
0.0
 10
4.9694023101
 20
4.4728676242
 30
0.0
 10
4.9693649701
 20
4.4672248987
 30
0.0
 10
4.9693328982
 20
4.4615075071
 30
0.0
 10
4.9693106527
 20
4.4557188183
 30
0.0
 10
4.9692976474
 20
4.4498623799
 30
0.0
 10
4.9692938458
 20
4.4439418446
 30
0.0
 10
4.9692990584
 20
4.4379608812
 30
0.0
 10
4.9693131499
 20
4.4319231583
 30
0.0
 10
4.9693320875
 20
4.4268579107
 30
0.0
 10
4.9693515576
 20
4.4227800868
 30
0.0
 10
4.9693736352
 20
4.4186705137
 30
0.0
 10
4.9694042125
 20
4.4135060603
 30
0.0
 10
4.9694405265
 20
4.4072778294
 30
0.0
 10
4.9694714045
 20
4.4010110089
 30
0.0
 10
4.9694917492
 20
4.3947092013
 30
0.0
 10
4.9694956317
 20
4.3894374504
 30
0.0
 10
4.9694884423
 20
4.3852052802
 30
0.0
 10
4.9694770708
 20
4.3820211434
 30
0.0
 10
4.9694601605
 20
4.3788310604
 30
0.0
 10
4.9694318721
 20
4.3745673134
 30
0.0
 10
4.9693884453
 20
4.3692269949
 30
0.0
 10
4.9693323088
 20
4.3628085017
 30
0.0
 10
4.9692637418
 20
4.3542341461
 30
0.0
 10
4.9692326316
 20
4.3477996062
 30
0.0
 10
4.9692326316
 20
4.3435085507
 30
0.0
 11
4.9692326322
 21
4.5291240808
 31
0.0
 11
4.9692466794
 21
4.5245163621
 31
0.0
 11
4.9692829984
 21
4.5197975977
 31
0.0
 11
4.9693328558
 21
4.5149712178
 31
0.0
 11
4.9693875179
 21
4.5100406525
 31
0.0
 11
4.9694382512
 21
4.5050093321
 31
0.0
 11
4.9694594152
 21
4.5024569607
 31
0.0
 11
4.9694763219
 21
4.4998806869
 31
0.0
 11
4.9694878845
 21
4.4972809393
 31
0.0
 11
4.9694935728
 21
4.4946581369
 31
0.0
 11
4.9694939265
 21
4.4920126797
 31
0.0
 11
4.9694896062
 21
4.489344966
 31
0.0
 11
4.9694695873
 21
4.4839443607
 31
0.0
 11
4.9694388019
 21
4.4784595052
 31
0.0
 11
4.9694025363
 21
4.4728935837
 31
0.0
 11
4.9693660765
 21
4.4672497805
 31
0.0
 11
4.9693347049
 21
4.4615312802
 31
0.0
 11
4.9693122958
 21
4.4557413927
 31
0.0
 11
4.9692992276
 21
4.4498837391
 31
0.0
 11
4.9692953451
 21
4.4439619881
 31
0.0
 11
4.969300493
 21
4.4379798083
 31
0.0
 11
4.9693145163
 21
4.4319408684
 31
0.0
 11
4.9693372596
 21
4.4258488369
 31
0.0
 11
4.9693518433
 21
4.4227840583
 31
0.0
 11
4.9693682517
 21
4.4197073788
 31
0.0
 11
4.9694040366
 21
4.4135201222
 31
0.0
 11
4.9694395167
 21
4.4072906751
 31
0.0
 11
4.9694695774
 21
4.4010226454
 31
0.0
 11
4.9694891042
 21
4.3947196411
 31
0.0
 11
4.9694929826
 21
4.3883852699
 31
0.0
 11
4.9694874553
 21
4.3852074493
 31
0.0
 11
4.9694761609
 21
4.3820231441
 31
0.0
 11
4.9694594615
 21
4.3788328729
 31
0.0
 11
4.9694384396
 21
4.3756372026
 31
0.0
 11
4.9693878306
 21
4.3692319374
 31
0.0
 11
4.9693331396
 21
4.362811894
 31
0.0
 11
4.9692831723
 21
4.3563816181
 31
0.0
 11
4.9692326316
 21
4.3435085507
 31
0.0
  0
LINE
  5
22B
100
AcDbEntity
  8
0
100
AcDbLine
 62
6
  6
CONTINUOUS
 10
7.7442326285
 20
4.2185085507
 11
7.7442326285
 21
4.1354333677
  0
LINE
  5
22C
100
AcDbEntity
  8
0
100
AcDbLine
 62
6
  6
CONTINUOUS
 10
7.7442326285
 20
3.9242458049
 11
7.7442326285
 21
3.9586566724
  0
LINE
  5
22D
100
AcDbEntity
  8
0
100
AcDbLine
 62
6
  6
CONTINUOUS
 10
7.7442326285
 20
4.7627712965
 11
7.7442326285
 21
4.728360429
  0
LINE
  5
22E
100
AcDbEntity
  8
0
100
AcDbLine
 62
6
  6
CONTINUOUS
 10
7.7442326285
 20
4.5515837337
 11
7.7442326285
 21
4.4685085507
  0
SPLINE
  5
22F
100
AcDbEntity
  8
0
100
AcDbSpline
 62
6
  6
CONTINUOUS
 70
0
 71
3
 72
66
 73
62
 74
60
 42
0.0000001
 43
0.0000001
 44
0.0000000001
 12
0.2916367898
 22
-0.0507230992
 32
0.0
 13
-0.2947147933
 23
-0.027713545
 33
0.0
 40
0.0
 40
0.0
 40
0.0
 40
0.0
 40
0.0368416894
 40
0.0551689961
 40
0.0734022596
 40
0.0915192349
 40
0.1094986032
 40
0.1273246977
 40
0.144985914
 40
0.1624711331
 40
0.179769799
 40
0.1968720948
 40
0.2137691049
 40
0.2304526787
 40
0.2469153959
 40
0.2631507684
 40
0.279153467
 40
0.3104422753
 40
0.3257365312
 40
0.3407979252
 40
0.3556304978
 40
0.3702400877
 40
0.3988178247
 40
0.4128187984
 40
0.426642769
 40
0.4403054957
 40
0.4538250813
 40
0.4672217258
 40
0.4805166269
 40
0.49373195
 40
0.5068908853
 40
0.5200176997
 40
0.5331372283
 40
0.5462740313
 40
0.5594523025
 40
0.5726958774
 40
0.5860281812
 40
0.5994713217
 40
0.6130455668
 40
0.6267696373
 40
0.6406608383
 40
0.6547351721
 40
0.6690065412
 40
0.6834860741
 40
0.6981829871
 40
0.7282497391
 40
0.7436382723
 40
0.759263201
 40
0.7751234978
 40
0.7912167472
 40
0.8075393922
 40
0.8240869327
 40
0.8408537579
 40
0.857833068
 40
0.8750171235
 40
0.8923974403
 40
0.9099648797
 40
0.927705973
 40
0.945601278
 40
0.9636302479
 40
1.0
 40
1.0
 40
1.0
 40
1.0
 10
7.7442326285
 20
4.1354333677
 30
0.0
 10
7.7478140925
 20
4.1348104595
 30
0.0
 10
7.7531503862
 20
4.1337116842
 30
0.0
 10
7.760169082
 20
4.1319210299
 30
0.0
 10
7.76535319
 20
4.1304233937
 30
0.0
 10
7.7704542123
 20
4.1287719175
 30
0.0
 10
7.7754610823
 20
4.126969023
 30
0.0
 10
7.780363887
 20
4.1250183347
 30
0.0
 10
7.7851539872
 20
4.1229241349
 30
0.0
 10
7.7898230179
 20
4.1206903607
 30
0.0
 10
7.7943626582
 20
4.1183210213
 30
0.0
 10
7.7987645325
 20
4.1158200183
 30
0.0
 10
7.8030204135
 20
4.1131916205
 30
0.0
 10
7.8071228525
 20
4.1104413325
 30
0.0
 10
7.8110642925
 20
4.1075745241
 30
0.0
 10
7.8148373618
 20
4.104596427
 30
0.0
 10
7.8195971257
 20
4.1005157979
 30
0.0
 10
7.8240320892
 20
4.0962052518
 30
0.0
 10
7.8281016312
 20
4.0916823736
 30
0.0
 10
7.8309306383
 20
4.0882338685
 30
0.0
 10
7.8335537784
 20
4.0847099447
 30
0.0
 10
7.8367451381
 20
4.079955106
 30
0.0
 10
7.8395368018
 20
4.0750373565
 30
0.0
 10
7.8418898517
 20
4.0699915754
 30
0.0
 10
7.8434165834
 20
4.06619092
 30
0.0
 10
7.8447131986
 20
4.0623558832
 30
0.0
 10
7.8457767815
 20
4.0584934136
 30
0.0
 10
7.84660626
 20
4.0546110635
 30
0.0
 10
7.8472003749
 20
4.0507161099
 30
0.0
 10
7.8475579288
 20
4.0468158704
 30
0.0
 10
7.8476777088
 20
4.0429176484
 30
0.0
 10
7.8475585086
 20
4.0390288472
 30
0.0
 10
7.8472014955
 20
4.0351568451
 30
0.0
 10
7.8466078594
 20
4.0313088759
 30
0.0
 10
7.8457787733
 20
4.0274921793
 30
0.0
 10
7.8447154875
 20
4.0237139649
 30
0.0
 10
7.8434190217
 20
4.019981648
 30
0.0
 10
7.8418923793
 20
4.0163021559
 30
0.0
 10
7.8401392034
 20
4.0126821337
 30
0.0
 10
7.8381629558
 20
4.0091283101
 30
0.0
 10
7.8359671923
 20
4.005647358
 30
0.0
 10
7.8335552933
 20
4.0022461691
 30
0.0
 10
7.8309317897
 20
3.9989312005
 30
0.0
 10
7.8281022666
 20
3.9957080117
 30
0.0
 10
7.8240321351
 20
3.9915095675
 30
0.0
 10
7.8195951718
 20
3.9875517237
 30
0.0
 10
7.8148358777
 20
3.9838518653
 30
0.0
 10
7.8110622717
 20
3.9811749274
 30
0.0
 10
7.8071203281
 20
3.9786228137
 30
0.0
 10
7.8030173992
 20
3.9762001336
 30
0.0
 10
7.7987610478
 20
3.9739116538
 30
0.0
 10
7.7943587469
 20
3.9717622875
 30
0.0
 10
7.7898187173
 20
3.9697556342
 30
0.0
 10
7.7851493225
 20
3.9678949158
 30
0.0
 10
7.7803588827
 20
3.9661834726
 30
0.0
 10
7.7754557579
 20
3.964624569
 30
0.0
 10
7.7704486164
 20
3.9632218024
 30
0.0
 10
7.7653473854
 20
3.9619780012
 30
0.0
 10
7.7601630816
 20
3.9608946873
 30
0.0
 10
7.7531358947
 20
3.9596635418
 30
0.0
 10
7.7478055298
 20
3.9589926507
 30
0.0
 10
7.7442326285
 20
3.9586566724
 30
0.0
 11
7.7442326285
 21
4.1354333677
 31
0.0
 11
7.7549139863
 21
4.1332327571
 31
0.0
 11
7.7601706581
 21
4.1318912177
 31
0.0
 11
7.7653557823
 21
4.130392707
 31
0.0
 11
7.7704577019
 21
4.1287401136
 31
0.0
 11
7.775464888
 21
4.1269363693
 31
0.0
 11
7.7803676142
 21
4.1249850126
 31
0.0
 11
7.7851574851
 21
4.1228900297
 31
0.0
 11
7.7898261367
 21
4.1206554175
 31
0.0
 11
7.7943652046
 21
4.118285173
 31
0.0
 11
7.7987663264
 21
4.1157832959
 31
0.0
 11
7.803021391
 21
4.1131542078
 31
0.0
 11
7.8071228033
 21
4.1104031969
 31
0.0
 11
7.8110630316
 21
4.1075356578
 31
0.0
 11
7.8148345442
 21
4.1045569849
 31
0.0
 11
7.8184298094
 21
4.1014725729
 31
0.0
 11
7.8250636581
 21
4.0950091479
 31
0.0
 11
7.8280907165
 21
4.0916426037
 31
0.0
 11
7.8309171697
 21
4.0881946373
 31
0.0
 11
7.8335374973
 21
4.0846715978
 31
0.0
 11
7.8359462375
 21
4.0810798533
 31
0.0
 11
7.8401122547
 21
4.073717355
 31
0.0
 11
7.8418625808
 21
4.0699605987
 31
0.0
 11
7.8433865049
 21
4.0661628423
 31
0.0
 11
7.8446805744
 21
4.0623310902
 31
0.0
 11
7.8457420974
 21
4.0584724417
 31
0.0
 11
7.8465697602
 21
4.0545941671
 31
0.0
 11
7.8471623944
 21
4.0507035551
 31
0.0
 11
7.8475188316
 21
4.0468078942
 31
0.0
 11
7.8476379037
 21
4.042914473
 31
0.0
 11
7.8475188316
 21
4.0390305645
 31
0.0
 11
7.8471623944
 21
4.0351633796
 31
0.0
 11
7.8465697602
 21
4.0313201134
 31
0.0
 11
7.8457420974
 21
4.0275079611
 31
0.0
 11
7.8446805744
 21
4.0237341182
 31
0.0
 11
7.8433865049
 21
4.0200057499
 31
0.0
 11
7.8418625808
 21
4.0163297405
 31
0.0
 11
7.8401122547
 21
4.0127128185
 31
0.0
 11
7.8381389868
 21
4.0091617111
 31
0.0
 11
7.8359462375
 21
4.0056831452
 31
0.0
 11
7.8335374973
 21
4.002283836
 31
0.0
 11
7.8309171697
 21
3.9989701357
 31
0.0
 11
7.8280907165
 21
3.9957479759
 31
0.0
 11
7.8250636581
 21
3.9926232648
 31
0.0
 11
7.8184298094
 21
3.9866898209
 31
0.0
 11
7.8148345442
 21
3.9838926363
 31
0.0
 11
7.8110630316
 21
3.9812152713
 31
0.0
 11
7.8071228033
 21
3.9786625188
 31
0.0
 11
7.803021391
 21
3.9762391716
 31
0.0
 11
7.7987663264
 21
3.9739500225
 31
0.0
 11
7.7943652046
 21
3.971799753
 31
0.0
 11
7.7898261367
 21
3.9697921366
 31
0.0
 11
7.7851574851
 21
3.9679305052
 31
0.0
 11
7.7803676142
 21
3.9662181872
 31
0.0
 11
7.775464888
 21
3.9646585115
 31
0.0
 11
7.7704577019
 21
3.9632547935
 31
0.0
 11
7.7653557823
 21
3.9620097948
 31
0.0
 11
7.7601706581
 21
3.960925526
 31
0.0
 11
7.7549139863
 21
3.9600039445
 31
0.0
 11
7.7442326285
 21
3.9586566724
 31
0.0
  0
SPLINE
  5
230
100
AcDbEntity
  8
0
100
AcDbSpline
 62
6
  6
CONTINUOUS
 70
0
 71
3
 72
35
 73
31
 74
29
 42
0.0000001
 43
0.0000001
 44
0.0000000001
 12
0.0
 22
-0.1759004169
 32
0.0
 13
-0.1728254289
 23
-0.0327464163
 33
0.0
 40
0.0
 40
0.0
 40
0.0
 40
0.0
 40
0.0624689875
 40
0.0937506611
 40
0.1250439723
 40
0.1563378746
 40
0.1876227426
 40
0.2188971918
 40
0.2501639288
 40
0.2814253351
 40
0.3126837086
 40
0.3439415293
 40
0.3752003049
 40
0.4064595822
 40
0.4377184657
 40
0.5002171579
 40
0.5627083423
 40
0.5939576267
 40
0.6252033615
 40
0.6564447235
 40
0.6876815203
 40
0.7189157059
 40
0.7501498799
 40
0.7813864874
 40
0.8126281113
 40
0.8438776606
 40
0.875133353
 40
0.9063856625
 40
0.9376238809
 40
1.0
 40
1.0
 40
1.0
 40
1.0
 10
7.8476379037
 20
4.3435085507
 30
0.0
 10
7.8476379037
 20
4.339845777
 30
0.0
 10
7.8473986924
 20
4.3343450073
 30
0.0
 10
7.8466087338
 20
4.3270544305
 30
0.0
 10
7.8457809458
 20
4.3216113048
 30
0.0
 10
7.8447194381
 20
4.316208883
 30
0.0
 10
7.8434249274
 20
4.3108585802
 30
0.0
 10
7.8419003042
 20
4.3055709355
 30
0.0
 10
7.8401492973
 20
4.3003553389
 30
0.0
 10
7.8381753176
 20
4.2952209952
 30
0.0
 10
7.8359818894
 20
4.2901770632
 30
0.0
 10
7.8335723481
 20
4.2852328779
 30
0.0
 10
7.8309510628
 20
4.2803975991
 30
0.0
 10
7.8281236435
 20
4.2756797162
 30
0.0
 10
7.8240871493
 20
4.2695587912
 30
0.0
 10
7.8185523271
 20
4.2622429753
 30
0.0
 10
7.8124039613
 20
4.2554354347
 30
0.0
 10
7.8071494162
 20
4.250324424
 30
0.0
 10
7.8030467541
 20
4.2466645379
 30
0.0
 10
7.7987905118
 20
4.2431857443
 30
0.0
 10
7.7943879129
 20
4.2398952051
 30
0.0
 10
7.7898472917
 20
4.2367986815
 30
0.0
 10
7.785177111
 20
4.2339012739
 30
0.0
 10
7.7803856922
 20
4.231208193
 30
0.0
 10
7.77548142
 20
4.2287245507
 30
0.0
 10
7.7704728208
 20
4.2264558727
 30
0.0
 10
7.7653698381
 20
4.2244068027
 30
0.0
 10
7.7601835793
 20
4.2225801916
 30
0.0
 10
7.7531781739
 20
4.2204474609
 30
0.0
 10
7.7478260217
 20
4.2191894155
 30
0.0
 10
7.7442326285
 20
4.2185085507
 30
0.0
 11
7.8476379037
 21
4.3435085507
 31
0.0
 11
7.847162361
 21
4.3325305246
 31
0.0
 11
7.8465696951
 21
4.3270600761
 31
0.0
 11
7.8457419995
 21
4.3216181544
 31
0.0
 11
7.8446804491
 21
4.3162168724
 31
0.0
 11
7.8433863511
 21
4.310868176
 31
0.0
 11
7.8418623717
 21
4.3055822926
 31
0.0
 11
7.840111977
 21
4.3003684388
 31
0.0
 11
7.8381386434
 21
4.2952358182
 31
0.0
 11
7.835945847
 21
4.2901936345
 31
0.0
 11
7.8335370873
 21
4.2852510865
 31
0.0
 11
7.8309167266
 21
4.2804171998
 31
0.0
 11
7.8280902289
 21
4.2757007783
 31
0.0
 11
7.8250631299
 21
4.2711106115
 31
0.0
 11
7.8184292711
 21
4.2623441999
 31
0.0
 11
7.8110625114
 21
4.2541857767
 31
0.0
 11
7.8071222804
 21
4.250353157
 31
0.0
 11
7.8030208695
 21
4.2466944743
 31
0.0
 11
7.7987658194
 21
4.2432168853
 31
0.0
 11
7.794364728
 21
4.2399274105
 31
0.0
 11
7.7898256969
 21
4.2368318652
 31
0.0
 11
7.7851570906
 21
4.233935437
 31
0.0
 11
7.7803672759
 21
4.2312433077
 31
0.0
 11
7.7754646195
 21
4.2287606594
 31
0.0
 11
7.7704575166
 21
4.2264926587
 31
0.0
 11
7.765355668
 21
4.2244437742
 31
0.0
 11
7.7601705966
 21
4.2226174997
 31
0.0
 11
7.7549139607
 21
4.2210172566
 31
0.0
 11
7.7442326285
 21
4.2185085507
 31
0.0
  0
SPLINE
  5
231
100
AcDbEntity
  8
0
100
AcDbSpline
 62
6
  6
CONTINUOUS
 70
0
 71
3
 72
35
 73
31
 74
29
 42
0.0000001
 43
0.0000001
 44
0.0000000001
 12
0.1728254289
 22
-0.0327464163
 32
0.0
 13
0.0
 23
-0.1759004169
 33
0.0
 40
0.0
 40
0.0
 40
0.0
 40
0.0
 40
0.0623761191
 40
0.0936143375
 40
0.124866647
 40
0.1561223394
 40
0.1873718887
 40
0.2186135126
 40
0.2498501201
 40
0.2810842941
 40
0.3123184797
 40
0.3435552765
 40
0.3747966385
 40
0.4060423733
 40
0.4372916577
 40
0.4997828421
 40
0.5622815343
 40
0.5935404178
 40
0.6247996951
 40
0.6560584707
 40
0.6873162914
 40
0.7185746649
 40
0.7498360712
 40
0.7811028082
 40
0.8123772574
 40
0.8436621254
 40
0.8749560277
 40
0.9062493389
 40
0.9375310125
 40
1.0
 40
1.0
 40
1.0
 40
1.0
 10
7.7442326285
 20
4.4685085507
 30
0.0
 10
7.7478260217
 20
4.4678276859
 30
0.0
 10
7.7531781739
 20
4.4665696405
 30
0.0
 10
7.7601835793
 20
4.4644369098
 30
0.0
 10
7.7653698381
 20
4.4626102987
 30
0.0
 10
7.7704728208
 20
4.4605612286
 30
0.0
 10
7.77548142
 20
4.4582925507
 30
0.0
 10
7.7803856922
 20
4.4558089084
 30
0.0
 10
7.785177111
 20
4.4531158275
 30
0.0
 10
7.7898472917
 20
4.4502184199
 30
0.0
 10
7.7943879129
 20
4.4471218962
 30
0.0
 10
7.7987905118
 20
4.4438313571
 30
0.0
 10
7.8030467541
 20
4.4403525635
 30
0.0
 10
7.8071494162
 20
4.4366926774
 30
0.0
 10
7.8124039613
 20
4.4315816667
 30
0.0
 10
7.8185523271
 20
4.4247741261
 30
0.0
 10
7.8240871493
 20
4.4174583101
 30
0.0
 10
7.8281236435
 20
4.4113373851
 30
0.0
 10
7.8309510628
 20
4.4066195022
 30
0.0
 10
7.8335723481
 20
4.4017842235
 30
0.0
 10
7.8359818894
 20
4.3968400382
 30
0.0
 10
7.8381753176
 20
4.3917961062
 30
0.0
 10
7.8401492973
 20
4.3866617625
 30
0.0
 10
7.8419003042
 20
4.3814461659
 30
0.0
 10
7.8434249274
 20
4.3761585211
 30
0.0
 10
7.8447194381
 20
4.3708082184
 30
0.0
 10
7.8457809458
 20
4.3654057966
 30
0.0
 10
7.8466087338
 20
4.3599626709
 30
0.0
 10
7.8473986924
 20
4.352672094
 30
0.0
 10
7.8476379037
 20
4.3471713243
 30
0.0
 10
7.8476379037
 20
4.3435085507
 30
0.0
 11
7.7442326285
 21
4.4685085507
 31
0.0
 11
7.7549139607
 21
4.4659998448
 31
0.0
 11
7.7601705966
 21
4.4643996017
 31
0.0
 11
7.765355668
 21
4.4625733272
 31
0.0
 11
7.7704575166
 21
4.4605244426
 31
0.0
 11
7.7754646195
 21
4.458256442
 31
0.0
 11
7.7803672759
 21
4.4557737937
 31
0.0
 11
7.7851570906
 21
4.4530816644
 31
0.0
 11
7.7898256969
 21
4.4501852362
 31
0.0
 11
7.794364728
 21
4.4470896909
 31
0.0
 11
7.7987658194
 21
4.443800216
 31
0.0
 11
7.8030208695
 21
4.440322627
 31
0.0
 11
7.8071222804
 21
4.4366639443
 31
0.0
 11
7.8110625114
 21
4.4328313247
 31
0.0
 11
7.8184292711
 21
4.4246729014
 31
0.0
 11
7.8250631299
 21
4.4159064899
 31
0.0
 11
7.8280902289
 21
4.4113163231
 31
0.0
 11
7.8309167266
 21
4.4065999016
 31
0.0
 11
7.8335370873
 21
4.4017660148
 31
0.0
 11
7.835945847
 21
4.3968234669
 31
0.0
 11
7.8381386434
 21
4.3917812832
 31
0.0
 11
7.840111977
 21
4.3866486626
 31
0.0
 11
7.8418623717
 21
4.3814348088
 31
0.0
 11
7.8433863511
 21
4.3761489254
 31
0.0
 11
7.8446804491
 21
4.3708002289
 31
0.0
 11
7.8457419995
 21
4.3653989469
 31
0.0
 11
7.8465696951
 21
4.3599570253
 31
0.0
 11
7.847162361
 21
4.3544865768
 31
0.0
 11
7.8476379037
 21
4.3435085507
 31
0.0
  0
SPLINE
  5
232
100
AcDbEntity
  8
0
100
AcDbSpline
 62
6
  6
CONTINUOUS
 70
0
 71
3
 72
66
 73
62
 74
60
 42
0.0000001
 43
0.0000001
 44
0.0000000001
 12
0.2947147933
 22
-0.027713545
 32
0.0
 13
-0.2916367898
 23
-0.0507230992
 33
0.0
 40
0.0
 40
0.0
 40
0.0
 40
0.0
 40
0.0363697521
 40
0.054398722
 40
0.072294027
 40
0.0900351203
 40
0.1076025597
 40
0.1249828765
 40
0.142166932
 40
0.1591462421
 40
0.1759130673
 40
0.1924606078
 40
0.2087832528
 40
0.2248765022
 40
0.240736799
 40
0.2563617277
 40
0.2717502609
 40
0.3018170129
 40
0.3165139259
 40
0.3309934588
 40
0.3452648279
 40
0.3593391617
 40
0.3732303627
 40
0.3869544332
 40
0.4005286783
 40
0.4139718188
 40
0.4273041226
 40
0.4405476975
 40
0.4537259687
 40
0.4668627717
 40
0.4799823003
 40
0.4931091147
 40
0.50626805
 40
0.5194833731
 40
0.5327782742
 40
0.5461749187
 40
0.5596945043
 40
0.573357231
 40
0.5871812016
 40
0.6011821753
 40
0.6297599123
 40
0.6443695022
 40
0.6592020748
 40
0.6742634688
 40
0.6895577247
 40
0.720846533
 40
0.7368492316
 40
0.7530846041
 40
0.7695473213
 40
0.7862308951
 40
0.8031279052
 40
0.820230201
 40
0.8375288669
 40
0.855014086
 40
0.8726753023
 40
0.8905013968
 40
0.9084807651
 40
0.9265977404
 40
0.9448310039
 40
0.9631583106
 40
1.0
 40
1.0
 40
1.0
 40
1.0
 10
7.7442326285
 20
4.728360429
 30
0.0
 10
7.7478055298
 20
4.7280244507
 30
0.0
 10
7.7531358947
 20
4.7273535595
 30
0.0
 10
7.7601630816
 20
4.7261224141
 30
0.0
 10
7.7653473854
 20
4.7250391002
 30
0.0
 10
7.7704486164
 20
4.723795299
 30
0.0
 10
7.7754557579
 20
4.7223925324
 30
0.0
 10
7.7803588827
 20
4.7208336288
 30
0.0
 10
7.7851493225
 20
4.7191221855
 30
0.0
 10
7.7898187173
 20
4.7172614671
 30
0.0
 10
7.7943587469
 20
4.7152548139
 30
0.0
 10
7.7987610478
 20
4.7131054476
 30
0.0
 10
7.8030173992
 20
4.7108169678
 30
0.0
 10
7.8071203281
 20
4.7083942877
 30
0.0
 10
7.8110622717
 20
4.705842174
 30
0.0
 10
7.8148358777
 20
4.7031652361
 30
0.0
 10
7.8195951718
 20
4.6994653776
 30
0.0
 10
7.8240321351
 20
4.6955075339
 30
0.0
 10
7.8281022666
 20
4.6913090897
 30
0.0
 10
7.8309317897
 20
4.6880859009
 30
0.0
 10
7.8335552933
 20
4.6847709323
 30
0.0
 10
7.8359671923
 20
4.6813697434
 30
0.0
 10
7.8381629558
 20
4.6778887912
 30
0.0
 10
7.8401392034
 20
4.6743349677
 30
0.0
 10
7.8418923793
 20
4.6707149455
 30
0.0
 10
7.8434190217
 20
4.6670354534
 30
0.0
 10
7.8447154875
 20
4.6633031365
 30
0.0
 10
7.8457787733
 20
4.6595249221
 30
0.0
 10
7.8466078594
 20
4.6557082254
 30
0.0
 10
7.8472014955
 20
4.6518602563
 30
0.0
 10
7.8475585086
 20
4.6479882541
 30
0.0
 10
7.8476777088
 20
4.644099453
 30
0.0
 10
7.8475579288
 20
4.640201231
 30
0.0
 10
7.8472003749
 20
4.6363009915
 30
0.0
 10
7.84660626
 20
4.6324060379
 30
0.0
 10
7.8457767815
 20
4.6285236878
 30
0.0
 10
7.8447131986
 20
4.6246612181
 30
0.0
 10
7.8434165834
 20
4.6208261814
 30
0.0
 10
7.8418898517
 20
4.617025526
 30
0.0
 10
7.8395368018
 20
4.6119797449
 30
0.0
 10
7.8367451381
 20
4.6070619954
 30
0.0
 10
7.8335537784
 20
4.6023071567
 30
0.0
 10
7.8309306383
 20
4.5987832329
 30
0.0
 10
7.8281016312
 20
4.5953347278
 30
0.0
 10
7.8240320892
 20
4.5908118496
 30
0.0
 10
7.8195971257
 20
4.5865013035
 30
0.0
 10
7.8148373618
 20
4.5824206744
 30
0.0
 10
7.8110642925
 20
4.5794425773
 30
0.0
 10
7.8071228525
 20
4.5765757688
 30
0.0
 10
7.8030204135
 20
4.5738254809
 30
0.0
 10
7.7987645325
 20
4.5711970831
 30
0.0
 10
7.7943626582
 20
4.5686960801
 30
0.0
 10
7.7898230179
 20
4.5663267407
 30
0.0
 10
7.7851539872
 20
4.5640929665
 30
0.0
 10
7.780363887
 20
4.5619987667
 30
0.0
 10
7.7754610823
 20
4.5600480784
 30
0.0
 10
7.7704542123
 20
4.5582451838
 30
0.0
 10
7.76535319
 20
4.5565937076
 30
0.0
 10
7.760169082
 20
4.5550960715
 30
0.0
 10
7.7531503862
 20
4.5533054172
 30
0.0
 10
7.7478140925
 20
4.5522066419
 30
0.0
 10
7.7442326285
 20
4.5515837337
 30
0.0
 11
7.7442326285
 21
4.728360429
 31
0.0
 11
7.7549139863
 21
4.7270131569
 31
0.0
 11
7.7601706581
 21
4.7260915753
 31
0.0
 11
7.7653557823
 21
4.7250073065
 31
0.0
 11
7.7704577019
 21
4.7237623078
 31
0.0
 11
7.775464888
 21
4.7223585899
 31
0.0
 11
7.7803676142
 21
4.7207989141
 31
0.0
 11
7.7851574851
 21
4.7190865962
 31
0.0
 11
7.7898261367
 21
4.7172249647
 31
0.0
 11
7.7943652046
 21
4.7152173484
 31
0.0
 11
7.7987663264
 21
4.7130670789
 31
0.0
 11
7.803021391
 21
4.7107779298
 31
0.0
 11
7.8071228033
 21
4.7083545826
 31
0.0
 11
7.8110630316
 21
4.7058018301
 31
0.0
 11
7.8148345442
 21
4.7031244651
 31
0.0
 11
7.8184298094
 21
4.7003272804
 31
0.0
 11
7.8250636581
 21
4.6943938366
 31
0.0
 11
7.8280907165
 21
4.6912691255
 31
0.0
 11
7.8309171697
 21
4.6880469657
 31
0.0
 11
7.8335374973
 21
4.6847332653
 31
0.0
 11
7.8359462375
 21
4.6813339562
 31
0.0
 11
7.8381389868
 21
4.6778553903
 31
0.0
 11
7.8401122547
 21
4.6743042828
 31
0.0
 11
7.8418625808
 21
4.6706873609
 31
0.0
 11
7.8433865049
 21
4.6670113514
 31
0.0
 11
7.8446805744
 21
4.6632829832
 31
0.0
 11
7.8457420974
 21
4.6595091402
 31
0.0
 11
7.8465697602
 21
4.655696988
 31
0.0
 11
7.8471623944
 21
4.6518537218
 31
0.0
 11
7.8475188316
 21
4.6479865368
 31
0.0
 11
7.8476379037
 21
4.6441026284
 31
0.0
 11
7.8475188316
 21
4.6402092072
 31
0.0
 11
7.8471623944
 21
4.6363135463
 31
0.0
 11
7.8465697602
 21
4.6324229342
 31
0.0
 11
7.8457420974
 21
4.6285446597
 31
0.0
 11
7.8446805744
 21
4.6246860111
 31
0.0
 11
7.8433865049
 21
4.6208542591
 31
0.0
 11
7.8418625808
 21
4.6170565027
 31
0.0
 11
7.8401122547
 21
4.6132997464
 31
0.0
 11
7.8359462375
 21
4.6059372481
 31
0.0
 11
7.8335374973
 21
4.6023455035
 31
0.0
 11
7.8309171697
 21
4.5988224641
 31
0.0
 11
7.8280907165
 21
4.5953744976
 31
0.0
 11
7.8250636581
 21
4.5920079535
 31
0.0
 11
7.8184298094
 21
4.5855445285
 31
0.0
 11
7.8148345442
 21
4.5824601165
 31
0.0
 11
7.8110630316
 21
4.5794814436
 31
0.0
 11
7.8071228033
 21
4.5766139045
 31
0.0
 11
7.803021391
 21
4.5738628936
 31
0.0
 11
7.7987663264
 21
4.5712338055
 31
0.0
 11
7.7943652046
 21
4.5687319283
 31
0.0
 11
7.7898261367
 21
4.5663616838
 31
0.0
 11
7.7851574851
 21
4.5641270717
 31
0.0
 11
7.7803676142
 21
4.5620320888
 31
0.0
 11
7.775464888
 21
4.560080732
 31
0.0
 11
7.7704577019
 21
4.5582769878
 31
0.0
 11
7.7653557823
 21
4.5566243944
 31
0.0
 11
7.7601706581
 21
4.5551258837
 31
0.0
 11
7.7549139863
 21
4.5537843443
 31
0.0
 11
7.7442326285
 21
4.5515837337
 31
0.0
  0
SPLINE
  5
233
100
AcDbEntity
  8
0
100
AcDbSpline
 62
6
  6
CONTINUOUS
 70
0
 71
3
 72
66
 73
62
 74
60
 42
0.0000001
 43
0.0000001
 44
0.0000000001
 12
0.0769010909
 22
0.0000135386
 32
0.0
 13
0.0
 23
-0.0769010921
 33
0.0
 40
0.0
 40
0.0
 40
0.0
 40
0.0
 40
0.0000010254
 40
0.0000041001
 40
0.0000092235
 40
0.0000163947
 40
0.000025613
 40
0.0000368775
 40
0.0000655425
 40
0.0001023836
 40
0.0001473949
 40
0.0002005704
 40
0.0002619044
 40
0.0004090248
 40
0.0005887107
 40
0.000800918
 40
0.0010456037
 40
0.0013227257
 40
0.0016322431
 40
0.0023483052
 40
0.0031934857
 40
0.0041674969
 40
0.0052700693
 40
0.0065009508
 40
0.0078599076
 40
0.0093467237
 40
0.0109612012
 40
0.0127031604
 40
0.0165688729
 40
0.0209428073
 40
0.0258241838
 40
0.0312125176
 40
0.0371076199
 40
0.0435095972
 40
0.0504186104
 40
0.0657554888
 40
0.0831105571
 40
0.1024724468
 40
0.1238283557
 40
0.14716514
 40
0.1724699685
 40
0.1997287895
 40
0.2289232258
 40
0.2600340793
 40
0.3279275733
 40
0.3646713984
 40
0.4032534748
 40
0.443650162
 40
0.4858357609
 40
0.5297846626
 40
0.5754716401
 40
0.6228720729
 40
0.6472073795
 40
0.6719621158
 40
0.697132289
 40
0.7227130525
 40
0.7750864522
 40
0.8290420529
 40
0.8845393442
 40
0.9415383009
 40
1.0
 40
1.0
 40
1.0
 40
1.0
 10
4.9692326323
 20
4.6060085507
 30
0.0
 10
4.9692326586
 20
4.6060085507
 30
0.0
 10
4.9692326274
 20
4.6060083848
 30
0.0
 10
4.9692327223
 20
4.6060082133
 30
0.0
 10
4.969232769
 20
4.606007792
 30
0.0
 10
4.969232886
 20
4.6060072658
 30
0.0
 10
4.9692330148
 20
4.6060065638
 30
0.0
 10
4.9692332537
 20
4.6060053292
 30
0.0
 10
4.969233619
 20
4.6060033939
 30
0.0
 10
4.9692341432
 20
4.6060006105
 30
0.0
 10
4.9692347769
 20
4.6059972075
 30
0.0
 10
4.9692355193
 20
4.6059931864
 30
0.0
 10
4.9692367258
 20
4.6059865893
 30
0.0
 10
4.96923849
 20
4.6059767975
 30
0.0
 10
4.969240895
 20
4.6059631914
 30
0.0
 10
4.9692436822
 20
4.6059471133
 30
0.0
 10
4.9692468345
 20
4.6059285637
 30
0.0
 10
4.9692503348
 20
4.6059075432
 30
0.0
 10
4.9692557099
 20
4.6058745855
 30
0.0
 10
4.9692631811
 20
4.6058272162
 30
0.0
 10
4.9692728784
 20
4.6057629554
 30
0.0
 10
4.9692835582
 20
4.6056888245
 30
0.0
 10
4.9692950841
 20
4.6056048284
 30
0.0
 10
4.9693073196
 20
4.6055109717
 30
0.0
 10
4.9693201281
 20
4.6054072592
 30
0.0
 10
4.9693333733
 20
4.6052936954
 30
0.0
 10
4.9693469186
 20
4.605170285
 30
0.0
 10
4.9693658641
 20
4.6049861254
 30
0.0
 10
4.9693893597
 20
4.6047313321
 30
0.0
 10
4.9694156733
 20
4.6043960125
 30
0.0
 10
4.9694399119
 20
4.6040214132
 30
0.0
 10
4.9694609785
 20
4.6036075721
 30
0.0
 10
4.9694778027
 20
4.6031545273
 30
0.0
 10
4.9694891992
 20
4.6026623201
 30
0.0
 10
4.9694965281
 20
4.6019279894
 30
0.0
 10
4.9694913597
 20
4.6009128374
 30
0.0
 10
4.9694699234
 20
4.5995786695
 30
0.0
 10
4.969438095
 20
4.5980903844
 30
0.0
 10
4.9694010737
 20
4.5964488469
 30
0.0
 10
4.9693640052
 20
4.5946549316
 30
0.0
 10
4.9693323186
 20
4.5927095714
 30
0.0
 10
4.9693103669
 20
4.5906139138
 30
0.0
 10
4.9692975088
 20
4.5883693516
 30
0.0
 10
4.9692924274
 20
4.5850831389
 30
0.0
 10
4.9693064186
 20
4.5816034108
 30
0.0
 10
4.969336098
 20
4.5779322859
 30
0.0
 10
4.9693679571
 20
4.5749660566
 30
0.0
 10
4.9694047379
 20
4.5718603842
 30
0.0
 10
4.9694410585
 20
4.5686171245
 30
0.0
 10
4.9694718744
 20
4.565238189
 30
0.0
 10
4.9694920508
 20
4.5617254909
 30
0.0
 10
4.9694956697
 20
4.5587155003
 30
0.0
 10
4.9694884448
 20
4.5562421
 30
0.0
 10
4.9694769837
 20
4.5543385676
 30
0.0
 10
4.9694600106
 20
4.5524031506
 30
0.0
 10
4.9694314543
 20
4.5497598455
 30
0.0
 10
4.9693876273
 20
4.5463787924
 30
0.0
 10
4.969331531
 20
4.5422309663
 30
0.0
 10
4.9692802787
 20
4.5379644933
 30
0.0
 10
4.969242654
 20
4.5335823589
 30
0.0
 10
4.9692326322
 20
4.5306226703
 30
0.0
 10
4.9692326322
 20
4.5291240808
 30
0.0
 11
4.9692326323
 21
4.6060085507
 31
0.0
 11
4.9692326476
 21
4.6060084733
 31
0.0
 11
4.9692326928
 21
4.6060082413
 31
0.0
 11
4.9692327679
 21
4.6060078545
 31
0.0
 11
4.9692328724
 21
4.606007313
 31
0.0
 11
4.9692330061
 21
4.6060066168
 31
0.0
 11
4.9692331688
 21
4.606005766
 31
0.0
 11
4.9692335799
 21
4.6060036003
 31
0.0
 11
4.9692341036
 21
4.606000816
 31
0.0
 11
4.9692347378
 21
4.6059974132
 31
0.0
 11
4.9692354803
 21
4.6059933919
 31
0.0
 11
4.969236329
 21
4.6059887522
 31
0.0
 11
4.9692383364
 21
4.605977618
 31
0.0
 11
4.969240743
 21
4.6059640112
 31
0.0
 11
4.9692435318
 21
4.6059479322
 31
0.0
 11
4.9692466855
 21
4.6059293818
 31
0.0
 11
4.9692501873
 21
4.6059083605
 31
0.0
 11
4.96925402
 21
4.6058848689
 31
0.0
 11
4.96926261
 21
4.605830477
 31
0.0
 11
4.9692723189
 21
4.605766211
 31
0.0
 11
4.9692830104
 21
4.6056920754
 31
0.0
 11
4.9692945478
 21
4.605608075
 31
0.0
 11
4.9693067947
 21
4.6055142145
 31
0.0
 11
4.9693196146
 21
4.6054104985
 31
0.0
 11
4.9693328709
 21
4.6052969318
 31
0.0
 11
4.9693464273
 21
4.6051735191
 31
0.0
 11
4.9693601472
 21
4.605040265
 31
0.0
 11
4.9693875314
 21
4.6047442514
 31
0.0
 11
4.9694139317
 21
4.6044089287
 31
0.0
 11
4.9694382561
 21
4.6040343345
 31
0.0
 11
4.9694594125
 21
4.6036205062
 31
0.0
 11
4.969476309
 21
4.6031674813
 31
0.0
 11
4.969487859
 21
4.6026752978
 31
0.0
 11
4.9694935431
 21
4.6021440175
 31
0.0
 11
4.9694895992
 21
4.6009646014
 31
0.0
 11
4.969469632
 21
4.5996301271
 31
0.0
 11
4.9694389127
 21
4.5981414936
 31
0.0
 11
4.9694027125
 21
4.5964995999
 31
0.0
 11
4.9693663025
 21
4.5947053451
 31
0.0
 11
4.9693349493
 21
4.5927596287
 31
0.0
 11
4.9693124878
 21
4.5906635159
 31
0.0
 11
4.9692993054
 21
4.5884184706
 31
0.0
 11
4.9692952804
 21
4.5860260154
 31
0.0
 11
4.9693142178
 21
4.5808049659
 31
0.0
 11
4.9693369372
 21
4.5779794169
 31
0.0
 11
4.9693679901
 21
4.5750125756
 31
0.0
 11
4.9694038686
 21
4.5719062335
 31
0.0
 11
4.9694394516
 21
4.56866231
 31
0.0
 11
4.9694696034
 21
4.565282726
 31
0.0
 11
4.9694891881
 21
4.5617694021
 31
0.0
 11
4.9694930701
 21
4.5581242591
 31
0.0
 11
4.9694875176
 21
4.5562528557
 31
0.0
 11
4.9694761831
 21
4.5543492232
 31
0.0
 11
4.9694594523
 21
4.5524136817
 31
0.0
 11
4.969438409
 21
4.5504466056
 31
0.0
 11
4.9693877816
 21
4.5464193521
 31
0.0
 11
4.9693330957
 21
4.5422704679
 31
0.0
 11
4.9692831457
 21
4.5380029579
 31
0.0
 11
4.9692467263
 21
4.5336198272
 31
0.0
 11
4.9692326322
 21
4.5291240808
 31
0.0
  0
ENDSEC
  0
SECTION
  2
OBJECTS
  0
DICTIONARY
  5
C
100
AcDbDictionary
280
0
281
1
  3
ACAD_GROUP
350
D
  3
ACAD_MLINESTYLE
350
17
  3
ACAD_LAYOUT
350
1A
  3
ACAD_PLOTSETTINGS
350
19
  3
ACAD_PLOTSTYLENAME
350
E
  0
DICTIONARY
  5
D
102
{ACAD_REACTORS
330
C
102
}
100
AcDbDictionary
280
0
281
1
  0
ACDBDICTIONARYWDFLT
  5
E
102
{ACAD_REACTORS
330
C
102
}
100
AcDbDictionary
281
1
  3
Normal
350
F
100
AcDbDictionaryWithDefault
340
F
  0
DICTIONARY
  5
17
102
{ACAD_REACTORS
330
C
102
}
100
AcDbDictionary
280
0
281
1
  3
Standard
350
18
  0
DICTIONARY
  5
19
102
{ACAD_REACTORS
330
C
102
}
100
AcDbDictionary
281
1
  0
DICTIONARY
  5
1A
102
{ACAD_REACTORS
330
C
102
}
100
AcDbDictionary
281
1
  3
Model
350
234
  3
Layout1
350
235
  0
ACDBPLACEHOLDER
  5
F
102
{ACAD_REACTORS
330
E
102
}
  0
MLINESTYLE
  5
18
102
{ACAD_REACTORS
330
17
102
}
100
AcDbMlineStyle
  2
STANDARD
 70
0
  3

 62
256
 51
90.0
 52
90.0
 71
2
 49
0.5
 62
256
  6
BYLAYER
 49
-0.5
 62
256
  6
BYLAYER
  0
LAYOUT
  5
234
102
{ACAD_REACTORS
330
1A
102
}
100
AcDbPlotSettings
  1

  2
none_device
  4
ISO_A4_(297.00_x_210.00_MM)
  6

 40
0.0
 41
0.0
 42
0.0
 43
0.0
 44
297.0
 45
210.0
 46
0.0
 47
0.0
 48
0.0
 49
0.0
140
0.0
141
0.0
142
1.0
143
1.0
 70
1024
 72
0
 73
0
 74
0
  7

 75
0
147
1.0
148
0.0
149
0.0
100
AcDbLayout
  1
Model
 70
0
 71
0
 10
0.0
 20
0.0
 11
11.6929133858
 21
8.2677165354
 12
0.0
 22
0.0
 32
0.0
 14
0.0
 24
0.0
 34
0.0
 15
0.0
 25
0.0
 35
0.0
146
0.0
 13
0.0
 23
0.0
 33
0.0
 16
1.0
 26
0.0
 36
0.0
 17
0.0
 27
1.0
 37
0.0
 76
0
330
207
345
0
346
0
  0
LAYOUT
  5
235
102
{ACAD_REACTORS
330
1A
102
}
100
AcDbPlotSettings
  1

  2
none_device
  4
ISO_A4_(297.00_x_210.00_MM)
  6

 40
0.0
 41
0.0
 42
0.0
 43
0.0
 44
297.0
 45
210.0
 46
0.0
 47
0.0
 48
0.0
 49
0.0
140
0.0
141
0.0
142
1.0
143
1.0
 70
0
 72
0
 73
0
 74
0
  7

 75
0
147
1.0
148
0.0
149
0.0
100
AcDbLayout
  1
Layout1
 70
0
 71
1
 10
0.0
 20
0.0
 11
11.6929133858
 21
8.2677165354
 12
0.0
 22
0.0
 32
0.0
 14
0.0
 24
0.0
 34
0.0
 15
0.0
 25
0.0
 35
0.0
146
0.0
 13
0.0
 23
0.0
 33
0.0
 16
1.0
 26
0.0
 36
0.0
 17
0.0
 27
1.0
 37
0.0
 76
0
330
208
345
0
346
0
  0
ENDSEC
  0
EOF
