  0
SECTION
  2
HEADER
  9
$ACADVER
  1
AC1015
  9
$DWGCODEPAGE
  3
ANSI_1252
  9
$EXTMAX
 10
1.5
 20
1.0
 30
0.0
  9
$EXTMIN
 10
0.0
 20
0.0
 30
0.0
  9
$LIMMIN
 10
0.0
 20
0.0
  9
$LIMMAX
 10
1.5
 20
1.0
  9
$VIEWCTR
 10
0.75
 20
0.5
  9
$VIEWSIZE
 40
1.0
  9
$CLAYER
  8
0
  9
$LTSCALE
 40
0.0825
  9
$CELTYPE
  6
BYLAYER
  9
$DIMSCALE
 40
1.0
  9
$DIMASZ
 40
0.1
  9
$DIMEXO
 40
0.009375
  9
$DIMDLI
 40
0.057
  9
$DIMEXE
 40
0.027
  9
$DIMCEN
 40
0.0135
  9
$DIMLFAC
 40
1.0
  9
$DIMBLK
  1
_FILLED
  9
$DIMTXT
 40
0.08
  9
$DIMTOL
 70
1
  9
$DIMLIM
 70
0
  9
$DIMTFAC
 40
1.0
  9
$DIMTP
 40
0.01
  9
$DIMTM
 40
0.01
  9
$PDMODE
 70
3
  9
$PDSIZE
 40
0.06
  9
$HANDSEED
  5
231
  9
$TILEMODE
 70
1
  9
$MEASUREMENT
 70
0
  9
$INSUNITS
 70
1
  0
ENDSEC
  0
SECTION
  2
CLASSES
  0
CLASS
  1
ACDBDICTIONARYWDFLT
  2
AcDbDictionaryWithDefault
  3
AutoCAD 2000
 90
0
280
0
281
0
  0
CLASS
  1
ACDBPLACEHOLDER
  2
AcDbPlaceHolder
  3
AutoCAD 2000
 90
0
280
0
281
0
  0
CLASS
  1
LAYOUT
  2
AcDbLayout
  3
AutoCAD 2000
 90
0
280
0
281
0
  0
ENDSEC
  0
SECTION
  2
TABLES
  0
TABLE
  2
VPORT
  5
8
100
AcDbSymbolTable
 70
2
  0
VPORT
  5
1F4
100
AcDbSymbolTableRecord
100
AcDbViewportTableRecord
  2
*ACTIVE
 70
0
 10
0.0
 20
0.0
 11
1.0
 21
1.0
 12
0.75
 22
0.5
 13
0.0
 23
0.0
 14
1.0
 24
1.0
 15
0.0
 25
0.0
 16
0.0
 26
0.0
 36
1.0
 17
0.0
 27
0.0
 37
0.0
 40
1.0
 41
1.5
 42
50.0
 43
0.0
 44
0.0
 50
0.0
 51
0.0
 71
0
 72
100
 73
1
 74
1
 75
0
 76
0
 77
0
 78
0
  0
ENDTAB
  0
TABLE
  2
LTYPE
  5
5
100
AcDbSymbolTable
 70
6
  0
LTYPE
  5
14
100
AcDbSymbolTableRecord
100
AcDbLinetypeTableRecord
  2
BYBLOCK
 70
0
  3

 72
65
 73
0
 40
0.0
  0
LTYPE
  5
15
100
AcDbSymbolTableRecord
100
AcDbLinetypeTableRecord
  2
BYLAYER
 70
0
  3

 72
65
 73
0
 40
0.0
  0
LTYPE
  5
16
100
AcDbSymbolTableRecord
100
AcDbLinetypeTableRecord
  2
CONTINUOUS
 70
64
  3
Solid line
 72
65
 73
0
 40
0.0
  0
LTYPE
  5
1F5
100
AcDbSymbolTableRecord
100
AcDbLinetypeTableRecord
  2
CENTER
 70
64
  3
____ _ ____ _ ____ _ ____ _ ____ _ ____ _ ____
 72
65
 73
4
 40
0.6
 49
0.375
 74
0
 49
-0.075
 74
0
 49
0.075
 74
0
 49
-0.075
 74
0
  0
LTYPE
  5
1F6
100
AcDbSymbolTableRecord
100
AcDbLinetypeTableRecord
  2
HIDDEN
 70
64
  3
- - - - - - - - - - - - - - - - - - - -
 72
65
 73
2
 40
0.2
 49
0.1
 74
0
 49
-0.1
 74
0
  0
LTYPE
  5
1F7
100
AcDbSymbolTableRecord
100
AcDbLinetypeTableRecord
  2
PHANTOM
 70
64
  3
_____ _ _ _____ _ _ _____ _ _ _____
 72
65
 73
6
 40
0.8
 49
0.45
 74
0
 49
-0.05
 74
0
 49
0.1
 74
0
 49
-0.05
 74
0
 49
0.1
 74
0
 49
-0.05
 74
0
  0
LTYPE
  5
1F8
100
AcDbSymbolTableRecord
100
AcDbLinetypeTableRecord
  2
DOT
 70
64
  3
. . . . . . . . . . . . . . . . . . . .
 72
65
 73
2
 40
0.2
 49
0.1
 74
0
 49
-0.1
 74
0
  0
LTYPE
  5
1F9
100
AcDbSymbolTableRecord
100
AcDbLinetypeTableRecord
  2
DASHED
 70
64
  3
- - - - - - - - - - - - - - - - - - - -
 72
65
 73
2
 40
0.2
 49
0.1
 74
0
 49
-0.1
 74
0
  0
ENDTAB
  0
TABLE
  2
LAYER
  5
2
100
AcDbSymbolTable
 70
36
  0
LAYER
  5
10
100
AcDbSymbolTableRecord
100
AcDbLayerTableRecord
  2
0
 70
0
 62
7
  6
CONTINUOUS
370
-3
390
F
  0
LAYER
  5
1FA
100
AcDbSymbolTableRecord
100
AcDbLayerTableRecord
  2
DEFAULT_1
 70
0
 62
7
  6
CENTER
370
-3
390
F
  0
LAYER
  5
1FB
100
AcDbSymbolTableRecord
100
AcDbLayerTableRecord
  2
DEFAULT_2
 70
0
 62
8
  6
HIDDEN
370
-3
390
F
  0
LAYER
  5
1FC
100
AcDbSymbolTableRecord
100
AcDbLayerTableRecord
  2
DEFAULT_3
 70
0
 62
7
  6
PHANTOM
370
-3
390
F
  0
LAYER
  5
1FD
100
AcDbSymbolTableRecord
100
AcDbLayerTableRecord
  2
30438
 70
0
 62
7
  6
CONTINUOUS
370
-3
390
F
  0
LAYER
  5
1FE
100
AcDbSymbolTableRecord
100
AcDbLayerTableRecord
  2
91017
 70
0
 62
7
  6
CONTINUOUS
370
-3
390
F
  0
LAYER
  5
1FF
100
AcDbSymbolTableRecord
100
AcDbLayerTableRecord
  2
DEFAULT_COORDINATE_SYSTEM
 70
0
 62
7
  6
CONTINUOUS
370
-3
390
F
  0
LAYER
  5
200
100
AcDbSymbolTableRecord
100
AcDbLayerTableRecord
  2
DEFAULT_DATUM_AXES
 70
0
 62
7
  6
CONTINUOUS
370
-3
390
F
  0
LAYER
  5
201
100
AcDbSymbolTableRecord
100
AcDbLayerTableRecord
  2
DEFAULT_DATUM_CURVES
 70
0
 62
7
  6
CONTINUOUS
370
-3
390
F
  0
LAYER
  5
202
100
AcDbSymbolTableRecord
100
AcDbLayerTableRecord
  2
DEFAULT_DATUM_PLANES
 70
0
 62
7
  6
CONTINUOUS
370
-3
390
F
  0
LAYER
  5
203
100
AcDbSymbolTableRecord
100
AcDbLayerTableRecord
  2
INTF_30438
 70
0
 62
7
  6
CONTINUOUS
370
-3
390
F
  0
LAYER
  5
204
100
AcDbSymbolTableRecord
100
AcDbLayerTableRecord
  2
INTF_91017
 70
0
 62
7
  6
CONTINUOUS
370
-3
390
F
  0
ENDTAB
  0
TABLE
  2
STYLE
  5
3
100
AcDbSymbolTable
 70
1
  0
STYLE
  5
11
100
AcDbSymbolTableRecord
100
AcDbTextStyleTableRecord
  2
STANDARD
 70
0
 40
0.0
 41
0.8
 50
0.0
 71
0
 42
0.2
  3
txt
  4

  0
STYLE
  5
205
100
AcDbSymbolTableRecord
100
AcDbTextStyleTableRecord
  2
TEXTSTYLE_1
 70
0
 40
0.0
 41
0.8
 50
0.0
 71
0
 42
0.2
  3
gdt
  4

  0
ENDTAB
  0
TABLE
  2
VIEW
  5
6
100
AcDbSymbolTable
 70
0
  0
ENDTAB
  0
TABLE
  2
UCS
  5
7
100
AcDbSymbolTable
 70
0
  0
ENDTAB
  0
TABLE
  2
APPID
  5
9
100
AcDbSymbolTable
 70
1
  0
APPID
  5
206
100
AcDbSymbolTableRecord
100
AcDbRegAppTableRecord
  2
ACAD
 70
0
  0
ENDTAB
  0
TABLE
  2
BLOCK_RECORD
  5
1
100
AcDbSymbolTable
 70
0
  0
BLOCK_RECORD
  5
207
100
AcDbSymbolTableRecord
100
AcDbBlockTableRecord
  2
*Model_Space
  0
BLOCK_RECORD
  5
208
100
AcDbSymbolTableRecord
100
AcDbBlockTableRecord
  2
*Paper_Space
  0
ENDTAB
  0
TABLE
  2
DIMSTYLE
  5
A
100
AcDbSymbolTable
 70
1
100
AcDbDimStyleTable
 71
0
  0
DIMSTYLE
105
209
100
AcDbSymbolTableRecord
100
AcDbDimStyleTableRecord
  2
STANDARD
 70
0
  3

  4

 40
1.0
 41
0.1
 42
0.0625
 43
0.38
 44
0.18
 45
0.0
 46
0.0
 47
0.01
 48
0.01
140
0.08
141
0.09
142
0.0
143
25.4
144
1.0
145
0.0
146
1.0
147
0.09
 71
1.0
 72
0.0
 73
1
 74
1
 75
0
 76
0
 77
0
 78
4
170
0
171
2
172
0
173
0
174
0
175
0
176
0
177
0
178
0
270
2
271
2
272
2
273
2
274
2
275
0
280
0
281
0
282
0
283
1
284
4
285
0
286
0
287
3
288
0
340
11
  0
ENDTAB
  0
ENDSEC
  0
SECTION
  2
BLOCKS
  0
BLOCK
  5
20
100
AcDbEntity
  8
0
100
AcDbBlockBegin
  2
*Model_Space
 70
0
 10
0.0
 20
0.0
 30
0.0
  3
*Model_Space
  1

  0
ENDBLK
  5
21
100
AcDbEntity
  8
0
100
AcDbBlockEnd
  0
BLOCK
  5
1C
100
AcDbEntity
  8
0
100
AcDbBlockBegin
  2
*Paper_Space
 70
0
 10
0.0
 20
0.0
 30
0.0
  3
*Paper_Space
  1

  0
ENDBLK
  5
1D
100
AcDbEntity
  8
0
100
AcDbBlockEnd
  0
ENDSEC
  0
SECTION
  2
ENTITIES
  0
LINE
  5
20A
100
AcDbEntity
  8
0
100
AcDbLine
 62
7
  6
CONTINUOUS
 10
0.354844369
 20
0.5391138632
 11
0.354844369
 21
0.5562325888
  0
LINE
  5
20B
100
AcDbEntity
  8
0
100
AcDbLine
 62
7
  6
CONTINUOUS
 10
0.5199337689
 20
0.3916138632
 11
0.5199337689
 21
0.3866138632
  0
LINE
  5
20C
100
AcDbEntity
  8
0
100
AcDbLine
 62
7
  6
CONTINUOUS
 10
0.534844369
 20
0.3091138632
 11
0.534844369
 21
0.3491138632
  0
LINE
  5
20D
100
AcDbEntity
  8
0
100
AcDbLine
 62
7
  6
CONTINUOUS
 10
0.534844369
 20
0.4291138632
 11
0.534844369
 21
0.4376148655
  0
LINE
  5
20E
100
AcDbEntity
  8
0
100
AcDbLine
 62
7
  6
CONTINUOUS
 10
0.534844369
 20
0.5006128608
 11
0.534844369
 21
0.5091138632
  0
LINE
  5
20F
100
AcDbEntity
  8
0
100
AcDbLine
 62
7
  6
CONTINUOUS
 10
0.589844369
 20
0.3491138632
 11
0.589844369
 21
0.3541138632
  0
LINE
  5
210
100
AcDbEntity
  8
0
100
AcDbLine
 62
7
  6
CONTINUOUS
 10
0.589844369
 20
0.4241138632
 11
0.589844369
 21
0.4291138632
  0
LINE
  5
211
100
AcDbEntity
  8
0
100
AcDbLine
 62
7
  6
CONTINUOUS
 10
1.0148441504
 20
0.3091138632
 11
0.5348445875
 21
0.3091138632
  0
LINE
  5
212
100
AcDbEntity
  8
0
100
AcDbLine
 62
7
  6
CONTINUOUS
 10
1.0148441504
 20
0.3491138632
 11
0.5348445875
 21
0.3491138632
  0
LINE
  5
213
100
AcDbEntity
  8
0
100
AcDbLine
 62
7
  6
CONTINUOUS
 10
0.557844369
 20
0.3541138632
 11
0.991844369
 21
0.3541138632
  0
LINE
  5
214
100
AcDbEntity
  8
0
100
AcDbLine
 62
7
  6
CONTINUOUS
 10
0.5199337689
 20
0.3866138632
 11
1.0297549691
 21
0.3866138632
  0
LINE
  5
215
100
AcDbEntity
  8
0
100
AcDbLine
 62
7
  6
CONTINUOUS
 10
0.5199337689
 20
0.3916138632
 11
1.0297549691
 21
0.3916138632
  0
LINE
  5
216
100
AcDbEntity
  8
0
100
AcDbLine
 62
7
  6
CONTINUOUS
 10
0.991844369
 20
0.4241138632
 11
0.557844369
 21
0.4241138632
  0
LINE
  5
217
100
AcDbEntity
  8
0
100
AcDbLine
 62
7
  6
CONTINUOUS
 10
1.0148441504
 20
0.4291138632
 11
0.5348445875
 21
0.4291138632
  0
LINE
  5
218
100
AcDbEntity
  8
0
100
AcDbLine
 62
7
  6
CONTINUOUS
 10
1.1648442287
 20
0.5091138632
 11
0.3848445092
 21
0.5091138632
  0
LINE
  5
219
100
AcDbEntity
  8
0
100
AcDbLine
 62
9
  6
CONTINUOUS
 10
0.3548443738
 20
0.5391138632
 11
1.1948443641
 21
0.5391138632
  0
LINE
  5
21A
100
AcDbEntity
  8
0
100
AcDbLine
 62
9
  6
CONTINUOUS
 10
1.1948443641
 20
0.5562325888
 11
0.3548443738
 21
0.5562325888
  0
LINE
  5
21B
100
AcDbEntity
  8
0
100
AcDbLine
 62
9
  6
CONTINUOUS
 10
1.1613622165
 20
0.603425389
 11
0.3883265214
 21
0.603425389
  0
LINE
  5
21C
100
AcDbEntity
  8
0
100
AcDbLine
 62
7
  6
CONTINUOUS
 10
0.959844369
 20
0.3491138632
 11
0.959844369
 21
0.3541138632
  0
LINE
  5
21D
100
AcDbEntity
  8
0
100
AcDbLine
 62
7
  6
CONTINUOUS
 10
0.959844369
 20
0.4241138632
 11
0.959844369
 21
0.4291138632
  0
LINE
  5
21E
100
AcDbEntity
  8
0
100
AcDbLine
 62
7
  6
CONTINUOUS
 10
1.014844369
 20
0.3091138632
 11
1.014844369
 21
0.3491138632
  0
LINE
  5
21F
100
AcDbEntity
  8
0
100
AcDbLine
 62
7
  6
CONTINUOUS
 10
1.014844369
 20
0.4291138632
 11
1.014844369
 21
0.5091138632
  0
LINE
  5
220
100
AcDbEntity
  8
0
100
AcDbLine
 62
7
  6
CONTINUOUS
 10
1.0297549691
 20
0.3916138632
 11
1.0297549691
 21
0.3866138632
  0
LINE
  5
221
100
AcDbEntity
  8
0
100
AcDbLine
 62
7
  6
CONTINUOUS
 10
1.194844369
 20
0.5391138632
 11
1.194844369
 21
0.5562325888
  0
ARC
  5
222
100
AcDbEntity
  8
0
100
AcDbCircle
 62
7
  6
CONTINUOUS
 10
0.774844369
 20
-0.5008861368
 40
1.17
100
AcDbArc
 50
70.7095459639
 51
109.2904540361
  0
ARC
  5
223
100
AcDbEntity
  8
0
100
AcDbCircle
 62
7
  6
CONTINUOUS
 10
1.144844369
 20
0.5562325888
 40
0.05
100
AcDbArc
 50
0.0
 51
70.709545964
  0
ARC
  5
224
100
AcDbEntity
  8
0
100
AcDbCircle
 62
7
  6
CONTINUOUS
 10
0.404844369
 20
0.5562325888
 40
0.05
100
AcDbArc
 50
109.290454036
 51
180.0
  0
ARC
  5
225
100
AcDbEntity
  8
0
100
AcDbCircle
 62
7
  6
CONTINUOUS
 10
0.9918444261
 20
0.3891139495
 40
0.0349997504
100
AcDbArc
 50
4.0959094773
 51
90.0000936166
  0
ARC
  5
226
100
AcDbEntity
  8
0
100
AcDbCircle
 62
7
  6
CONTINUOUS
 10
0.5578443136
 20
0.3891137749
 40
0.0349997504
100
AcDbArc
 50
184.0959061723
 51
270.0000907064
  0
ARC
  5
227
100
AcDbEntity
  8
0
100
AcDbCircle
 62
7
  6
CONTINUOUS
 10
0.9918442547
 20
0.389113766
 40
0.0349997377
100
AcDbArc
 50
270.000186977
 51
355.9041282185
  0
ARC
  5
228
100
AcDbEntity
  8
0
100
AcDbCircle
 62
7
  6
CONTINUOUS
 10
0.5578444884
 20
0.3891139643
 40
0.0349997377
100
AcDbArc
 50
90.000195439
 51
175.9041352587
  0
ARC
  5
229
100
AcDbEntity
  8
0
100
AcDbCircle
 62
7
  6
CONTINUOUS
 10
0.384844369
 20
0.5391138632
 40
0.03
100
AcDbArc
 50
180.0
 51
270.0
  0
ARC
  5
22A
100
AcDbEntity
  8
0
100
AcDbCircle
 62
7
  6
CONTINUOUS
 10
1.164844369
 20
0.5391138632
 40
0.03
100
AcDbArc
 50
270.0
 51
360.0
  0
LINE
  5
22B
100
AcDbEntity
  8
0
100
AcDbLine
 62
7
  6
CONTINUOUS
 10
0.534982748
 20
0.4386861261
 11
0.534844369
 21
0.4376138632
  0
SPLINE
  5
22C
100
AcDbEntity
  8
0
100
AcDbSpline
 62
7
  6
CONTINUOUS
 70
0
 71
3
 72
52
 73
48
 74
46
 42
0.0000001
 43
0.0000001
 44
0.0000000001
 12
0.0
 22
0.0315907103
 32
0.0
 13
-0.0137124789
 23
0.0284594607
 33
0.0
 40
0.0
 40
0.0
 40
0.0
 40
0.0
 40
0.0977099234
 40
0.1946662248
 40
0.2425149755
 40
0.2897614416
 40
0.3820029024
 40
0.4705572672
 40
0.554603577
 40
0.6333643891
 40
0.7060857158
 40
0.7399492558
 40
0.7720415886
 40
0.8022896291
 40
0.8306201074
 40
0.8569595811
 40
0.8812357049
 40
0.9033903143
 40
0.9233742494
 40
0.9411384102
 40
0.9491727104
 40
0.9566336182
 40
0.9635149747
 40
0.9698107986
 40
0.9755173618
 40
0.9806324645
 40
0.9851539355
 40
0.9890796027
 40
0.9908183308
 40
0.9924072932
 40
0.993846218
 40
0.9951348336
 40
0.9962728681
 40
0.9972600496
 40
0.9980961065
 40
0.9987807666
 40
0.9990662379
 40
0.999313758
 40
0.999523293
 40
0.9996948087
 40
0.9998282714
 40
0.9998807221
 40
0.9999236468
 40
0.9999570412
 40
0.999980901
 40
0.999995222
 40
1.0
 40
1.0
 40
1.0
 40
1.0
 10
0.5369205366
 20
0.4691138632
 30
0.0
 10
0.5369205366
 20
0.4701427718
 30
0.0
 10
0.5369069148
 20
0.4721926749
 30
0.0
 10
0.5368574589
 20
0.4747460061
 30
0.0
 10
0.5367990665
 20
0.4767675233
 30
0.0
 10
0.5367294521
 20
0.4787390059
 30
0.0
 10
0.5366223794
 20
0.4811380211
 30
0.0
 10
0.5364652955
 20
0.4839225048
 30
0.0
 10
0.5362860533
 20
0.4865633803
 30
0.0
 10
0.5360917359
 20
0.4890359688
 30
0.0
 10
0.5359198646
 20
0.4909801516
 30
0.0
 10
0.5357812009
 20
0.4924338608
 30
0.0
 10
0.5356806907
 20
0.4934419155
 30
0.0
 10
0.5355821277
 20
0.4943916024
 30
0.0
 10
0.5354864617
 20
0.4952806789
 30
0.0
 10
0.5353946338
 20
0.4961069141
 30
0.0
 10
0.5353075903
 20
0.496868243
 30
0.0
 10
0.5352261194
 20
0.4975628445
 30
0.0
 10
0.5351509185
 20
0.4981891363
 30
0.0
 10
0.535092247
 20
0.4986676528
 30
0.0
 10
0.5350490362
 20
0.499015206
 30
0.0
 10
0.5350197347
 20
0.4992490076
 30
0.0
 10
0.5349925235
 20
0.4994646212
 30
0.0
 10
0.5349674909
 20
0.4996618896
 30
0.0
 10
0.5349446902
 20
0.499840693
 30
0.0
 10
0.534924153
 20
0.5000009493
 30
0.0
 10
0.534905912
 20
0.5001425932
 30
0.0
 10
0.5348921467
 20
0.5002489658
 30
0.0
 10
0.5348823082
 20
0.5003247091
 30
0.0
 10
0.5348758273
 20
0.5003744825
 30
0.0
 10
0.5348699447
 20
0.500419554
 30
0.0
 10
0.5348646642
 20
0.5004599155
 30
0.0
 10
0.5348599899
 20
0.5004955587
 30
0.0
 10
0.5348559259
 20
0.5005264757
 30
0.0
 10
0.5348524761
 20
0.5005526582
 30
0.0
 10
0.5348499859
 20
0.500571514
 30
0.0
 10
0.534848304
 20
0.5005842254
 30
0.0
 10
0.5348472772
 20
0.5005919767
 30
0.0
 10
0.5348464071
 20
0.5005985382
 30
0.0
 10
0.5348456935
 20
0.5006039089
 30
0.0
 10
0.5348451986
 20
0.5006076402
 30
0.0
 10
0.5348448791
 20
0.5006100284
 30
0.0
 10
0.5348447036
 20
0.5006113736
 30
0.0
 10
0.5348445553
 20
0.5006124165
 30
0.0
 10
0.534844476
 20
0.5006131697
 30
0.0
 10
0.5348443806
 20
0.5006136074
 30
0.0
 10
0.5348443908
 20
0.5006138178
 30
0.0
 10
0.534844369
 20
0.5006138632
 30
0.0
 11
0.5369205366
 21
0.4691138632
 31
0.0
 11
0.5369002924
 21
0.4722005227
 31
0.0
 11
0.5368409451
 21
0.4752628661
 31
0.0
 11
0.536797257
 21
0.4767738106
 31
0.0
 11
0.5367446051
 21
0.4782654311
 31
0.0
 11
0.5366148318
 21
0.4811765132
 31
0.0
 11
0.5364571713
 21
0.4839695623
 31
0.0
 11
0.5362774274
 21
0.4866185538
 31
0.0
 11
0.536082565
 21
0.4890990215
 31
0.0
 11
0.5358802295
 21
0.4913874122
 31
0.0
 11
0.5357786499
 21
0.4924523518
 31
0.0
 11
0.5356780654
 21
0.4934611694
 31
0.0
 11
0.5355794258
 21
0.4944116217
 31
0.0
 11
0.5354836813
 21
0.4953014655
 31
0.0
 11
0.5353917819
 21
0.4961284577
 31
0.0
 11
0.5353046648
 21
0.4968903936
 31
0.0
 11
0.5352231225
 21
0.497585507
 31
0.0
 11
0.5351478552
 21
0.4982123108
 31
0.0
 11
0.5350795617
 21
0.4987693222
 31
0.0
 11
0.5350482485
 21
0.4990211925
 31
0.0
 11
0.5350189407
 21
0.4992550586
 31
0.0
 11
0.5349917259
 21
0.4994707353
 31
0.0
 11
0.5349666886
 21
0.4996680426
 31
0.0
 11
0.5349438828
 21
0.4998468687
 31
0.0
 11
0.5349233409
 21
0.5000071474
 31
0.0
 11
0.5349050951
 21
0.5001488137
 31
0.0
 11
0.5348891777
 21
0.5002718026
 31
0.0
 11
0.5348821021
 21
0.5003262726
 31
0.0
 11
0.5348756207
 21
0.5003760489
 31
0.0
 11
0.5348697374
 21
0.5004211232
 31
0.0
 11
0.5348644563
 21
0.5004614874
 31
0.0
 11
0.5348597814
 21
0.5004971335
 31
0.0
 11
0.5348557168
 21
0.5005280533
 31
0.0
 11
0.5348522664
 21
0.5005542386
 31
0.0
 11
0.5348494343
 21
0.5005756812
 31
0.0
 11
0.5348482513
 21
0.5005846215
 31
0.0
 11
0.5348472245
 21
0.5005923732
 31
0.0
 11
0.5348463542
 21
0.5005989351
 31
0.0
 11
0.5348456409
 21
0.5006043062
 31
0.0
 11
0.5348450853
 21
0.5006084856
 31
0.0
 11
0.5348448668
 21
0.5006101281
 31
0.0
 11
0.5348446878
 21
0.5006114723
 31
0.0
 11
0.5348445484
 21
0.500612518
 31
0.0
 11
0.5348444488
 21
0.5006132651
 31
0.0
 11
0.534844389
 21
0.5006137135
 31
0.0
 11
0.534844369
 21
0.5006138632
 31
0.0
  0
LINE
  5
22D
100
AcDbEntity
  8
0
100
AcDbLine
 62
7
  6
CONTINUOUS
 10
0.534844369
 20
0.5006138632
 11
0.5349824301
 21
0.4995441091
  0
SPLINE
  5
22E
100
AcDbEntity
  8
0
100
AcDbSpline
 62
7
  6
CONTINUOUS
 70
0
 71
3
 72
53
 73
49
 74
47
 42
0.0000001
 43
0.0000001
 44
0.0000000001
 12
-0.0099780008
 22
0.0299735297
 32
0.0
 13
0.0
 23
0.0315907104
 33
0.0
 40
0.0
 40
0.0
 40
0.0
 40
0.0
 40
0.0000047766
 40
0.000019097
 40
0.0000429568
 40
0.0000763518
 40
0.0001192777
 40
0.0001717302
 40
0.0003051981
 40
0.0004767213
 40
0.0006862658
 40
0.0009337974
 40
0.0012192819
 40
0.0015426853
 40
0.0019039735
 40
0.0027400675
 40
0.0037272912
 40
0.0048653715
 40
0.0061540358
 40
0.0075930111
 40
0.0091820249
 40
0.0109208044
 40
0.01484657
 40
0.0193681274
 40
0.0244832965
 40
0.0301898984
 40
0.0364857299
 40
0.0433671124
 40
0.0508280743
 40
0.0588624495
 40
0.0766267949
 40
0.0966109134
 40
0.1187656485
 40
0.1430417968
 40
0.169381322
 40
0.1977119029
 40
0.2279600666
 40
0.2600525127
 40
0.2939161258
 40
0.3666377361
 40
0.4453989775
 40
0.5294454509
 40
0.6179996573
 40
0.710240528
 40
0.757486481
 40
0.8053347305
 40
0.9022903251
 40
1.0
 40
1.0
 40
1.0
 40
1.0
 10
0.534844369
 20
0.4376138632
 30
0.0
 10
0.5348443531
 20
0.4376139109
 30
0.0
 10
0.5348444344
 20
0.4376141154
 30
0.0
 10
0.5348444413
 20
0.4376145588
 30
0.0
 10
0.534844571
 20
0.4376153088
 30
0.0
 10
0.5348446969
 20
0.4376163532
 30
0.0
 10
0.5348448809
 20
0.4376176978
 30
0.0
 10
0.5348451962
 20
0.4376200864
 30
0.0
 10
0.5348456938
 20
0.4376238177
 30
0.0
 10
0.5348464061
 20
0.4376291887
 30
0.0
 10
0.5348472766
 20
0.4376357505
 30
0.0
 10
0.5348483033
 20
0.4376435022
 30
0.0
 10
0.5348494862
 20
0.4376524426
 30
0.0
 10
0.5348508247
 20
0.4376625707
 30
0.0
 10
0.5348529205
 20
0.4376784472
 30
0.0
 10
0.5348559256
 20
0.4377012545
 30
0.0
 10
0.5348599899
 20
0.4377321727
 30
0.0
 10
0.5348646645
 20
0.4377678174
 30
0.0
 10
0.5348699453
 20
0.4378081803
 30
0.0
 10
0.5348758284
 20
0.4378532534
 30
0.0
 10
0.5348823096
 20
0.4379030284
 30
0.0
 10
0.5348921488
 20
0.4379787737
 30
0.0
 10
0.5349059147
 20
0.4380851488
 30
0.0
 10
0.5349241563
 20
0.4382267953
 30
0.0
 10
0.5349446938
 20
0.4383870536
 30
0.0
 10
0.5349674943
 20
0.4385658581
 30
0.0
 10
0.5349925262
 20
0.4387631274
 30
0.0
 10
0.535019737
 20
0.438978742
 30
0.0
 10
0.5350490386
 20
0.4392125453
 30
0.0
 10
0.5350922498
 20
0.4395601018
 30
0.0
 10
0.5351509221
 20
0.4400386228
 30
0.0
 10
0.5352261242
 20
0.4406649197
 30
0.0
 10
0.5353075958
 20
0.4413595246
 30
0.0
 10
0.5353946387
 20
0.4421208558
 30
0.0
 10
0.5354864664
 20
0.4429470929
 30
0.0
 10
0.5355821326
 20
0.4438361723
 30
0.0
 10
0.5356806961
 20
0.4447858628
 30
0.0
 10
0.5357812067
 20
0.4457939207
 30
0.0
 10
0.5359198709
 20
0.4472476349
 30
0.0
 10
0.5360917412
 20
0.449191826
 30
0.0
 10
0.5362860567
 20
0.4516644239
 30
0.0
 10
0.5364653015
 20
0.4543053038
 30
0.0
 10
0.5366223836
 20
0.4570897815
 30
0.0
 10
0.5367294543
 20
0.4594887835
 30
0.0
 10
0.5367990704
 20
0.4614602491
 30
0.0
 10
0.536857463
 20
0.4634817482
 30
0.0
 10
0.5369069165
 20
0.4660350641
 30
0.0
 10
0.5369205366
 20
0.4680849572
 30
0.0
 10
0.5369205366
 20
0.4691138632
 30
0.0
 11
0.534844369
 21
0.4376138632
 31
0.0
 11
0.5348443889
 21
0.4376140128
 31
0.0
 11
0.5348444486
 21
0.4376144612
 31
0.0
 11
0.5348445482
 21
0.4376152083
 31
0.0
 11
0.5348446874
 21
0.4376162541
 31
0.0
 11
0.5348448663
 21
0.4376175983
 31
0.0
 11
0.5348450848
 21
0.4376192408
 31
0.0
 11
0.5348456404
 21
0.4376234204
 31
0.0
 11
0.5348463535
 21
0.4376287918
 31
0.0
 11
0.5348472238
 21
0.437635354
 31
0.0
 11
0.5348482507
 21
0.437643106
 31
0.0
 11
0.5348494336
 21
0.4376520467
 31
0.0
 11
0.5348507722
 21
0.4376621752
 31
0.0
 11
0.5348522659
 21
0.4376734904
 31
0.0
 11
0.5348557165
 21
0.4376996768
 31
0.0
 11
0.5348597814
 21
0.4377305979
 31
0.0
 11
0.5348644566
 21
0.4377662454
 31
0.0
 11
0.5348697381
 21
0.4378066112
 31
0.0
 11
0.5348756217
 21
0.437851687
 31
0.0
 11
0.5348821036
 21
0.4379014649
 31
0.0
 11
0.5348891795
 21
0.4379559365
 31
0.0
 11
0.5349050978
 21
0.4380789284
 31
0.0
 11
0.5349233441
 21
0.4382205974
 31
0.0
 11
0.5349438863
 21
0.4383808782
 31
0.0
 11
0.534966692
 21
0.4385597055
 31
0.0
 11
0.5349917286
 21
0.4387570131
 31
0.0
 11
0.5350189431
 21
0.4389726907
 31
0.0
 11
0.5350482508
 21
0.4392065586
 31
0.0
 11
0.5350795643
 21
0.4394584312
 31
0.0
 11
0.5351478589
 21
0.4400154483
 31
0.0
 11
0.5352231273
 21
0.4406422578
 31
0.0
 11
0.5353046702
 21
0.4413373752
 31
0.0
 11
0.5353917869
 21
0.4420993118
 31
0.0
 11
0.535483686
 21
0.4429263057
 31
0.0
 11
0.5355794308
 21
0.4438161528
 31
0.0
 11
0.5356780708
 21
0.444766609
 31
0.0
 11
0.5357786558
 21
0.4457754301
 31
0.0
 11
0.5358802354
 21
0.4468403721
 31
0.0
 11
0.5360825701
 21
0.4491287718
 31
0.0
 11
0.5362774319
 21
0.4516092532
 31
0.0
 11
0.5364571769
 21
0.4542582498
 31
0.0
 11
0.5366148362
 21
0.4570512939
 31
0.0
 11
0.5367446081
 21
0.4599623574
 31
0.0
 11
0.5367972606
 21
0.4614539617
 31
0.0
 11
0.5368409488
 21
0.4629648904
 31
0.0
 11
0.5369002941
 21
0.4660272115
 31
0.0
 11
0.5369205366
 21
0.4691138632
 31
0.0
  0
ENDSEC
  0
SECTION
  2
OBJECTS
  0
DICTIONARY
  5
C
100
AcDbDictionary
280
0
281
1
  3
ACAD_GROUP
350
D
  3
ACAD_MLINESTYLE
350
17
  3
ACAD_LAYOUT
350
1A
  3
ACAD_PLOTSETTINGS
350
19
  3
ACAD_PLOTSTYLENAME
350
E
  0
DICTIONARY
  5
D
102
{ACAD_REACTORS
330
C
102
}
100
AcDbDictionary
280
0
281
1
  0
ACDBDICTIONARYWDFLT
  5
E
102
{ACAD_REACTORS
330
C
102
}
100
AcDbDictionary
281
1
  3
Normal
350
F
100
AcDbDictionaryWithDefault
340
F
  0
DICTIONARY
  5
17
102
{ACAD_REACTORS
330
C
102
}
100
AcDbDictionary
280
0
281
1
  3
Standard
350
18
  0
DICTIONARY
  5
19
102
{ACAD_REACTORS
330
C
102
}
100
AcDbDictionary
281
1
  0
DICTIONARY
  5
1A
102
{ACAD_REACTORS
330
C
102
}
100
AcDbDictionary
281
1
  3
Model
350
22F
  3
Layout1
350
230
  0
ACDBPLACEHOLDER
  5
F
102
{ACAD_REACTORS
330
E
102
}
  0
MLINESTYLE
  5
18
102
{ACAD_REACTORS
330
17
102
}
100
AcDbMlineStyle
  2
STANDARD
 70
0
  3

 62
256
 51
90.0
 52
90.0
 71
2
 49
0.5
 62
256
  6
BYLAYER
 49
-0.5
 62
256
  6
BYLAYER
  0
LAYOUT
  5
22F
102
{ACAD_REACTORS
330
1A
102
}
100
AcDbPlotSettings
  1

  2
none_device
  4

  6

 40
0.0
 41
0.0
 42
0.0
 43
0.0
 44
38.1
 45
25.4
 46
0.0
 47
0.0
 48
0.0
 49
0.0
140
0.0
141
0.0
142
1.0
143
1.0
 70
1024
 72
0
 73
0
 74
0
  7

 75
0
147
1.0
148
0.0
149
0.0
100
AcDbLayout
  1
Model
 70
0
 71
0
 10
0.0
 20
0.0
 11
1.5
 21
1.0
 12
0.0
 22
0.0
 32
0.0
 14
0.0
 24
0.0
 34
0.0
 15
0.0
 25
0.0
 35
0.0
146
0.0
 13
0.0
 23
0.0
 33
0.0
 16
1.0
 26
0.0
 36
0.0
 17
0.0
 27
1.0
 37
0.0
 76
0
330
207
345
0
346
0
  0
LAYOUT
  5
230
102
{ACAD_REACTORS
330
1A
102
}
100
AcDbPlotSettings
  1

  2
none_device
  4

  6

 40
0.0
 41
0.0
 42
0.0
 43
0.0
 44
38.1
 45
25.4
 46
0.0
 47
0.0
 48
0.0
 49
0.0
140
0.0
141
0.0
142
1.0
143
1.0
 70
0
 72
0
 73
0
 74
0
  7

 75
0
147
1.0
148
0.0
149
0.0
100
AcDbLayout
  1
Layout1
 70
0
 71
1
 10
0.0
 20
0.0
 11
1.5
 21
1.0
 12
0.0
 22
0.0
 32
0.0
 14
0.0
 24
0.0
 34
0.0
 15
0.0
 25
0.0
 35
0.0
146
0.0
 13
0.0
 23
0.0
 33
0.0
 16
1.0
 26
0.0
 36
0.0
 17
0.0
 27
1.0
 37
0.0
 76
0
330
208
345
0
346
0
  0
ENDSEC
  0
EOF
