999
DXF file: 2-564_front.dxf
999
Pro/ENGINEER 2018400 by Parametric Technology Corporation
  0
SECTION
  2
HEADER
  9
$ACADVER
  1
AC1027
  9
$DWGCODEPAGE
  3
ANSI_1252
  9
$EXTMAX
 10
11.0
 20
8.5
 30
0.0
  9
$EXTMIN
 10
0.0
 20
0.0
 30
0.0
  9
$LIMMIN
 10
0.0
 20
0.0
  9
$LIMMAX
 10
11.0
 20
8.5
  9
$VIEWCTR
 10
5.5
 20
4.25
  9
$VIEWSIZE
 40
8.5
  9
$CLAYER
  8
0
  9
$LTSCALE
 40
0.605
  9
$CELTYPE
  6
BYLAYER
  9
$DIMSCALE
 40
1.0
  9
$DIMASZ
 40
0.1
  9
$DIMEXO
 40
0.0625
  9
$DIMDLI
 40
0.418
  9
$DIMEXE
 40
0.125
  9
$DIMCEN
 40
0.099
  9
$DIMLFAC
 40
1.0
  9
$DIMBLK
  1
_FILLED
  9
$DIMALT
 70
1
  9
$DIMALTD
 70
2
  9
$DIMALTTD
 70
2
  9
$DIMALTF
 40
25.4
  9
$DIMTXT
 40
0.08
  9
$DIMTOL
 70
1
  9
$DIMLIM
 70
0
  9
$DIMTFAC
 40
1.0
  9
$DIMTP
 40
0.001
  9
$DIMTM
 40
0.001
  9
$DIMGAP
 40
0.09
  9
$DIMDSEP
 70
46
  9
$AUNITS
 70
0
  9
$PDMODE
 70
3
  9
$PDSIZE
 40
0.3125
  9
$HANDSEED
  5
243
  9
$TILEMODE
 70
1
  9
$MEASUREMENT
 70
0
  9
$INSUNITS
 70
1
  0
ENDSEC
  0
SECTION
  2
CLASSES
  0
CLASS
  1
ACDBDICTIONARYWDFLT
  2
AcDbDictionaryWithDefault
  3
AutoCAD 2000
 90
0
 91
1
280
0
281
0
  0
CLASS
  1
ACDBPLACEHOLDER
  2
AcDbPlaceHolder
  3
AutoCAD 2000
 90
0
 91
1
280
0
281
0
  0
CLASS
  1
LAYOUT
  2
AcDbLayout
  3
AutoCAD 2000
 90
0
 91
0
280
0
281
0
  0
ENDSEC
  0
SECTION
  2
TABLES
  0
TABLE
  2
VPORT
  5
8
100
AcDbSymbolTable
 70
2
  0
VPORT
  5
1F4
100
AcDbSymbolTableRecord
100
AcDbViewportTableRecord
  2
*ACTIVE
 70
0
 10
0.0
 20
0.0
 11
1.0
 21
1.0
 12
5.5
 22
4.25
 13
0.0
 23
0.0
 14
1.0
 24
1.0
 15
0.0
 25
0.0
 16
0.0
 26
0.0
 36
1.0
 17
0.0
 27
0.0
 37
0.0
 40
8.5
 41
1.2941176471
 42
50.0
 43
0.0
 44
0.0
 50
0.0
 51
0.0
 71
0
 72
100
 73
1
 74
1
 75
0
 76
0
 77
0
 78
0
  0
ENDTAB
  0
TABLE
  2
LTYPE
  5
5
100
AcDbSymbolTable
 70
6
  0
LTYPE
  5
14
100
AcDbSymbolTableRecord
100
AcDbLinetypeTableRecord
  2
BYBLOCK
 70
0
  3

 72
65
 73
0
 40
0.0
  0
LTYPE
  5
15
100
AcDbSymbolTableRecord
100
AcDbLinetypeTableRecord
  2
BYLAYER
 70
0
  3

 72
65
 73
0
 40
0.0
  0
LTYPE
  5
16
100
AcDbSymbolTableRecord
100
AcDbLinetypeTableRecord
  2
CONTINUOUS
 70
64
  3
Solid line
 72
65
 73
0
 40
0.0
  0
LTYPE
  5
1F5
100
AcDbSymbolTableRecord
100
AcDbLinetypeTableRecord
  2
CENTER
 70
64
  3
____ _ ____ _ ____ _ ____ _ ____ _ ____ _ ____
 72
65
 73
4
 40
0.6
 49
0.375
 74
0
 49
-0.075
 74
0
 49
0.075
 74
0
 49
-0.075
 74
0
  0
LTYPE
  5
1F6
100
AcDbSymbolTableRecord
100
AcDbLinetypeTableRecord
  2
HIDDEN
 70
64
  3
- - - - - - - - - - - - - - - - - - - -
 72
65
 73
2
 40
0.2
 49
0.1
 74
0
 49
-0.1
 74
0
  0
LTYPE
  5
1F7
100
AcDbSymbolTableRecord
100
AcDbLinetypeTableRecord
  2
PHANTOM
 70
64
  3
_____ _ _ _____ _ _ _____ _ _ _____
 72
65
 73
6
 40
0.8
 49
0.45
 74
0
 49
-0.05
 74
0
 49
0.1
 74
0
 49
-0.05
 74
0
 49
0.1
 74
0
 49
-0.05
 74
0
  0
LTYPE
  5
1F8
100
AcDbSymbolTableRecord
100
AcDbLinetypeTableRecord
  2
DOT
 70
64
  3
. . . . . . . . . . . . . . . . . . . .
 72
65
 73
2
 40
0.2
 49
0.1
 74
0
 49
-0.1
 74
0
  0
LTYPE
  5
1F9
100
AcDbSymbolTableRecord
100
AcDbLinetypeTableRecord
  2
DASHED
 70
64
  3
- - - - - - - - - - - - - - - - - - - -
 72
65
 73
2
 40
0.2
 49
0.1
 74
0
 49
-0.1
 74
0
  0
ENDTAB
  0
TABLE
  2
LAYER
  5
2
100
AcDbSymbolTable
 70
36
  0
LAYER
  5
10
100
AcDbSymbolTableRecord
100
AcDbLayerTableRecord
  2
0
 70
0
 62
7
  6
CONTINUOUS
370
-3
390
F
  0
LAYER
  5
1FA
100
AcDbSymbolTableRecord
100
AcDbLayerTableRecord
  2
DEFAULT_1
 70
0
 62
7
  6
CENTER
370
-3
390
F
  0
LAYER
  5
1FB
100
AcDbSymbolTableRecord
100
AcDbLayerTableRecord
  2
DEFAULT_2
 70
0
 62
8
  6
HIDDEN
370
-3
390
F
  0
LAYER
  5
1FC
100
AcDbSymbolTableRecord
100
AcDbLayerTableRecord
  2
DEFAULT_3
 70
0
 62
7
  6
PHANTOM
370
-3
390
F
  0
LAYER
  5
1FD
100
AcDbSymbolTableRecord
100
AcDbLayerTableRecord
  2
ADATUM
 70
0
 62
7
  6
CONTINUOUS
370
-3
390
F
  0
LAYER
  5
1FE
100
AcDbSymbolTableRecord
100
AcDbLayerTableRecord
  2
ALL_FEATURES
 70
0
 62
7
  6
CONTINUOUS
370
-3
390
F
  0
LAYER
  5
1FF
100
AcDbSymbolTableRecord
100
AcDbLayerTableRecord
  2
AXES_FEATURES
 70
0
 62
7
  6
CONTINUOUS
370
-3
390
F
  0
LAYER
  5
200
100
AcDbSymbolTableRecord
100
AcDbLayerTableRecord
  2
BLANK_ME
 70
0
 62
7
  6
CONTINUOUS
370
-3
390
F
  0
LAYER
  5
201
100
AcDbSymbolTableRecord
100
AcDbLayerTableRecord
  2
CHAMFER_FEATURES
 70
0
 62
7
  6
CONTINUOUS
370
-3
390
F
  0
LAYER
  5
202
100
AcDbSymbolTableRecord
100
AcDbLayerTableRecord
  2
CROSS_CUT
 70
0
 62
7
  6
CONTINUOUS
370
-3
390
F
  0
LAYER
  5
203
100
AcDbSymbolTableRecord
100
AcDbLayerTableRecord
  2
CUT_FEATURES
 70
0
 62
7
  6
CONTINUOUS
370
-3
390
F
  0
LAYER
  5
204
100
AcDbSymbolTableRecord
100
AcDbLayerTableRecord
  2
DATUM_CURVES
 70
0
 62
7
  6
CONTINUOUS
370
-3
390
F
  0
LAYER
  5
205
100
AcDbSymbolTableRecord
100
AcDbLayerTableRecord
  2
DATUM_PLANES
 70
0
 62
7
  6
CONTINUOUS
370
-3
390
F
  0
LAYER
  5
206
100
AcDbSymbolTableRecord
100
AcDbLayerTableRecord
  2
DATUM_POINTS
 70
0
 62
7
  6
CONTINUOUS
370
-3
390
F
  0
LAYER
  5
207
100
AcDbSymbolTableRecord
100
AcDbLayerTableRecord
  2
DEFAULT_COORDINATE_SYSTEM
 70
0
 62
7
  6
CONTINUOUS
370
-3
390
F
  0
LAYER
  5
208
100
AcDbSymbolTableRecord
100
AcDbLayerTableRecord
  2
DEFAULT_DATUM_AXES
 70
0
 62
7
  6
CONTINUOUS
370
-3
390
F
  0
LAYER
  5
209
100
AcDbSymbolTableRecord
100
AcDbLayerTableRecord
  2
DEFAULT_DATUM_PLANES
 70
0
 62
7
  6
CONTINUOUS
370
-3
390
F
  0
LAYER
  5
20A
100
AcDbSymbolTableRecord
100
AcDbLayerTableRecord
  2
DEF_DTM0
 70
0
 62
7
  6
CONTINUOUS
370
-3
390
F
  0
LAYER
  5
20B
100
AcDbSymbolTableRecord
100
AcDbLayerTableRecord
  2
DIMENSIONS
 70
0
 62
7
  6
CONTINUOUS
370
-3
390
F
  0
LAYER
  5
20C
100
AcDbSymbolTableRecord
100
AcDbLayerTableRecord
  2
DRW_DTM
 70
0
 62
7
  6
CONTINUOUS
370
-3
390
F
  0
LAYER
  5
20D
100
AcDbSymbolTableRecord
100
AcDbLayerTableRecord
  2
PART_REFERENCE_DIMENSIONS
 70
0
 62
7
  6
CONTINUOUS
370
-3
390
F
  0
LAYER
  5
20E
100
AcDbSymbolTableRecord
100
AcDbLayerTableRecord
  2
POINTS
 70
0
 62
7
  6
CONTINUOUS
370
-3
390
F
  0
LAYER
  5
20F
100
AcDbSymbolTableRecord
100
AcDbLayerTableRecord
  2
PROTRUSION_FEATURES
 70
0
 62
7
  6
CONTINUOUS
370
-3
390
F
  0
LAYER
  5
210
100
AcDbSymbolTableRecord
100
AcDbLayerTableRecord
  2
QUILTS
 70
0
 62
7
  6
CONTINUOUS
370
-3
390
F
  0
LAYER
  5
211
100
AcDbSymbolTableRecord
100
AcDbLayerTableRecord
  2
REFERENCE_DIMENSIONS
 70
0
 62
7
  6
CONTINUOUS
370
-3
390
F
  0
LAYER
  5
212
100
AcDbSymbolTableRecord
100
AcDbLayerTableRecord
  2
ROUND_FEATURES
 70
0
 62
7
  6
CONTINUOUS
370
-3
390
F
  0
LAYER
  5
213
100
AcDbSymbolTableRecord
100
AcDbLayerTableRecord
  2
SHELL_FEATURES
 70
0
 62
7
  6
CONTINUOUS
370
-3
390
F
  0
ENDTAB
  0
TABLE
  2
STYLE
  5
3
100
AcDbSymbolTable
 70
1
  0
STYLE
  5
11
100
AcDbSymbolTableRecord
100
AcDbTextStyleTableRecord
  2
STANDARD
 70
0
 40
0.0
 41
0.8
 50
0.0
 71
0
 42
0.2
  3
txt
  4

  0
STYLE
  5
214
100
AcDbSymbolTableRecord
100
AcDbTextStyleTableRecord
  2
TEXTSTYLE_1
 70
0
 40
0.0
 41
0.8
 50
0.0
 71
0
 42
0.2
  3
gdt
  4

  0
ENDTAB
  0
TABLE
  2
VIEW
  5
6
100
AcDbSymbolTable
 70
0
  0
ENDTAB
  0
TABLE
  2
UCS
  5
7
100
AcDbSymbolTable
 70
0
  0
ENDTAB
  0
TABLE
  2
APPID
  5
9
100
AcDbSymbolTable
 70
1
  0
APPID
  5
215
100
AcDbSymbolTableRecord
100
AcDbRegAppTableRecord
  2
ACAD
 70
0
  0
ENDTAB
  0
TABLE
  2
BLOCK_RECORD
  5
1
100
AcDbSymbolTable
 70
0
  0
BLOCK_RECORD
  5
216
100
AcDbSymbolTableRecord
100
AcDbBlockTableRecord
  2
*Model_Space
  0
BLOCK_RECORD
  5
217
100
AcDbSymbolTableRecord
100
AcDbBlockTableRecord
  2
*Paper_Space
  0
BLOCK_RECORD
  5
218
100
AcDbSymbolTableRecord
100
AcDbBlockTableRecord
  2
_FILLED
  0
ENDTAB
  0
TABLE
  2
DIMSTYLE
  5
A
100
AcDbSymbolTable
 70
1
100
AcDbDimStyleTable
 71
0
  0
DIMSTYLE
105
219
100
AcDbSymbolTableRecord
100
AcDbDimStyleTableRecord
  2
STANDARD
 70
0
  3

  4

 40
1.0
 41
0.1
 42
0.0625
 43
0.38
 44
0.125
 45
0.0
 46
0.0
 47
0.001
 48
0.001
140
0.08
141
0.09
142
0.0
143
25.4
144
1.0
145
0.0
146
1.0
147
0.09
 71
1.0
 72
0.0
 73
1
 74
1
 75
0
 76
0
 77
0
 78
4
 79
1
170
1
171
2
172
0
173
0
174
0
175
0
176
0
177
0
178
0
270
2
179
3
271
3
272
3
273
2
274
2
275
0
280
0
281
0
282
0
283
1
284
4
285
0
286
0
287
3
288
0
340
11
278
46
341
218
342
218
343
218
344
218
  0
ENDTAB
  0
ENDSEC
  0
SECTION
  2
BLOCKS
  0
BLOCK
  5
20
100
AcDbEntity
  8
0
100
AcDbBlockBegin
  2
*Model_Space
 70
0
 10
0.0
 20
0.0
 30
0.0
  3
*Model_Space
  1

  0
ENDBLK
  5
21
100
AcDbEntity
  8
0
100
AcDbBlockEnd
  0
BLOCK
  5
1C
100
AcDbEntity
  8
0
100
AcDbBlockBegin
  2
*Paper_Space
 70
0
 10
0.0
 20
0.0
 30
0.0
  3
*Paper_Space
  1

  0
ENDBLK
  5
1D
100
AcDbEntity
  8
0
100
AcDbBlockEnd
  0
BLOCK
  5
21A
100
AcDbEntity
  8
0
100
AcDbBlockBegin
  2
_FILLED
 70
64
 10
0.0
 20
0.0
  3
_FILLED
  1

  0
SOLID
  5
21B
100
AcDbEntity
  8
0
  6
BYBLOCK
 62
0
100
AcDbTrace
 10
0.0
 20
0.0
 11
-1.0
 21
0.2
 12
-1.0
 22
-0.2
 13
-1.0
 23
-0.2
  0
ENDBLK
  5
21C
100
AcDbEntity
  8
0
  6
BYBLOCK
 62
0
100
AcDbBlockEnd
  0
ENDSEC
  0
SECTION
  2
ENTITIES
  0
MTEXT
  5
21D
100
AcDbEntity
  8
0
100
AcDbMText
 62
2
  6
CONTINUOUS
  7
STANDARD
 71
3
 72
1
 10
5.3616459627
 20
2.8689596273
 30
0.0
 11
1.0
 21
0.0
 31
0.0
 73
2
 44
0.9
  1
SCALE  .500
 40
0.08
 41
0.704
  0
LINE
  5
21E
100
AcDbEntity
  8
0
100
AcDbLine
 62
7
  6
CONTINUOUS
 10
0.0
 20
0.0
 11
0.0
 21
8.5
  0
LINE
  5
21F
100
AcDbEntity
  8
0
100
AcDbLine
 62
7
  6
CONTINUOUS
 10
0.0
 20
0.0
 11
11.0
 21
0.0
  0
LINE
  5
220
100
AcDbEntity
  8
0
100
AcDbLine
 62
7
  6
CONTINUOUS
 10
0.0
 20
8.5
 11
11.0
 21
8.5
  0
LINE
  5
221
100
AcDbEntity
  8
0
100
AcDbLine
 62
7
  6
CONTINUOUS
 10
11.0
 20
0.0
 11
11.0
 21
8.5
  0
LWPOLYLINE
  5
222
100
AcDbEntity
  8
ALL_FEATURES
100
AcDbPolyline
 62
7
  6
CONTINUOUS
 90
13
 70
0
 10
4.4372915798
 20
5.3288726831
 10
4.4303753511
 20
5.2887376641
 10
4.4205126363
 20
5.2366129148
 10
4.4092379815
 20
5.1820120247
 10
4.3965507204
 20
5.1249820037
 10
4.3824983011
 20
5.0657543634
 10
4.3671886947
 20
5.0047378439
 10
4.3507594898
 20
4.9423819841
 10
4.33325128
 20
4.8787650347
 10
4.3146276205
 20
4.8137552099
 10
4.2949114823
 20
4.74750683
 10
4.2742116619
 20
4.6805043231
 10
4.253536618
 20
4.615998087
  0
LINE
  5
223
100
AcDbEntity
  8
ALL_FEATURES
100
AcDbLine
 62
7
  6
CONTINUOUS
 10
4.4586568323
 20
5.3861568323
 11
4.4586568323
 21
4.7111568323
  0
LINE
  5
224
100
AcDbEntity
  8
ALL_FEATURES
100
AcDbLine
 62
7
  6
CONTINUOUS
 10
4.5024068323
 20
4.6464652712
 11
4.5024068323
 21
5.2407237726
  0
LINE
  5
225
100
AcDbEntity
  8
ALL_FEATURES
100
AcDbLine
 62
7
  6
CONTINUOUS
 10
5.2820626349
 20
4.5867737102
 11
4.4727510297
 21
4.5867737102
  0
LINE
  5
226
100
AcDbEntity
  8
0
100
AcDbLine
 62
7
  6
CONTINUOUS
 10
5.2769082168
 20
4.7528620679
 11
5.2763406584
 21
4.7528566625
  0
LINE
  5
227
100
AcDbEntity
  8
ALL_FEATURES
100
AcDbLine
 62
7
  6
CONTINUOUS
 10
4.4586568323
 20
4.7111568323
 11
4.4803054023
 21
4.7111568323
  0
LINE
  5
228
100
AcDbEntity
  8
ALL_FEATURES
100
AcDbLine
 62
7
  6
CONTINUOUS
 10
5.2745080468
 20
4.7111568323
 11
5.2961568323
 21
4.7111568323
  0
LINE
  5
229
100
AcDbEntity
  8
0
100
AcDbLine
 62
7
  6
CONTINUOUS
 10
4.4779052077
 20
4.7528620591
 11
4.4784730051
 21
4.7528566625
  0
LINE
  5
22A
100
AcDbEntity
  8
ALL_FEATURES
100
AcDbLine
 62
7
  6
CONTINUOUS
 10
5.2524068323
 20
4.6464652712
 11
5.2524068323
 21
5.2407237726
  0
LINE
  5
22B
100
AcDbEntity
  8
ALL_FEATURES
100
AcDbLine
 62
7
  6
CONTINUOUS
 10
5.2961568323
 20
4.7111568323
 11
5.2961568323
 21
5.3861568323
  0
LWPOLYLINE
  5
22C
100
AcDbEntity
  8
ALL_FEATURES
100
AcDbPolyline
 62
7
  6
CONTINUOUS
 90
13
 70
0
 10
5.5012769958
 20
4.6159982426
 10
5.4806265764
 20
4.680426254
 10
5.4599515465
 20
4.7473440336
 10
5.4402597013
 20
4.8135029927
 10
5.4216596999
 20
4.8784185974
 10
5.4041730917
 20
4.941940695
 10
5.3877611668
 20
5.0042086948
 10
5.3724647342
 20
5.0651429675
 10
5.358420522
 20
5.1242971719
 10
5.3457340794
 20
5.1812743644
 10
5.3344531734
 20
5.2358450694
 10
5.3245790877
 20
5.2879562738
 10
5.3175232278
 20
5.3288657357
  0
LINE
  5
22D
100
AcDbEntity
  8
ALL_FEATURES
100
AcDbLine
 62
7
  6
CONTINUOUS
 10
5.2961568323
 20
5.3861568323
 11
4.4586568323
 21
5.3861568323
  0
ARC
  5
22E
100
AcDbEntity
  8
0
100
AcDbCircle
 62
7
  6
CONTINUOUS
 10
10.4176017567
 20
5.0032130738
 40
5.1523959296
100
AcDbArc
 50
183.9370985658
 51
184.6359544378
  0
ARC
  5
22F
100
AcDbEntity
  8
0
100
AcDbCircle
 62
7
  6
CONTINUOUS
 10
-0.6627826847
 20
5.003212652
 40
5.1523905057
100
AcDbArc
 50
355.3640453763
 51
356.0629019838
  0
ARC
  5
230
100
AcDbEntity
  8
ALL_FEATURES
100
AcDbCircle
 62
7
  6
CONTINUOUS
 10
4.8774068323
 20
4.4124068323
 40
0.6875
100
AcDbArc
 50
145.4528742314
 51
34.5473910792
  0
ARC
  5
231
100
AcDbEntity
  8
ALL_FEATURES
100
AcDbCircle
 62
7
  6
CONTINUOUS
 10
4.8774068323
 20
4.4124068323
 40
0.672
100
AcDbArc
 50
150.0978067005
 51
29.9022826969
  0
ARC
  5
232
100
AcDbEntity
  8
ALL_FEATURES
100
AcDbCircle
 62
7
  6
CONTINUOUS
 10
4.877406792
 20
4.4124063589
 40
0.6562496368
100
AcDbArc
 50
161.9265958285
 51
18.0734184627
  0
SPLINE
  5
233
100
AcDbEntity
  8
ALL_FEATURES
100
AcDbSpline
 62
7
  6
CONTINUOUS
 70
0
 71
3
 72
20
 73
16
 74
0
 42
0.0000001
 43
0.0000001
 44
0.0000000001
 40
0.0
 40
0.0
 40
0.0
 40
0.0
 40
0.2076962642
 40
0.3918839306
 40
0.5519100245
 40
0.6227096565
 40
0.6873094502
 40
0.74570238
 40
0.7979237743
 40
0.8440747882
 40
0.8843625519
 40
0.9191700353
 40
0.9491748773
 40
0.9755258983
 40
1.0
 40
1.0
 40
1.0
 40
1.0
 10
5.3175232278
 20
5.3288657357
 30
0.0
 10
5.3168114751
 20
5.3331920746
 30
0.0
 10
5.3153747187
 20
5.3413403812
 30
0.0
 10
5.3129947573
 20
5.3527476386
 30
0.0
 10
5.3108546592
 20
5.3612475133
 30
0.0
 10
5.3090607449
 20
5.3672214807
 30
0.0
 10
5.3077456515
 20
5.3710964214
 30
0.0
 10
5.3064057259
 20
5.3745455078
 30
0.0
 10
5.3050408057
 20
5.3775624949
 30
0.0
 10
5.3036505281
 20
5.3801418108
 30
0.0
 10
5.3022333482
 20
5.3822787788
 30
0.0
 10
5.3007853341
 20
5.3839694788
 30
0.0
 10
5.2992964868
 20
5.3852084744
 30
0.0
 10
5.2977528339
 20
5.3859795085
 30
0.0
 10
5.2966734838
 20
5.3861568323
 30
0.0
 10
5.2961568323
 20
5.3861568323
 30
0.0
  0
SPLINE
  5
234
100
AcDbEntity
  8
ALL_FEATURES
100
AcDbSpline
 62
7
  6
CONTINUOUS
 70
0
 71
3
 72
20
 73
16
 74
0
 42
0.0000001
 43
0.0000001
 44
0.0000000001
 40
0.0
 40
0.0
 40
0.0
 40
0.0
 40
0.2076951785
 40
0.3918818128
 40
0.5519070288
 40
0.6227063157
 40
0.6873058482
 40
0.7456986194
 40
0.7979199795
 40
0.8440711091
 40
0.884359168
 40
0.919167159
 40
0.9491727487
 40
0.9755247546
 40
1.0
 40
1.0
 40
1.0
 40
1.0
 10
4.4372915798
 20
5.3288726831
 30
0.0
 10
4.4380033039
 20
5.3331985097
 30
0.0
 10
4.4394400002
 20
5.3413458479
 30
0.0
 10
4.4418198541
 20
5.3527517404
 30
0.0
 10
4.4439598486
 20
5.361250588
 30
0.0
 10
4.445753671
 20
5.3672238266
 30
0.0
 10
4.4470686954
 20
5.3710982936
 30
0.0
 10
4.4484085489
 20
5.3745469567
 30
0.0
 10
4.4497733941
 20
5.3775635722
 30
0.0
 10
4.4511635939
 20
5.3801425694
 30
0.0
 10
4.4525806932
 20
5.3822792724
 30
0.0
 10
4.4540286237
 20
5.3839697617
 30
0.0
 10
4.4555173831
 20
5.3852086006
 30
0.0
 10
4.4570609393
 20
5.3859795332
 30
0.0
 10
4.4581402141
 20
5.3861568323
 30
0.0
 10
4.4586568323
 20
5.3861568323
 30
0.0
  0
SPLINE
  5
235
100
AcDbEntity
  8
0
100
AcDbSpline
 62
7
  6
CONTINUOUS
 70
0
 71
3
 72
29
 73
25
 74
0
 42
0.0000001
 43
0.0000001
 44
0.0000000001
 40
0.0
 40
0.0
 40
0.0
 40
0.0
 40
0.0012222587
 40
0.0026910828
 40
0.0045551386
 40
0.0068877326
 40
0.0097252718
 40
0.0130871066
 40
0.0214213717
 40
0.031937325
 40
0.0446490295
 40
0.059546059
 40
0.0766030279
 40
0.0957912239
 40
0.1170801237
 40
0.1658246087
 40
0.2224739492
 40
0.2865938547
 40
0.3577207616
 40
0.4352842307
 40
0.5186850953
 40
0.6073018047
 40
0.797541289
 40
1.0
 40
1.0
 40
1.0
 40
1.0
 10
4.4784729951
 20
4.7528569398
 30
0.0
 10
4.478515224
 20
4.7528546063
 30
0.0
 10
4.4786072733
 20
4.7528241473
 30
0.0
 10
4.4787272972
 20
4.7527183552
 30
0.0
 10
4.4788410581
 20
4.7525574939
 30
0.0
 10
4.4789509713
 20
4.7523396703
 30
0.0
 10
4.4790578251
 20
4.7520641323
 30
0.0
 10
4.4792069236
 20
4.7515835412
 30
0.0
 10
4.4793767955
 20
4.7508329978
 30
0.0
 10
4.4795569086
 20
4.7497555757
 30
0.0
 10
4.4797229258
 20
4.7484465609
 30
0.0
 10
4.4798743208
 20
4.746908313
 30
0.0
 10
4.4800102309
 20
4.7451437774
 30
0.0
 10
4.4801300678
 20
4.7431564858
 30
0.0
 10
4.4802740975
 20
4.7400724711
 30
0.0
 10
4.480402572
 20
4.7356904881
 30
0.0
 10
4.4804800202
 20
4.7298252088
 30
0.0
 10
4.4804821504
 20
4.7231849397
 30
0.0
 10
4.4804053623
 20
4.7158214276
 30
0.0
 10
4.4802467911
 20
4.7077919236
 30
0.0
 10
4.4800036519
 20
4.6991590922
 30
0.0
 10
4.4795526873
 20
4.6866320529
 30
0.0
 10
4.4787640162
 20
4.6699953642
 30
0.0
 10
4.4779288468
 20
4.6564321347
 30
0.0
 10
4.477448339
 20
4.6494430305
 30
0.0
  0
SPLINE
  5
236
100
AcDbEntity
  8
0
100
AcDbSpline
 62
7
  6
CONTINUOUS
 70
0
 71
3
 72
29
 73
25
 74
0
 42
0.0000001
 43
0.0000001
 44
0.0000000001
 40
0.0
 40
0.0
 40
0.0
 40
0.0
 40
0.2024602818
 40
0.3927019064
 40
0.4813186195
 40
0.5647192069
 40
0.6422821817
 40
0.7134087585
 40
0.7775282558
 40
0.8341769675
 40
0.8829210586
 40
0.9042097541
 40
0.9233977244
 40
0.9404544813
 40
0.9553513474
 40
0.9680629629
 40
0.9785788389
 40
0.9869130253
 40
0.9902748236
 40
0.99311233
 40
0.9954448964
 40
0.9973089316
 40
0.9987777439
 40
1.0
 40
1.0
 40
1.0
 40
1.0
 10
5.2773653263
 20
4.6494430304
 30
0.0
 10
5.2768848154
 20
4.6564321819
 30
0.0
 10
5.2760496461
 20
4.6699955262
 30
0.0
 10
5.2752609638
 20
4.6866323263
 30
0.0
 10
5.2748100046
 20
4.6991594178
 30
0.0
 10
5.2745668691
 20
4.707792214
 30
0.0
 10
5.2744083034
 20
4.7158216719
 30
0.0
 10
5.2743315184
 20
4.7231851339
 30
0.0
 10
5.2743336497
 20
4.7298253491
 30
0.0
 10
5.2744111015
 20
4.7356905729
 30
0.0
 10
5.2745395777
 20
4.7400725089
 30
0.0
 10
5.2746836086
 20
4.7431564919
 30
0.0
 10
5.2748034459
 20
4.7451437592
 30
0.0
 10
5.2749393558
 20
4.7469082722
 30
0.0
 10
5.2750907499
 20
4.7484465024
 30
0.0
 10
5.275256764
 20
4.7497555048
 30
0.0
 10
5.2754368738
 20
4.7508329177
 30
0.0
 10
5.2756067428
 20
4.7515834541
 30
0.0
 10
5.2757558392
 20
4.75206404
 30
0.0
 10
5.2758626916
 20
4.7523395746
 30
0.0
 10
5.2759726037
 20
4.7525573954
 30
0.0
 10
5.2760863637
 20
4.7527182545
 30
0.0
 10
5.2762063871
 20
4.7528240452
 30
0.0
 10
5.2762984359
 20
4.7528545034
 30
0.0
 10
5.2763406647
 20
4.752856837
 30
0.0
  0
SPLINE
  5
237
100
AcDbEntity
  8
0
100
AcDbSpline
 62
7
  6
CONTINUOUS
 70
0
 71
3
 72
20
 73
16
 74
0
 42
0.0000001
 43
0.0000001
 44
0.0000000001
 40
0.0
 40
0.0
 40
0.0
 40
0.0
 40
0.2066411711
 40
0.3877352564
 40
0.5437163393
 40
0.612500519
 40
0.67529109
 40
0.7322447702
 40
0.783570992
 40
0.8295552718
 40
0.8705937976
 40
0.9072424127
 40
0.9402780803
 40
0.9707540342
 40
1.0
 40
1.0
 40
1.0
 40
1.0
 10
5.2961568323
 20
4.7111568323
 30
0.0
 10
5.2955246928
 20
4.7143986972
 30
0.0
 10
5.2942473647
 20
4.7204648251
 30
0.0
 10
5.2921105417
 20
4.7288913661
 30
0.0
 10
5.2901812452
 20
4.7350904027
 30
0.0
 10
5.2885636951
 20
4.7393939273
 30
0.0
 10
5.287377745
 20
4.7421654649
 30
0.0
 10
5.2861676562
 20
4.7446192641
 30
0.0
 10
5.2849329135
 20
4.7467560794
 30
0.0
 10
5.2836727124
 20
4.7485768724
 30
0.0
 10
5.2823853614
 20
4.7500825733
 30
0.0
 10
5.281068063
 20
4.7512734171
 30
0.0
 10
5.2797164988
 20
4.7521474313
 30
0.0
 10
5.2783286651
 20
4.7526983652
 30
0.0
 10
5.2773753681
 20
4.7528449993
 30
0.0
 10
5.2769082168
 20
4.7528620679
 30
0.0
  0
SPLINE
  5
238
100
AcDbEntity
  8
ALL_FEATURES
100
AcDbSpline
 62
7
  6
CONTINUOUS
 70
0
 71
3
 72
23
 73
19
 74
0
 42
0.0000001
 43
0.0000001
 44
0.0000000001
 40
0.0
 40
0.0
 40
0.0
 40
0.0
 40
0.1546060095
 40
0.3063666194
 40
0.4524651499
 40
0.5225123871
 40
0.5900901029
 40
0.654847837
 40
0.7164351132
 40
0.7745024559
 40
0.8021075218
 40
0.8287024037
 40
0.8786892763
 40
0.9241221522
 40
0.9450262397
 40
0.9646670841
 40
0.9830046191
 40
1.0
 40
1.0
 40
1.0
 40
1.0
 10
5.3414456575
 20
3.9483680071
 30
0.0
 10
5.340856678
 20
3.987774207
 30
0.0
 10
5.3393724053
 20
4.0658570707
 30
0.0
 10
5.3361857025
 20
4.1811522937
 30
0.0
 10
5.3326932922
 20
4.2748721698
 30
0.0
 10
5.3293741884
 20
4.347120286
 30
0.0
 10
5.3266788391
 20
4.3986395699
 30
0.0
 10
5.3237434753
 20
4.4479856474
 30
0.0
 10
5.320568508
 20
4.4948874102
 30
0.0
 10
5.3176774908
 20
4.5323146266
 30
0.0
 10
5.3152273743
 20
4.560827762
 30
0.0
 10
5.3127879384
 20
4.5872738868
 30
0.0
 10
5.3096187201
 20
4.6182158762
 30
0.0
 10
5.3060968189
 20
4.647660234
 30
0.0
 10
5.3031243354
 20
4.6693748059
 30
0.0
 10
5.3008977031
 20
4.6842189583
 30
0.0
 10
5.2986119407
 20
4.6980451963
 30
0.0
 10
5.2969859808
 20
4.7069046263
 30
0.0
 10
5.2961568323
 20
4.7111568323
 30
0.0
  0
SPLINE
  5
239
100
AcDbEntity
  8
ALL_FEATURES
100
AcDbSpline
 62
7
  6
CONTINUOUS
 70
0
 71
3
 72
11
 73
7
 74
0
 42
0.0000001
 43
0.0000001
 44
0.0000000001
 40
0.0
 40
0.0
 40
0.0
 40
0.0
 40
0.2490196295
 40
0.5007988085
 40
0.7522493588
 40
1.0
 40
1.0
 40
1.0
 40
1.0
 10
5.2820626349
 20
4.5867737102
 30
0.0
 10
5.2797378238
 20
4.5917947545
 30
0.0
 10
5.2748270444
 20
4.6017833009
 30
0.0
 10
5.2671073897
 20
4.6166084897
 30
0.0
 10
5.2594318411
 20
4.6314246662
 30
0.0
 10
5.2546301501
 20
4.6414292752
 30
0.0
 10
5.2524068323
 20
4.6464652712
 30
0.0
  0
SPLINE
  5
23A
100
AcDbEntity
  8
ALL_FEATURES
100
AcDbSpline
 62
7
  6
CONTINUOUS
 70
0
 71
3
 72
25
 73
21
 74
0
 42
0.0000001
 43
0.0000001
 44
0.0000000001
 40
0.0
 40
0.0
 40
0.0
 40
0.0
 40
0.0070416414
 40
0.0146639746
 40
0.0232343131
 40
0.0330133888
 40
0.0441772689
 40
0.0568441468
 40
0.0710946362
 40
0.0869850606
 40
0.1238299815
 40
0.1676011551
 40
0.2184209179
 40
0.2763651627
 40
0.3414832607
 40
0.4138084395
 40
0.4933635751
 40
0.5801646174
 40
0.7755428329
 40
1.0
 40
1.0
 40
1.0
 40
1.0
 10
4.4586568323
 20
5.3861568323
 30
0.0
 10
4.4590192345
 20
5.3861568323
 30
0.0
 10
4.4597767229
 20
5.3860515212
 30
0.0
 10
4.4608940116
 20
5.3856004698
 30
0.0
 10
4.4620179416
 20
5.3848647792
 30
0.0
 10
4.4631527337
 20
5.3838487643
 30
0.0
 10
4.4643027213
 20
5.3825527924
 30
0.0
 10
4.4654699644
 20
5.3809759798
 30
0.0
 10
4.4666556763
 20
5.3791174793
 30
0.0
 10
4.468346125
 20
5.3761113278
 30
0.0
 10
4.4704761572
 20
5.3716185198
 30
0.0
 10
4.4730016949
 20
5.3653406649
 30
0.0
 10
4.4756059616
 20
5.3579327017
 30
0.0
 10
4.478288489
 20
5.3493939799
 30
0.0
 10
4.4810482851
 20
5.3397233922
 30
0.0
 10
4.4838847596
 20
5.3289209624
 30
0.0
 10
4.4867975997
 20
5.3169869065
 30
0.0
 10
4.4909484388
 20
5.2988381246
 30
0.0
 10
4.49628066
 20
5.2733125791
 30
0.0
 10
4.5003208778
 20
5.2520856983
 30
0.0
 10
4.5024068323
 20
5.2407237726
 30
0.0
  0
SPLINE
  5
23B
100
AcDbEntity
  8
ALL_FEATURES
100
AcDbSpline
 62
7
  6
CONTINUOUS
 70
0
 71
3
 72
11
 73
7
 74
0
 42
0.0000001
 43
0.0000001
 44
0.0000000001
 40
0.0
 40
0.0
 40
0.0
 40
0.0
 40
0.2490196295
 40
0.5007988085
 40
0.7522493588
 40
1.0
 40
1.0
 40
1.0
 40
1.0
 10
4.4727510297
 20
4.5867737102
 30
0.0
 10
4.4750758408
 20
4.5917947545
 30
0.0
 10
4.4799866202
 20
4.6017833009
 30
0.0
 10
4.4877062749
 20
4.6166084897
 30
0.0
 10
4.4953818235
 20
4.6314246662
 30
0.0
 10
4.5001835145
 20
4.6414292752
 30
0.0
 10
4.5024068323
 20
4.6464652712
 30
0.0
  0
SPLINE
  5
23C
100
AcDbEntity
  8
0
100
AcDbSpline
 62
7
  6
CONTINUOUS
 70
0
 71
3
 72
20
 73
16
 74
0
 42
0.0000001
 43
0.0000001
 44
0.0000000001
 40
0.0
 40
0.0
 40
0.0
 40
0.0
 40
0.2066401235
 40
0.3877335779
 40
0.5437144318
 40
0.6124986395
 40
0.6752893269
 40
0.732243204
 40
0.7835696919
 40
0.8295542899
 40
0.87059316
 40
0.9072421073
 40
0.9402780394
 40
0.9707541198
 40
1.0
 40
1.0
 40
1.0
 40
1.0
 10
4.4586568323
 20
4.7111568323
 30
0.0
 10
4.4592889655
 20
4.7143986646
 30
0.0
 10
4.4605662807
 20
4.7204647361
 30
0.0
 10
4.4627030798
 20
4.7288912069
 30
0.0
 10
4.4646323531
 20
4.7350902026
 30
0.0
 10
4.4662498826
 20
4.7393937089
 30
0.0
 10
4.4674358181
 20
4.7421652422
 30
0.0
 10
4.4686458918
 20
4.7446190439
 30
0.0
 10
4.4698806188
 20
4.7467558683
 30
0.0
 10
4.4711408036
 20
4.7485766771
 30
0.0
 10
4.4724281373
 20
4.7500824002
 30
0.0
 10
4.4737454172
 20
4.751273273
 30
0.0
 10
4.4750969614
 20
4.7521473235
 30
0.0
 10
4.4764847739
 20
4.752698302
 30
0.0
 10
4.4774380607
 20
4.7528449724
 30
0.0
 10
4.4779052077
 20
4.7528620591
 30
0.0
  0
SPLINE
  5
23D
100
AcDbEntity
  8
0
100
AcDbSpline
 62
7
  6
CONTINUOUS
 70
0
 71
3
 72
54
 73
50
 74
0
 42
0.0000001
 43
0.0000001
 44
0.0000000001
 40
0.0
 40
0.0
 40
0.0
 40
0.0
 40
0.0059556567
 40
0.0122067792
 40
0.0188539596
 40
0.0260056973
 40
0.0337747569
 40
0.0422702781
 40
0.0515970243
 40
0.061842554
 40
0.073080712
 40
0.0853526441
 40
0.0986782317
 40
0.1130334663
 40
0.1283744854
 40
0.1446220518
 40
0.1794366919
 40
0.2166572006
 40
0.2555025779
 40
0.2953823548
 40
0.3358836544
 40
0.3767335293
 40
0.417766782
 40
0.4588819137
 40
0.5000227733
 40
0.5205953287
 40
0.5411652091
 40
0.5822793291
 40
0.6233116329
 40
0.6641625848
 40
0.7046600665
 40
0.7445333449
 40
0.7833725864
 40
0.8205777518
 40
0.8553831923
 40
0.8716269415
 40
0.8869651649
 40
0.9013202735
 40
0.9146462194
 40
0.9269186476
 40
0.9381576263
 40
0.9484033617
 40
0.9577300899
 40
0.9662255155
 40
0.9739944095
 40
0.9811460443
 40
0.9877931853
 40
0.9940443208
 40
1.0
 40
1.0
 40
1.0
 40
1.0
 10
4.5024068323
 20
5.2407237726
 30
0.0
 10
4.5027072602
 20
5.2391613839
 30
0.0
 10
4.5035172146
 20
5.2359931656
 30
0.0
 10
4.5053456426
 20
5.2312877961
 30
0.0
 10
4.50786582
 20
5.2265476755
 30
0.0
 10
4.5111373205
 20
5.2217906516
 30
0.0
 10
4.5152171926
 20
5.2170342824
 30
0.0
 10
4.5201635692
 20
5.2123004572
 30
0.0
 10
4.5260291367
 20
5.2076152426
 30
0.0
 10
4.5328577882
 20
5.2030059308
 30
0.0
 10
4.5406813886
 20
5.1985079759
 30
0.0
 10
4.5495115881
 20
5.1941517382
 30
0.0
 10
4.5593403678
 20
5.1899784038
 30
0.0
 10
4.5701322636
 20
5.186013655
 30
0.0
 10
4.5818327818
 20
5.1822953625
 30
0.0
 10
4.598936857
 20
5.1775776642
 30
0.0
 10
4.6219844741
 20
5.172498959
 30
0.0
 10
4.6512155308
 20
5.1676492061
 30
0.0
 10
4.6819636864
 20
5.1638554201
 30
0.0
 10
4.7136897617
 20
5.1609933561
 30
0.0
 10
4.7460129779
 20
5.1589312427
 30
0.0
 10
4.7786789288
 20
5.1575301457
 30
0.0
 10
4.8115269661
 20
5.156670493
 30
0.0
 10
4.8444605514
 20
5.1562330337
 30
0.0
 10
4.8719306127
 20
5.1561322067
 30
0.0
 10
4.893911996
 20
5.1561780912
 30
0.0
 10
4.9158859
 20
5.1563076771
 30
0.0
 10
4.9433240633
 20
5.1566685209
 30
0.0
 10
4.9761717491
 20
5.1575321933
 30
0.0
 10
5.0088367461
 20
5.1589323748
 30
0.0
 10
5.0411573961
 20
5.1609959907
 30
0.0
 10
5.0728790955
 20
5.1638577171
 30
0.0
 10
5.1036195772
 20
5.1676525587
 30
0.0
 10
5.1328426379
 20
5.1725004274
 30
0.0
 10
5.1558826165
 20
5.1775785296
 30
0.0
 10
5.1729827075
 20
5.1822948098
 30
0.0
 10
5.1846812183
 20
5.1860134747
 30
0.0
 10
5.1954725458
 20
5.1899777409
 30
0.0
 10
5.2053015763
 20
5.1941510123
 30
0.0
 10
5.2141320594
 20
5.198507679
 30
0.0
 10
5.2219561002
 20
5.2030056799
 30
0.0
 10
5.2287849308
 20
5.2076152195
 30
0.0
 10
5.2346504431
 20
5.2123005396
 30
0.0
 10
5.2395967314
 20
5.2170343484
 30
0.0
 10
5.2436764869
 20
5.2217906907
 30
0.0
 10
5.2469478841
 20
5.2265476838
 30
0.0
 10
5.2494680388
 20
5.2312877755
 30
0.0
 10
5.2512964619
 20
5.2359931469
 30
0.0
 10
5.2521064032
 20
5.239161378
 30
0.0
 10
5.2524068323
 20
5.2407237726
 30
0.0
  0
SPLINE
  5
23E
100
AcDbEntity
  8
ALL_FEATURES
100
AcDbSpline
 62
7
  6
CONTINUOUS
 70
0
 71
3
 72
23
 73
19
 74
0
 42
0.0000001
 43
0.0000001
 44
0.0000000001
 40
0.0
 40
0.0
 40
0.0
 40
0.0
 40
0.1546060095
 40
0.3063666194
 40
0.4524651499
 40
0.5225123871
 40
0.5900901029
 40
0.654847837
 40
0.7164351132
 40
0.7745024559
 40
0.8021075218
 40
0.8287024037
 40
0.8786892763
 40
0.9241221522
 40
0.9450262397
 40
0.9646670841
 40
0.9830046191
 40
1.0
 40
1.0
 40
1.0
 40
1.0
 10
4.4133680071
 20
3.9483680071
 30
0.0
 10
4.4139569866
 20
3.987774207
 30
0.0
 10
4.4154412593
 20
4.0658570707
 30
0.0
 10
4.4186279621
 20
4.1811522937
 30
0.0
 10
4.4221203724
 20
4.2748721698
 30
0.0
 10
4.4254394762
 20
4.347120286
 30
0.0
 10
4.4281348255
 20
4.3986395699
 30
0.0
 10
4.4310701893
 20
4.4479856474
 30
0.0
 10
4.4342451566
 20
4.4948874102
 30
0.0
 10
4.4371361738
 20
4.5323146266
 30
0.0
 10
4.4395862903
 20
4.560827762
 30
0.0
 10
4.4420257262
 20
4.5872738868
 30
0.0
 10
4.4451949444
 20
4.6182158762
 30
0.0
 10
4.4487168457
 20
4.647660234
 30
0.0
 10
4.4516893292
 20
4.6693748059
 30
0.0
 10
4.4539159615
 20
4.6842189583
 30
0.0
 10
4.4562017239
 20
4.6980451963
 30
0.0
 10
4.4578276838
 20
4.7069046263
 30
0.0
 10
4.4586568323
 20
4.7111568323
 30
0.0
  0
SPLINE
  5
23F
100
AcDbEntity
  8
ALL_FEATURES
100
AcDbSpline
 62
7
  6
CONTINUOUS
 70
0
 71
3
 72
25
 73
21
 74
0
 42
0.0000001
 43
0.0000001
 44
0.0000000001
 40
0.0
 40
0.0
 40
0.0
 40
0.0
 40
0.0070416414
 40
0.0146639746
 40
0.0232343131
 40
0.0330133888
 40
0.0441772689
 40
0.0568441468
 40
0.0710946362
 40
0.0869850606
 40
0.1238299815
 40
0.1676011551
 40
0.2184209179
 40
0.2763651627
 40
0.3414832607
 40
0.4138084395
 40
0.4933635751
 40
0.5801646174
 40
0.7755428329
 40
1.0
 40
1.0
 40
1.0
 40
1.0
 10
5.2961568323
 20
5.3861568323
 30
0.0
 10
5.2957944301
 20
5.3861568323
 30
0.0
 10
5.2950369417
 20
5.3860515212
 30
0.0
 10
5.293919653
 20
5.3856004698
 30
0.0
 10
5.292795723
 20
5.3848647792
 30
0.0
 10
5.2916609309
 20
5.3838487643
 30
0.0
 10
5.2905109433
 20
5.3825527924
 30
0.0
 10
5.2893437002
 20
5.3809759798
 30
0.0
 10
5.2881579883
 20
5.3791174793
 30
0.0
 10
5.2864675396
 20
5.3761113278
 30
0.0
 10
5.2843375074
 20
5.3716185198
 30
0.0
 10
5.2818119697
 20
5.3653406649
 30
0.0
 10
5.279207703
 20
5.3579327017
 30
0.0
 10
5.2765251756
 20
5.3493939799
 30
0.0
 10
5.2737653795
 20
5.3397233922
 30
0.0
 10
5.270928905
 20
5.3289209624
 30
0.0
 10
5.2680160649
 20
5.3169869065
 30
0.0
 10
5.2638652258
 20
5.2988381246
 30
0.0
 10
5.2585330046
 20
5.2733125791
 30
0.0
 10
5.2544927868
 20
5.2520856983
 30
0.0
 10
5.2524068323
 20
5.2407237726
 30
0.0
  0
SPLINE
  5
240
100
AcDbEntity
  8
0
100
AcDbSpline
 62
7
  6
CONTINUOUS
 70
0
 71
3
 72
53
 73
49
 74
0
 42
0.0000001
 43
0.0000001
 44
0.0000000001
 40
0.0
 40
0.0
 40
0.0
 40
0.0
 40
0.0043052512
 40
0.0089257929
 40
0.0139748111
 40
0.0195611952
 40
0.0257864361
 40
0.0327428794
 40
0.040514593
 40
0.0491798831
 40
0.0588119977
 40
0.0694652346
 40
0.0811704959
 40
0.0939544653
 40
0.1078361889
 40
0.122793233
 40
0.1557627059
 40
0.1736702469
 40
0.1924186822
 40
0.2320838823
 40
0.274072686
 40
0.3177252954
 40
0.3625122906
 40
0.4080172634
 40
0.5000006096
 40
0.5919839846
 40
0.6374889862
 40
0.6822760174
 40
0.7259286542
 40
0.7679174616
 40
0.8075826205
 40
0.8263310134
 40
0.8442384961
 40
0.8772078036
 40
0.892164745
 40
0.9060463567
 40
0.9188302098
 40
0.9305353546
 40
0.9411884787
 40
0.9508204878
 40
0.9594856832
 40
0.9672573148
 40
0.9742136903
 40
0.980438879
 40
0.9860252261
 40
0.9910742213
 40
0.9956947516
 40
1.0
 40
1.0
 40
1.0
 40
1.0
 10
4.5024068323
 20
4.6464652712
 30
0.0
 10
4.5027439552
 20
4.6475281176
 30
0.0
 10
4.5036200203
 20
4.649678876
 30
0.0
 10
4.5054737144
 20
4.65280107
 30
0.0
 10
4.5079389673
 20
4.6559028467
 30
0.0
 10
4.5110515414
 20
4.6589783797
 30
0.0
 10
4.5148487849
 20
4.6620246929
 30
0.0
 10
4.5193699555
 20
4.665037044
 30
0.0
 10
4.5246559467
 20
4.6680079626
 30
0.0
 10
4.5307472335
 20
4.6709297029
 30
0.0
 10
4.5376810488
 20
4.6737919216
 30
0.0
 10
4.5454843321
 20
4.6765848292
 30
0.0
 10
4.5541743396
 20
4.6792985377
 30
0.0
 10
4.563762236
 20
4.6819195515
 30
0.0
 10
4.5742471547
 20
4.6844314143
 30
0.0
 10
4.5899124953
 20
4.6877330294
 30
0.0
 10
4.6067211656
 20
4.6906328667
 30
0.0
 10
4.6245695386
 20
4.693206178
 30
0.0
 10
4.644179392
 20
4.6956984082
 30
0.0
 10
4.6700472803
 20
4.6983857223
 30
0.0
 10
4.7024011948
 20
4.7009575404
 30
0.0
 10
4.7361232856
 20
4.7029678555
 30
0.0
 10
4.7707836194
 20
4.7044523298
 30
0.0
 10
4.8179737216
 20
4.7058019509
 30
0.0
 10
4.8774073802
 20
4.7063942385
 30
0.0
 10
4.9368410469
 20
4.7058020074
 30
0.0
 10
4.9840311744
 20
4.7044524242
 30
0.0
 10
5.0186915331
 20
4.7029679703
 30
0.0
 10
5.052413642
 20
4.7009576669
 30
0.0
 10
5.0847675542
 20
4.6983858508
 30
0.0
 10
5.110635421
 20
4.6956985289
 30
0.0
 10
5.1302452358
 20
4.6932062864
 30
0.0
 10
5.1480935376
 20
4.6906329638
 30
0.0
 10
5.1649021197
 20
4.6877331118
 30
0.0
 10
5.1805673559
 20
4.6844314781
 30
0.0
 10
5.1910521837
 20
4.6819196036
 30
0.0
 10
5.2006399846
 20
4.679298579
 30
0.0
 10
5.2093298954
 20
4.6765848608
 30
0.0
 10
5.2171330836
 20
4.6737919447
 30
0.0
 10
5.2240668083
 20
4.6709297188
 30
0.0
 10
5.2301580113
 20
4.6680079727
 30
0.0
 10
5.2354439273
 20
4.6650370495
 30
0.0
 10
5.2399650326
 20
4.6620246946
 30
0.0
 10
5.2437622218
 20
4.6589783788
 30
0.0
 10
5.2468747532
 20
4.6559028442
 30
0.0
 10
5.2493399751
 20
4.6528010668
 30
0.0
 10
5.25119365
 20
4.6496788731
 30
0.0
 10
5.2520697096
 20
4.6475281169
 30
0.0
 10
5.2524068323
 20
4.6464652712
 30
0.0
  0
ENDSEC
  0
SECTION
  2
OBJECTS
  0
DICTIONARY
  5
C
100
AcDbDictionary
280
0
281
1
  3
ACAD_GROUP
350
D
  3
ACAD_MLINESTYLE
350
17
  3
ACAD_LAYOUT
350
1A
  3
ACAD_PLOTSETTINGS
350
19
  3
ACAD_PLOTSTYLENAME
350
E
  0
DICTIONARY
  5
D
102
{ACAD_REACTORS
330
C
102
}
100
AcDbDictionary
280
0
281
1
  0
ACDBDICTIONARYWDFLT
  5
E
102
{ACAD_REACTORS
330
C
102
}
100
AcDbDictionary
281
1
  3
Normal
350
F
100
AcDbDictionaryWithDefault
340
F
  0
DICTIONARY
  5
17
102
{ACAD_REACTORS
330
C
102
}
100
AcDbDictionary
280
0
281
1
  3
Standard
350
18
  0
DICTIONARY
  5
19
102
{ACAD_REACTORS
330
C
102
}
100
AcDbDictionary
281
1
  0
DICTIONARY
  5
1A
102
{ACAD_REACTORS
330
C
102
}
100
AcDbDictionary
281
1
  3
Model
350
241
  3
Layout1
350
242
  0
ACDBPLACEHOLDER
  5
F
102
{ACAD_REACTORS
330
E
102
}
  0
MLINESTYLE
  5
18
102
{ACAD_REACTORS
330
17
102
}
100
AcDbMlineStyle
  2
STANDARD
 70
0
  3

 62
256
 51
90.0
 52
90.0
 71
2
 49
0.5
 62
256
  6
BYLAYER
 49
-0.5
 62
256
  6
BYLAYER
  0
LAYOUT
  5
241
102
{ACAD_REACTORS
330
1A
102
}
100
AcDbPlotSettings
  1

  2
none_device
  4
ANSI_A_(11.00_x_8.50_Inches)
  6

 40
0.0
 41
0.0
 42
0.0
 43
0.0
 44
279.4
 45
215.9
 46
0.0
 47
0.0
 48
0.0
 49
0.0
140
0.0
141
0.0
142
1.0
143
1.0
 70
1024
 72
0
 73
0
 74
0
  7

 75
0
147
1.0
148
0.0
149
0.0
100
AcDbLayout
  1
Model
 70
0
 71
0
 10
0.0
 20
0.0
 11
11.0
 21
8.5
 12
0.0
 22
0.0
 32
0.0
 14
0.0
 24
0.0
 34
0.0
 15
0.0
 25
0.0
 35
0.0
146
0.0
 13
0.0
 23
0.0
 33
0.0
 16
1.0
 26
0.0
 36
0.0
 17
0.0
 27
1.0
 37
0.0
 76
0
330
216
345
0
346
0
  0
LAYOUT
  5
242
102
{ACAD_REACTORS
330
1A
102
}
100
AcDbPlotSettings
  1

  2
none_device
  4
ANSI_A_(11.00_x_8.50_Inches)
  6

 40
0.0
 41
0.0
 42
0.0
 43
0.0
 44
279.4
 45
215.9
 46
0.0
 47
0.0
 48
0.0
 49
0.0
140
0.0
141
0.0
142
1.0
143
1.0
 70
0
 72
0
 73
0
 74
0
  7

 75
0
147
1.0
148
0.0
149
0.0
100
AcDbLayout
  1
Layout1
 70
0
 71
1
 10
0.0
 20
0.0
 11
11.0
 21
8.5
 12
0.0
 22
0.0
 32
0.0
 14
0.0
 24
0.0
 34
0.0
 15
0.0
 25
0.0
 35
0.0
146
0.0
 13
0.0
 23
0.0
 33
0.0
 16
1.0
 26
0.0
 36
0.0
 17
0.0
 27
1.0
 37
0.0
 76
0
330
217
345
0
346
0
  0
ENDSEC
  0
EOF
