  0
SECTION
  2
HEADER
  9
$ACADVER
  1
AC1015
  9
$DWGCODEPAGE
  3
ANSI_1252
  9
$EXTMAX
 10
11.6929133858
 20
8.2677165354
 30
0.0
  9
$EXTMIN
 10
0.0
 20
0.0
 30
0.0
  9
$LIMMIN
 10
0.0
 20
0.0
  9
$LIMMAX
 10
11.6929133858
 20
8.2677165354
  9
$VIEWCTR
 10
5.8464566929
 20
4.1338582677
  9
$VIEWSIZE
 40
8.2677165354
  9
$CLAYER
  8
0
  9
$LTSCALE
 40
0.6431102362
  9
$CELTYPE
  6
BYLAYER
  9
$DIMSCALE
 40
1.0
  9
$DIMASZ
 40
0.1
  9
$DIMEXO
 40
0.0730807087
  9
$DIMDLI
 40
0.4443307087
  9
$DIMEXE
 40
0.2104724409
  9
$DIMCEN
 40
0.1052362205
  9
$DIMLFAC
 40
1.0
  9
$DIMBLK
  1
_FILLED
  9
$DIMTXT
 40
0.08
  9
$DIMTOL
 70
1
  9
$DIMLIM
 70
0
  9
$DIMTFAC
 40
1.0
  9
$DIMTP
 40
0.01
  9
$DIMTM
 40
0.01
  9
$PDMODE
 70
3
  9
$PDSIZE
 40
0.06
  9
$HANDSEED
  5
250
  9
$TILEMODE
 70
1
  9
$MEASUREMENT
 70
0
  9
$INSUNITS
 70
1
  0
ENDSEC
  0
SECTION
  2
CLASSES
  0
CLASS
  1
ACDBDICTIONARYWDFLT
  2
AcDbDictionaryWithDefault
  3
AutoCAD 2000
 90
0
280
0
281
0
  0
CLASS
  1
ACDBPLACEHOLDER
  2
AcDbPlaceHolder
  3
AutoCAD 2000
 90
0
280
0
281
0
  0
CLASS
  1
LAYOUT
  2
AcDbLayout
  3
AutoCAD 2000
 90
0
280
0
281
0
  0
ENDSEC
  0
SECTION
  2
TABLES
  0
TABLE
  2
VPORT
  5
8
100
AcDbSymbolTable
 70
2
  0
VPORT
  5
1F4
100
AcDbSymbolTableRecord
100
AcDbViewportTableRecord
  2
*ACTIVE
 70
0
 10
0.0
 20
0.0
 11
1.0
 21
1.0
 12
5.8464566929
 22
4.1338582677
 13
0.0
 23
0.0
 14
1.0
 24
1.0
 15
0.0
 25
0.0
 16
0.0
 26
0.0
 36
1.0
 17
0.0
 27
0.0
 37
0.0
 40
8.2677165354
 41
1.4142857143
 42
50.0
 43
0.0
 44
0.0
 50
0.0
 51
0.0
 71
0
 72
100
 73
1
 74
1
 75
0
 76
0
 77
0
 78
0
  0
ENDTAB
  0
TABLE
  2
LTYPE
  5
5
100
AcDbSymbolTable
 70
6
  0
LTYPE
  5
14
100
AcDbSymbolTableRecord
100
AcDbLinetypeTableRecord
  2
BYBLOCK
 70
0
  3

 72
65
 73
0
 40
0.0
  0
LTYPE
  5
15
100
AcDbSymbolTableRecord
100
AcDbLinetypeTableRecord
  2
BYLAYER
 70
0
  3

 72
65
 73
0
 40
0.0
  0
LTYPE
  5
16
100
AcDbSymbolTableRecord
100
AcDbLinetypeTableRecord
  2
CONTINUOUS
 70
64
  3
Solid line
 72
65
 73
0
 40
0.0
  0
LTYPE
  5
1F5
100
AcDbSymbolTableRecord
100
AcDbLinetypeTableRecord
  2
CENTER
 70
64
  3
____ _ ____ _ ____ _ ____ _ ____ _ ____ _ ____
 72
65
 73
4
 40
0.6
 49
0.375
 74
0
 49
-0.075
 74
0
 49
0.075
 74
0
 49
-0.075
 74
0
  0
LTYPE
  5
1F6
100
AcDbSymbolTableRecord
100
AcDbLinetypeTableRecord
  2
HIDDEN
 70
64
  3
- - - - - - - - - - - - - - - - - - - -
 72
65
 73
2
 40
0.2
 49
0.1
 74
0
 49
-0.1
 74
0
  0
LTYPE
  5
1F7
100
AcDbSymbolTableRecord
100
AcDbLinetypeTableRecord
  2
PHANTOM
 70
64
  3
_____ _ _ _____ _ _ _____ _ _ _____
 72
65
 73
6
 40
0.8
 49
0.45
 74
0
 49
-0.05
 74
0
 49
0.1
 74
0
 49
-0.05
 74
0
 49
0.1
 74
0
 49
-0.05
 74
0
  0
LTYPE
  5
1F8
100
AcDbSymbolTableRecord
100
AcDbLinetypeTableRecord
  2
DOT
 70
64
  3
. . . . . . . . . . . . . . . . . . . .
 72
65
 73
2
 40
0.2
 49
0.1
 74
0
 49
-0.1
 74
0
  0
LTYPE
  5
1F9
100
AcDbSymbolTableRecord
100
AcDbLinetypeTableRecord
  2
DASHED
 70
64
  3
- - - - - - - - - - - - - - - - - - - -
 72
65
 73
2
 40
0.2
 49
0.1
 74
0
 49
-0.1
 74
0
  0
ENDTAB
  0
TABLE
  2
LAYER
  5
2
100
AcDbSymbolTable
 70
36
  0
LAYER
  5
10
100
AcDbSymbolTableRecord
100
AcDbLayerTableRecord
  2
0
 70
0
 62
7
  6
CONTINUOUS
370
-3
390
F
  0
LAYER
  5
1FA
100
AcDbSymbolTableRecord
100
AcDbLayerTableRecord
  2
DEFAULT_1
 70
0
 62
7
  6
CENTER
370
-3
390
F
  0
LAYER
  5
1FB
100
AcDbSymbolTableRecord
100
AcDbLayerTableRecord
  2
DEFAULT_2
 70
0
 62
8
  6
HIDDEN
370
-3
390
F
  0
LAYER
  5
1FC
100
AcDbSymbolTableRecord
100
AcDbLayerTableRecord
  2
DEFAULT_3
 70
0
 62
7
  6
PHANTOM
370
-3
390
F
  0
LAYER
  5
1FD
100
AcDbSymbolTableRecord
100
AcDbLayerTableRecord
  2
DEFAULT_COORDINATE_SYSTEM
 70
0
 62
7
  6
CONTINUOUS
370
-3
390
F
  0
LAYER
  5
1FE
100
AcDbSymbolTableRecord
100
AcDbLayerTableRecord
  2
DEFAULT_DATUM_AXES
 70
0
 62
7
  6
CONTINUOUS
370
-3
390
F
  0
LAYER
  5
1FF
100
AcDbSymbolTableRecord
100
AcDbLayerTableRecord
  2
DEFAULT_DATUM_CURVES
 70
0
 62
7
  6
CONTINUOUS
370
-3
390
F
  0
LAYER
  5
200
100
AcDbSymbolTableRecord
100
AcDbLayerTableRecord
  2
DEFAULT_DATUM_PLANES
 70
0
 62
7
  6
CONTINUOUS
370
-3
390
F
  0
ENDTAB
  0
TABLE
  2
STYLE
  5
3
100
AcDbSymbolTable
 70
1
  0
STYLE
  5
11
100
AcDbSymbolTableRecord
100
AcDbTextStyleTableRecord
  2
STANDARD
 70
0
 40
0.0
 41
0.8
 50
0.0
 71
0
 42
0.2
  3
txt
  4

  0
STYLE
  5
201
100
AcDbSymbolTableRecord
100
AcDbTextStyleTableRecord
  2
TEXTSTYLE_1
 70
0
 40
0.0
 41
0.8
 50
0.0
 71
0
 42
0.2
  3
gdt
  4

  0
ENDTAB
  0
TABLE
  2
VIEW
  5
6
100
AcDbSymbolTable
 70
0
  0
ENDTAB
  0
TABLE
  2
UCS
  5
7
100
AcDbSymbolTable
 70
0
  0
ENDTAB
  0
TABLE
  2
APPID
  5
9
100
AcDbSymbolTable
 70
1
  0
APPID
  5
202
100
AcDbSymbolTableRecord
100
AcDbRegAppTableRecord
  2
ACAD
 70
0
  0
ENDTAB
  0
TABLE
  2
BLOCK_RECORD
  5
1
100
AcDbSymbolTable
 70
0
  0
BLOCK_RECORD
  5
203
100
AcDbSymbolTableRecord
100
AcDbBlockTableRecord
  2
*Model_Space
  0
BLOCK_RECORD
  5
204
100
AcDbSymbolTableRecord
100
AcDbBlockTableRecord
  2
*Paper_Space
  0
ENDTAB
  0
TABLE
  2
DIMSTYLE
  5
A
100
AcDbSymbolTable
 70
1
100
AcDbDimStyleTable
 71
0
  0
DIMSTYLE
105
205
100
AcDbSymbolTableRecord
100
AcDbDimStyleTableRecord
  2
STANDARD
 70
0
  3

  4

 40
1.0
 41
0.1
 42
0.0625
 43
0.38
 44
0.18
 45
0.0
 46
0.0
 47
0.01
 48
0.01
140
0.08
141
0.09
142
0.0
143
25.4
144
1.0
145
0.0
146
1.0
147
0.09
 71
1.0
 72
0.0
 73
1
 74
1
 75
0
 76
0
 77
0
 78
4
170
0
171
2
172
0
173
0
174
0
175
0
176
0
177
0
178
0
270
2
271
2
272
2
273
2
274
2
275
0
280
0
281
0
282
0
283
1
284
4
285
0
286
0
287
3
288
0
340
11
  0
ENDTAB
  0
ENDSEC
  0
SECTION
  2
BLOCKS
  0
BLOCK
  5
20
100
AcDbEntity
  8
0
100
AcDbBlockBegin
  2
*Model_Space
 70
0
 10
0.0
 20
0.0
 30
0.0
  3
*Model_Space
  1

  0
ENDBLK
  5
21
100
AcDbEntity
  8
0
100
AcDbBlockEnd
  0
BLOCK
  5
1C
100
AcDbEntity
  8
0
100
AcDbBlockBegin
  2
*Paper_Space
 70
0
 10
0.0
 20
0.0
 30
0.0
  3
*Paper_Space
  1

  0
ENDBLK
  5
1D
100
AcDbEntity
  8
0
100
AcDbBlockEnd
  0
ENDSEC
  0
SECTION
  2
ENTITIES
  0
LINE
  5
206
100
AcDbEntity
  8
0
100
AcDbLine
 62
6
  6
CONTINUOUS
 10
5.3637047623
 20
5.0658029225
 11
5.3637047623
 21
4.9661295557
  0
LINE
  5
207
100
AcDbEntity
  8
0
100
AcDbLine
 62
6
  6
CONTINUOUS
 10
5.3637047623
 20
4.6654778752
 11
5.3637047623
 21
4.5658029225
  0
LINE
  5
208
100
AcDbEntity
  8
0
100
AcDbLine
 62
6
  6
CONTINUOUS
 10
5.5512068214
 20
4.0658029225
 11
6.1762027031
 21
4.0658029225
  0
LINE
  5
209
100
AcDbEntity
  8
0
100
AcDbLine
 62
6
  6
CONTINUOUS
 10
5.5512047623
 20
4.457549747
 11
5.5512047623
 21
4.0658029225
  0
LINE
  5
20A
100
AcDbEntity
  8
0
100
AcDbLine
 62
6
  6
CONTINUOUS
 10
5.3637047623
 20
4.5658029225
 11
5.5512047623
 21
4.457549747
  0
LINE
  5
20B
100
AcDbEntity
  8
0
100
AcDbLine
 62
6
  6
CONTINUOUS
 10
6.1762047623
 20
4.457549747
 11
5.5512047623
 21
4.457549747
  0
LINE
  5
20C
100
AcDbEntity
  8
0
100
AcDbLine
 62
6
  6
CONTINUOUS
 10
6.2680860303
 20
5.0858029225
 11
6.2387047623
 21
5.0658029225
  0
LINE
  5
20D
100
AcDbEntity
  8
0
100
AcDbLine
 62
6
  6
CONTINUOUS
 10
6.3637047623
 20
4.5658029225
 11
5.3637047623
 21
4.5658029225
  0
LINE
  5
20E
100
AcDbEntity
  8
0
100
AcDbLine
 62
6
  6
CONTINUOUS
 10
5.5414182694
 20
4.6658029225
 11
5.3680250074
 21
4.6658029225
  0
LINE
  5
20F
100
AcDbEntity
  8
0
100
AcDbLine
 62
6
  6
CONTINUOUS
 10
6.1859889059
 20
4.6658029225
 11
6.3593845171
 21
4.6658029225
  0
LINE
  5
210
100
AcDbEntity
  8
0
100
AcDbLine
 62
6
  6
CONTINUOUS
 10
5.4593234942
 20
5.0858029225
 11
5.4887047623
 21
5.0658029225
  0
LINE
  5
211
100
AcDbEntity
  8
0
100
AcDbLine
 62
6
  6
CONTINUOUS
 10
6.1762047623
 20
4.457549747
 11
6.1762047623
 21
4.0658029225
  0
LINE
  5
212
100
AcDbEntity
  8
0
100
AcDbLine
 62
6
  6
CONTINUOUS
 10
6.3637047623
 20
4.5658029225
 11
6.1762047623
 21
4.457549747
  0
LINE
  5
213
100
AcDbEntity
  8
0
100
AcDbLine
 62
6
  6
CONTINUOUS
 10
5.5414196836
 20
4.9658029225
 11
5.3680250074
 21
4.9658029225
  0
LINE
  5
214
100
AcDbEntity
  8
0
100
AcDbLine
 62
6
  6
CONTINUOUS
 10
6.1859885351
 20
4.9658029225
 11
6.3593845171
 21
4.9658029225
  0
LINE
  5
215
100
AcDbEntity
  8
0
100
AcDbLine
 62
6
  6
CONTINUOUS
 10
5.3637070527
 20
5.0658029225
 11
6.3637024718
 21
5.0658029225
  0
LINE
  5
216
100
AcDbEntity
  8
0
100
AcDbLine
 62
6
  6
CONTINUOUS
 10
6.3637047623
 20
5.0658029225
 11
6.3637047623
 21
4.9661279697
  0
LINE
  5
217
100
AcDbEntity
  8
0
100
AcDbLine
 62
6
  6
CONTINUOUS
 10
6.3637047623
 20
4.6654762893
 11
6.3637047623
 21
4.5658029225
  0
LINE
  5
218
100
AcDbEntity
  8
0
100
AcDbLine
 62
9
  6
CONTINUOUS
 10
5.4593234942
 20
5.0858029225
 11
6.2680860303
 21
5.0858029225
  0
LINE
  5
219
100
AcDbEntity
  8
0
100
AcDbLine
 62
9
  6
CONTINUOUS
 10
5.4685601057
 20
5.1396122157
 11
6.2588494188
 21
5.1396122157
  0
ARC
  5
21A
100
AcDbEntity
  8
0
100
AcDbCircle
 62
6
  6
CONTINUOUS
 10
5.8637047623
 20
3.640132907
 40
1.5506700155
100
AcDbArc
 50
75.2369687319
 51
104.7630312681
  0
ARC
  5
21B
100
AcDbEntity
  8
0
100
AcDbCircle
 62
6
  6
CONTINUOUS
 10
5.0420043768
 20
4.5680293683
 40
0.4977838113
100
AcDbArc
 50
74.807326653
 51
105.1926733466
  0
ARC
  5
21C
100
AcDbEntity
  8
0
100
AcDbCircle
 62
6
  6
CONTINUOUS
 10
5.0420043768
 20
5.0635764798
 40
0.4977838113
100
AcDbArc
 50
254.8073267482
 51
285.1926732514
  0
ARC
  5
21D
100
AcDbEntity
  8
0
100
AcDbCircle
 62
6
  6
CONTINUOUS
 10
6.6854051477
 20
4.5680293683
 40
0.4977838113
100
AcDbArc
 50
74.807326653
 51
105.1926733466
  0
ARC
  5
21E
100
AcDbEntity
  8
0
100
AcDbCircle
 62
6
  6
CONTINUOUS
 10
6.6854051478
 20
5.0635764798
 40
0.4977838113
100
AcDbArc
 50
254.8073267482
 51
285.1926732514
  0
ARC
  5
21F
100
AcDbEntity
  8
0
100
AcDbCircle
 62
7
  6
CONTINUOUS
 10
5.5464755447
 20
4.7426470499
 40
0.0834431358
100
AcDbArc
 50
248.3116156436
 51
257.7117327531
  0
ARC
  5
220
100
AcDbEntity
  8
0
100
AcDbCircle
 62
7
  6
CONTINUOUS
 10
5.5464755023
 20
4.8889589221
 40
0.0834430021
100
AcDbArc
 50
102.2878150399
 51
111.6883895396
  0
ARC
  5
221
100
AcDbEntity
  8
0
100
AcDbCircle
 62
6
  6
CONTINUOUS
 10
6.2512047623
 20
5.1106025755
 40
0.03
100
AcDbArc
 50
304.2433463866
 51
75.2369687319
  0
ARC
  5
222
100
AcDbEntity
  8
0
100
AcDbCircle
 62
6
  6
CONTINUOUS
 10
5.4762047623
 20
5.1106025755
 40
0.03
100
AcDbArc
 50
104.7630312681
 51
235.7566536134
  0
SPLINE
  5
223
100
AcDbEntity
  8
0
100
AcDbSpline
 62
6
  6
CONTINUOUS
 70
0
 71
3
 72
12
 73
8
 74
6
 42
0.0000001
 43
0.0000001
 44
0.0000000001
 12
0.0358577004
 22
0.0
 32
0.0
 13
0.0332011759
 23
-0.013544615
 33
0.0
 40
0.0
 40
0.0
 40
0.0
 40
0.0
 40
0.239105879
 40
0.3612668481
 40
0.48523333
 40
0.7387250976
 40
1.0
 40
1.0
 40
1.0
 40
1.0
 10
5.5101513717
 20
4.9723029225
 30
0.0
 10
5.5130093007
 20
4.9723029225
 30
0.0
 10
5.5173313243
 20
4.9720644359
 30
0.0
 10
5.5230826433
 20
4.9713043433
 30
0.0
 10
5.5289590464
 20
4.970228339
 30
0.0
 10
5.5363593733
 20
4.9683043332
 30
0.0
 10
5.5421573615
 20
4.9662183167
 30
0.0
 10
5.5450489061
 20
4.9650386941
 30
0.0
 11
5.5101513717
 21
4.9723029225
 31
0.0
 11
5.5187128574
 21
4.9718438098
 31
0.0
 11
5.5230557302
 21
4.9712715681
 31
0.0
 11
5.5274284424
 21
4.9704723354
 31
0.0
 11
5.5362289268
 21
4.9681979386
 31
0.0
 11
5.5450489061
 21
4.9650386941
 31
0.0
  0
SPLINE
  5
224
100
AcDbEntity
  8
0
100
AcDbSpline
 62
6
  6
CONTINUOUS
 70
0
 71
3
 72
45
 73
41
 74
39
 42
0.0000001
 43
0.0000001
 44
0.0000000001
 12
0.3445858299
 22
-0.1405758167
 32
0.0
 13
-0.3445862296
 23
-0.1405748368
 33
0.0
 40
0.0
 40
0.0
 40
0.0
 40
0.0
 40
0.0270007934
 40
0.0548219417
 40
0.0690320469
 40
0.0834322317
 40
0.1127713071
 40
0.1427865322
 40
0.1734152311
 40
0.2045926914
 40
0.2362545969
 40
0.2683392789
 40
0.3007843154
 40
0.3335338494
 40
0.3665318051
 40
0.3831100558
 40
0.3997317042
 40
0.4163902188
 40
0.4330788095
 40
0.4665152733
 40
0.5000000806
 40
0.5334848875
 40
0.5669213559
 40
0.5836099487
 40
0.6002684623
 40
0.6168901054
 40
0.6334683493
 40
0.6664662935
 40
0.6992158228
 40
0.7316608712
 40
0.7637455504
 40
0.795407412
 40
0.8265848172
 40
0.8572134928
 40
0.8872287324
 40
0.9165678189
 40
0.9309679979
 40
0.9451780915
 40
0.9729992128
 40
1.0
 40
1.0
 40
1.0
 40
1.0
 10
5.5450489061
 20
4.9650386941
 30
0.0
 10
5.5481502697
 20
4.9637734745
 30
0.0
 10
5.5543339805
 20
4.9609191616
 30
0.0
 10
5.5617900436
 20
4.9566875636
 30
0.0
 10
5.5676652797
 20
4.9528784336
 30
0.0
 10
5.5735423169
 20
4.9487358038
 30
0.0
 10
5.5807132306
 20
4.9430384325
 30
0.0
 10
5.5889287542
 20
4.9354674729
 30
0.0
 10
5.5967393627
 20
4.9271632452
 30
0.0
 10
5.604076777
 20
4.9181730717
 30
0.0
 10
5.6108748047
 20
4.9085462522
 30
0.0
 10
5.6170663792
 20
4.8983341495
 30
0.0
 10
5.6225912221
 20
4.8875941021
 30
0.0
 10
5.6273851841
 20
4.8763851553
 30
0.0
 10
5.6307227337
 20
4.8667230028
 30
0.0
 10
5.6329788132
 20
4.8588254146
 30
0.0
 10
5.634458561
 20
4.8528184944
 30
0.0
 10
5.6357193013
 20
4.8467478313
 30
0.0
 10
5.6371043101
 20
4.8385782112
 30
0.0
 10
5.6382681397
 20
4.828261127
 30
0.0
 10
5.6387323829
 20
4.8158027399
 30
0.0
 10
5.6382681151
 20
4.8033443529
 30
0.0
 10
5.6371042569
 20
4.7930272712
 30
0.0
 10
5.6357192334
 20
4.7848576529
 30
0.0
 10
5.6344584817
 20
4.7787869927
 30
0.0
 10
5.6329787195
 20
4.7727800777
 30
0.0
 10
5.6307226225
 20
4.7648824976
 30
0.0
 10
5.6273850579
 20
4.7552203533
 30
0.0
 10
5.6225910681
 20
4.7440114188
 30
0.0
 10
5.6170662013
 20
4.7332713832
 30
0.0
 10
5.6108746102
 20
4.7230592956
 30
0.0
 10
5.6040765712
 20
4.7134324996
 30
0.0
 10
5.5967391494
 20
4.7044423516
 30
0.0
 10
5.5889285253
 20
4.6961381495
 30
0.0
 10
5.5807129867
 20
4.6885672059
 30
0.0
 10
5.5735420596
 20
4.6828698475
 30
0.0
 10
5.5676650142
 20
4.6787272308
 30
0.0
 10
5.5617897744
 20
4.6749181165
 30
0.0
 10
5.5543337055
 20
4.6706865396
 30
0.0
 10
5.5481499896
 20
4.6678322477
 30
0.0
 10
5.5450486231
 20
4.6665670373
 30
0.0
 11
5.5450489061
 21
4.9650386941
 31
0.0
 11
5.5541777808
 21
4.9608390779
 31
0.0
 11
5.5631884109
 21
4.9557390249
 31
0.0
 11
5.5676264617
 21
4.9528631249
 31
0.0
 11
5.5720073986
 21
4.9497764299
 31
0.0
 11
5.5805615497
 21
4.9429907437
 31
0.0
 11
5.5887800764
 21
4.9354254789
 31
0.0
 11
5.5965930945
 21
4.9271256671
 31
0.0
 11
5.6039322247
 21
4.9181387428
 31
0.0
 11
5.61073054
 21
4.9085144596
 31
0.0
 11
5.6169223669
 21
4.8983047644
 31
0.0
 11
5.6224452136
 21
4.8875671946
 31
0.0
 11
5.6272379639
 21
4.8763611138
 31
0.0
 11
5.6312465191
 21
4.8647533432
 31
0.0
 11
5.6329408944
 21
4.8588208503
 31
0.0
 11
5.6344205378
 21
4.8528145546
 31
0.0
 11
5.6356811628
 21
4.8467444899
 31
0.0
 11
5.6367190916
 21
4.8406210534
 31
0.0
 11
5.6381121646
 21
4.8282556576
 31
0.0
 11
5.6385775565
 21
4.81580274
 31
0.0
 11
5.6381121383
 21
4.8033498235
 31
0.0
 11
5.6367190353
 21
4.7909844293
 31
0.0
 11
5.6356810947
 21
4.784860994
 31
0.0
 11
5.6344204577
 21
4.7787909322
 31
0.0
 11
5.6329408007
 21
4.7727846419
 31
0.0
 11
5.6312464127
 21
4.7668521552
 31
0.0
 11
5.6272378364
 21
4.7552443964
 31
0.0
 11
5.622445061
 21
4.7440383283
 31
0.0
 11
5.6169221888
 21
4.7333007667
 31
0.0
 11
5.6107303427
 21
4.7230910843
 31
0.0
 11
5.6039320184
 21
4.7134668275
 31
0.0
 11
5.5965928831
 21
4.7044799338
 31
0.0
 11
5.5887798518
 21
4.6961801464
 31
0.0
 11
5.5805613055
 21
4.6886148949
 31
0.0
 11
5.5720071373
 21
4.6818292236
 31
0.0
 11
5.5676261956
 21
4.6787425391
 31
0.0
 11
5.5631881421
 21
4.6758666513
 31
0.0
 11
5.554177508
 21
4.6707666259
 31
0.0
 11
5.5450486231
 21
4.6665670373
 31
0.0
  0
SPLINE
  5
225
100
AcDbEntity
  8
0
100
AcDbSpline
 62
6
  6
CONTINUOUS
 70
0
 71
3
 72
12
 73
8
 74
6
 42
0.0000001
 43
0.0000001
 44
0.0000000001
 12
-0.0332009321
 22
-0.0135444055
 32
0.0
 13
-0.0358573955
 23
0.0
 33
0.0
 40
0.0
 40
0.0
 40
0.0
 40
0.0
 40
0.2612750215
 40
0.5147668623
 40
0.6387333103
 40
0.7608942215
 40
1.0
 40
1.0
 40
1.0
 40
1.0
 10
5.5450486231
 20
4.6665670373
 30
0.0
 10
5.5421570983
 20
4.6653874324
 30
0.0
 10
5.5363591524
 20
4.6633014467
 30
0.0
 10
5.5289588832
 20
4.6613774703
 30
0.0
 10
5.5230825288
 20
4.6603014837
 30
0.0
 10
5.5173312602
 20
4.6595414044
 30
0.0
 10
5.5130092752
 20
4.6593029225
 30
0.0
 10
5.5101513717
 20
4.6593029225
 30
0.0
 11
5.5450486231
 21
4.6665670373
 31
0.0
 11
5.536228707
 21
4.6634078398
 31
0.0
 11
5.5274282907
 21
4.6611334778
 31
0.0
 11
5.5230556157
 21
4.6603342584
 31
0.0
 11
5.5187127813
 21
4.6597620266
 31
0.0
 11
5.5101513717
 21
4.6593029225
 31
0.0
  0
SPLINE
  5
226
100
AcDbEntity
  8
0
100
AcDbSpline
 62
7
  6
CONTINUOUS
 70
0
 71
3
 72
12
 73
8
 74
6
 42
0.0000001
 43
0.0000001
 44
0.0000000001
 12
-0.0358597066
 22
0.0
 32
0.0
 13
-0.0332028053
 23
0.0135459321
 33
0.0
 40
0.0
 40
0.0
 40
0.0
 40
0.0
 40
0.2391055391
 40
0.3612658205
 40
0.4852316203
 40
0.7387232035
 40
1.0
 40
1.0
 40
1.0
 40
1.0
 10
6.2172581529
 20
4.6593029225
 30
0.0
 10
6.214400068
 20
4.6593029225
 30
0.0
 10
6.210077814
 20
4.6595414201
 30
0.0
 10
6.2043261969
 20
4.6603015809
 30
0.0
 10
6.198449493
 20
4.6613776985
 30
0.0
 10
6.1910487734
 20
4.663301946
 30
0.0
 10
6.1852504716
 20
4.6653881687
 30
0.0
 10
6.1823587641
 20
4.6665679146
 30
0.0
 11
6.2172581529
 21
4.6593029225
 31
0.0
 11
6.2086962007
 21
4.6597620682
 31
0.0
 11
6.2043531123
 21
4.6603343609
 31
0.0
 11
6.1999801873
 21
4.6611336762
 31
0.0
 11
6.1911792514
 21
4.6634083325
 31
0.0
 11
6.1823587641
 21
4.6665679146
 31
0.0
  0
SPLINE
  5
227
100
AcDbEntity
  8
0
100
AcDbSpline
 62
7
  6
CONTINUOUS
 70
0
 71
3
 72
43
 73
39
 74
37
 42
0.0000001
 43
0.0000001
 44
0.0000000001
 12
-0.3445753418
 22
0.1405783077
 32
0.0
 13
0.3445750481
 23
0.1405790278
 33
0.0
 40
0.0
 40
0.0
 40
0.0
 40
0.0
 40
0.0270011946
 40
0.0548226863
 40
0.0690329241
 40
0.083433219
 40
0.1127724451
 40
0.1427876873
 40
0.1734162353
 40
0.204593517
 40
0.2362556143
 40
0.2683410274
 40
0.3007874058
 40
0.3335390093
 40
0.3665389827
 40
0.3831178283
 40
0.3997396533
 40
0.4330806667
 40
0.4665162081
 40
0.5000000094
 40
0.5334838089
 40
0.5669193329
 40
0.6002603241
 40
0.6168821427
 40
0.6334609803
 40
0.6664609315
 40
0.6992125096
 40
0.7316588461
 40
0.7637442152
 40
0.7954062856
 40
0.826583563
 40
0.8572121348
 40
0.887227423
 40
0.9165666969
 40
0.9309670107
 40
0.9451772644
 40
0.9729987834
 40
1.0
 40
1.0
 40
1.0
 40
1.0
 10
6.1823587641
 20
4.6665679146
 30
0.0
 10
6.1792574488
 20
4.6678331754
 30
0.0
 10
6.1730738488
 20
4.6706875652
 30
0.0
 10
6.165617925
 20
4.6749192184
 30
0.0
 10
6.1597428136
 20
4.6787283712
 30
0.0
 10
6.1538659283
 20
4.6828710071
 30
0.0
 10
6.1466952232
 20
4.688568348
 30
0.0
 10
6.1384799483
 20
4.6961391916
 30
0.0
 10
6.1306696097
 20
4.7044432493
 30
0.0
 10
6.1233323908
 20
4.7134332077
 30
0.0
 10
6.1165345367
 20
4.7230599226
 30
0.0
 10
6.11034295
 20
4.7332720158
 30
0.0
 10
6.1048179981
 20
4.7440122659
 30
0.0
 10
6.1000240604
 20
4.7552216602
 30
0.0
 10
6.0966865192
 20
4.7648841302
 30
0.0
 10
6.0944303233
 20
4.7727819246
 30
0.0
 10
6.0924555064
 20
4.7807983257
 30
0.0
 10
6.0905367516
 20
4.7909746983
 30
0.0
 10
6.0891414125
 20
4.8033448231
 30
0.0
 10
6.0886770863
 20
4.8158028047
 30
0.0
 10
6.0891413996
 20
4.8282607842
 30
0.0
 10
6.0905367079
 20
4.8406309076
 30
0.0
 10
6.0924554593
 20
4.8508072751
 30
0.0
 10
6.0944302577
 20
4.8588236759
 30
0.0
 10
6.0966864376
 20
4.8667214702
 30
0.0
 10
6.100023968
 20
4.8763839367
 30
0.0
 10
6.1048178801
 20
4.8875933297
 30
0.0
 10
6.1103428068
 20
4.8983335773
 30
0.0
 10
6.1165343711
 20
4.9085456676
 30
0.0
 10
6.1233322014
 20
4.9181723878
 30
0.0
 10
6.1306694023
 20
4.9271623597
 30
0.0
 10
6.1384797311
 20
4.9354664379
 30
0.0
 10
6.1466950026
 20
4.9430373066
 30
0.0
 10
6.1538657067
 20
4.9487346712
 30
0.0
 10
6.1597425921
 20
4.9528773249
 30
0.0
 10
6.1656177028
 20
4.9566864929
 30
0.0
 10
6.1730736256
 20
4.9609181642
 30
0.0
 10
6.1792572248
 20
4.9637725703
 30
0.0
 10
6.18235854
 20
4.9650378385
 30
0.0
 11
6.1823587641
 21
4.6665679146
 31
0.0
 11
6.1732300379
 21
4.6707676443
 31
0.0
 11
6.1642195802
 21
4.675867766
 31
0.0
 11
6.159781629
 21
4.6787436811
 31
0.0
 11
6.1554008009
 21
4.6818303825
 31
0.0
 11
6.1468468836
 21
4.6886160396
 31
0.0
 11
6.1386286074
 21
4.6961811973
 31
0.0
 11
6.1308158634
 21
4.7044808211
 31
0.0
 11
6.1234769764
 21
4.7134675052
 31
0.0
 11
6.116678823
 21
4.7230916502
 31
0.0
 11
6.1104870013
 21
4.7333013377
 31
0.0
 11
6.1049640781
 21
4.7440391097
 31
0.0
 11
6.1001712773
 21
4.7552456941
 31
0.0
 11
6.0961626656
 21
4.7668539334
 31
0.0
 11
6.0944682415
 21
4.7727864914
 31
0.0
 11
6.0929885849
 21
4.7787927014
 31
0.0
 11
6.0906902458
 21
4.7909857836
 31
0.0
 11
6.0892973226
 21
4.8033505558
 31
0.0
 11
6.0888319339
 21
4.8158028049
 31
0.0
 11
6.0892973069
 21
4.8282550541
 31
0.0
 11
6.0906902067
 21
4.8406198224
 31
0.0
 11
6.0929885317
 21
4.8528128988
 31
0.0
 11
6.0944681763
 21
4.8588191092
 31
0.0
 11
6.0961625888
 21
4.8647516675
 31
0.0
 11
6.100171183
 21
4.8763599041
 31
0.0
 11
6.1049639611
 21
4.887566488
 31
0.0
 11
6.1104868586
 21
4.8983042557
 31
0.0
 11
6.1166786554
 21
4.9085139391
 31
0.0
 11
6.1234767853
 21
4.9181380885
 31
0.0
 11
6.130815654
 21
4.9271247855
 31
0.0
 11
6.1386283884
 21
4.9354244304
 31
0.0
 11
6.1468466628
 21
4.9429896153
 31
0.0
 11
6.1554005802
 21
4.9497753009
 31
0.0
 11
6.1597814079
 21
4.9528620151
 31
0.0
 11
6.1642193586
 21
4.9557379418
 31
0.0
 11
6.1732298153
 21
4.960838086
 31
0.0
 11
6.18235854
 21
4.9650378385
 31
0.0
  0
SPLINE
  5
228
100
AcDbEntity
  8
0
100
AcDbSpline
 62
7
  6
CONTINUOUS
 70
0
 71
3
 72
12
 73
8
 74
6
 42
0.0000001
 43
0.0000001
 44
0.0000000001
 12
0.0332030013
 22
0.013546093
 32
0.0
 13
0.0358599489
 23
0.0
 33
0.0
 40
0.0
 40
0.0
 40
0.0
 40
0.0
 40
0.2612769448
 40
0.5147684949
 40
0.6387342397
 40
0.7608944708
 40
1.0
 40
1.0
 40
1.0
 40
1.0
 10
6.18235854
 20
4.9650378385
 30
0.0
 10
6.1852502662
 20
4.9662175991
 30
0.0
 10
6.1910486048
 20
4.9683038466
 30
0.0
 10
6.1984493714
 20
4.9702281219
 30
0.0
 10
6.2043261122
 20
4.9713042533
 30
0.0
 10
6.2100777663
 20
4.9720644229
 30
0.0
 10
6.2144000488
 20
4.9723029225
 30
0.0
 10
6.2172581529
 20
4.9723029225
 30
0.0
 11
6.18235854
 21
4.9650378385
 31
0.0
 11
6.1911790859
 21
4.9681974605
 31
0.0
 11
6.199980076
 21
4.9704721473
 31
0.0
 11
6.2043530278
 21
4.9712714728
 31
0.0
 11
6.2086961433
 21
4.9718437721
 31
0.0
 11
6.2172581529
 21
4.9723029225
 31
0.0
  0
SPLINE
  5
229
100
AcDbEntity
  8
0
100
AcDbSpline
 62
7
  6
CONTINUOUS
 70
0
 71
3
 72
12
 73
8
 74
6
 42
0.0000001
 43
0.0000001
 44
0.0000000001
 12
0.029521248
 22
0.0
 32
0.0
 13
0.0270658377
 23
-0.0117874728
 33
0.0
 40
0.0
 40
0.0
 40
0.0
 40
0.0
 40
0.2547515554
 40
0.5054784312
 40
0.6297398598
 40
0.7534524192
 40
1.0
 40
1.0
 40
1.0
 40
1.0
 10
6.2172581529
 20
4.9723029225
 30
0.0
 10
6.2197650141
 20
4.9723029225
 30
0.0
 10
6.2247426784
 20
4.9720619199
 30
0.0
 10
6.2308818184
 20
4.9711388141
 30
0.0
 10
6.2356652296
 20
4.9700331656
 30
0.0
 10
6.2403441223
 20
4.968689929
 30
0.0
 10
6.2437642367
 20
4.9674084514
 30
0.0
 10
6.2459885756
 20
4.9664397271
 30
0.0
 11
6.2172581529
 21
4.9723029225
 31
0.0
 11
6.224769634
 21
4.9719330141
 31
0.0
 11
6.23208838
 21
4.9708275005
 31
0.0
 11
6.2356623812
 21
4.9700008658
 31
0.0
 11
6.2391726491
 21
4.9689927919
 31
0.0
 11
6.2459885756
 21
4.9664397271
 31
0.0
  0
SPLINE
  5
22A
100
AcDbEntity
  8
0
100
AcDbSpline
 62
7
  6
CONTINUOUS
 70
0
 71
3
 72
12
 73
8
 74
6
 42
0.0000001
 43
0.0000001
 44
0.0000000001
 12
-0.0270660967
 22
-0.0117877388
 32
0.0
 13
-0.0295215917
 23
0.0
 33
0.0
 40
0.0
 40
0.0
 40
0.0
 40
0.0
 40
0.2465476579
 40
0.37026014
 40
0.4945214838
 40
0.7452483024
 40
1.0
 40
1.0
 40
1.0
 40
1.0
 10
6.2459888905
 20
4.6651662558
 30
0.0
 10
6.2437645296
 20
4.6641975093
 30
0.0
 10
6.2403443807
 20
4.6629160024
 30
0.0
 10
6.2356654398
 20
4.6615727315
 30
0.0
 10
6.2308819782
 20
4.6604670559
 30
0.0
 10
6.2247427679
 20
4.6595439295
 30
0.0
 10
6.2197650447
 20
4.6593029225
 30
0.0
 10
6.2172581529
 20
4.6593029225
 30
0.0
 11
6.2459888905
 21
4.6651662558
 31
0.0
 11
6.2391728936
 21
4.6626131309
 31
0.0
 11
6.235662591
 21
4.6616050321
 31
0.0
 11
6.2320885531
 21
4.6607783774
 31
0.0
 11
6.2247697255
 21
4.6596728386
 31
0.0
 11
6.2172581529
 21
4.6593029225
 31
0.0
  0
SPLINE
  5
22B
100
AcDbEntity
  8
0
100
AcDbSpline
 62
7
  6
CONTINUOUS
 70
0
 71
3
 72
42
 73
38
 74
36
 42
0.0000001
 43
0.0000001
 44
0.0000000001
 12
0.0022328744
 22
0.1326655528
 32
0.0
 13
-0.1326843018
 23
-0.0001033452
 33
0.0
 40
0.0
 40
0.0
 40
0.0
 40
0.0
 40
0.0367531047
 40
0.0748643085
 40
0.1141486026
 40
0.1544214346
 40
0.2372148754
 40
0.3217809274
 40
0.3642304286
 40
0.406519734
 40
0.4898353259
 40
0.5702010159
 40
0.6088362942
 40
0.6462142112
 40
0.6821873638
 40
0.7166178735
 40
0.7493712328
 40
0.7803287177
 40
0.8093861748
 40
0.8364472624
 40
0.8614323045
 40
0.8842847829
 40
0.9049702705
 40
0.914500805
 40
0.9234953565
 40
0.9319632627
 40
0.9399182539
 40
0.9473796396
 40
0.9543737939
 40
0.9609361184
 40
0.9671125114
 40
0.9729596677
 40
0.9785459238
 40
0.9839512003
 40
0.9892653141
 40
0.9945838289
 40
1.0
 40
1.0
 40
1.0
 40
1.0
 10
6.1760900634
 20
4.1768911949
 30
0.0
 10
6.1761174185
 20
4.1785164852
 30
0.0
 10
6.1761592017
 20
4.1818273634
 30
0.0
 10
6.1761924784
 20
4.1868758489
 30
0.0
 10
6.17620529
 20
4.1920800909
 30
0.0
 10
6.1762053193
 20
4.1992605541
 30
0.0
 10
6.1761860924
 20
4.2084437233
 30
0.0
 10
6.1761760811
 20
4.2177231765
 30
0.0
 10
6.1761774195
 20
4.2252112121
 30
0.0
 10
6.1761864594
 20
4.2326439376
 30
0.0
 10
6.1762038343
 20
4.2417536036
 30
0.0
 10
6.1762087557
 20
4.2507017146
 30
0.0
 10
6.1761764717
 20
4.2576180036
 30
0.0
 10
6.1761282117
 20
4.262570743
 30
0.0
 10
6.1760472532
 20
4.2673370877
 30
0.0
 10
6.1759248903
 20
4.2718979827
 30
0.0
 10
6.1757524917
 20
4.2762353187
 30
0.0
 10
6.1755214573
 20
4.2803320124
 30
0.0
 10
6.1752233719
 20
4.2841720321
 30
0.0
 10
6.1748495737
 20
4.2877400977
 30
0.0
 10
6.1743921712
 20
4.2910218317
 30
0.0
 10
6.1738449044
 20
4.2940037334
 30
0.0
 10
6.1732944663
 20
4.2962872622
 30
0.0
 10
6.1727951365
 20
4.297948456
 30
0.0
 10
6.1724045554
 20
4.2990770151
 30
0.0
 10
6.1719872595
 20
4.3001213666
 30
0.0
 10
6.1715427923
 20
4.3010803119
 30
0.0
 10
6.1710706868
 20
4.3019526602
 30
0.0
 10
6.1705703802
 20
4.302737209
 30
0.0
 10
6.1700413085
 20
4.303432724
 30
0.0
 10
6.1694835472
 20
4.3040384118
 30
0.0
 10
6.168897074
 20
4.3045533772
 30
0.0
 10
6.1682819342
 20
4.3049765442
 30
0.0
 10
6.1676383872
 20
4.3053066698
 30
0.0
 10
6.1669669749
 20
4.3055424794
 30
0.0
 10
6.1662689676
 20
4.3056828555
 30
0.0
 10
6.1657934941
 20
4.3057125659
 30
0.0
 10
6.1655539471
 20
4.3057123794
 30
0.0
 11
6.1760900634
 21
4.1768911949
 31
0.0
 11
6.1761536334
 21
4.181767342
 31
0.0
 11
6.1761887088
 21
4.1868239804
 31
0.0
 11
6.1762030738
 21
4.1920363713
 31
0.0
 11
6.1762040889
 21
4.1973799454
 31
0.0
 11
6.176188095
 21
4.208365327
 31
0.0
 11
6.1761772032
 21
4.2195859127
 31
0.0
 11
6.1761783965
 21
4.2252182967
 31
0.0
 11
6.1761846877
 21
4.2308294218
 31
0.0
 11
6.1762015373
 21
4.2418840835
 31
0.0
 11
6.1761972459
 21
4.2525473513
 31
0.0
 11
6.1761718036
 21
4.2576735846
 31
0.0
 11
6.1761215077
 21
4.2626327939
 31
0.0
 11
6.176038098
 21
4.2674051391
 31
0.0
 11
6.1759128352
 21
4.271971811
 31
0.0
 11
6.1757369809
 21
4.2763141095
 31
0.0
 11
6.1755018292
 21
4.2804149465
 31
0.0
 11
6.1751986994
 21
4.2842584811
 31
0.0
 11
6.1748189274
 21
4.2878289232
 31
0.0
 11
6.1743546193
 21
4.2911113711
 31
0.0
 11
6.1737989823
 21
4.2940921929
 31
0.0
 11
6.1731453114
 21
4.2967578569
 31
0.0
 11
6.1727798033
 21
4.2979684342
 31
0.0
 11
6.1723879102
 21
4.2990956918
 31
0.0
 11
6.1719692701
 21
4.3001383443
 31
0.0
 11
6.1715235209
 21
4.3010951064
 31
0.0
 11
6.1710503006
 21
4.3019646928
 31
0.0
 11
6.1705492474
 21
4.3027458183
 31
0.0
 11
6.1700201491
 21
4.3034373415
 31
0.0
 11
6.1694632163
 21
4.3040385267
 31
0.0
 11
6.1688787338
 21
4.3045487092
 31
0.0
 11
6.168266986
 21
4.3049672245
 31
0.0
 11
6.1676282577
 21
4.3052934079
 31
0.0
 11
6.1669628334
 21
4.3055265947
 31
0.0
 11
6.1662711059
 21
4.3056662459
 31
0.0
 11
6.1655539471
 21
4.3057123794
 31
0.0
  0
SPLINE
  5
22C
100
AcDbEntity
  8
0
100
AcDbSpline
 62
6
  6
CONTINUOUS
 70
0
 71
3
 72
23
 73
19
 74
17
 42
0.0000001
 43
0.0000001
 44
0.0000000001
 12
-0.3149396554
 22
-0.0859355876
 32
0.0
 13
0.0
 23
-0.3264535369
 33
0.0
 40
0.0
 40
0.0
 40
0.0
 40
0.0
 40
0.0625708102
 40
0.1251381328
 40
0.1876386918
 40
0.2500926935
 40
0.3124932163
 40
0.3748254479
 40
0.4370876805
 40
0.4992843568
 40
0.5614260813
 40
0.6235360601
 40
0.6856626282
 40
0.7478902769
 40
0.8103431342
 40
0.8731617066
 40
0.936417279
 40
1.0
 40
1.0
 40
1.0
 40
1.0
 10
4.9115550274
 20
5.0484055106
 30
0.0
 10
4.904986351
 20
5.0466131575
 30
0.0
 10
4.891969776
 20
5.0425691393
 30
0.0
 10
4.8729263795
 20
5.0351587222
 30
0.0
 10
4.8544632819
 20
5.0264286365
 30
0.0
 10
4.8366833027
 20
5.0164170975
 30
0.0
 10
4.8196827249
 20
5.0051648793
 30
0.0
 10
4.8035632972
 20
4.9927163251
 30
0.0
 10
4.7884251825
 20
4.9791236013
 30
0.0
 10
4.7743696699
 20
4.9644417345
 30
0.0
 10
4.7615001177
 20
4.9487300281
 30
0.0
 10
4.7499234591
 20
4.9320504664
 30
0.0
 10
4.7397512966
 20
4.9144663302
 30
0.0
 10
4.7311035866
 20
4.8960408113
 30
0.0
 10
4.7241143618
 20
4.8768415344
 30
0.0
 10
4.7189365934
 20
4.8569569752
 30
0.0
 10
4.7157339749
 20
4.8365348706
 30
0.0
 10
4.7150101872
 20
4.8227218572
 30
0.0
 10
4.7150101872
 20
4.8158029225
 30
0.0
 11
4.9115550274
 21
5.0484055106
 31
0.0
 11
4.8920485031
 21
5.0423444982
 31
0.0
 11
4.873014486
 21
5.034935042
 31
0.0
 11
4.8545699423
 21
5.026211351
 31
0.0
 11
4.8368056391
 21
5.0162056765
 31
0.0
 11
4.8198207161
 21
5.0049591308
 31
0.0
 11
4.8037181537
 21
4.9925183876
 31
0.0
 11
4.7885980012
 21
4.9789347162
 31
0.0
 11
4.7745615147
 21
4.9642635657
 31
0.0
 11
4.7617127111
 21
4.9485649768
 31
0.0
 11
4.7501592612
 21
4.9319025978
 31
0.0
 11
4.7400132068
 21
4.9143414388
 31
0.0
 11
4.7313940321
 21
4.8959461639
 31
0.0
 11
4.7244334846
 21
4.8767831909
 31
0.0
 11
4.7192796896
 21
4.8569340196
 31
0.0
 11
4.7160921859
 21
4.8365315065
 31
0.0
 11
4.7150101872
 21
4.8158029225
 31
0.0
  0
SPLINE
  5
22D
100
AcDbEntity
  8
0
100
AcDbSpline
 62
6
  6
CONTINUOUS
 70
0
 71
3
 72
13
 73
9
 74
7
 42
0.0000001
 43
0.0000001
 44
0.0000000001
 12
-0.0945344675
 22
0.0794168905
 32
0.0
 13
-0.1191112289
 23
0.0325011261
 33
0.0
 40
0.0
 40
0.0
 40
0.0
 40
0.0
 40
0.1246641089
 40
0.2495425966
 40
0.4993674299
 40
0.7495178251
 40
0.8747750886
 40
1.0
 40
1.0
 40
1.0
 40
1.0
 10
5.281145166
 20
4.9918034308
 30
0.0
 10
5.2772168143
 20
4.9951035761
 30
0.0
 10
5.2691655198
 20
5.0014898233
 30
0.0
 10
5.2523763303
 20
5.0133570617
 30
0.0
 10
5.2301807124
 20
5.0264515781
 30
0.0
 10
5.2066941085
 20
5.0370904612
 30
0.0
 10
5.1873013066
 20
5.0440720362
 30
0.0
 10
5.1774256238
 20
5.0470488604
 30
0.0
 10
5.1724537261
 20
5.0484055106
 30
0.0
 11
5.281145166
 21
4.9918034308
 31
0.0
 11
5.269087943
 21
5.0013705373
 31
0.0
 11
5.2564980491
 21
5.0102708868
 31
0.0
 11
5.2299372107
 21
5.0259528902
 31
0.0
 11
5.2018071922
 21
5.0387038392
 31
0.0
 11
5.1872568282
 21
5.0439433849
 31
0.0
 11
5.1724537261
 21
5.0484055106
 31
0.0
  0
SPLINE
  5
22E
100
AcDbEntity
  8
0
100
AcDbSpline
 62
6
  6
CONTINUOUS
 70
0
 71
3
 72
26
 73
22
 74
20
 42
0.0000001
 43
0.0000001
 44
0.0000000001
 12
0.0
 22
-0.3264640714
 32
0.0
 13
0.3149498183
 23
-0.0859383607
 33
0.0
 40
0.0
 40
0.0
 40
0.0
 40
0.0
 40
0.0635862459
 40
0.126842799
 40
0.1896597185
 40
0.2521103672
 40
0.3143378506
 40
0.3764629292
 40
0.4385673174
 40
0.469634431
 40
0.5007133926
 40
0.5629059407
 40
0.6251653473
 40
0.6563242444
 40
0.6875000794
 40
0.7498940222
 40
0.8123472652
 40
0.8435956945
 40
0.8748578587
 40
0.9374211942
 40
1.0
 40
1.0
 40
1.0
 40
1.0
 10
4.7150101872
 20
4.8158029225
 30
0.0
 10
4.7150101872
 20
4.8088833809
 30
0.0
 10
4.7157340658
 20
4.7950694274
 30
0.0
 10
4.7189370833
 20
4.7746463932
 30
0.0
 10
4.7241152526
 20
4.7547615679
 30
0.0
 10
4.7311047937
 20
4.7355622132
 30
0.0
 10
4.7397528108
 20
4.7171364329
 30
0.0
 10
4.7499249821
 20
4.6995530073
 30
0.0
 10
4.7595724749
 20
4.6856535442
 30
0.0
 10
4.7679324907
 20
4.6750229276
 30
0.0
 10
4.7767088845
 20
4.6647206196
 30
0.0
 10
4.7884253243
 20
4.6524821879
 30
0.0
 10
4.8010375504
 20
4.6411574518
 30
0.0
 10
4.8116153209
 20
4.6326712357
 30
0.0
 10
4.8225092483
 20
4.6245702886
 30
0.0
 10
4.8366805238
 20
4.6151902056
 30
0.0
 10
4.8514953141
 20
4.6068484157
 30
0.0
 10
4.8636858615
 20
4.6008165571
 30
0.0
 10
4.876093239
 20
4.5952149611
 30
0.0
 10
4.8919681444
 20
4.5890370248
 30
0.0
 10
4.9049852996
 20
4.5849929743
 30
0.0
 10
4.9115550274
 20
4.5832003343
 30
0.0
 11
4.7150101872
 21
4.8158029225
 31
0.0
 11
4.716092361
 21
4.7950725245
 31
0.0
 11
4.719280259
 21
4.7746690745
 31
0.0
 11
4.724434383
 21
4.7548198624
 31
0.0
 11
4.7313951526
 21
4.7356570373
 31
0.0
 11
4.7400147711
 21
4.717261306
 31
0.0
 11
4.7501612299
 21
4.6997001865
 31
0.0
 11
4.7617142321
 21
4.6830389218
 31
0.0
 11
4.7679829606
 21
4.675065891
 31
0.0
 11
4.774561906
 21
4.6673417646
 31
0.0
 11
4.7885979971
 21
4.6526711941
 31
0.0
 11
4.8037179076
 21
4.6390876525
 31
0.0
 11
4.811651936
 21
4.6327216432
 31
0.0
 11
4.8198188489
 21
4.6266480163
 31
0.0
 11
4.8368023711
 21
4.6154020552
 31
0.0
 11
4.8545669797
 21
4.6053960871
 31
0.0
 11
4.8637102607
 21
4.6008716203
 31
0.0
 11
4.8730120972
 21
4.5966718903
 31
0.0
 11
4.892045388
 21
4.5892623396
 31
0.0
 11
4.9115550274
 21
4.5832003343
 31
0.0
  0
SPLINE
  5
22F
100
AcDbEntity
  8
0
100
AcDbSpline
 62
6
  6
CONTINUOUS
 70
0
 71
3
 72
13
 73
9
 74
7
 42
0.0000001
 43
0.0000001
 44
0.0000000001
 12
0.1191112296
 22
0.0325011263
 32
0.0
 13
0.0945344681
 23
0.079416891
 33
0.0
 40
0.0
 40
0.0
 40
0.0
 40
0.0
 40
0.1252222496
 40
0.2504805082
 40
0.5006299917
 40
0.7504570808
 40
0.875334424
 40
1.0
 40
1.0
 40
1.0
 40
1.0
 10
5.1724537261
 20
4.5832003343
 30
0.0
 10
5.1774255182
 20
4.5845569557
 30
0.0
 10
5.1873011335
 20
4.5875337643
 30
0.0
 10
5.2066938515
 20
4.5945152591
 30
0.0
 10
5.230180549
 20
4.6051541744
 30
0.0
 10
5.2523761704
 20
4.6182486983
 30
0.0
 10
5.2691654737
 20
4.6301159603
 30
0.0
 10
5.277216768
 20
4.63650223
 30
0.0
 10
5.281145166
 20
4.6398024142
 30
0.0
 11
5.1724537261
 21
4.5832003343
 31
0.0
 11
5.187256515
 21
4.587662361
 31
0.0
 11
5.2018070034
 21
4.5929019239
 31
0.0
 11
5.229936929
 21
4.6056528057
 31
0.0
 11
5.2564980145
 21
4.6213349388
 31
0.0
 11
5.2690878047
 21
4.6302351902
 31
0.0
 11
5.281145166
 21
4.6398024142
 31
0.0
  0
SPLINE
  5
230
100
AcDbEntity
  8
0
100
AcDbSpline
 62
6
  6
CONTINUOUS
 70
0
 71
3
 72
28
 73
24
 74
22
 42
0.0000001
 43
0.0000001
 44
0.0000000001
 12
0.0706355989
 22
-0.0593398317
 32
0.0
 13
0.092252932
 23
0.0
 33
0.0
 40
0.0
 40
0.0
 40
0.0
 40
0.0
 40
0.0107297423
 40
0.0237473665
 40
0.0560614122
 40
0.0750861504
 40
0.0958805184
 40
0.142416983
 40
0.1949757904
 40
0.2528617095
 40
0.2835905683
 40
0.3154000754
 40
0.3819737021
 40
0.4520434866
 40
0.4882280045
 40
0.5250934949
 40
0.6006174974
 40
0.678132896
 40
0.7174902711
 40
0.7571723797
 40
0.8373533946
 40
0.9183905566
 40
1.0
 40
1.0
 40
1.0
 40
1.0
 10
5.2811451652
 20
4.9918034314
 30
0.0
 10
5.2813977991
 20
4.9915911977
 30
0.0
 10
5.2819630324
 20
4.9911287098
 30
0.0
 10
5.2833207112
 20
4.9900661496
 30
0.0
 10
5.2849208549
 20
4.9889002992
 30
0.0
 10
5.286754627
 20
4.9876520624
 30
0.0
 10
5.288982578
 20
4.986206697
 30
0.0
 10
5.2921428569
 20
4.9843055453
 30
0.0
 10
5.2963872406
 20
4.9820027953
 30
0.0
 10
5.3002902823
 20
4.9800987723
 30
0.0
 10
5.3036690321
 20
4.9785824234
 30
0.0
 10
5.3073268386
 20
4.9770376705
 30
0.0
 10
5.3121648711
 20
4.9751816736
 30
0.0
 10
5.3172058156
 20
4.9734926514
 30
0.0
 10
5.3214222875
 20
4.9722303056
 30
0.0
 10
5.3258272203
 20
4.971016453
 30
0.0
 10
5.3315065716
 20
4.9696489679
 30
0.0
 10
5.3373142442
 20
4.968509998
 30
0.0
 10
5.3420661461
 20
4.9677358459
 30
0.0
 10
5.3469149821
 20
4.9670541688
 30
0.0
 10
5.3530594758
 20
4.9663929165
 30
0.0
 10
5.3605132205
 20
4.9659114211
 30
0.0
 10
5.3655154373
 20
4.9658029225
 30
0.0
 10
5.3680250074
 20
4.9658029225
 30
0.0
 11
5.2811451652
 21
4.9918034314
 31
0.0
 11
5.2819105921
 21
4.9911757969
 31
0.0
 11
5.2828558113
 21
4.9904350169
 31
0.0
 11
5.285262632
 21
4.9886760497
 31
0.0
 11
5.2867130725
 21
4.9876878413
 31
0.0
 11
5.2883220361
 21
4.9866432027
 31
0.0
 11
5.2919989176
 21
4.9844270196
 31
0.0
 11
5.2962584554
 21
4.9821104987
 31
0.0
 11
5.3010565974
 21
4.9797663593
 31
0.0
 11
5.303642841
 21
4.9786055018
 31
0.0
 11
5.3063459638
 21
4.9774633387
 31
0.0
 11
5.3120789597
 21
4.975260577
 31
0.0
 11
5.3182077334
 21
4.9732055155
 31
0.0
 11
5.3214055758
 21
4.9722479655
 31
0.0
 11
5.3246841925
 21
4.9713440129
 31
0.0
 11
5.331457438
 21
4.9697110512
 31
0.0
 11
5.3384746664
 21
4.9683342316
 31
0.0
 11
5.3420582619
 21
4.9677504565
 31
0.0
 11
5.3456833686
 21
4.9672405629
 31
0.0
 11
5.3530377102
 21
4.9664479173
 31
0.0
 11
5.3604980565
 21
4.9659656821
 31
0.0
 11
5.3680250074
 21
4.9658029225
 31
0.0
  0
SPLINE
  5
231
100
AcDbEntity
  8
0
100
AcDbSpline
 62
6
  6
CONTINUOUS
 70
0
 71
3
 72
31
 73
27
 74
25
 42
0.0000001
 43
0.0000001
 44
0.0000000001
 12
-0.092253726
 22
0.0
 32
0.0
 13
-0.070636207
 23
-0.0593403423
 33
0.0
 40
0.0
 40
0.0
 40
0.0
 40
0.0
 40
0.0816082597
 40
0.1626435109
 40
0.2428232556
 40
0.2825054153
 40
0.3218631578
 40
0.3993789103
 40
0.4749024254
 40
0.5117672755
 40
0.5479508748
 40
0.6180187091
 40
0.6845921852
 40
0.7164030984
 40
0.7471341512
 40
0.776703452
 40
0.8050258486
 40
0.8320143093
 40
0.857580225
 40
0.9041019384
 40
0.924896734
 40
0.9439337988
 40
0.9611175164
 40
0.9763016144
 40
0.9893191708
 40
1.0
 40
1.0
 40
1.0
 40
1.0
 10
5.3680250074
 20
4.6658029225
 30
0.0
 10
5.3655154521
 20
4.6658029225
 30
0.0
 10
5.3605132873
 20
4.665694449
 30
0.0
 10
5.3530596098
 20
4.6652129946
 30
0.0
 10
5.3469151583
 20
4.6645517432
 30
0.0
 10
5.3420663139
 20
4.6638700109
 30
0.0
 10
5.3373143545
 20
4.6630958074
 30
0.0
 10
5.3315066171
 20
4.6619568738
 30
0.0
 10
5.3258272255
 20
4.6605894385
 30
0.0
 10
5.3214223191
 20
4.6593755781
 30
0.0
 10
5.3172059289
 20
4.6581132024
 30
0.0
 10
5.3121650094
 20
4.6564242696
 30
0.0
 10
5.3073269249
 20
4.6545683097
 30
0.0
 10
5.3036690498
 20
4.6530234019
 30
0.0
 10
5.3010846343
 20
4.6518634856
 30
0.0
 10
5.2986230615
 20
4.6506935009
 30
0.0
 10
5.2962903139
 20
4.6495220406
 30
0.0
 10
5.2940923115
 20
4.6483578527
 30
0.0
 10
5.291431916
 20
4.6468726573
 30
0.0
 10
5.2889833538
 20
4.6453998587
 30
0.0
 10
5.2867554827
 20
4.6439545015
 30
0.0
 10
5.2853059677
 20
4.6429678306
 30
0.0
 10
5.2840197638
 20
4.6420486383
 30
0.0
 10
5.2829023975
 20
4.6412121783
 30
0.0
 10
5.2819607726
 20
4.6404751527
 30
0.0
 10
5.2813966496
 20
4.6400136815
 30
0.0
 10
5.2811451651
 20
4.6398024135
 30
0.0
 11
5.3680250074
 21
4.6658029225
 31
0.0
 11
5.3604981004
 21
4.6656401878
 31
0.0
 11
5.3530378639
 21
4.6651579893
 31
0.0
 11
5.345683577
 21
4.6643653354
 31
0.0
 11
5.3420584392
 21
4.6638554029
 31
0.0
 11
5.3384747836
 21
4.6632715919
 31
0.0
 11
5.3314574563
 21
4.6618947869
 31
0.0
 11
5.3246841855
 21
4.6602618664
 31
0.0
 11
5.3214056004
 21
4.659357911
 31
0.0
 11
5.3182078188
 21
4.6584003534
 31
0.0
 11
5.3120791464
 21
4.6563453806
 31
0.0
 11
5.3063461091
 21
4.6541426179
 31
0.0
 11
5.3036428698
 21
4.6530003323
 31
0.0
 11
5.30105645
 21
4.6518393136
 31
0.0
 11
5.2985928532
 21
4.6506679853
 31
0.0
 11
5.2962580864
 21
4.6494950268
 31
0.0
 11
5.2940581569
 21
4.6483291174
 31
0.0
 11
5.2919990656
 21
4.647178941
 31
0.0
 11
5.2883232282
 21
4.6449635904
 31
0.0
 11
5.2867142191
 21
4.643918919
 31
0.0
 11
5.285262873
 21
4.6429299934
 31
0.0
 11
5.2839733942
 21
4.6420078762
 31
0.0
 11
5.2828523474
 21
4.6411679562
 31
0.0
 11
5.2819071362
 21
4.6404271593
 31
0.0
 11
5.2811451651
 21
4.6398024135
 31
0.0
  0
SPLINE
  5
232
100
AcDbEntity
  8
0
100
AcDbSpline
 62
6
  6
CONTINUOUS
 70
0
 71
3
 72
26
 73
22
 74
20
 42
0.0000001
 43
0.0000001
 44
0.0000000001
 12
0.0
 22
0.3264640714
 32
0.0
 13
-0.3149498183
 23
0.0859383607
 33
0.0
 40
0.0
 40
0.0
 40
0.0
 40
0.0
 40
0.0635862459
 40
0.126842799
 40
0.1896597185
 40
0.2521103672
 40
0.3143378506
 40
0.3764629292
 40
0.4385673174
 40
0.469634431
 40
0.5007133926
 40
0.5629059407
 40
0.6251653473
 40
0.6563242444
 40
0.6875000794
 40
0.7498940222
 40
0.8123472652
 40
0.8435956945
 40
0.8748578587
 40
0.9374211942
 40
1.0
 40
1.0
 40
1.0
 40
1.0
 10
7.0123993373
 20
4.8158029225
 30
0.0
 10
7.0123993373
 20
4.822722464
 30
0.0
 10
7.0116754587
 20
4.8365364176
 30
0.0
 10
7.0084724412
 20
4.8569594517
 30
0.0
 10
7.0032942719
 20
4.876844277
 30
0.0
 10
6.9963047308
 20
4.8960436318
 30
0.0
 10
6.9876567137
 20
4.9144694121
 30
0.0
 10
6.9774845424
 20
4.9320528377
 30
0.0
 10
6.9678370496
 20
4.9459523008
 30
0.0
 10
6.9594770338
 20
4.9565829174
 30
0.0
 10
6.95070064
 20
4.9668852253
 30
0.0
 10
6.9389842002
 20
4.979123657
 30
0.0
 10
6.9263719741
 20
4.9904483931
 30
0.0
 10
6.9157942036
 20
4.9989346092
 30
0.0
 10
6.9049002762
 20
5.0070355564
 30
0.0
 10
6.8907290007
 20
5.0164156394
 30
0.0
 10
6.8759142104
 20
5.0247574292
 30
0.0
 10
6.8637236631
 20
5.0307892878
 30
0.0
 10
6.8513162855
 20
5.0363908839
 30
0.0
 10
6.8354413801
 20
5.0425688201
 30
0.0
 10
6.8224242249
 20
5.0466128706
 30
0.0
 10
6.8158544971
 20
5.0484055106
 30
0.0
 11
7.0123993373
 21
4.8158029225
 31
0.0
 11
7.0113171636
 21
4.8365333204
 31
0.0
 11
7.0081292655
 21
4.8569367704
 31
0.0
 11
7.0029751415
 21
4.8767859825
 31
0.0
 11
6.9960143719
 21
4.8959488077
 31
0.0
 11
6.9873947534
 21
4.914344539
 31
0.0
 11
6.9772482946
 21
4.9319056585
 31
0.0
 11
6.9656952924
 21
4.9485669232
 31
0.0
 11
6.959426564
 21
4.956539954
 31
0.0
 11
6.9528476186
 21
4.9642640803
 31
0.0
 11
6.9388115275
 21
4.9789346508
 31
0.0
 11
6.9236916169
 21
4.9925181924
 31
0.0
 11
6.9157575885
 21
4.9988842017
 31
0.0
 11
6.9075906756
 21
5.0049578286
 31
0.0
 11
6.8906071534
 21
5.0162037897
 31
0.0
 11
6.8728425448
 21
5.0262097578
 31
0.0
 11
6.8636992638
 21
5.0307342246
 31
0.0
 11
6.8543974274
 21
5.0349339546
 31
0.0
 11
6.8353641365
 21
5.0423435054
 31
0.0
 11
6.8158544971
 21
5.0484055106
 31
0.0
  0
SPLINE
  5
233
100
AcDbEntity
  8
0
100
AcDbSpline
 62
6
  6
CONTINUOUS
 70
0
 71
3
 72
13
 73
9
 74
7
 42
0.0000001
 43
0.0000001
 44
0.0000000001
 12
-0.1191112296
 22
-0.0325011263
 32
0.0
 13
-0.0945344681
 23
-0.079416891
 33
0.0
 40
0.0
 40
0.0
 40
0.0
 40
0.0
 40
0.1252222496
 40
0.2504805082
 40
0.5006299917
 40
0.7504570808
 40
0.875334424
 40
1.0
 40
1.0
 40
1.0
 40
1.0
 10
6.5549557984
 20
5.0484055106
 30
0.0
 10
6.5499840064
 20
5.0470488893
 30
0.0
 10
6.540108391
 20
5.0440720807
 30
0.0
 10
6.520715673
 20
5.0370905859
 30
0.0
 10
6.4972289755
 20
5.0264516705
 30
0.0
 10
6.4750333541
 20
5.0133571466
 30
0.0
 10
6.4582440509
 20
5.0014898847
 30
0.0
 10
6.4501927565
 20
4.9951036149
 30
0.0
 10
6.4462643586
 20
4.9918034308
 30
0.0
 11
6.5549557984
 21
5.0484055106
 31
0.0
 11
6.5401530096
 21
5.043943484
 31
0.0
 11
6.5256025212
 21
5.0387039211
 31
0.0
 11
6.4974725955
 21
5.0259530393
 31
0.0
 11
6.47091151
 21
5.0102709062
 31
0.0
 11
6.4583217198
 21
5.0013706547
 31
0.0
 11
6.4462643586
 21
4.9918034308
 31
0.0
  0
SPLINE
  5
234
100
AcDbEntity
  8
0
100
AcDbSpline
 62
6
  6
CONTINUOUS
 70
0
 71
3
 72
23
 73
19
 74
17
 42
0.0000001
 43
0.0000001
 44
0.0000000001
 12
0.3149396554
 22
0.0859355876
 32
0.0
 13
0.0
 23
0.3264535369
 33
0.0
 40
0.0
 40
0.0
 40
0.0
 40
0.0
 40
0.0625708102
 40
0.1251381328
 40
0.1876386918
 40
0.2500926935
 40
0.3124932163
 40
0.3748254479
 40
0.4370876805
 40
0.4992843568
 40
0.5614260813
 40
0.6235360601
 40
0.6856626282
 40
0.7478902769
 40
0.8103431342
 40
0.8731617066
 40
0.936417279
 40
1.0
 40
1.0
 40
1.0
 40
1.0
 10
6.8158544971
 20
4.5832003343
 30
0.0
 10
6.8224231736
 20
4.5849926874
 30
0.0
 10
6.8354397486
 20
4.5890367057
 30
0.0
 10
6.854483145
 20
4.5964471227
 30
0.0
 10
6.8729462426
 20
4.6051772084
 30
0.0
 10
6.8907262218
 20
4.6151887475
 30
0.0
 10
6.9077267997
 20
4.6264409657
 30
0.0
 10
6.9238462273
 20
4.6388895198
 30
0.0
 10
6.938984342
 20
4.6524822437
 30
0.0
 10
6.9530398546
 20
4.6671641104
 30
0.0
 10
6.9659094068
 20
4.6828758168
 30
0.0
 10
6.9774860654
 20
4.6995553786
 30
0.0
 10
6.9876582279
 20
4.7171395148
 30
0.0
 10
6.996305938
 20
4.7355650337
 30
0.0
 10
7.0032951627
 20
4.7547643105
 30
0.0
 10
7.0084729311
 20
4.7746488697
 30
0.0
 10
7.0116755497
 20
4.7950709743
 30
0.0
 10
7.0123993373
 20
4.8088839878
 30
0.0
 10
7.0123993373
 20
4.8158029225
 30
0.0
 11
6.8158544971
 21
4.5832003343
 31
0.0
 11
6.8353610214
 21
4.5892613468
 31
0.0
 11
6.8543950386
 21
4.5966708029
 31
0.0
 11
6.8728395823
 21
4.6053944939
 31
0.0
 11
6.8906038854
 21
4.6154001685
 31
0.0
 11
6.9075888085
 21
4.6266467142
 31
0.0
 11
6.9236913708
 21
4.6390874573
 31
0.0
 11
6.9388115233
 21
4.6526711288
 31
0.0
 11
6.9528480098
 21
4.6673422793
 31
0.0
 11
6.9656968134
 21
4.6830408682
 31
0.0
 11
6.9772502633
 21
4.6997032472
 31
0.0
 11
6.9873963177
 21
4.7172644061
 31
0.0
 11
6.9960154924
 21
4.735659681
 31
0.0
 11
7.0029760399
 21
4.754822654
 31
0.0
 11
7.008129835
 21
4.7746718253
 31
0.0
 11
7.0113173386
 21
4.7950743384
 31
0.0
 11
7.0123993373
 21
4.8158029225
 31
0.0
  0
SPLINE
  5
235
100
AcDbEntity
  8
0
100
AcDbSpline
 62
6
  6
CONTINUOUS
 70
0
 71
3
 72
13
 73
9
 74
7
 42
0.0000001
 43
0.0000001
 44
0.0000000001
 12
0.0945344675
 22
-0.0794168905
 32
0.0
 13
0.1191112289
 23
-0.0325011261
 33
0.0
 40
0.0
 40
0.0
 40
0.0
 40
0.0
 40
0.1246641089
 40
0.2495425966
 40
0.4993674299
 40
0.7495178251
 40
0.8747750886
 40
1.0
 40
1.0
 40
1.0
 40
1.0
 10
6.4462643585
 20
4.6398024142
 30
0.0
 10
6.4501927103
 20
4.6365022689
 30
0.0
 10
6.4582440048
 20
4.6301160216
 30
0.0
 10
6.4750331943
 20
4.6182487832
 30
0.0
 10
6.4972288121
 20
4.6051542669
 30
0.0
 10
6.520715416
 20
4.5945153838
 30
0.0
 10
6.540108218
 20
4.5875338087
 30
0.0
 10
6.5499839007
 20
4.5845569845
 30
0.0
 10
6.5549557984
 20
4.5832003343
 30
0.0
 11
6.4462643585
 21
4.6398024142
 31
0.0
 11
6.4583215816
 21
4.6302353076
 31
0.0
 11
6.4709114754
 21
4.6213349581
 31
0.0
 11
6.4974723138
 21
4.6056529548
 31
0.0
 11
6.5256023324
 21
4.5929020057
 31
0.0
 11
6.5401526963
 21
4.5876624601
 31
0.0
 11
6.5549557984
 21
4.5832003343
 31
0.0
  0
SPLINE
  5
236
100
AcDbEntity
  8
0
100
AcDbSpline
 62
6
  6
CONTINUOUS
 70
0
 71
3
 72
31
 73
27
 74
25
 42
0.0000001
 43
0.0000001
 44
0.0000000001
 12
0.092253726
 22
0.0
 32
0.0
 13
0.070636207
 23
0.0593403423
 33
0.0
 40
0.0
 40
0.0
 40
0.0
 40
0.0
 40
0.0816082597
 40
0.1626435109
 40
0.2428232556
 40
0.2825054153
 40
0.3218631578
 40
0.3993789103
 40
0.4749024254
 40
0.5117672755
 40
0.5479508748
 40
0.6180187091
 40
0.6845921852
 40
0.7164030984
 40
0.7471341512
 40
0.776703452
 40
0.8050258486
 40
0.8320143093
 40
0.857580225
 40
0.9041019384
 40
0.924896734
 40
0.9439337988
 40
0.9611175164
 40
0.9763016144
 40
0.9893191708
 40
1.0
 40
1.0
 40
1.0
 40
1.0
 10
6.3593845171
 20
4.9658029225
 30
0.0
 10
6.3618940725
 20
4.9658029225
 30
0.0
 10
6.3668962372
 20
4.965911396
 30
0.0
 10
6.3743499148
 20
4.9663928503
 30
0.0
 10
6.3804943662
 20
4.9670541017
 30
0.0
 10
6.3853432107
 20
4.9677358341
 30
0.0
 10
6.39009517
 20
4.9685100375
 30
0.0
 10
6.3959029075
 20
4.9696489712
 30
0.0
 10
6.401582299
 20
4.9710164065
 30
0.0
 10
6.4059872055
 20
4.9722302669
 30
0.0
 10
6.4102035956
 20
4.9734926425
 30
0.0
 10
6.4152445151
 20
4.9751815753
 30
0.0
 10
6.4200825996
 20
4.9770375352
 30
0.0
 10
6.4237404747
 20
4.9785824431
 30
0.0
 10
6.4263248902
 20
4.9797423593
 30
0.0
 10
6.428786463
 20
4.980912344
 30
0.0
 10
6.4311192107
 20
4.9820838044
 30
0.0
 10
6.433317213
 20
4.9832479922
 30
0.0
 10
6.4359776085
 20
4.9847331876
 30
0.0
 10
6.4384261707
 20
4.9862059863
 30
0.0
 10
6.4406540418
 20
4.9876513435
 30
0.0
 10
6.4421035568
 20
4.9886380143
 30
0.0
 10
6.4433897607
 20
4.9895572066
 30
0.0
 10
6.444507127
 20
4.9903936667
 30
0.0
 10
6.4454487519
 20
4.9911306922
 30
0.0
 10
6.446012875
 20
4.9915921635
 30
0.0
 10
6.4462643594
 20
4.9918034315
 30
0.0
 11
6.3593845171
 21
4.9658029225
 31
0.0
 11
6.3669114242
 21
4.9659656572
 31
0.0
 11
6.3743716606
 21
4.9664478557
 31
0.0
 11
6.3817259476
 21
4.9672405095
 31
0.0
 11
6.3853510853
 21
4.9677504421
 31
0.0
 11
6.388934741
 21
4.9683342531
 31
0.0
 11
6.3959520683
 21
4.9697110581
 31
0.0
 11
6.4027253391
 21
4.9713439785
 31
0.0
 11
6.4060039241
 21
4.9722479339
 31
0.0
 11
6.4092017057
 21
4.9732054915
 31
0.0
 11
6.4153303782
 21
4.9752604643
 31
0.0
 11
6.4210634154
 21
4.977463227
 31
0.0
 11
6.4237666547
 21
4.9786055126
 31
0.0
 11
6.4263530745
 21
4.9797665313
 31
0.0
 11
6.4288166713
 21
4.9809378596
 31
0.0
 11
6.4311514381
 21
4.9821108181
 31
0.0
 11
6.4333513676
 21
4.9832767275
 31
0.0
 11
6.4354104589
 21
4.984426904
 31
0.0
 11
6.4390862963
 21
4.9866422546
 31
0.0
 11
6.4406953054
 21
4.987686926
 31
0.0
 11
6.4421466515
 21
4.9886758516
 31
0.0
 11
6.4434361303
 21
4.9895979687
 31
0.0
 11
6.4445571771
 21
4.9904378887
 31
0.0
 11
6.4455023883
 21
4.9911786856
 31
0.0
 11
6.4462643594
 21
4.9918034315
 31
0.0
  0
SPLINE
  5
237
100
AcDbEntity
  8
0
100
AcDbSpline
 62
6
  6
CONTINUOUS
 70
0
 71
3
 72
28
 73
24
 74
22
 42
0.0000001
 43
0.0000001
 44
0.0000000001
 12
-0.0706355989
 22
0.0593398317
 32
0.0
 13
-0.092252932
 23
-0.0
 33
0.0
 40
0.0
 40
0.0
 40
0.0
 40
0.0
 40
0.0107297423
 40
0.0237473665
 40
0.0560614122
 40
0.0750861504
 40
0.0958805184
 40
0.142416983
 40
0.1949757904
 40
0.2528617095
 40
0.2835905683
 40
0.3154000754
 40
0.3819737021
 40
0.4520434866
 40
0.4882280045
 40
0.5250934949
 40
0.6006174974
 40
0.678132896
 40
0.7174902711
 40
0.7571723797
 40
0.8373533946
 40
0.9183905566
 40
1.0
 40
1.0
 40
1.0
 40
1.0
 10
6.4462643593
 20
4.6398024135
 30
0.0
 10
6.4460117254
 20
4.6400146472
 30
0.0
 10
6.4454464921
 20
4.6404771352
 30
0.0
 10
6.4440888133
 20
4.6415396954
 30
0.0
 10
6.4424886696
 20
4.6427055457
 30
0.0
 10
6.4406548976
 20
4.6439537825
 30
0.0
 10
6.4384269465
 20
4.6453991479
 30
0.0
 10
6.4352666676
 20
4.6473002997
 30
0.0
 10
6.4310222839
 20
4.6496030496
 30
0.0
 10
6.4271192422
 20
4.6515070726
 30
0.0
 10
6.4237404925
 20
4.6530234216
 30
0.0
 10
6.420082686
 20
4.6545681745
 30
0.0
 10
6.4152446534
 20
4.6564241714
 30
0.0
 10
6.410203709
 20
4.6581131935
 30
0.0
 10
6.405987237
 20
4.6593755394
 30
0.0
 10
6.4015823042
 20
4.6605893919
 30
0.0
 10
6.3959029529
 20
4.6619568771
 30
0.0
 10
6.3900952804
 20
4.6630958469
 30
0.0
 10
6.3853433784
 20
4.663869999
 30
0.0
 10
6.3804945425
 20
4.6645516762
 30
0.0
 10
6.3743500488
 20
4.6652129284
 30
0.0
 10
6.366896304
 20
4.6656944239
 30
0.0
 10
6.3618940873
 20
4.6658029225
 30
0.0
 10
6.3593845171
 20
4.6658029225
 30
0.0
 11
6.4462643593
 21
4.6398024135
 31
0.0
 11
6.4454989325
 21
4.6404300481
 31
0.0
 11
6.4445537132
 21
4.6411708281
 31
0.0
 11
6.4421468925
 21
4.6429297952
 31
0.0
 11
6.4406964521
 21
4.6439180037
 31
0.0
 11
6.4390874884
 21
4.6449626423
 31
0.0
 11
6.4354106069
 21
4.6471788253
 31
0.0
 11
6.4311510691
 21
4.6494953462
 31
0.0
 11
6.4263529271
 21
4.6518394857
 31
0.0
 11
6.4237666835
 21
4.6530003431
 31
0.0
 11
6.4210635607
 21
4.6541425062
 31
0.0
 11
6.4153305648
 21
4.6563452679
 31
0.0
 11
6.4092017911
 21
4.6584003295
 31
0.0
 11
6.4060039487
 21
4.6593578794
 31
0.0
 11
6.402725332
 21
4.660261832
 31
0.0
 11
6.3959520865
 21
4.6618947938
 31
0.0
 11
6.3889348581
 21
4.6632716134
 31
0.0
 11
6.3853512626
 21
4.6638553884
 31
0.0
 11
6.381726156
 21
4.6643652821
 31
0.0
 11
6.3743718143
 21
4.6651579276
 31
0.0
 11
6.366911468
 21
4.6656401629
 31
0.0
 11
6.3593845171
 21
4.6658029225
 31
0.0
  0
SPLINE
  5
238
100
AcDbEntity
  8
0
100
AcDbSpline
 62
6
  6
CONTINUOUS
 70
0
 71
3
 72
12
 73
8
 74
6
 42
0.0000001
 43
0.0000001
 44
0.0000000001
 12
-0.0295190516
 22
0.0
 32
0.0
 13
-0.0270641728
 23
0.0117857949
 33
0.0
 40
0.0
 40
0.0
 40
0.0
 40
0.0
 40
0.2547501737
 40
0.5054778036
 40
0.6297401748
 40
0.7534535301
 40
1.0
 40
1.0
 40
1.0
 40
1.0
 10
5.5101513717
 20
4.6593029225
 30
0.0
 10
5.5076447105
 20
4.6593029225
 30
0.0
 10
5.5026674234
 20
4.6595439049
 30
0.0
 10
5.4965287318
 20
4.6604668877
 30
0.0
 10
5.4917456299
 20
4.6615723577
 30
0.0
 10
5.4870670396
 20
4.662915357
 30
0.0
 10
5.4836471484
 20
4.664196647
 30
0.0
 10
5.4814229563
 20
4.665165229
 30
0.0
 11
5.5101513717
 21
4.6593029225
 31
0.0
 11
5.5026404895
 21
4.6596727881
 31
0.0
 11
5.4953222546
 21
4.6607781474
 31
0.0
 11
5.4917484745
 21
4.6616046507
 31
0.0
 11
5.4882384172
 21
4.6626125582
 31
0.0
 11
5.4814229563
 21
4.665165229
 31
0.0
  0
SPLINE
  5
239
100
AcDbEntity
  8
0
100
AcDbSpline
 62
6
  6
CONTINUOUS
 70
0
 71
3
 72
12
 73
8
 74
6
 42
0.0000001
 43
0.0000001
 44
0.0000000001
 12
0.0270633727
 22
0.0117849562
 32
0.0
 13
0.0295179833
 23
-0.0
 33
0.0
 40
0.0
 40
0.0
 40
0.0
 40
0.0
 40
0.2465465709
 40
0.3702599934
 40
0.4945223996
 40
0.7452499946
 40
1.0
 40
1.0
 40
1.0
 40
1.0
 10
5.4814239377
 20
4.9664410408
 30
0.0
 10
5.483648065
 20
4.9674095544
 30
0.0
 10
5.4870678503
 20
4.968690753
 30
0.0
 10
5.4917462872
 20
4.9700336552
 30
0.0
 10
5.496529226
 20
4.9711390442
 30
0.0
 10
5.5026676981
 20
4.9720619583
 30
0.0
 10
5.5076448029
 20
4.9723029225
 30
0.0
 10
5.5101513717
 20
4.9723029225
 30
0.0
 11
5.4814239377
 21
4.9664410408
 31
0.0
 11
5.4882391886
 21
4.9689935297
 31
0.0
 11
5.4917491314
 21
4.9700013645
 31
0.0
 11
5.4953227902
 21
4.9708278075
 31
0.0
 11
5.5026407655
 21
4.9719330848
 31
0.0
 11
5.5101513717
 21
4.9723029225
 31
0.0
  0
SPLINE
  5
23A
100
AcDbEntity
  8
0
100
AcDbSpline
 62
9
  6
CONTINUOUS
 70
0
 71
3
 72
53
 73
49
 74
47
 42
0.0000001
 43
0.0000001
 44
0.0000000001
 12
0.0
 22
0.2889330888
 32
0.0
 13
-0.0
 23
-0.2889330888
 33
0.0
 40
0.0
 40
0.0
 40
0.0
 40
0.0
 40
0.0362940117
 40
0.0724574035
 40
0.1082645475
 40
0.1435530043
 40
0.1781880321
 40
0.1952236883
 40
0.2120489775
 40
0.2286499345
 40
0.2450148302
 40
0.2611350362
 40
0.2770033636
 40
0.2926141455
 40
0.3079639429
 40
0.3230528115
 40
0.3378829612
 40
0.3524585845
 40
0.3667863884
 40
0.3947318785
 40
0.4083907544
 40
0.4218597739
 40
0.4483027804
 40
0.474273592
 40
0.5
 40
0.525726408
 40
0.5516972196
 40
0.5781402261
 40
0.5916092456
 40
0.6052681215
 40
0.6332136116
 40
0.6475414155
 40
0.6621170388
 40
0.6769471885
 40
0.6920360571
 40
0.7073858545
 40
0.7229966364
 40
0.7388649638
 40
0.7549851698
 40
0.7713500655
 40
0.7879510225
 40
0.8047763117
 40
0.8218119679
 40
0.8564469957
 40
0.8917354525
 40
0.9275425965
 40
0.9637059883
 40
1.0
 40
1.0
 40
1.0
 40
1.0
 10
4.8691632591
 20
4.8158029225
 30
0.0
 10
4.8691632591
 20
4.8192984361
 30
0.0
 10
4.8689200273
 20
4.8262792559
 30
0.0
 10
4.8678360031
 20
4.8366579439
 30
0.0
 10
4.866036808
 20
4.8468394174
 30
0.0
 10
4.8635432273
 20
4.8567215439
 30
0.0
 10
4.8608896506
 20
4.8646746412
 30
0.0
 10
4.8584374347
 20
4.8708004036
 30
0.0
 10
4.8564522687
 20
4.8752380214
 30
0.0
 10
4.854315485
 20
4.8795326191
 30
0.0
 10
4.8520316637
 20
4.8836735626
 30
0.0
 10
4.8496070489
 20
4.8876513257
 30
0.0
 10
4.8470475564
 20
4.8914565349
 30
0.0
 10
4.844359135
 20
4.895079906
 30
0.0
 10
4.8415475324
 20
4.8985121481
 30
0.0
 10
4.8386200299
 20
4.9017454852
 30
0.0
 10
4.8355839239
 20
4.9047723947
 30
0.0
 10
4.8324461574
 20
4.9075856494
 30
0.0
 10
4.8281731822
 20
4.9110121232
 30
0.0
 10
4.8236886834
 20
4.9140232404
 30
0.0
 10
4.819031164
 20
4.9165673041
 30
0.0
 10
4.814355118
 20
4.9187546353
 30
0.0
 10
4.8083584407
 20
4.9208878589
 30
0.0
 10
4.8009722778
 20
4.9224460819
 30
0.0
 10
4.7935094741
 20
4.9229656249
 30
0.0
 10
4.7860466704
 20
4.9224460819
 30
0.0
 10
4.7786605075
 20
4.9208878589
 30
0.0
 10
4.7726638302
 20
4.9187546353
 30
0.0
 10
4.7679877842
 20
4.9165673041
 30
0.0
 10
4.7633302648
 20
4.9140232404
 30
0.0
 10
4.758845766
 20
4.9110121232
 30
0.0
 10
4.7545727908
 20
4.9075856494
 30
0.0
 10
4.7514350242
 20
4.9047723947
 30
0.0
 10
4.7483989183
 20
4.9017454852
 30
0.0
 10
4.7454714158
 20
4.8985121481
 30
0.0
 10
4.7426598132
 20
4.895079906
 30
0.0
 10
4.7399713918
 20
4.8914565349
 30
0.0
 10
4.7374118993
 20
4.8876513257
 30
0.0
 10
4.7349872845
 20
4.8836735626
 30
0.0
 10
4.7327034632
 20
4.8795326191
 30
0.0
 10
4.7305666795
 20
4.8752380214
 30
0.0
 10
4.7285815135
 20
4.8708004036
 30
0.0
 10
4.7261292975
 20
4.8646746412
 30
0.0
 10
4.7234757208
 20
4.8567215439
 30
0.0
 10
4.7209821402
 20
4.8468394174
 30
0.0
 10
4.719182945
 20
4.8366579439
 30
0.0
 10
4.7180989209
 20
4.8262792559
 30
0.0
 10
4.7178556891
 20
4.8192984361
 30
0.0
 10
4.7178556891
 20
4.8158029225
 30
0.0
 11
4.8691632591
 21
4.8158029225
 31
0.0
 11
4.8687985875
 21
4.8262831207
 31
0.0
 11
4.8677095703
 21
4.8366750153
 31
0.0
 11
4.865905295
 21
4.8468623403
 31
0.0
 11
4.8634043829
 21
4.8567468692
 31
0.0
 11
4.8602298902
 21
4.8662372201
 31
0.0
 11
4.8583995713
 21
4.8708064255
 31
0.0
 11
4.8564131661
 21
4.8752434557
 31
0.0
 11
4.8542751589
 21
4.8795371684
 31
0.0
 11
4.8519904625
 21
4.8836769207
 31
0.0
 11
4.8495649463
 21
4.8876531848
 31
0.0
 11
4.8470046086
 21
4.8914565833
 31
0.0
 11
4.844315448
 21
4.8950777389
 31
0.0
 11
4.8415036329
 21
4.8985075336
 31
0.0
 11
4.8385761625
 21
4.901738117
 31
0.0
 11
4.8355402891
 21
4.9047620252
 31
0.0
 11
4.8324032655
 21
4.9075717944
 31
0.0
 11
4.8291723903
 21
4.910160075
 31
0.0
 11
4.8224607796
 21
4.9146489325
 31
0.0
 11
4.8189964176
 21
4.9165391884
 31
0.0
 11
4.81547061
 21
4.9181864846
 31
0.0
 11
4.808268714
 21
4.9207372218
 31
0.0
 11
4.8009248465
 21
4.9222783338
 31
0.0
 11
4.7935094741
 21
4.9227929906
 31
0.0
 11
4.7860941017
 21
4.9222783338
 31
0.0
 11
4.7787502342
 21
4.9207372218
 31
0.0
 11
4.7715483382
 21
4.9181864846
 31
0.0
 11
4.7680225306
 21
4.9165391884
 31
0.0
 11
4.7645581685
 21
4.9146489325
 31
0.0
 11
4.7578465579
 21
4.910160075
 31
0.0
 11
4.7546156827
 21
4.9075717944
 31
0.0
 11
4.751478659
 21
4.9047620252
 31
0.0
 11
4.7484427857
 21
4.901738117
 31
0.0
 11
4.7455153153
 21
4.8985075336
 31
0.0
 11
4.7427035002
 21
4.8950777389
 31
0.0
 11
4.7400143396
 21
4.8914565833
 31
0.0
 11
4.7374540019
 21
4.8876531848
 31
0.0
 11
4.7350284856
 21
4.8836769207
 31
0.0
 11
4.7327437893
 21
4.8795371684
 31
0.0
 11
4.7306057821
 21
4.8752434557
 31
0.0
 11
4.7286193768
 21
4.8708064255
 31
0.0
 11
4.726789058
 21
4.8662372201
 31
0.0
 11
4.7236145653
 21
4.8567468692
 31
0.0
 11
4.7211136532
 21
4.8468623403
 31
0.0
 11
4.7193093779
 21
4.8366750153
 31
0.0
 11
4.7182203607
 21
4.8262831207
 31
0.0
 11
4.7178556891
 21
4.8158029225
 31
0.0
  0
SPLINE
  5
23B
100
AcDbEntity
  8
0
100
AcDbSpline
 62
9
  6
CONTINUOUS
 70
0
 71
3
 72
37
 73
33
 74
31
 42
0.0000001
 43
0.0000001
 44
0.0000000001
 12
0.0
 22
0.3520155665
 32
0.0
 13
-0.3395962807
 23
-0.0926786125
 33
0.0
 40
0.0
 40
0.0
 40
0.0
 40
0.0
 40
0.0370057727
 40
0.0739863897
 40
0.1108655234
 40
0.1475702987
 40
0.1840464304
 40
0.2202475882
 40
0.291628596
 40
0.3613688511
 40
0.3955310844
 40
0.42917263
 40
0.4622660054
 40
0.4947896824
 40
0.5267289622
 40
0.5580738595
 40
0.5888213852
 40
0.6189776593
 40
0.6485549214
 40
0.6775729282
 40
0.7060614982
 40
0.7340574725
 40
0.761605091
 40
0.7887579733
 40
0.8155762141
 40
0.8421256753
 40
0.8684785978
 40
0.8947107652
 40
0.9209002011
 40
0.9471264648
 40
0.9734677461
 40
1.0
 40
1.0
 40
1.0
 40
1.0
 10
5.1107977942
 20
4.8158029225
 30
0.0
 10
5.1107977942
 20
4.8201451252
 30
0.0
 10
5.1106282531
 20
4.8288275226
 30
0.0
 10
5.1098686742
 20
4.8418172445
 30
0.0
 10
5.1086062784
 20
4.8547325652
 30
0.0
 10
5.1068425628
 20
4.8675292149
 30
0.0
 10
5.1045840478
 20
4.8801673389
 30
0.0
 10
5.1009407821
 20
4.8966775338
 30
0.0
 10
5.0952138822
 20
4.9167070359
 30
0.0
 10
5.0878861677
 20
4.935955451
 30
0.0
 10
5.0811290024
 20
4.9506173925
 30
0.0
 10
5.0756789596
 20
4.9611325635
 30
0.0
 10
5.0698279226
 20
4.9712083521
 30
0.0
 10
5.0635926712
 20
4.9808140532
 30
0.0
 10
5.0569935532
 20
4.9899216264
 30
0.0
 10
5.0500497547
 20
4.9985031661
 30
0.0
 10
5.0427809023
 20
5.0065315218
 30
0.0
 10
5.0352103831
 20
5.0139837007
 30
0.0
 10
5.0273607092
 20
5.0208370528
 30
0.0
 10
5.0192540941
 20
5.0270689505
 30
0.0
 10
5.0109161826
 20
5.0326617855
 30
0.0
 10
5.0023721772
 20
5.0375988301
 30
0.0
 10
4.9936467256
 20
5.041862652
 30
0.0
 10
4.9847670655
 20
5.0454412048
 30
0.0
 10
4.9757604232
 20
5.0483243543
 30
0.0
 10
4.9666535735
 20
5.0505007443
 30
0.0
 10
4.9574748122
 20
5.0519640804
 30
0.0
 10
4.9482524643
 20
5.0527114004
 30
0.0
 10
4.9390147266
 20
5.0527383204
 30
0.0
 10
4.9297901466
 20
5.0520445009
 30
0.0
 10
4.920607589
 20
5.0506344912
 30
0.0
 10
4.9145584543
 20
5.0492251051
 30
0.0
 10
4.911555036
 20
5.0484054476
 30
0.0
 11
5.1107977942
 21
4.8158029225
 31
0.0
 11
5.1105437967
 21
4.828827054
 31
0.0
 11
5.1097834292
 21
4.8418225813
 31
0.0
 11
5.1085191297
 21
4.8547428997
 31
0.0
 11
5.1067537922
 21
4.8675423856
 31
0.0
 11
5.1044933838
 21
4.8801820225
 31
0.0
 11
5.10174514
 21
4.8926255213
 31
0.0
 11
5.0948175866
 21
4.9167789162
 31
0.0
 11
5.0860560695
 21
4.9397118924
 31
0.0
 11
5.0810192796
 21
4.9506319068
 31
0.0
 11
5.0755657153
 21
4.9611437971
 31
0.0
 11
5.06971144
 21
4.9712153209
 31
0.0
 11
5.0634738592
 21
4.9808157655
 31
0.0
 11
5.0568725529
 21
4.9899168964
 31
0.0
 11
5.0499273013
 21
4.9984907082
 31
0.0
 11
5.0426586641
 21
5.006510521
 31
0.0
 11
5.0350892286
 21
5.0139531024
 31
0.0
 11
5.0272419075
 21
5.0207957733
 31
0.0
 11
5.01913999
 21
5.0270167756
 31
0.0
 11
5.0108083892
 21
5.0325983201
 31
0.0
 11
5.0022724557
 21
5.0375236864
 31
0.0
 11
4.9935576845
 21
5.0417767168
 31
0.0
 11
4.9846906248
 21
5.0453453511
 31
0.0
 11
4.9756982925
 21
5.0482193439
 31
0.0
 11
4.9666077416
 21
5.0503887455
 31
0.0
 11
4.9574464975
 21
5.0518473878
 31
0.0
 11
4.948242418
 21
5.0525917675
 31
0.0
 11
4.9390233678
 21
5.0526185503
 31
0.0
 11
4.9298172115
 21
5.0519275438
 31
0.0
 11
4.9206518139
 21
5.0505220175
 31
0.0
 11
4.911555036
 21
5.0484054476
 31
0.0
  0
SPLINE
  5
23C
100
AcDbEntity
  8
0
100
AcDbSpline
 62
9
  6
CONTINUOUS
 70
0
 71
3
 72
29
 73
25
 74
23
 42
0.0000001
 43
0.0000001
 44
0.0000000001
 12
0.0
 22
0.2877899459
 32
0.0
 13
-0.2776365722
 23
0.0757692995
 33
0.0
 40
0.0
 40
0.0
 40
0.0
 40
0.0
 40
0.0709221049
 40
0.1416385341
 40
0.2118134176
 40
0.2812036606
 40
0.3495953929
 40
0.4167761337
 40
0.4825507368
 40
0.5467643761
 40
0.609295628
 40
0.6399114484
 40
0.6700814499
 40
0.7290618847
 40
0.7578933234
 40
0.7862900873
 40
0.8142631507
 40
0.8418285295
 40
0.8690059684
 40
0.8958181612
 40
0.9222912619
 40
0.9484560861
 40
0.9743467846
 40
1.0
 40
1.0
 40
1.0
 40
1.0
 10
5.308227699
 20
4.8158029225
 30
0.0
 10
5.308227699
 20
4.8226064787
 30
0.0
 10
5.30781223
 20
4.8361974491
 30
0.0
 10
5.3059552228
 20
4.8564438702
 30
0.0
 10
5.302870403
 20
4.8763923277
 30
0.0
 10
5.298585501
 20
4.8958898068
 30
0.0
 10
5.2931286166
 20
4.91479415
 30
0.0
 10
5.2865441593
 20
4.9329682111
 30
0.0
 10
5.2788748059
 20
4.9502754884
 30
0.0
 10
5.2701818714
 20
4.966588843
 30
0.0
 10
5.2620761658
 20
4.9793438285
 30
0.0
 10
5.2551333191
 20
4.9889258063
 30
0.0
 10
5.248010064
 20
4.9979433865
 30
0.0
 10
5.2404297491
 20
5.0063716719
 30
0.0
 10
5.2324213605
 20
5.0141313055
 30
0.0
 10
5.2262889408
 20
5.0195396626
 30
0.0
 10
5.2199965129
 20
5.0245685976
 30
0.0
 10
5.2135559397
 20
5.0292092867
 30
0.0
 10
5.206979571
 20
5.0334536521
 30
0.0
 10
5.2002795019
 20
5.0372936665
 30
0.0
 10
5.1934676341
 20
5.0407209482
 30
0.0
 10
5.1865568138
 20
5.0437294183
 30
0.0
 10
5.1795605371
 20
5.0463141373
 30
0.0
 10
5.1748278078
 20
5.0477575388
 30
0.0
 10
5.1724537175
 20
5.0484054476
 30
0.0
 11
5.308227699
 21
4.8158029225
 31
0.0
 11
5.3076044508
 21
4.8362040734
 31
0.0
 11
5.3057409615
 21
4.8564700557
 31
0.0
 11
5.3026494842
 21
4.8764276626
 31
0.0
 11
5.2983545827
 21
4.8959301574
 31
0.0
 11
5.2928866683
 21
4.9148378507
 31
0.0
 11
5.2862878712
 21
4.9330108302
 31
0.0
 11
5.2786058694
 21
4.9503112374
 31
0.0
 11
5.2698990991
 21
4.9666116675
 31
0.0
 11
5.2602310968
 21
4.9817899714
 31
0.0
 11
5.2550592518
 21
4.9889233033
 31
0.0
 11
5.2496748646
 21
4.9957347876
 31
0.0
 11
5.2383079134
 21
5.0083406706
 31
0.0
 11
5.232346932
 21
5.014112457
 31
0.0
 11
5.2262156439
 21
5.0195155898
 31
0.0
 11
5.2199251457
 21
5.0245393366
 31
0.0
 11
5.2134872373
 21
5.0291746836
 31
0.0
 11
5.206914111
 21
5.033413576
 31
0.0
 11
5.2002179632
 21
5.0372479696
 31
0.0
 11
5.1934110312
 21
5.040669979
 31
0.0
 11
5.1865060161
 21
5.0436735211
 31
0.0
 11
5.179515912
 21
5.0462536524
 31
0.0
 11
5.1724537175
 21
5.0484054476
 31
0.0
  0
SPLINE
  5
23D
100
AcDbEntity
  8
0
100
AcDbSpline
 62
9
  6
CONTINUOUS
 70
0
 71
3
 72
53
 73
49
 74
47
 42
0.0000001
 43
0.0000001
 44
0.0000000001
 12
0.0
 22
-0.2889330888
 32
0.0
 13
-0.0
 23
0.2889330888
 33
0.0
 40
0.0
 40
0.0
 40
0.0
 40
0.0
 40
0.0362940117
 40
0.0724574035
 40
0.1082645475
 40
0.1435530043
 40
0.1781880321
 40
0.1952236883
 40
0.2120489775
 40
0.2286499345
 40
0.2450148302
 40
0.2611350362
 40
0.2770033636
 40
0.2926141455
 40
0.3079639429
 40
0.3230528115
 40
0.3378829612
 40
0.3524585845
 40
0.3667863884
 40
0.3947318785
 40
0.4083907544
 40
0.4218597739
 40
0.4483027804
 40
0.474273592
 40
0.5
 40
0.525726408
 40
0.5516972196
 40
0.5781402261
 40
0.5916092456
 40
0.6052681215
 40
0.6332136116
 40
0.6475414155
 40
0.6621170388
 40
0.6769471885
 40
0.6920360571
 40
0.7073858545
 40
0.7229966364
 40
0.7388649638
 40
0.7549851698
 40
0.7713500655
 40
0.7879510225
 40
0.8047763117
 40
0.8218119679
 40
0.8564469957
 40
0.8917354525
 40
0.9275425965
 40
0.9637059883
 40
1.0
 40
1.0
 40
1.0
 40
1.0
 10
4.8691632591
 20
4.8158029225
 30
0.0
 10
4.8691632591
 20
4.8123074088
 30
0.0
 10
4.8689200273
 20
4.8053265891
 30
0.0
 10
4.8678360031
 20
4.7949479011
 30
0.0
 10
4.866036808
 20
4.7847664275
 30
0.0
 10
4.8635432273
 20
4.774884301
 30
0.0
 10
4.8608896506
 20
4.7669312038
 30
0.0
 10
4.8584374347
 20
4.7608054413
 30
0.0
 10
4.8564522687
 20
4.7563678235
 30
0.0
 10
4.854315485
 20
4.7520732258
 30
0.0
 10
4.8520316637
 20
4.7479322824
 30
0.0
 10
4.8496070489
 20
4.7439545193
 30
0.0
 10
4.8470475564
 20
4.7401493101
 30
0.0
 10
4.844359135
 20
4.736525939
 30
0.0
 10
4.8415475324
 20
4.7330936968
 30
0.0
 10
4.8386200299
 20
4.7298603597
 30
0.0
 10
4.8355839239
 20
4.7268334502
 30
0.0
 10
4.8324461574
 20
4.7240201956
 30
0.0
 10
4.8281731822
 20
4.7205937217
 30
0.0
 10
4.8236886834
 20
4.7175826046
 30
0.0
 10
4.819031164
 20
4.7150385409
 30
0.0
 10
4.814355118
 20
4.7128512096
 30
0.0
 10
4.8083584407
 20
4.710717986
 30
0.0
 10
4.8009722778
 20
4.709159763
 30
0.0
 10
4.7935094741
 20
4.70864022
 30
0.0
 10
4.7860466704
 20
4.709159763
 30
0.0
 10
4.7786605075
 20
4.710717986
 30
0.0
 10
4.7726638302
 20
4.7128512096
 30
0.0
 10
4.7679877842
 20
4.7150385409
 30
0.0
 10
4.7633302648
 20
4.7175826046
 30
0.0
 10
4.758845766
 20
4.7205937217
 30
0.0
 10
4.7545727908
 20
4.7240201956
 30
0.0
 10
4.7514350242
 20
4.7268334502
 30
0.0
 10
4.7483989183
 20
4.7298603597
 30
0.0
 10
4.7454714158
 20
4.7330936968
 30
0.0
 10
4.7426598132
 20
4.736525939
 30
0.0
 10
4.7399713918
 20
4.7401493101
 30
0.0
 10
4.7374118993
 20
4.7439545193
 30
0.0
 10
4.7349872845
 20
4.7479322824
 30
0.0
 10
4.7327034632
 20
4.7520732258
 30
0.0
 10
4.7305666795
 20
4.7563678235
 30
0.0
 10
4.7285815135
 20
4.7608054413
 30
0.0
 10
4.7261292975
 20
4.7669312038
 30
0.0
 10
4.7234757208
 20
4.774884301
 30
0.0
 10
4.7209821402
 20
4.7847664275
 30
0.0
 10
4.719182945
 20
4.7949479011
 30
0.0
 10
4.7180989209
 20
4.8053265891
 30
0.0
 10
4.7178556891
 20
4.8123074088
 30
0.0
 10
4.7178556891
 20
4.8158029225
 30
0.0
 11
4.8691632591
 21
4.8158029225
 31
0.0
 11
4.8687985875
 21
4.8053227242
 31
0.0
 11
4.8677095703
 21
4.7949308297
 31
0.0
 11
4.865905295
 21
4.7847435047
 31
0.0
 11
4.8634043829
 21
4.7748589758
 31
0.0
 11
4.8602298902
 21
4.7653686249
 31
0.0
 11
4.8583995713
 21
4.7607994194
 31
0.0
 11
4.8564131661
 21
4.7563623892
 31
0.0
 11
4.8542751589
 21
4.7520686766
 31
0.0
 11
4.8519904625
 21
4.7479289242
 31
0.0
 11
4.8495649463
 21
4.7439526601
 31
0.0
 11
4.8470046086
 21
4.7401492617
 31
0.0
 11
4.844315448
 21
4.7365281061
 31
0.0
 11
4.8415036329
 21
4.7330983113
 31
0.0
 11
4.8385761625
 21
4.7298677279
 31
0.0
 11
4.8355402891
 21
4.7268438197
 31
0.0
 11
4.8324032655
 21
4.7240340505
 31
0.0
 11
4.8291723903
 21
4.7214457699
 31
0.0
 11
4.8224607796
 21
4.7169569124
 31
0.0
 11
4.8189964176
 21
4.7150666566
 31
0.0
 11
4.81547061
 21
4.7134193604
 31
0.0
 11
4.808268714
 21
4.7108686231
 31
0.0
 11
4.8009248465
 21
4.7093275111
 31
0.0
 11
4.7935094741
 21
4.7088128544
 31
0.0
 11
4.7860941017
 21
4.7093275111
 31
0.0
 11
4.7787502342
 21
4.7108686231
 31
0.0
 11
4.7715483382
 21
4.7134193604
 31
0.0
 11
4.7680225306
 21
4.7150666566
 31
0.0
 11
4.7645581685
 21
4.7169569124
 31
0.0
 11
4.7578465579
 21
4.7214457699
 31
0.0
 11
4.7546156827
 21
4.7240340505
 31
0.0
 11
4.751478659
 21
4.7268438197
 31
0.0
 11
4.7484427857
 21
4.7298677279
 31
0.0
 11
4.7455153153
 21
4.7330983113
 31
0.0
 11
4.7427035002
 21
4.7365281061
 31
0.0
 11
4.7400143396
 21
4.7401492617
 31
0.0
 11
4.7374540019
 21
4.7439526601
 31
0.0
 11
4.7350284856
 21
4.7479289242
 31
0.0
 11
4.7327437893
 21
4.7520686766
 31
0.0
 11
4.7306057821
 21
4.7563623892
 31
0.0
 11
4.7286193768
 21
4.7607994194
 31
0.0
 11
4.726789058
 21
4.7653686249
 31
0.0
 11
4.7236145653
 21
4.7748589758
 31
0.0
 11
4.7211136532
 21
4.7847435047
 31
0.0
 11
4.7193093779
 21
4.7949308297
 31
0.0
 11
4.7182203607
 21
4.8053227242
 31
0.0
 11
4.7178556891
 21
4.8158029225
 31
0.0
  0
SPLINE
  5
23E
100
AcDbEntity
  8
0
100
AcDbSpline
 62
9
  6
CONTINUOUS
 70
0
 71
3
 72
37
 73
33
 74
31
 42
0.0000001
 43
0.0000001
 44
0.0000000001
 12
0.0
 22
-0.3520155665
 32
0.0
 13
-0.3395962807
 23
0.0926786125
 33
0.0
 40
0.0
 40
0.0
 40
0.0
 40
0.0
 40
0.0370057727
 40
0.0739863897
 40
0.1108655234
 40
0.1475702987
 40
0.1840464304
 40
0.2202475882
 40
0.291628596
 40
0.3613688511
 40
0.3955310844
 40
0.42917263
 40
0.4622660054
 40
0.4947896824
 40
0.5267289622
 40
0.5580738595
 40
0.5888213852
 40
0.6189776593
 40
0.6485549214
 40
0.6775729282
 40
0.7060614982
 40
0.7340574725
 40
0.761605091
 40
0.7887579733
 40
0.8155762141
 40
0.8421256753
 40
0.8684785978
 40
0.8947107652
 40
0.9209002011
 40
0.9471264648
 40
0.9734677461
 40
1.0
 40
1.0
 40
1.0
 40
1.0
 10
5.1107977942
 20
4.8158029225
 30
0.0
 10
5.1107977942
 20
4.8114607198
 30
0.0
 10
5.1106282531
 20
4.8027783223
 30
0.0
 10
5.1098686742
 20
4.7897886004
 30
0.0
 10
5.1086062784
 20
4.7768732797
 30
0.0
 10
5.1068425628
 20
4.76407663
 30
0.0
 10
5.1045840478
 20
4.751438506
 30
0.0
 10
5.1009407821
 20
4.7349283111
 30
0.0
 10
5.0952138822
 20
4.714898809
 30
0.0
 10
5.0878861677
 20
4.6956503939
 30
0.0
 10
5.0811290024
 20
4.6809884524
 30
0.0
 10
5.0756789596
 20
4.6704732814
 30
0.0
 10
5.0698279226
 20
4.6603974928
 30
0.0
 10
5.0635926712
 20
4.6507917917
 30
0.0
 10
5.0569935532
 20
4.6416842186
 30
0.0
 10
5.0500497547
 20
4.6331026789
 30
0.0
 10
5.0427809023
 20
4.6250743232
 30
0.0
 10
5.0352103831
 20
4.6176221442
 30
0.0
 10
5.0273607092
 20
4.6107687921
 30
0.0
 10
5.0192540941
 20
4.6045368945
 30
0.0
 10
5.0109161826
 20
4.5989440594
 30
0.0
 10
5.0023721772
 20
4.5940070148
 30
0.0
 10
4.9936467256
 20
4.589743193
 30
0.0
 10
4.9847670655
 20
4.5861646402
 30
0.0
 10
4.9757604232
 20
4.5832814906
 30
0.0
 10
4.9666535735
 20
4.5811051006
 30
0.0
 10
4.9574748122
 20
4.5796417646
 30
0.0
 10
4.9482524643
 20
4.5788944446
 30
0.0
 10
4.9390147266
 20
4.5788675245
 30
0.0
 10
4.9297901466
 20
4.5795613441
 30
0.0
 10
4.920607589
 20
4.5809713537
 30
0.0
 10
4.9145584543
 20
4.5823807399
 30
0.0
 10
4.911555036
 20
4.5832003974
 30
0.0
 11
5.1107977942
 21
4.8158029225
 31
0.0
 11
5.1105437967
 21
4.8027787909
 31
0.0
 11
5.1097834292
 21
4.7897832636
 31
0.0
 11
5.1085191297
 21
4.7768629452
 31
0.0
 11
5.1067537922
 21
4.7640634593
 31
0.0
 11
5.1044933838
 21
4.7514238224
 31
0.0
 11
5.10174514
 21
4.7389803236
 31
0.0
 11
5.0948175866
 21
4.7148269287
 31
0.0
 11
5.0860560695
 21
4.6918939525
 31
0.0
 11
5.0810192796
 21
4.6809739381
 31
0.0
 11
5.0755657153
 21
4.6704620478
 31
0.0
 11
5.06971144
 21
4.660390524
 31
0.0
 11
5.0634738592
 21
4.6507900794
 31
0.0
 11
5.0568725529
 21
4.6416889485
 31
0.0
 11
5.0499273013
 21
4.6331151367
 31
0.0
 11
5.0426586641
 21
4.625095324
 31
0.0
 11
5.0350892286
 21
4.6176527426
 31
0.0
 11
5.0272419075
 21
4.6108100716
 31
0.0
 11
5.01913999
 21
4.6045890693
 31
0.0
 11
5.0108083892
 21
4.5990075249
 31
0.0
 11
5.0022724557
 21
4.5940821585
 31
0.0
 11
4.9935576845
 21
4.5898291282
 31
0.0
 11
4.9846906248
 21
4.5862604939
 31
0.0
 11
4.9756982925
 21
4.5833865011
 31
0.0
 11
4.9666077416
 21
4.5812170995
 31
0.0
 11
4.9574464975
 21
4.5797584571
 31
0.0
 11
4.948242418
 21
4.5790140775
 31
0.0
 11
4.9390233678
 21
4.5789872946
 31
0.0
 11
4.9298172115
 21
4.5796783011
 31
0.0
 11
4.9206518139
 21
4.5810838274
 31
0.0
 11
4.911555036
 21
4.5832003974
 31
0.0
  0
SPLINE
  5
23F
100
AcDbEntity
  8
0
100
AcDbSpline
 62
9
  6
CONTINUOUS
 70
0
 71
3
 72
29
 73
25
 74
23
 42
0.0000001
 43
0.0000001
 44
0.0000000001
 12
0.0
 22
-0.2877899459
 32
0.0
 13
-0.2776365722
 23
-0.0757692995
 33
0.0
 40
0.0
 40
0.0
 40
0.0
 40
0.0
 40
0.0709221049
 40
0.1416385341
 40
0.2118134176
 40
0.2812036606
 40
0.3495953929
 40
0.4167761337
 40
0.4825507368
 40
0.5467643761
 40
0.609295628
 40
0.6399114484
 40
0.6700814499
 40
0.7290618847
 40
0.7578933234
 40
0.7862900873
 40
0.8142631507
 40
0.8418285295
 40
0.8690059684
 40
0.8958181612
 40
0.9222912619
 40
0.9484560861
 40
0.9743467846
 40
1.0
 40
1.0
 40
1.0
 40
1.0
 10
5.308227699
 20
4.8158029225
 30
0.0
 10
5.308227699
 20
4.8089993662
 30
0.0
 10
5.30781223
 20
4.7954083958
 30
0.0
 10
5.3059552228
 20
4.7751619748
 30
0.0
 10
5.302870403
 20
4.7552135173
 30
0.0
 10
5.298585501
 20
4.7357160381
 30
0.0
 10
5.2931286166
 20
4.716811695
 30
0.0
 10
5.2865441593
 20
4.6986376338
 30
0.0
 10
5.2788748059
 20
4.6813303565
 30
0.0
 10
5.2701818714
 20
4.665017002
 30
0.0
 10
5.2620761658
 20
4.6522620164
 30
0.0
 10
5.2551333191
 20
4.6426800386
 30
0.0
 10
5.248010064
 20
4.6336624584
 30
0.0
 10
5.2404297491
 20
4.6252341731
 30
0.0
 10
5.2324213605
 20
4.6174745394
 30
0.0
 10
5.2262889408
 20
4.6120661824
 30
0.0
 10
5.2199965129
 20
4.6070372473
 30
0.0
 10
5.2135559397
 20
4.6023965583
 30
0.0
 10
5.206979571
 20
4.5981521929
 30
0.0
 10
5.2002795019
 20
4.5943121785
 30
0.0
 10
5.1934676341
 20
4.5908848967
 30
0.0
 10
5.1865568138
 20
4.5878764266
 30
0.0
 10
5.1795605371
 20
4.5852917076
 30
0.0
 10
5.1748278078
 20
4.5838483061
 30
0.0
 10
5.1724537175
 20
4.5832003974
 30
0.0
 11
5.308227699
 21
4.8158029225
 31
0.0
 11
5.3076044508
 21
4.7954017715
 31
0.0
 11
5.3057409615
 21
4.7751357893
 31
0.0
 11
5.3026494842
 21
4.7551781823
 31
0.0
 11
5.2983545827
 21
4.7356756875
 31
0.0
 11
5.2928866683
 21
4.7167679942
 31
0.0
 11
5.2862878712
 21
4.6985950148
 31
0.0
 11
5.2786058694
 21
4.6812946075
 31
0.0
 11
5.2698990991
 21
4.6649941774
 31
0.0
 11
5.2602310968
 21
4.6498158735
 31
0.0
 11
5.2550592518
 21
4.6426825416
 31
0.0
 11
5.2496748646
 21
4.6358710574
 31
0.0
 11
5.2383079134
 21
4.6232651743
 31
0.0
 11
5.232346932
 21
4.617493388
 31
0.0
 11
5.2262156439
 21
4.6120902551
 31
0.0
 11
5.2199251457
 21
4.6070665083
 31
0.0
 11
5.2134872373
 21
4.6024311613
 31
0.0
 11
5.206914111
 21
4.5981922689
 31
0.0
 11
5.2002179632
 21
4.5943578754
 31
0.0
 11
5.1934110312
 21
4.590935866
 31
0.0
 11
5.1865060161
 21
4.5879323239
 31
0.0
 11
5.179515912
 21
4.5853521926
 31
0.0
 11
5.1724537175
 21
4.5832003974
 31
0.0
  0
SPLINE
  5
240
100
AcDbEntity
  8
0
100
AcDbSpline
 62
9
  6
CONTINUOUS
 70
0
 71
3
 72
30
 73
26
 74
24
 42
0.0000001
 43
0.0000001
 44
0.0000000001
 12
0.0
 22
0.2025462281
 32
0.0
 13
-0.2025462281
 23
-0.0000000007
 33
0.0
 40
0.0
 40
0.0
 40
0.0
 40
0.0
 40
0.0726128933
 40
0.1449190995
 40
0.1808298752
 40
0.2165234443
 40
0.2871032859
 40
0.3563809677
 40
0.4240854598
 40
0.4899996455
 40
0.5222393112
 40
0.5539753003
 40
0.5851963088
 40
0.6158957957
 40
0.6460734345
 40
0.6757328877
 40
0.7335158906
 40
0.7894060962
 40
0.8436338663
 40
0.8702351527
 40
0.8965473203
 40
0.9226229158
 40
0.9485175156
 40
0.9742895469
 40
1.0
 40
1.0
 40
1.0
 40
1.0
 10
5.4740910246
 20
4.8158029225
 30
0.0
 10
5.4740910246
 20
4.8207054117
 30
0.0
 10
5.4737511178
 20
4.8304928208
 30
0.0
 10
5.4724806642
 20
4.8426457967
 30
0.0
 10
5.4709572896
 20
4.8522437071
 30
0.0
 10
5.4691147032
 20
4.8616665895
 30
0.0
 10
5.4662111016
 20
4.8731696865
 30
0.0
 10
5.461773497
 20
4.8864763165
 30
0.0
 10
5.4564345765
 20
4.8991070831
 30
0.0
 10
5.451239397
 20
4.9090435596
 30
0.0
 10
5.4466737469
 20
4.9165337502
 30
0.0
 10
5.4430852298
 20
4.9218686696
 30
0.0
 10
5.4393158377
 20
4.9269485054
 30
0.0
 10
5.4353740826
 20
4.9317606392
 30
0.0
 10
5.4312698792
 20
4.9362942007
 30
0.0
 10
5.4256443772
 20
4.9419030616
 30
0.0
 10
5.4182577347
 20
4.948187458
 30
0.0
 10
5.4088271748
 20
4.9545222873
 30
0.0
 10
5.4005741727
 20
4.9587155848
 30
0.0
 10
5.3938351114
 20
4.9613563755
 30
0.0
 10
5.3887488425
 20
4.9629731326
 30
0.0
 10
5.3836123509
 20
4.9642349618
 30
0.0
 10
5.3784377684
 20
4.965139029
 30
0.0
 10
5.3732379255
 20
4.9656819765
 30
0.0
 10
5.3697608592
 20
4.9658026257
 30
0.0
 10
5.3680250074
 20
4.9658026257
 30
0.0
 11
5.4740910246
 21
4.8158029225
 31
0.0
 11
5.4735801178
 21
4.8305015135
 31
0.0
 11
5.4720529761
 21
4.845067024
 31
0.0
 11
5.4709122424
 21
4.8522506073
 31
0.0
 11
5.4695238725
 21
4.8593456417
 31
0.0
 11
5.46601718
 21
4.8732045592
 31
0.0
 11
5.4615669961
 21
4.8865121139
 31
0.0
 11
5.4562156137
 21
4.899138159
 31
0.0
 11
5.4500152041
 21
4.9109616653
 31
0.0
 11
5.4466146839
 21
4.9165363993
 31
0.0
 11
5.4430250041
 21
4.9218687014
 31
0.0
 11
5.4392546664
 21
4.9269454822
 31
0.0
 11
5.4353125416
 21
4.931754223
 31
0.0
 11
5.431208405
 21
4.9362838026
 31
0.0
 11
5.4269521675
 21
4.9405233099
 31
0.0
 11
5.4180241229
 21
4.948090826
 31
0.0
 11
5.4086147383
 21
4.9543847764
 31
0.0
 11
5.3988143116
 21
4.9593437856
 31
0.0
 11
5.3937969569
 21
4.961307606
 31
0.0
 11
5.3887174485
 21
4.9629204983
 31
0.0
 11
5.3835881002
 21
4.9641791368
 31
0.0
 11
5.3784212969
 21
4.965080598
 31
0.0
 11
5.3732294332
 21
4.965622115
 31
0.0
 11
5.3680250074
 21
4.9658026257
 31
0.0
  0
SPLINE
  5
241
100
AcDbEntity
  8
0
100
AcDbSpline
 62
9
  6
CONTINUOUS
 70
0
 71
3
 72
21
 73
17
 74
15
 42
0.0000001
 43
0.0000001
 44
0.0000000001
 12
0.0
 22
0.1954833486
 32
0.0
 13
-0.1496813047
 23
0.1257348266
 33
0.0
 40
0.0
 40
0.0
 40
0.0
 40
0.0
 40
0.0676632977
 40
0.1352373483
 40
0.2693516941
 40
0.4012399295
 40
0.4660759574
 40
0.5300068066
 40
0.5929315894
 40
0.6547656809
 40
0.7154356651
 40
0.7748865341
 40
0.8330782493
 40
0.8899897133
 40
0.9456233475
 40
1.0
 40
1.0
 40
1.0
 40
1.0
 10
5.3519703865
 20
4.8158029225
 30
0.0
 10
5.3519703865
 20
4.8202119385
 30
0.0
 10
5.3517682686
 20
4.8290256491
 30
0.0
 10
5.3505651457
 20
4.8465403941
 30
0.0
 10
5.3475824538
 20
4.868104573
 30
0.0
 10
5.3426231466
 20
4.8891209967
 30
0.0
 10
5.3375078124
 20
4.905323299
 30
0.0
 10
5.3331487426
 20
4.9170348956
 30
0.0
 10
5.3282629069
 20
4.9283238767
 30
0.0
 10
5.3228725356
 20
4.9391443751
 30
0.0
 10
5.3169977527
 20
4.9494503395
 30
0.0
 10
5.3106642445
 20
4.9591995329
 30
0.0
 10
5.3038981453
 20
4.9683513452
 30
0.0
 10
5.296725824
 20
4.976866501
 30
0.0
 10
5.2891794782
 20
4.9847104772
 30
0.0
 10
5.2838581378
 20
4.9895242125
 30
0.0
 10
5.2811450817
 20
4.9918032255
 30
0.0
 11
5.3519703865
 21
4.8158029225
 31
0.0
 11
5.3516675146
 21
4.8290265025
 31
0.0
 11
5.3507610533
 21
4.8422049661
 31
0.0
 11
5.3471535552
 21
4.8681727041
 31
0.0
 11
5.3412082138
 21
4.8932597936
 31
0.0
 11
5.3373883533
 21
4.9053448325
 31
0.0
 11
5.3330242627
 21
4.9170555171
 31
0.0
 11
5.3281338586
 21
4.9283423382
 31
0.0
 11
5.3227382817
 21
4.939158819
 31
0.0
 11
5.3168593498
 21
4.9494591631
 31
0.0
 11
5.3105220871
 21
4.959200927
 31
0.0
 11
5.3037530286
 21
4.968343252
 31
0.0
 11
5.2965800288
 21
4.9768473168
 31
0.0
 11
5.289033678
 21
4.9846785353
 31
0.0
 11
5.2811450817
 21
4.9918032255
 31
0.0
  0
SPLINE
  5
242
100
AcDbEntity
  8
0
100
AcDbSpline
 62
9
  6
CONTINUOUS
 70
0
 71
3
 72
53
 73
49
 74
47
 42
0.0000001
 43
0.0000001
 44
0.0000000001
 12
0.0
 22
0.2889330888
 32
0.0
 13
-0.0
 23
-0.2889330888
 33
0.0
 40
0.0
 40
0.0
 40
0.0
 40
0.0
 40
0.0362940117
 40
0.0724574035
 40
0.1082645475
 40
0.1435530043
 40
0.1781880321
 40
0.1952236883
 40
0.2120489775
 40
0.2286499345
 40
0.2450148302
 40
0.2611350362
 40
0.2770033636
 40
0.2926141455
 40
0.3079639429
 40
0.3230528115
 40
0.3378829612
 40
0.3524585845
 40
0.3667863884
 40
0.3947318785
 40
0.4083907544
 40
0.4218597739
 40
0.4483027804
 40
0.474273592
 40
0.5
 40
0.525726408
 40
0.5516972196
 40
0.5781402261
 40
0.5916092456
 40
0.6052681215
 40
0.6332136116
 40
0.6475414155
 40
0.6621170388
 40
0.6769471885
 40
0.6920360571
 40
0.7073858545
 40
0.7229966364
 40
0.7388649638
 40
0.7549851698
 40
0.7713500655
 40
0.7879510225
 40
0.8047763117
 40
0.8218119679
 40
0.8564469957
 40
0.8917354525
 40
0.9275425965
 40
0.9637059883
 40
1.0
 40
1.0
 40
1.0
 40
1.0
 10
7.0095538355
 20
4.8158029225
 30
0.0
 10
7.0095538355
 20
4.8192984361
 30
0.0
 10
7.0093106036
 20
4.8262792559
 30
0.0
 10
7.0082265795
 20
4.8366579439
 30
0.0
 10
7.0064273843
 20
4.8468394174
 30
0.0
 10
7.0039338037
 20
4.8567215439
 30
0.0
 10
7.001280227
 20
4.8646746412
 30
0.0
 10
6.998828011
 20
4.8708004036
 30
0.0
 10
6.9968428451
 20
4.8752380214
 30
0.0
 10
6.9947060613
 20
4.8795326191
 30
0.0
 10
6.99242224
 20
4.8836735626
 30
0.0
 10
6.9899976253
 20
4.8876513257
 30
0.0
 10
6.9874381327
 20
4.8914565349
 30
0.0
 10
6.9847497113
 20
4.895079906
 30
0.0
 10
6.9819381087
 20
4.8985121481
 30
0.0
 10
6.9790106062
 20
4.9017454852
 30
0.0
 10
6.9759745003
 20
4.9047723947
 30
0.0
 10
6.9728367337
 20
4.9075856494
 30
0.0
 10
6.9685637585
 20
4.9110121232
 30
0.0
 10
6.9640792598
 20
4.9140232404
 30
0.0
 10
6.9594217403
 20
4.9165673041
 30
0.0
 10
6.9547456943
 20
4.9187546353
 30
0.0
 10
6.948749017
 20
4.9208878589
 30
0.0
 10
6.9413628541
 20
4.9224460819
 30
0.0
 10
6.9339000504
 20
4.9229656249
 30
0.0
 10
6.9264372468
 20
4.9224460819
 30
0.0
 10
6.9190510838
 20
4.9208878589
 30
0.0
 10
6.9130544065
 20
4.9187546353
 30
0.0
 10
6.9083783606
 20
4.9165673041
 30
0.0
 10
6.9037208411
 20
4.9140232404
 30
0.0
 10
6.8992363424
 20
4.9110121232
 30
0.0
 10
6.8949633672
 20
4.9075856494
 30
0.0
 10
6.8918256006
 20
4.9047723947
 30
0.0
 10
6.8887894947
 20
4.9017454852
 30
0.0
 10
6.8858619922
 20
4.8985121481
 30
0.0
 10
6.8830503896
 20
4.895079906
 30
0.0
 10
6.8803619681
 20
4.8914565349
 30
0.0
 10
6.8778024756
 20
4.8876513257
 30
0.0
 10
6.8753778609
 20
4.8836735626
 30
0.0
 10
6.8730940395
 20
4.8795326191
 30
0.0
 10
6.8709572558
 20
4.8752380214
 30
0.0
 10
6.8689720898
 20
4.8708004036
 30
0.0
 10
6.8665198739
 20
4.8646746412
 30
0.0
 10
6.8638662972
 20
4.8567215439
 30
0.0
 10
6.8613727165
 20
4.8468394174
 30
0.0
 10
6.8595735214
 20
4.8366579439
 30
0.0
 10
6.8584894973
 20
4.8262792559
 30
0.0
 10
6.8582462654
 20
4.8192984361
 30
0.0
 10
6.8582462654
 20
4.8158029225
 30
0.0
 11
7.0095538355
 21
4.8158029225
 31
0.0
 11
7.0091891638
 21
4.8262831207
 31
0.0
 11
7.0081001466
 21
4.8366750153
 31
0.0
 11
7.0062958714
 21
4.8468623403
 31
0.0
 11
7.0037949593
 21
4.8567468692
 31
0.0
 11
7.0006204666
 21
4.8662372201
 31
0.0
 11
6.9987901477
 21
4.8708064255
 31
0.0
 11
6.9968037425
 21
4.8752434557
 31
0.0
 11
6.9946657352
 21
4.8795371684
 31
0.0
 11
6.9923810389
 21
4.8836769207
 31
0.0
 11
6.9899555226
 21
4.8876531848
 31
0.0
 11
6.9873951849
 21
4.8914565833
 31
0.0
 11
6.9847060243
 21
4.8950777389
 31
0.0
 11
6.9818942092
 21
4.8985075336
 31
0.0
 11
6.9789667388
 21
4.901738117
 31
0.0
 11
6.9759308655
 21
4.9047620252
 31
0.0
 11
6.9727938418
 21
4.9075717944
 31
0.0
 11
6.9695629667
 21
4.910160075
 31
0.0
 11
6.962851356
 21
4.9146489325
 31
0.0
 11
6.9593869939
 21
4.9165391884
 31
0.0
 11
6.9558611863
 21
4.9181864846
 31
0.0
 11
6.9486592903
 21
4.9207372218
 31
0.0
 11
6.9413154228
 21
4.9222783338
 31
0.0
 11
6.9339000504
 21
4.9227929906
 31
0.0
 11
6.9264846781
 21
4.9222783338
 31
0.0
 11
6.9191408105
 21
4.9207372218
 31
0.0
 11
6.9119389146
 21
4.9181864846
 31
0.0
 11
6.908413107
 21
4.9165391884
 31
0.0
 11
6.9049487449
 21
4.9146489325
 31
0.0
 11
6.8982371342
 21
4.910160075
 31
0.0
 11
6.895006259
 21
4.9075717944
 31
0.0
 11
6.8918692354
 21
4.9047620252
 31
0.0
 11
6.8888333621
 21
4.901738117
 31
0.0
 11
6.8859058916
 21
4.8985075336
 31
0.0
 11
6.8830940766
 21
4.8950777389
 31
0.0
 11
6.880404916
 21
4.8914565833
 31
0.0
 11
6.8778445783
 21
4.8876531848
 31
0.0
 11
6.875419062
 21
4.8836769207
 31
0.0
 11
6.8731343657
 21
4.8795371684
 31
0.0
 11
6.8709963584
 21
4.8752434557
 31
0.0
 11
6.8690099532
 21
4.8708064255
 31
0.0
 11
6.8671796343
 21
4.8662372201
 31
0.0
 11
6.8640051416
 21
4.8567468692
 31
0.0
 11
6.8615042295
 21
4.8468623403
 31
0.0
 11
6.8596999543
 21
4.8366750153
 31
0.0
 11
6.858610937
 21
4.8262831207
 31
0.0
 11
6.8582462654
 21
4.8158029225
 31
0.0
  0
SPLINE
  5
243
100
AcDbEntity
  8
0
100
AcDbSpline
 62
9
  6
CONTINUOUS
 70
0
 71
3
 72
53
 73
49
 74
47
 42
0.0000001
 43
0.0000001
 44
0.0000000001
 12
0.0
 22
-0.2889330888
 32
0.0
 13
-0.0
 23
0.2889330888
 33
0.0
 40
0.0
 40
0.0
 40
0.0
 40
0.0
 40
0.0362940117
 40
0.0724574035
 40
0.1082645475
 40
0.1435530043
 40
0.1781880321
 40
0.1952236883
 40
0.2120489775
 40
0.2286499345
 40
0.2450148302
 40
0.2611350362
 40
0.2770033636
 40
0.2926141455
 40
0.3079639429
 40
0.3230528115
 40
0.3378829612
 40
0.3524585845
 40
0.3667863884
 40
0.3947318785
 40
0.4083907544
 40
0.4218597739
 40
0.4483027804
 40
0.474273592
 40
0.5
 40
0.525726408
 40
0.5516972196
 40
0.5781402261
 40
0.5916092456
 40
0.6052681215
 40
0.6332136116
 40
0.6475414155
 40
0.6621170388
 40
0.6769471885
 40
0.6920360571
 40
0.7073858545
 40
0.7229966364
 40
0.7388649638
 40
0.7549851698
 40
0.7713500655
 40
0.7879510225
 40
0.8047763117
 40
0.8218119679
 40
0.8564469957
 40
0.8917354525
 40
0.9275425965
 40
0.9637059883
 40
1.0
 40
1.0
 40
1.0
 40
1.0
 10
7.0095538355
 20
4.8158029225
 30
0.0
 10
7.0095538355
 20
4.8123074088
 30
0.0
 10
7.0093106036
 20
4.8053265891
 30
0.0
 10
7.0082265795
 20
4.7949479011
 30
0.0
 10
7.0064273843
 20
4.7847664275
 30
0.0
 10
7.0039338037
 20
4.774884301
 30
0.0
 10
7.001280227
 20
4.7669312038
 30
0.0
 10
6.998828011
 20
4.7608054413
 30
0.0
 10
6.9968428451
 20
4.7563678235
 30
0.0
 10
6.9947060613
 20
4.7520732258
 30
0.0
 10
6.99242224
 20
4.7479322824
 30
0.0
 10
6.9899976253
 20
4.7439545193
 30
0.0
 10
6.9874381327
 20
4.7401493101
 30
0.0
 10
6.9847497113
 20
4.736525939
 30
0.0
 10
6.9819381087
 20
4.7330936968
 30
0.0
 10
6.9790106062
 20
4.7298603597
 30
0.0
 10
6.9759745003
 20
4.7268334502
 30
0.0
 10
6.9728367337
 20
4.7240201956
 30
0.0
 10
6.9685637585
 20
4.7205937217
 30
0.0
 10
6.9640792598
 20
4.7175826046
 30
0.0
 10
6.9594217403
 20
4.7150385409
 30
0.0
 10
6.9547456943
 20
4.7128512096
 30
0.0
 10
6.948749017
 20
4.710717986
 30
0.0
 10
6.9413628541
 20
4.709159763
 30
0.0
 10
6.9339000504
 20
4.70864022
 30
0.0
 10
6.9264372468
 20
4.709159763
 30
0.0
 10
6.9190510838
 20
4.710717986
 30
0.0
 10
6.9130544065
 20
4.7128512096
 30
0.0
 10
6.9083783606
 20
4.7150385409
 30
0.0
 10
6.9037208411
 20
4.7175826046
 30
0.0
 10
6.8992363424
 20
4.7205937217
 30
0.0
 10
6.8949633672
 20
4.7240201956
 30
0.0
 10
6.8918256006
 20
4.7268334502
 30
0.0
 10
6.8887894947
 20
4.7298603597
 30
0.0
 10
6.8858619922
 20
4.7330936968
 30
0.0
 10
6.8830503896
 20
4.736525939
 30
0.0
 10
6.8803619681
 20
4.7401493101
 30
0.0
 10
6.8778024756
 20
4.7439545193
 30
0.0
 10
6.8753778609
 20
4.7479322824
 30
0.0
 10
6.8730940395
 20
4.7520732258
 30
0.0
 10
6.8709572558
 20
4.7563678235
 30
0.0
 10
6.8689720898
 20
4.7608054413
 30
0.0
 10
6.8665198739
 20
4.7669312038
 30
0.0
 10
6.8638662972
 20
4.774884301
 30
0.0
 10
6.8613727165
 20
4.7847664275
 30
0.0
 10
6.8595735214
 20
4.7949479011
 30
0.0
 10
6.8584894973
 20
4.8053265891
 30
0.0
 10
6.8582462654
 20
4.8123074088
 30
0.0
 10
6.8582462654
 20
4.8158029225
 30
0.0
 11
7.0095538355
 21
4.8158029225
 31
0.0
 11
7.0091891638
 21
4.8053227242
 31
0.0
 11
7.0081001466
 21
4.7949308297
 31
0.0
 11
7.0062958714
 21
4.7847435047
 31
0.0
 11
7.0037949593
 21
4.7748589758
 31
0.0
 11
7.0006204666
 21
4.7653686249
 31
0.0
 11
6.9987901477
 21
4.7607994194
 31
0.0
 11
6.9968037425
 21
4.7563623892
 31
0.0
 11
6.9946657352
 21
4.7520686766
 31
0.0
 11
6.9923810389
 21
4.7479289242
 31
0.0
 11
6.9899555226
 21
4.7439526601
 31
0.0
 11
6.9873951849
 21
4.7401492617
 31
0.0
 11
6.9847060243
 21
4.7365281061
 31
0.0
 11
6.9818942092
 21
4.7330983113
 31
0.0
 11
6.9789667388
 21
4.7298677279
 31
0.0
 11
6.9759308655
 21
4.7268438197
 31
0.0
 11
6.9727938418
 21
4.7240340505
 31
0.0
 11
6.9695629667
 21
4.7214457699
 31
0.0
 11
6.962851356
 21
4.7169569124
 31
0.0
 11
6.9593869939
 21
4.7150666566
 31
0.0
 11
6.9558611863
 21
4.7134193604
 31
0.0
 11
6.9486592903
 21
4.7108686231
 31
0.0
 11
6.9413154228
 21
4.7093275111
 31
0.0
 11
6.9339000504
 21
4.7088128544
 31
0.0
 11
6.9264846781
 21
4.7093275111
 31
0.0
 11
6.9191408105
 21
4.7108686231
 31
0.0
 11
6.9119389146
 21
4.7134193604
 31
0.0
 11
6.908413107
 21
4.7150666566
 31
0.0
 11
6.9049487449
 21
4.7169569124
 31
0.0
 11
6.8982371342
 21
4.7214457699
 31
0.0
 11
6.895006259
 21
4.7240340505
 31
0.0
 11
6.8918692354
 21
4.7268438197
 31
0.0
 11
6.8888333621
 21
4.7298677279
 31
0.0
 11
6.8859058916
 21
4.7330983113
 31
0.0
 11
6.8830940766
 21
4.7365281061
 31
0.0
 11
6.880404916
 21
4.7401492617
 31
0.0
 11
6.8778445783
 21
4.7439526601
 31
0.0
 11
6.875419062
 21
4.7479289242
 31
0.0
 11
6.8731343657
 21
4.7520686766
 31
0.0
 11
6.8709963584
 21
4.7563623892
 31
0.0
 11
6.8690099532
 21
4.7607994194
 31
0.0
 11
6.8671796343
 21
4.7653686249
 31
0.0
 11
6.8640051416
 21
4.7748589758
 31
0.0
 11
6.8615042295
 21
4.7847435047
 31
0.0
 11
6.8596999543
 21
4.7949308297
 31
0.0
 11
6.858610937
 21
4.8053227242
 31
0.0
 11
6.8582462654
 21
4.8158029225
 31
0.0
  0
SPLINE
  5
244
100
AcDbEntity
  8
0
100
AcDbSpline
 62
9
  6
CONTINUOUS
 70
0
 71
3
 72
30
 73
26
 74
24
 42
0.0000001
 43
0.0000001
 44
0.0000000001
 12
-0.0
 22
-0.2025462281
 32
0.0
 13
0.2025462281
 23
0.0000000007
 33
0.0
 40
0.0
 40
0.0
 40
0.0
 40
0.0
 40
0.0726128933
 40
0.1449190995
 40
0.1808298752
 40
0.2165234443
 40
0.2871032859
 40
0.3563809677
 40
0.4240854598
 40
0.4899996455
 40
0.5222393112
 40
0.5539753003
 40
0.5851963088
 40
0.6158957957
 40
0.6460734345
 40
0.6757328877
 40
0.7335158906
 40
0.7894060962
 40
0.8436338663
 40
0.8702351527
 40
0.8965473203
 40
0.9226229158
 40
0.9485175156
 40
0.9742895469
 40
1.0
 40
1.0
 40
1.0
 40
1.0
 10
6.2533184999
 20
4.8158029225
 30
0.0
 10
6.2533184999
 20
4.8109004333
 30
0.0
 10
6.2536584067
 20
4.8011130241
 30
0.0
 10
6.2549288603
 20
4.7889600482
 30
0.0
 10
6.256452235
 20
4.7793621378
 30
0.0
 10
6.2582948213
 20
4.7699392554
 30
0.0
 10
6.2611984229
 20
4.7584361584
 30
0.0
 10
6.2656360275
 20
4.7451295285
 30
0.0
 10
6.270974948
 20
4.7324987618
 30
0.0
 10
6.2761701275
 20
4.7225622853
 30
0.0
 10
6.2807357776
 20
4.7150720947
 30
0.0
 10
6.2843242947
 20
4.7097371753
 30
0.0
 10
6.2880936868
 20
4.7046573395
 30
0.0
 10
6.2920354419
 20
4.6998452058
 30
0.0
 10
6.2961396453
 20
4.6953116442
 30
0.0
 10
6.3017651474
 20
4.6897027834
 30
0.0
 10
6.3091517898
 20
4.6834183869
 30
0.0
 10
6.3185823497
 20
4.6770835576
 30
0.0
 10
6.3268353518
 20
4.6728902602
 30
0.0
 10
6.3335744132
 20
4.6702494694
 30
0.0
 10
6.338660682
 20
4.6686327123
 30
0.0
 10
6.3437971736
 20
4.6673708832
 30
0.0
 10
6.3489717562
 20
4.666466816
 30
0.0
 10
6.354171599
 20
4.6659238685
 30
0.0
 10
6.3576486654
 20
4.6658032192
 30
0.0
 10
6.3593845171
 20
4.6658032192
 30
0.0
 11
6.2533184999
 21
4.8158029225
 31
0.0
 11
6.2538294068
 21
4.8011043314
 31
0.0
 11
6.2553565484
 21
4.786538821
 31
0.0
 11
6.2564972821
 21
4.7793552376
 31
0.0
 11
6.257885652
 21
4.7722602032
 31
0.0
 11
6.2613923445
 21
4.7584012857
 31
0.0
 11
6.2658425284
 21
4.745093731
 31
0.0
 11
6.2711939108
 21
4.7324676859
 31
0.0
 11
6.2773943204
 21
4.7206441796
 31
0.0
 11
6.2807948406
 21
4.7150694457
 31
0.0
 11
6.2843845204
 21
4.7097371435
 31
0.0
 11
6.2881548581
 21
4.7046603627
 31
0.0
 11
6.2920969829
 21
4.6998516219
 31
0.0
 11
6.2962011196
 21
4.6953220423
 31
0.0
 11
6.3004573571
 21
4.6910825351
 31
0.0
 11
6.3093854016
 21
4.683515019
 31
0.0
 11
6.3187947863
 21
4.6772210686
 31
0.0
 11
6.3285952129
 21
4.6722620594
 31
0.0
 11
6.3336125676
 21
4.670298239
 31
0.0
 11
6.338692076
 21
4.6686853466
 31
0.0
 11
6.3438214243
 21
4.6674267081
 31
0.0
 11
6.3489882276
 21
4.666525247
 31
0.0
 11
6.3541800913
 21
4.6659837299
 31
0.0
 11
6.3593845171
 21
4.6658032192
 31
0.0
  0
SPLINE
  5
245
100
AcDbEntity
  8
0
100
AcDbSpline
 62
9
  6
CONTINUOUS
 70
0
 71
3
 72
21
 73
17
 74
15
 42
0.0000001
 43
0.0000001
 44
0.0000000001
 12
-0.0
 22
-0.1954833486
 32
0.0
 13
0.1496813047
 23
-0.1257348266
 33
0.0
 40
0.0
 40
0.0
 40
0.0
 40
0.0
 40
0.0676632977
 40
0.1352373483
 40
0.2693516941
 40
0.4012399295
 40
0.4660759574
 40
0.5300068066
 40
0.5929315894
 40
0.6547656809
 40
0.7154356651
 40
0.7748865341
 40
0.8330782493
 40
0.8899897133
 40
0.9456233475
 40
1.0
 40
1.0
 40
1.0
 40
1.0
 10
6.3754391381
 20
4.8158029225
 30
0.0
 10
6.3754391381
 20
4.8113939065
 30
0.0
 10
6.3756412559
 20
4.8025801958
 30
0.0
 10
6.3768443788
 20
4.7850654508
 30
0.0
 10
6.3798270708
 20
4.763501272
 30
0.0
 10
6.384786378
 20
4.7424848482
 30
0.0
 10
6.3899017121
 20
4.726282546
 30
0.0
 10
6.3942607819
 20
4.7145709494
 30
0.0
 10
6.3991466176
 20
4.7032819682
 30
0.0
 10
6.404536989
 20
4.6924614699
 30
0.0
 10
6.4104117718
 20
4.6821555055
 30
0.0
 10
6.41674528
 20
4.672406312
 30
0.0
 10
6.4235113793
 20
4.6632544998
 30
0.0
 10
6.4306837006
 20
4.6547393439
 30
0.0
 10
6.4382300463
 20
4.6468953677
 30
0.0
 10
6.4435513868
 20
4.6420816325
 30
0.0
 10
6.4462644429
 20
4.6398026195
 30
0.0
 11
6.3754391381
 21
4.8158029225
 31
0.0
 11
6.3757420099
 21
4.8025793425
 31
0.0
 11
6.3766484712
 21
4.7894008788
 31
0.0
 11
6.3802559694
 21
4.7634331409
 31
0.0
 11
6.3862013108
 21
4.7383460513
 31
0.0
 11
6.3900211712
 21
4.7262610124
 31
0.0
 11
6.3943852618
 21
4.7145503279
 31
0.0
 11
6.3992756659
 21
4.7032635068
 31
0.0
 11
6.4046712428
 21
4.6924470259
 31
0.0
 11
6.4105501747
 21
4.6821466818
 31
0.0
 11
6.4168874375
 21
4.6724049179
 31
0.0
 11
6.4236564959
 21
4.6632625929
 31
0.0
 11
6.4308294957
 21
4.6547585281
 31
0.0
 11
6.4383758465
 21
4.6469273097
 31
0.0
 11
6.4462644429
 21
4.6398026195
 31
0.0
  0
SPLINE
  5
246
100
AcDbEntity
  8
0
100
AcDbSpline
 62
9
  6
CONTINUOUS
 70
0
 71
3
 72
30
 73
26
 74
24
 42
0.0000001
 43
0.0000001
 44
0.0000000001
 12
0.202546179
 22
0.0000001333
 32
0.0
 13
-0.0
 23
0.202546179
 33
0.0
 40
0.0
 40
0.0
 40
0.0
 40
0.0
 40
0.0257104517
 40
0.0514824812
 40
0.0773770786
 40
0.1034526718
 40
0.1297648376
 40
0.1563661227
 40
0.2105938884
 40
0.2664840813
 40
0.3242670688
 40
0.3539265159
 40
0.3841041473
 40
0.4148036248
 40
0.4460246202
 40
0.4777605917
 40
0.510000239
 40
0.575914394
 40
0.6436188505
 40
0.7128964779
 40
0.7834762831
 40
0.8191698687
 40
0.8550806908
 40
0.9273870443
 40
1.0
 40
1.0
 40
1.0
 40
1.0
 10
5.3680250566
 20
4.6658032192
 30
0.0
 10
5.3697609078
 20
4.6658032204
 30
0.0
 10
5.373237973
 20
4.6659238719
 30
0.0
 10
5.3784378139
 20
4.6664668224
 30
0.0
 10
5.3836123942
 20
4.6673708922
 30
0.0
 10
5.3887488835
 20
4.6686327238
 30
0.0
 10
5.3938351499
 20
4.6702494831
 30
0.0
 10
5.4005742078
 20
4.6728902764
 30
0.0
 10
5.4088272049
 20
4.6770835757
 30
0.0
 10
5.4182577589
 20
4.683418405
 30
0.0
 10
5.4256443958
 20
4.6897028007
 30
0.0
 10
5.4312698938
 20
4.6953116601
 30
0.0
 10
5.4353740948
 20
4.6998452197
 30
0.0
 10
5.439315847
 20
4.7046573514
 30
0.0
 10
5.4430852358
 20
4.7097371843
 30
0.0
 10
5.4466737505
 20
4.7150720994
 30
0.0
 10
5.451239397
 20
4.7225622845
 30
0.0
 10
5.4564345721
 20
4.7324987537
 30
0.0
 10
5.4617734887
 20
4.7451295094
 30
0.0
 10
5.4662110938
 20
4.7584361267
 30
0.0
 10
5.4691146935
 20
4.769939216
 30
0.0
 10
5.4709572826
 20
4.7793620973
 30
0.0
 10
5.4724806615
 20
4.7889600191
 30
0.0
 10
5.4737511141
 20
4.8011130095
 30
0.0
 10
5.4740910246
 20
4.8109004302
 30
0.0
 10
5.4740910246
 20
4.8158029225
 30
0.0
 11
5.3680250566
 21
4.6658032192
 31
0.0
 11
5.3732294807
 21
4.6659837333
 31
0.0
 11
5.3784213425
 21
4.6665252533
 31
0.0
 11
5.3835881435
 21
4.6674267171
 31
0.0
 11
5.3887174894
 21
4.668685358
 31
0.0
 11
5.3937969954
 21
4.6702982526
 31
0.0
 11
5.3988143476
 21
4.6722620749
 31
0.0
 11
5.4086147691
 21
4.6772210866
 31
0.0
 11
5.4180241473
 21
4.683515037
 31
0.0
 11
5.4269521851
 21
4.6910825519
 31
0.0
 11
5.4312084198
 21
4.6953220581
 31
0.0
 11
5.4353125539
 21
4.699851636
 31
0.0
 11
5.4392546758
 21
4.7046603747
 31
0.0
 11
5.4430250105
 21
4.7097371526
 31
0.0
 11
5.4466146876
 21
4.7150694504
 31
0.0
 11
5.4500152049
 21
4.7206441799
 31
0.0
 11
5.4562156098
 21
4.732467678
 31
0.0
 11
5.461566989
 21
4.745093713
 31
0.0
 11
5.4660171713
 21
4.758401253
 31
0.0
 11
5.469523863
 21
4.7722601595
 31
0.0
 11
5.470912235
 21
4.7793551951
 31
0.0
 11
5.4720529715
 21
4.7865387858
 31
0.0
 11
5.4735801156
 21
4.8011043224
 31
0.0
 11
5.4740910246
 21
4.8158029225
 31
0.0
  0
SPLINE
  5
247
100
AcDbEntity
  8
0
100
AcDbSpline
 62
9
  6
CONTINUOUS
 70
0
 71
3
 72
21
 73
17
 74
15
 42
0.0000001
 43
0.0000001
 44
0.0000000001
 12
0.149681299
 22
0.125734827
 32
0.0
 13
-0.0
 23
0.1954833445
 33
0.0
 40
0.0
 40
0.0
 40
0.0
 40
0.0
 40
0.0543766358
 40
0.1100102533
 40
0.1669216992
 40
0.2251133925
 40
0.2845642299
 40
0.3452341776
 40
0.4070682264
 40
0.4699929684
 40
0.5339237867
 40
0.598759778
 40
0.7306479645
 40
0.8647625009
 40
0.932336662
 40
1.0
 40
1.0
 40
1.0
 40
1.0
 10
5.2811450866
 20
4.639802623
 30
0.0
 10
5.2838581418
 20
4.6420816353
 30
0.0
 10
5.2891794799
 20
4.6468953697
 30
0.0
 10
5.2967258238
 20
4.6547393426
 30
0.0
 10
5.3038981434
 20
4.6632544948
 30
0.0
 10
5.3106642402
 20
4.6724063026
 30
0.0
 10
5.3169977484
 20
4.6821554888
 30
0.0
 10
5.3228725266
 20
4.6924614474
 30
0.0
 10
5.3282628952
 20
4.703281938
 30
0.0
 10
5.3331487299
 20
4.7145709112
 30
0.0
 10
5.3375077998
 20
4.7262824998
 30
0.0
 10
5.3426231467
 20
4.7424847897
 30
0.0
 10
5.3475824518
 20
4.7635012215
 30
0.0
 10
5.3505651331
 20
4.7850654175
 30
0.0
 10
5.3517682648
 20
4.8025801836
 30
0.0
 10
5.3519703865
 20
4.8113939039
 30
0.0
 10
5.3519703865
 20
4.8158029225
 30
0.0
 11
5.2811450866
 21
4.639802623
 31
0.0
 11
5.2890336799
 21
4.6469273113
 31
0.0
 11
5.2965800287
 21
4.6547585269
 31
0.0
 11
5.3037530269
 21
4.6632625882
 31
0.0
 11
5.3105220837
 21
4.6724049087
 31
0.0
 11
5.316859345
 21
4.6821466659
 31
0.0
 11
5.3227382733
 21
4.6924470035
 31
0.0
 11
5.3281338471
 21
4.7032634764
 31
0.0
 11
5.33302425
 21
4.714550289
 31
0.0
 11
5.3373883423
 21
4.7262609662
 31
0.0
 11
5.3412082089
 21
4.7383459953
 31
0.0
 11
5.3471535483
 21
4.763433075
 31
0.0
 11
5.3507610441
 21
4.7894008503
 31
0.0
 11
5.3516675109
 21
4.802579335
 31
0.0
 11
5.3519703865
 21
4.8158029225
 31
0.0
  0
SPLINE
  5
248
100
AcDbEntity
  8
0
100
AcDbSpline
 62
9
  6
CONTINUOUS
 70
0
 71
3
 72
30
 73
26
 74
24
 42
0.0000001
 43
0.0000001
 44
0.0000000001
 12
-0.202546179
 22
-0.0000001333
 32
0.0
 13
0.0
 23
-0.202546179
 33
0.0
 40
0.0
 40
0.0
 40
0.0
 40
0.0
 40
0.0257104517
 40
0.0514824812
 40
0.0773770786
 40
0.1034526718
 40
0.1297648376
 40
0.1563661227
 40
0.2105938884
 40
0.2664840813
 40
0.3242670688
 40
0.3539265159
 40
0.3841041473
 40
0.4148036248
 40
0.4460246202
 40
0.4777605917
 40
0.510000239
 40
0.575914394
 40
0.6436188505
 40
0.7128964779
 40
0.7834762831
 40
0.8191698687
 40
0.8550806908
 40
0.9273870443
 40
1.0
 40
1.0
 40
1.0
 40
1.0
 10
6.359384468
 20
4.9658026257
 30
0.0
 10
6.3576486167
 20
4.9658026246
 30
0.0
 10
6.3541715515
 20
4.9656819731
 30
0.0
 10
6.3489717106
 20
4.9651390226
 30
0.0
 10
6.3437971303
 20
4.9642349527
 30
0.0
 10
6.3386606411
 20
4.9629731212
 30
0.0
 10
6.3335743747
 20
4.9613563618
 30
0.0
 10
6.3268353168
 20
4.9587155686
 30
0.0
 10
6.3185823196
 20
4.9545222693
 30
0.0
 10
6.3091517656
 20
4.94818744
 30
0.0
 10
6.3017651287
 20
4.9419030442
 30
0.0
 10
6.2961396307
 20
4.9362941849
 30
0.0
 10
6.2920354297
 20
4.9317606252
 30
0.0
 10
6.2880936775
 20
4.9269484936
 30
0.0
 10
6.2843242888
 20
4.9218686606
 30
0.0
 10
6.280735774
 20
4.9165337455
 30
0.0
 10
6.2761701275
 20
4.9090435605
 30
0.0
 10
6.2709749524
 20
4.8991070912
 30
0.0
 10
6.2656360358
 20
4.8864763355
 30
0.0
 10
6.2611984307
 20
4.8731697183
 30
0.0
 10
6.258294831
 20
4.8616666289
 30
0.0
 10
6.2564522419
 20
4.8522437476
 30
0.0
 10
6.254928863
 20
4.8426458259
 30
0.0
 10
6.2536584104
 20
4.8304928355
 30
0.0
 10
6.2533184999
 20
4.8207054147
 30
0.0
 10
6.2533184999
 20
4.8158029225
 30
0.0
 11
6.359384468
 21
4.9658026257
 31
0.0
 11
6.3541800438
 21
4.9656221117
 31
0.0
 11
6.348988182
 21
4.9650805917
 31
0.0
 11
6.343821381
 21
4.9641791278
 31
0.0
 11
6.3386920351
 21
4.9629204869
 31
0.0
 11
6.3336125291
 21
4.9613075924
 31
0.0
 11
6.3285951769
 21
4.95934377
 31
0.0
 11
6.3187947555
 21
4.9543847584
 31
0.0
 11
6.3093853772
 21
4.9480908079
 31
0.0
 11
6.3004573394
 21
4.9405232931
 31
0.0
 11
6.2962011048
 21
4.9362837868
 31
0.0
 11
6.2920969706
 21
4.9317542089
 31
0.0
 11
6.2881548487
 21
4.9269454702
 31
0.0
 11
6.284384514
 21
4.9218686923
 31
0.0
 11
6.280794837
 21
4.9165363945
 31
0.0
 11
6.2773943196
 21
4.9109616651
 31
0.0
 11
6.2711939148
 21
4.8991381669
 31
0.0
 11
6.2658425355
 21
4.8865121319
 31
0.0
 11
6.2613923532
 21
4.8732045919
 31
0.0
 11
6.2578856616
 21
4.8593456854
 31
0.0
 11
6.2564972895
 21
4.8522506498
 31
0.0
 11
6.2553565531
 21
4.8450670592
 31
0.0
 11
6.2538294089
 21
4.8305015225
 31
0.0
 11
6.2533184999
 21
4.8158029225
 31
0.0
  0
SPLINE
  5
249
100
AcDbEntity
  8
0
100
AcDbSpline
 62
9
  6
CONTINUOUS
 70
0
 71
3
 72
37
 73
33
 74
31
 42
0.0000001
 43
0.0000001
 44
0.0000000001
 12
-0.3395962807
 22
0.0926786125
 32
0.0
 13
-0.0
 23
-0.3520155665
 33
0.0
 40
0.0
 40
0.0
 40
0.0
 40
0.0
 40
0.0265322539
 40
0.0528735352
 40
0.0790997989
 40
0.1052892348
 40
0.1315214022
 40
0.1578743247
 40
0.1844237859
 40
0.2112420267
 40
0.238394909
 40
0.2659425275
 40
0.2939385018
 40
0.3224270718
 40
0.3514450786
 40
0.3810223407
 40
0.4111786148
 40
0.4419261405
 40
0.4732710378
 40
0.5052103176
 40
0.5377339946
 40
0.57082737
 40
0.6044689156
 40
0.6386311489
 40
0.708371404
 40
0.7797524118
 40
0.8159535696
 40
0.8524297013
 40
0.8891344766
 40
0.9260136103
 40
0.9629942273
 40
1.0
 40
1.0
 40
1.0
 40
1.0
 10
6.8158544885
 20
5.0484054476
 30
0.0
 10
6.8128510703
 20
5.0492251051
 30
0.0
 10
6.8068019355
 20
5.0506344912
 30
0.0
 10
6.7976193779
 20
5.0520445009
 30
0.0
 10
6.788394798
 20
5.0527383204
 30
0.0
 10
6.7791570602
 20
5.0527114004
 30
0.0
 10
6.7699347123
 20
5.0519640804
 30
0.0
 10
6.7607559511
 20
5.0505007443
 30
0.0
 10
6.7516491013
 20
5.0483243543
 30
0.0
 10
6.742642459
 20
5.0454412048
 30
0.0
 10
6.733762799
 20
5.041862652
 30
0.0
 10
6.7250373474
 20
5.0375988301
 30
0.0
 10
6.716493342
 20
5.0326617855
 30
0.0
 10
6.7081554304
 20
5.0270689505
 30
0.0
 10
6.7000488153
 20
5.0208370528
 30
0.0
 10
6.6921991414
 20
5.0139837007
 30
0.0
 10
6.6846286223
 20
5.0065315218
 30
0.0
 10
6.6773597699
 20
4.9985031661
 30
0.0
 10
6.6704159713
 20
4.9899216264
 30
0.0
 10
6.6638168533
 20
4.9808140532
 30
0.0
 10
6.657581602
 20
4.9712083521
 30
0.0
 10
6.6517305649
 20
4.9611325635
 30
0.0
 10
6.6462805221
 20
4.9506173925
 30
0.0
 10
6.6395233569
 20
4.935955451
 30
0.0
 10
6.6321956423
 20
4.9167070359
 30
0.0
 10
6.6264687424
 20
4.8966775338
 30
0.0
 10
6.6228254767
 20
4.8801673389
 30
0.0
 10
6.6205669617
 20
4.8675292149
 30
0.0
 10
6.6188032461
 20
4.8547325652
 30
0.0
 10
6.6175408503
 20
4.8418172445
 30
0.0
 10
6.6167812714
 20
4.8288275226
 30
0.0
 10
6.6166117303
 20
4.8201451252
 30
0.0
 10
6.6166117303
 20
4.8158029225
 30
0.0
 11
6.8158544885
 21
5.0484054476
 31
0.0
 11
6.8067577106
 21
5.0505220175
 31
0.0
 11
6.797592313
 21
5.0519275438
 31
0.0
 11
6.7883861567
 21
5.0526185503
 31
0.0
 11
6.7791671065
 21
5.0525917675
 31
0.0
 11
6.769963027
 21
5.0518473878
 31
0.0
 11
6.7608017829
 21
5.0503887455
 31
0.0
 11
6.751711232
 21
5.0482193439
 31
0.0
 11
6.7427188998
 21
5.0453453511
 31
0.0
 11
6.73385184
 21
5.0417767168
 31
0.0
 11
6.7251370688
 21
5.0375236864
 31
0.0
 11
6.7166011353
 21
5.0325983201
 31
0.0
 11
6.7082695346
 21
5.0270167756
 31
0.0
 11
6.7001676171
 21
5.0207957733
 31
0.0
 11
6.6923202959
 21
5.0139531024
 31
0.0
 11
6.6847508604
 21
5.006510521
 31
0.0
 11
6.6774822233
 21
4.9984907082
 31
0.0
 11
6.6705369716
 21
4.9899168964
 31
0.0
 11
6.6639356653
 21
4.9808157655
 31
0.0
 11
6.6576980845
 21
4.9712153209
 31
0.0
 11
6.6518438092
 21
4.9611437971
 31
0.0
 11
6.646390245
 21
4.9506319068
 31
0.0
 11
6.641353455
 21
4.9397118924
 31
0.0
 11
6.6325919379
 21
4.9167789162
 31
0.0
 11
6.6256643846
 21
4.8926255213
 31
0.0
 11
6.6229161407
 21
4.8801820225
 31
0.0
 11
6.6206557323
 21
4.8675423856
 31
0.0
 11
6.6188903948
 21
4.8547428997
 31
0.0
 11
6.6176260953
 21
4.8418225813
 31
0.0
 11
6.6168657279
 21
4.828827054
 31
0.0
 11
6.6166117303
 21
4.8158029225
 31
0.0
  0
SPLINE
  5
24A
100
AcDbEntity
  8
0
100
AcDbSpline
 62
9
  6
CONTINUOUS
 70
0
 71
3
 72
29
 73
25
 74
23
 42
0.0000001
 43
0.0000001
 44
0.0000000001
 12
-0.2776365722
 22
-0.0757692995
 32
0.0
 13
-0.0
 23
-0.2877899459
 33
0.0
 40
0.0
 40
0.0
 40
0.0
 40
0.0
 40
0.0256532154
 40
0.0515439139
 40
0.0777087381
 40
0.1041818388
 40
0.1309940316
 40
0.1581714705
 40
0.1857368493
 40
0.2137099127
 40
0.2421066766
 40
0.2709381153
 40
0.3299185501
 40
0.3600885516
 40
0.390704372
 40
0.4532356239
 40
0.5174492632
 40
0.5832238663
 40
0.6504046071
 40
0.7187963394
 40
0.7881865824
 40
0.8583614659
 40
0.9290778951
 40
1.0
 40
1.0
 40
1.0
 40
1.0
 10
6.554955807
 20
5.0484054476
 30
0.0
 10
6.5525817167
 20
5.0477575388
 30
0.0
 10
6.5478489875
 20
5.0463141373
 30
0.0
 10
6.5408527107
 20
5.0437294183
 30
0.0
 10
6.5339418905
 20
5.0407209482
 30
0.0
 10
6.5271300226
 20
5.0372936665
 30
0.0
 10
6.5204299535
 20
5.0334536521
 30
0.0
 10
6.5138535848
 20
5.0292092867
 30
0.0
 10
6.5074130116
 20
5.0245685976
 30
0.0
 10
6.5011205837
 20
5.0195396626
 30
0.0
 10
6.494988164
 20
5.0141313055
 30
0.0
 10
6.4869797754
 20
5.0063716719
 30
0.0
 10
6.4793994605
 20
4.9979433865
 30
0.0
 10
6.4722762054
 20
4.9889258063
 30
0.0
 10
6.4653333588
 20
4.9793438285
 30
0.0
 10
6.4572276531
 20
4.966588843
 30
0.0
 10
6.4485347186
 20
4.9502754884
 30
0.0
 10
6.4408653652
 20
4.9329682111
 30
0.0
 10
6.434280908
 20
4.91479415
 30
0.0
 10
6.4288240235
 20
4.8958898068
 30
0.0
 10
6.4245391215
 20
4.8763923277
 30
0.0
 10
6.4214543017
 20
4.8564438702
 30
0.0
 10
6.4195972946
 20
4.8361974491
 30
0.0
 10
6.4191818255
 20
4.8226064787
 30
0.0
 10
6.4191818255
 20
4.8158029225
 30
0.0
 11
6.554955807
 21
5.0484054476
 31
0.0
 11
6.5478936126
 21
5.0462536524
 31
0.0
 11
6.5409035084
 21
5.0436735211
 31
0.0
 11
6.5339984933
 21
5.040669979
 31
0.0
 11
6.5271915614
 21
5.0372479696
 31
0.0
 11
6.5204954135
 21
5.033413576
 31
0.0
 11
6.5139222872
 21
5.0291746836
 31
0.0
 11
6.5074843788
 21
5.0245393366
 31
0.0
 11
6.5011938806
 21
5.0195155898
 31
0.0
 11
6.4950625925
 21
5.014112457
 31
0.0
 11
6.4891016112
 21
5.0083406706
 31
0.0
 11
6.47773466
 21
4.9957347876
 31
0.0
 11
6.4723502727
 21
4.9889233033
 31
0.0
 11
6.4671784277
 21
4.9817899714
 31
0.0
 11
6.4575104254
 21
4.9666116675
 31
0.0
 11
6.4488036551
 21
4.9503112374
 31
0.0
 11
6.4411216533
 21
4.9330108302
 31
0.0
 11
6.4345228563
 21
4.9148378507
 31
0.0
 11
6.4290549418
 21
4.8959301574
 31
0.0
 11
6.4247600403
 21
4.8764276626
 31
0.0
 11
6.421668563
 21
4.8564700557
 31
0.0
 11
6.4198050738
 21
4.8362040734
 31
0.0
 11
6.4191818255
 21
4.8158029225
 31
0.0
  0
SPLINE
  5
24B
100
AcDbEntity
  8
0
100
AcDbSpline
 62
9
  6
CONTINUOUS
 70
0
 71
3
 72
21
 73
17
 74
15
 42
0.0000001
 43
0.0000001
 44
0.0000000001
 12
-0.149681299
 22
-0.125734827
 32
0.0
 13
0.0
 23
-0.1954833445
 33
0.0
 40
0.0
 40
0.0
 40
0.0
 40
0.0
 40
0.0543766358
 40
0.1100102533
 40
0.1669216992
 40
0.2251133925
 40
0.2845642299
 40
0.3452341776
 40
0.4070682264
 40
0.4699929684
 40
0.5339237867
 40
0.598759778
 40
0.7306479645
 40
0.8647625009
 40
0.932336662
 40
1.0
 40
1.0
 40
1.0
 40
1.0
 10
6.4462644379
 20
4.9918032219
 30
0.0
 10
6.4435513827
 20
4.9895242096
 30
0.0
 10
6.4382300447
 20
4.9847104752
 30
0.0
 10
6.4306837007
 20
4.9768665023
 30
0.0
 10
6.4235113812
 20
4.9683513501
 30
0.0
 10
6.4167452843
 20
4.9591995423
 30
0.0
 10
6.4104117761
 20
4.9494503561
 30
0.0
 10
6.4045369979
 20
4.9391443976
 30
0.0
 10
6.3991466294
 20
4.928323907
 30
0.0
 10
6.3942607946
 20
4.9170349338
 30
0.0
 10
6.3899017247
 20
4.9053233451
 30
0.0
 10
6.3847863778
 20
4.8891210552
 30
0.0
 10
6.3798270727
 20
4.8681046234
 30
0.0
 10
6.3768443914
 20
4.8465404275
 30
0.0
 10
6.3756412597
 20
4.8290256613
 30
0.0
 10
6.3754391381
 20
4.820211941
 30
0.0
 10
6.3754391381
 20
4.8158029225
 30
0.0
 11
6.4462644379
 21
4.9918032219
 31
0.0
 11
6.4383758446
 21
4.9846785336
 31
0.0
 11
6.4308294958
 21
4.976847318
 31
0.0
 11
6.4236564977
 21
4.9683432568
 31
0.0
 11
6.4168874409
 21
4.9592009362
 31
0.0
 11
6.4105501795
 21
4.949459179
 31
0.0
 11
6.4046712512
 21
4.9391588414
 31
0.0
 11
6.3992756774
 21
4.9283423686
 31
0.0
 11
6.3943852746
 21
4.9170555559
 31
0.0
 11
6.3900211822
 21
4.9053448787
 31
0.0
 11
6.3862013156
 21
4.8932598496
 31
0.0
 11
6.3802559762
 21
4.86817277
 31
0.0
 11
6.3766484804
 21
4.8422049946
 31
0.0
 11
6.3757420136
 21
4.82902651
 31
0.0
 11
6.3754391381
 21
4.8158029225
 31
0.0
  0
SPLINE
  5
24C
100
AcDbEntity
  8
0
100
AcDbSpline
 62
9
  6
CONTINUOUS
 70
0
 71
3
 72
37
 73
33
 74
31
 42
0.0000001
 43
0.0000001
 44
0.0000000001
 12
-0.3395962807
 22
-0.0926786125
 32
0.0
 13
0.0
 23
0.3520155665
 33
0.0
 40
0.0
 40
0.0
 40
0.0
 40
0.0
 40
0.0265322539
 40
0.0528735352
 40
0.0790997989
 40
0.1052892348
 40
0.1315214022
 40
0.1578743247
 40
0.1844237859
 40
0.2112420267
 40
0.238394909
 40
0.2659425275
 40
0.2939385018
 40
0.3224270718
 40
0.3514450786
 40
0.3810223407
 40
0.4111786148
 40
0.4419261405
 40
0.4732710378
 40
0.5052103176
 40
0.5377339946
 40
0.57082737
 40
0.6044689156
 40
0.6386311489
 40
0.708371404
 40
0.7797524118
 40
0.8159535696
 40
0.8524297013
 40
0.8891344766
 40
0.9260136103
 40
0.9629942273
 40
1.0
 40
1.0
 40
1.0
 40
1.0
 10
6.8158544885
 20
4.5832003974
 30
0.0
 10
6.8128510703
 20
4.5823807399
 30
0.0
 10
6.8068019355
 20
4.5809713537
 30
0.0
 10
6.7976193779
 20
4.5795613441
 30
0.0
 10
6.788394798
 20
4.5788675245
 30
0.0
 10
6.7791570602
 20
4.5788944446
 30
0.0
 10
6.7699347123
 20
4.5796417646
 30
0.0
 10
6.7607559511
 20
4.5811051006
 30
0.0
 10
6.7516491013
 20
4.5832814906
 30
0.0
 10
6.742642459
 20
4.5861646402
 30
0.0
 10
6.733762799
 20
4.589743193
 30
0.0
 10
6.7250373474
 20
4.5940070148
 30
0.0
 10
6.716493342
 20
4.5989440594
 30
0.0
 10
6.7081554304
 20
4.6045368945
 30
0.0
 10
6.7000488153
 20
4.6107687921
 30
0.0
 10
6.6921991414
 20
4.6176221442
 30
0.0
 10
6.6846286223
 20
4.6250743232
 30
0.0
 10
6.6773597699
 20
4.6331026789
 30
0.0
 10
6.6704159713
 20
4.6416842186
 30
0.0
 10
6.6638168533
 20
4.6507917917
 30
0.0
 10
6.657581602
 20
4.6603974928
 30
0.0
 10
6.6517305649
 20
4.6704732814
 30
0.0
 10
6.6462805221
 20
4.6809884524
 30
0.0
 10
6.6395233569
 20
4.6956503939
 30
0.0
 10
6.6321956423
 20
4.714898809
 30
0.0
 10
6.6264687424
 20
4.7349283111
 30
0.0
 10
6.6228254767
 20
4.751438506
 30
0.0
 10
6.6205669617
 20
4.76407663
 30
0.0
 10
6.6188032461
 20
4.7768732797
 30
0.0
 10
6.6175408503
 20
4.7897886004
 30
0.0
 10
6.6167812714
 20
4.8027783223
 30
0.0
 10
6.6166117303
 20
4.8114607198
 30
0.0
 10
6.6166117303
 20
4.8158029225
 30
0.0
 11
6.8158544885
 21
4.5832003974
 31
0.0
 11
6.8067577106
 21
4.5810838274
 31
0.0
 11
6.797592313
 21
4.5796783011
 31
0.0
 11
6.7883861567
 21
4.5789872946
 31
0.0
 11
6.7791671065
 21
4.5790140775
 31
0.0
 11
6.769963027
 21
4.5797584571
 31
0.0
 11
6.7608017829
 21
4.5812170995
 31
0.0
 11
6.751711232
 21
4.5833865011
 31
0.0
 11
6.7427188998
 21
4.5862604939
 31
0.0
 11
6.73385184
 21
4.5898291282
 31
0.0
 11
6.7251370688
 21
4.5940821585
 31
0.0
 11
6.7166011353
 21
4.5990075249
 31
0.0
 11
6.7082695346
 21
4.6045890693
 31
0.0
 11
6.7001676171
 21
4.6108100716
 31
0.0
 11
6.6923202959
 21
4.6176527426
 31
0.0
 11
6.6847508604
 21
4.625095324
 31
0.0
 11
6.6774822233
 21
4.6331151367
 31
0.0
 11
6.6705369716
 21
4.6416889485
 31
0.0
 11
6.6639356653
 21
4.6507900794
 31
0.0
 11
6.6576980845
 21
4.660390524
 31
0.0
 11
6.6518438092
 21
4.6704620478
 31
0.0
 11
6.646390245
 21
4.6809739381
 31
0.0
 11
6.641353455
 21
4.6918939525
 31
0.0
 11
6.6325919379
 21
4.7148269287
 31
0.0
 11
6.6256643846
 21
4.7389803236
 31
0.0
 11
6.6229161407
 21
4.7514238224
 31
0.0
 11
6.6206557323
 21
4.7640634593
 31
0.0
 11
6.6188903948
 21
4.7768629452
 31
0.0
 11
6.6176260953
 21
4.7897832636
 31
0.0
 11
6.6168657279
 21
4.8027787909
 31
0.0
 11
6.6166117303
 21
4.8158029225
 31
0.0
  0
SPLINE
  5
24D
100
AcDbEntity
  8
0
100
AcDbSpline
 62
9
  6
CONTINUOUS
 70
0
 71
3
 72
29
 73
25
 74
23
 42
0.0000001
 43
0.0000001
 44
0.0000000001
 12
-0.2776365722
 22
0.0757692995
 32
0.0
 13
0.0
 23
0.2877899459
 33
0.0
 40
0.0
 40
0.0
 40
0.0
 40
0.0
 40
0.0256532154
 40
0.0515439139
 40
0.0777087381
 40
0.1041818388
 40
0.1309940316
 40
0.1581714705
 40
0.1857368493
 40
0.2137099127
 40
0.2421066766
 40
0.2709381153
 40
0.3299185501
 40
0.3600885516
 40
0.390704372
 40
0.4532356239
 40
0.5174492632
 40
0.5832238663
 40
0.6504046071
 40
0.7187963394
 40
0.7881865824
 40
0.8583614659
 40
0.9290778951
 40
1.0
 40
1.0
 40
1.0
 40
1.0
 10
6.554955807
 20
4.5832003974
 30
0.0
 10
6.5525817167
 20
4.5838483061
 30
0.0
 10
6.5478489875
 20
4.5852917076
 30
0.0
 10
6.5408527107
 20
4.5878764266
 30
0.0
 10
6.5339418905
 20
4.5908848967
 30
0.0
 10
6.5271300226
 20
4.5943121785
 30
0.0
 10
6.5204299535
 20
4.5981521929
 30
0.0
 10
6.5138535848
 20
4.6023965583
 30
0.0
 10
6.5074130116
 20
4.6070372473
 30
0.0
 10
6.5011205837
 20
4.6120661824
 30
0.0
 10
6.494988164
 20
4.6174745394
 30
0.0
 10
6.4869797754
 20
4.6252341731
 30
0.0
 10
6.4793994605
 20
4.6336624584
 30
0.0
 10
6.4722762054
 20
4.6426800386
 30
0.0
 10
6.4653333588
 20
4.6522620164
 30
0.0
 10
6.4572276531
 20
4.665017002
 30
0.0
 10
6.4485347186
 20
4.6813303565
 30
0.0
 10
6.4408653652
 20
4.6986376338
 30
0.0
 10
6.434280908
 20
4.716811695
 30
0.0
 10
6.4288240235
 20
4.7357160381
 30
0.0
 10
6.4245391215
 20
4.7552135173
 30
0.0
 10
6.4214543017
 20
4.7751619748
 30
0.0
 10
6.4195972946
 20
4.7954083958
 30
0.0
 10
6.4191818255
 20
4.8089993662
 30
0.0
 10
6.4191818255
 20
4.8158029225
 30
0.0
 11
6.554955807
 21
4.5832003974
 31
0.0
 11
6.5478936126
 21
4.5853521926
 31
0.0
 11
6.5409035084
 21
4.5879323239
 31
0.0
 11
6.5339984933
 21
4.590935866
 31
0.0
 11
6.5271915614
 21
4.5943578754
 31
0.0
 11
6.5204954135
 21
4.5981922689
 31
0.0
 11
6.5139222872
 21
4.6024311613
 31
0.0
 11
6.5074843788
 21
4.6070665083
 31
0.0
 11
6.5011938806
 21
4.6120902551
 31
0.0
 11
6.4950625925
 21
4.617493388
 31
0.0
 11
6.4891016112
 21
4.6232651743
 31
0.0
 11
6.47773466
 21
4.6358710574
 31
0.0
 11
6.4723502727
 21
4.6426825416
 31
0.0
 11
6.4671784277
 21
4.6498158735
 31
0.0
 11
6.4575104254
 21
4.6649941774
 31
0.0
 11
6.4488036551
 21
4.6812946075
 31
0.0
 11
6.4411216533
 21
4.6985950148
 31
0.0
 11
6.4345228563
 21
4.7167679942
 31
0.0
 11
6.4290549418
 21
4.7356756875
 31
0.0
 11
6.4247600403
 21
4.7551781823
 31
0.0
 11
6.421668563
 21
4.7751357893
 31
0.0
 11
6.4198050738
 21
4.7954017715
 31
0.0
 11
6.4191818255
 21
4.8158029225
 31
0.0
  0
ENDSEC
  0
SECTION
  2
OBJECTS
  0
DICTIONARY
  5
C
100
AcDbDictionary
280
0
281
1
  3
ACAD_GROUP
350
D
  3
ACAD_MLINESTYLE
350
17
  3
ACAD_LAYOUT
350
1A
  3
ACAD_PLOTSETTINGS
350
19
  3
ACAD_PLOTSTYLENAME
350
E
  0
DICTIONARY
  5
D
102
{ACAD_REACTORS
330
C
102
}
100
AcDbDictionary
280
0
281
1
  0
ACDBDICTIONARYWDFLT
  5
E
102
{ACAD_REACTORS
330
C
102
}
100
AcDbDictionary
281
1
  3
Normal
350
F
100
AcDbDictionaryWithDefault
340
F
  0
DICTIONARY
  5
17
102
{ACAD_REACTORS
330
C
102
}
100
AcDbDictionary
280
0
281
1
  3
Standard
350
18
  0
DICTIONARY
  5
19
102
{ACAD_REACTORS
330
C
102
}
100
AcDbDictionary
281
1
  0
DICTIONARY
  5
1A
102
{ACAD_REACTORS
330
C
102
}
100
AcDbDictionary
281
1
  3
Model
350
24E
  3
Layout1
350
24F
  0
ACDBPLACEHOLDER
  5
F
102
{ACAD_REACTORS
330
E
102
}
  0
MLINESTYLE
  5
18
102
{ACAD_REACTORS
330
17
102
}
100
AcDbMlineStyle
  2
STANDARD
 70
0
  3

 62
256
 51
90.0
 52
90.0
 71
2
 49
0.5
 62
256
  6
BYLAYER
 49
-0.5
 62
256
  6
BYLAYER
  0
LAYOUT
  5
24E
102
{ACAD_REACTORS
330
1A
102
}
100
AcDbPlotSettings
  1

  2
none_device
  4
ISO_A4_(297.00_x_210.00_MM)
  6

 40
0.0
 41
0.0
 42
0.0
 43
0.0
 44
297.0
 45
210.0
 46
0.0
 47
0.0
 48
0.0
 49
0.0
140
0.0
141
0.0
142
1.0
143
1.0
 70
1024
 72
0
 73
0
 74
0
  7

 75
0
147
1.0
148
0.0
149
0.0
100
AcDbLayout
  1
Model
 70
0
 71
0
 10
0.0
 20
0.0
 11
11.6929133858
 21
8.2677165354
 12
0.0
 22
0.0
 32
0.0
 14
0.0
 24
0.0
 34
0.0
 15
0.0
 25
0.0
 35
0.0
146
0.0
 13
0.0
 23
0.0
 33
0.0
 16
1.0
 26
0.0
 36
0.0
 17
0.0
 27
1.0
 37
0.0
 76
0
330
203
345
0
346
0
  0
LAYOUT
  5
24F
102
{ACAD_REACTORS
330
1A
102
}
100
AcDbPlotSettings
  1

  2
none_device
  4
ISO_A4_(297.00_x_210.00_MM)
  6

 40
0.0
 41
0.0
 42
0.0
 43
0.0
 44
297.0
 45
210.0
 46
0.0
 47
0.0
 48
0.0
 49
0.0
140
0.0
141
0.0
142
1.0
143
1.0
 70
0
 72
0
 73
0
 74
0
  7

 75
0
147
1.0
148
0.0
149
0.0
100
AcDbLayout
  1
Layout1
 70
0
 71
1
 10
0.0
 20
0.0
 11
11.6929133858
 21
8.2677165354
 12
0.0
 22
0.0
 32
0.0
 14
0.0
 24
0.0
 34
0.0
 15
0.0
 25
0.0
 35
0.0
146
0.0
 13
0.0
 23
0.0
 33
0.0
 16
1.0
 26
0.0
 36
0.0
 17
0.0
 27
1.0
 37
0.0
 76
0
330
204
345
0
346
0
  0
ENDSEC
  0
EOF
