  0
SECTION
  2
HEADER
  9
$ACADVER
  1
AC1015
  9
$DWGCODEPAGE
  3
ANSI_1252
  9
$EXTMAX
 10
11.6929133858
 20
8.2677165354
 30
0.0
  9
$EXTMIN
 10
0.0
 20
0.0
 30
0.0
  9
$LIMMIN
 10
0.0
 20
0.0
  9
$LIMMAX
 10
11.6929133858
 20
8.2677165354
  9
$VIEWCTR
 10
5.8464566929
 20
4.1338582677
  9
$VIEWSIZE
 40
8.2677165354
  9
$CLAYER
  8
0
  9
$LTSCALE
 40
0.6431102362
  9
$CELTYPE
  6
BYLAYER
  9
$DIMSCALE
 40
1.0
  9
$DIMASZ
 40
0.1
  9
$DIMEXO
 40
0.0730807087
  9
$DIMDLI
 40
0.4443307087
  9
$DIMEXE
 40
0.2104724409
  9
$DIMCEN
 40
0.1052362205
  9
$DIMLFAC
 40
1.0
  9
$DIMBLK
  1
_FILLED
  9
$DIMTXT
 40
0.08
  9
$DIMTOL
 70
1
  9
$DIMLIM
 70
0
  9
$DIMTFAC
 40
1.0
  9
$DIMTP
 40
0.01
  9
$DIMTM
 40
0.01
  9
$PDMODE
 70
3
  9
$PDSIZE
 40
0.06
  9
$HANDSEED
  5
222
  9
$TILEMODE
 70
1
  9
$MEASUREMENT
 70
0
  9
$INSUNITS
 70
1
  0
ENDSEC
  0
SECTION
  2
CLASSES
  0
CLASS
  1
ACDBDICTIONARYWDFLT
  2
AcDbDictionaryWithDefault
  3
AutoCAD 2000
 90
0
280
0
281
0
  0
CLASS
  1
ACDBPLACEHOLDER
  2
AcDbPlaceHolder
  3
AutoCAD 2000
 90
0
280
0
281
0
  0
CLASS
  1
LAYOUT
  2
AcDbLayout
  3
AutoCAD 2000
 90
0
280
0
281
0
  0
ENDSEC
  0
SECTION
  2
TABLES
  0
TABLE
  2
VPORT
  5
8
100
AcDbSymbolTable
 70
2
  0
VPORT
  5
1F4
100
AcDbSymbolTableRecord
100
AcDbViewportTableRecord
  2
*ACTIVE
 70
0
 10
0.0
 20
0.0
 11
1.0
 21
1.0
 12
5.8464566929
 22
4.1338582677
 13
0.0
 23
0.0
 14
1.0
 24
1.0
 15
0.0
 25
0.0
 16
0.0
 26
0.0
 36
1.0
 17
0.0
 27
0.0
 37
0.0
 40
8.2677165354
 41
1.4142857143
 42
50.0
 43
0.0
 44
0.0
 50
0.0
 51
0.0
 71
0
 72
100
 73
1
 74
1
 75
0
 76
0
 77
0
 78
0
  0
ENDTAB
  0
TABLE
  2
LTYPE
  5
5
100
AcDbSymbolTable
 70
6
  0
LTYPE
  5
14
100
AcDbSymbolTableRecord
100
AcDbLinetypeTableRecord
  2
BYBLOCK
 70
0
  3

 72
65
 73
0
 40
0.0
  0
LTYPE
  5
15
100
AcDbSymbolTableRecord
100
AcDbLinetypeTableRecord
  2
BYLAYER
 70
0
  3

 72
65
 73
0
 40
0.0
  0
LTYPE
  5
16
100
AcDbSymbolTableRecord
100
AcDbLinetypeTableRecord
  2
CONTINUOUS
 70
64
  3
Solid line
 72
65
 73
0
 40
0.0
  0
LTYPE
  5
1F5
100
AcDbSymbolTableRecord
100
AcDbLinetypeTableRecord
  2
CENTER
 70
64
  3
____ _ ____ _ ____ _ ____ _ ____ _ ____ _ ____
 72
65
 73
4
 40
0.6
 49
0.375
 74
0
 49
-0.075
 74
0
 49
0.075
 74
0
 49
-0.075
 74
0
  0
LTYPE
  5
1F6
100
AcDbSymbolTableRecord
100
AcDbLinetypeTableRecord
  2
HIDDEN
 70
64
  3
- - - - - - - - - - - - - - - - - - - -
 72
65
 73
2
 40
0.2
 49
0.1
 74
0
 49
-0.1
 74
0
  0
LTYPE
  5
1F7
100
AcDbSymbolTableRecord
100
AcDbLinetypeTableRecord
  2
PHANTOM
 70
64
  3
_____ _ _ _____ _ _ _____ _ _ _____
 72
65
 73
6
 40
0.8
 49
0.45
 74
0
 49
-0.05
 74
0
 49
0.1
 74
0
 49
-0.05
 74
0
 49
0.1
 74
0
 49
-0.05
 74
0
  0
LTYPE
  5
1F8
100
AcDbSymbolTableRecord
100
AcDbLinetypeTableRecord
  2
DOT
 70
64
  3
. . . . . . . . . . . . . . . . . . . .
 72
65
 73
2
 40
0.2
 49
0.1
 74
0
 49
-0.1
 74
0
  0
LTYPE
  5
1F9
100
AcDbSymbolTableRecord
100
AcDbLinetypeTableRecord
  2
DASHED
 70
64
  3
- - - - - - - - - - - - - - - - - - - -
 72
65
 73
2
 40
0.2
 49
0.1
 74
0
 49
-0.1
 74
0
  0
ENDTAB
  0
TABLE
  2
LAYER
  5
2
100
AcDbSymbolTable
 70
36
  0
LAYER
  5
10
100
AcDbSymbolTableRecord
100
AcDbLayerTableRecord
  2
0
 70
0
 62
7
  6
CONTINUOUS
370
-3
390
F
  0
LAYER
  5
1FA
100
AcDbSymbolTableRecord
100
AcDbLayerTableRecord
  2
DEFAULT_1
 70
0
 62
7
  6
CENTER
370
-3
390
F
  0
LAYER
  5
1FB
100
AcDbSymbolTableRecord
100
AcDbLayerTableRecord
  2
DEFAULT_2
 70
0
 62
8
  6
HIDDEN
370
-3
390
F
  0
LAYER
  5
1FC
100
AcDbSymbolTableRecord
100
AcDbLayerTableRecord
  2
DEFAULT_3
 70
0
 62
7
  6
PHANTOM
370
-3
390
F
  0
LAYER
  5
1FD
100
AcDbSymbolTableRecord
100
AcDbLayerTableRecord
  2
DEFAULT_COORDINATE_SYSTEM
 70
0
 62
7
  6
CONTINUOUS
370
-3
390
F
  0
LAYER
  5
1FE
100
AcDbSymbolTableRecord
100
AcDbLayerTableRecord
  2
DEFAULT_DATUM_AXES
 70
0
 62
7
  6
CONTINUOUS
370
-3
390
F
  0
LAYER
  5
1FF
100
AcDbSymbolTableRecord
100
AcDbLayerTableRecord
  2
DEFAULT_DATUM_CURVES
 70
0
 62
7
  6
CONTINUOUS
370
-3
390
F
  0
LAYER
  5
200
100
AcDbSymbolTableRecord
100
AcDbLayerTableRecord
  2
DEFAULT_DATUM_PLANES
 70
0
 62
7
  6
CONTINUOUS
370
-3
390
F
  0
ENDTAB
  0
TABLE
  2
STYLE
  5
3
100
AcDbSymbolTable
 70
1
  0
STYLE
  5
11
100
AcDbSymbolTableRecord
100
AcDbTextStyleTableRecord
  2
STANDARD
 70
0
 40
0.0
 41
0.8
 50
0.0
 71
0
 42
0.2
  3
txt
  4

  0
STYLE
  5
201
100
AcDbSymbolTableRecord
100
AcDbTextStyleTableRecord
  2
TEXTSTYLE_1
 70
0
 40
0.0
 41
0.8
 50
0.0
 71
0
 42
0.2
  3
gdt
  4

  0
ENDTAB
  0
TABLE
  2
VIEW
  5
6
100
AcDbSymbolTable
 70
0
  0
ENDTAB
  0
TABLE
  2
UCS
  5
7
100
AcDbSymbolTable
 70
0
  0
ENDTAB
  0
TABLE
  2
APPID
  5
9
100
AcDbSymbolTable
 70
1
  0
APPID
  5
202
100
AcDbSymbolTableRecord
100
AcDbRegAppTableRecord
  2
ACAD
 70
0
  0
ENDTAB
  0
TABLE
  2
BLOCK_RECORD
  5
1
100
AcDbSymbolTable
 70
0
  0
BLOCK_RECORD
  5
203
100
AcDbSymbolTableRecord
100
AcDbBlockTableRecord
  2
*Model_Space
  0
BLOCK_RECORD
  5
204
100
AcDbSymbolTableRecord
100
AcDbBlockTableRecord
  2
*Paper_Space
  0
ENDTAB
  0
TABLE
  2
DIMSTYLE
  5
A
100
AcDbSymbolTable
 70
1
100
AcDbDimStyleTable
 71
0
  0
DIMSTYLE
105
205
100
AcDbSymbolTableRecord
100
AcDbDimStyleTableRecord
  2
STANDARD
 70
0
  3

  4

 40
1.0
 41
0.1
 42
0.0625
 43
0.38
 44
0.18
 45
0.0
 46
0.0
 47
0.01
 48
0.01
140
0.08
141
0.09
142
0.0
143
25.4
144
1.0
145
0.0
146
1.0
147
0.09
 71
1.0
 72
0.0
 73
1
 74
1
 75
0
 76
0
 77
0
 78
4
170
0
171
2
172
0
173
0
174
0
175
0
176
0
177
0
178
0
270
2
271
2
272
2
273
2
274
2
275
0
280
0
281
0
282
0
283
1
284
4
285
0
286
0
287
3
288
0
340
11
  0
ENDTAB
  0
ENDSEC
  0
SECTION
  2
BLOCKS
  0
BLOCK
  5
20
100
AcDbEntity
  8
0
100
AcDbBlockBegin
  2
*Model_Space
 70
0
 10
0.0
 20
0.0
 30
0.0
  3
*Model_Space
  1

  0
ENDBLK
  5
21
100
AcDbEntity
  8
0
100
AcDbBlockEnd
  0
BLOCK
  5
1C
100
AcDbEntity
  8
0
100
AcDbBlockBegin
  2
*Paper_Space
 70
0
 10
0.0
 20
0.0
 30
0.0
  3
*Paper_Space
  1

  0
ENDBLK
  5
1D
100
AcDbEntity
  8
0
100
AcDbBlockEnd
  0
ENDSEC
  0
SECTION
  2
ENTITIES
  0
LINE
  5
206
100
AcDbEntity
  8
0
100
AcDbLine
 62
6
  6
CONTINUOUS
 10
5.5556778258
 20
4.2693438079
 11
5.6873222873
 21
4.2693438079
  0
LINE
  5
207
100
AcDbEntity
  8
0
100
AcDbLine
 62
6
  6
CONTINUOUS
 10
7.8493222846
 20
4.3000747461
 11
5.6873222846
 21
4.3206001212
  0
LINE
  5
208
100
AcDbEntity
  8
0
100
AcDbLine
 62
6
  6
CONTINUOUS
 10
5.6873222846
 20
4.2693438079
 11
7.9277764293
 21
4.1418521598
  0
LINE
  5
209
100
AcDbEntity
  8
0
100
AcDbLine
 62
6
  6
CONTINUOUS
 10
7.8493222846
 20
4.1671386712
 11
5.6873222846
 21
4.3206001212
  0
LINE
  5
20A
100
AcDbEntity
  8
0
100
AcDbLine
 62
6
  6
CONTINUOUS
 10
7.8493222846
 20
4.3503438079
 11
5.6873222846
 21
4.4443438079
  0
LINE
  5
20B
100
AcDbEntity
  8
0
100
AcDbLine
 62
6
  6
CONTINUOUS
 10
7.8493222846
 20
4.5383438079
 11
5.6873222846
 21
4.4443438079
  0
LINE
  5
20C
100
AcDbEntity
  8
0
100
AcDbLine
 62
6
  6
CONTINUOUS
 10
7.8493222846
 20
4.5886128697
 11
5.6873222846
 21
4.5680874946
  0
LINE
  5
20D
100
AcDbEntity
  8
0
100
AcDbLine
 62
6
  6
CONTINUOUS
 10
7.8493222846
 20
4.7215489446
 11
5.6873222846
 21
4.5680874946
  0
LINE
  5
20E
100
AcDbEntity
  8
0
100
AcDbLine
 62
6
  6
CONTINUOUS
 10
7.9277764293
 20
4.746835456
 11
5.6873222846
 21
4.6193438079
  0
LINE
  5
20F
100
AcDbEntity
  8
0
100
AcDbLine
 62
6
  6
CONTINUOUS
 10
5.5556778066
 20
4.6193438079
 11
5.6873222873
 21
4.6193438079
  0
LINE
  5
210
100
AcDbEntity
  8
0
100
AcDbLine
 62
6
  6
CONTINUOUS
 10
7.8493222846
 20
4.7423710718
 11
7.8493222846
 21
4.7215489446
  0
LINE
  5
211
100
AcDbEntity
  8
0
100
AcDbLine
 62
6
  6
CONTINUOUS
 10
7.8493222846
 20
4.5886128697
 11
7.8493222846
 21
4.5383438079
  0
LINE
  5
212
100
AcDbEntity
  8
0
100
AcDbLine
 62
6
  6
CONTINUOUS
 10
7.8493222846
 20
4.3503438079
 11
7.8493222846
 21
4.3000747461
  0
LINE
  5
213
100
AcDbEntity
  8
0
100
AcDbLine
 62
6
  6
CONTINUOUS
 10
7.8493222846
 20
4.146316544
 11
7.8493222846
 21
4.1671386712
  0
CIRCLE
  5
214
100
AcDbEntity
  8
0
100
AcDbCircle
 62
6
  6
CONTINUOUS
 10
5.0873222846
 20
4.4443438079
 40
0.5
  0
CIRCLE
  5
215
100
AcDbEntity
  8
0
100
AcDbCircle
 62
6
  6
CONTINUOUS
 10
5.0873222846
 20
4.4443438079
 40
0.4175
  0
CIRCLE
  5
216
100
AcDbEntity
  8
0
100
AcDbCircle
 62
9
  6
CONTINUOUS
 10
5.0873222846
 20
4.4443438079
 40
0.3951446566
  0
ARC
  5
217
100
AcDbEntity
  8
0
100
AcDbCircle
 62
6
  6
CONTINUOUS
 10
7.8493222846
 20
4.4443438079
 40
0.3125
100
AcDbArc
 50
284.539847615
 51
75.460152385
  0
ARC
  5
218
100
AcDbEntity
  8
0
100
AcDbCircle
 62
6
  6
CONTINUOUS
 10
7.8322977646
 20
4.4442759073
 40
0.095470384
100
AcDbArc
 50
280.272933174
 51
0.0407464531
  0
ARC
  5
219
100
AcDbEntity
  8
0
100
AcDbCircle
 62
6
  6
CONTINUOUS
 10
7.8322977506
 20
4.4444117258
 40
0.095470384
100
AcDbArc
 50
359.9592431973
 51
79.7270566833
  0
SPLINE
  5
21A
100
AcDbEntity
  8
0
100
AcDbSpline
 62
6
  6
CONTINUOUS
 70
0
 71
3
 72
29
 73
25
 74
23
 42
0.0000001
 43
0.0000001
 44
0.0000000001
 12
0.0000000003
 22
-0.1237455544
 32
0.0
 13
0.000000921
 23
-0.1237455544
 33
0.0
 40
0.0
 40
0.0
 40
0.0
 40
0.0
 40
0.0693526694
 40
0.1385843846
 40
0.1730930186
 40
0.2074971379
 40
0.2417725846
 40
0.2758985321
 40
0.3436248213
 40
0.4105203806
 40
0.4436076191
 40
0.4764283412
 40
0.5411914903
 40
0.6046523679
 40
0.6358452673
 40
0.6666537741
 40
0.7270463978
 40
0.7856910496
 40
0.814314914
 40
0.8424505874
 40
0.8700808934
 40
0.8971874779
 40
0.9497541633
 40
1.0
 40
1.0
 40
1.0
 40
1.0
 10
5.6873222871
 20
4.4443438079
 30
0.0
 10
5.6873222871
 20
4.4414831131
 30
0.0
 10
5.6873497472
 20
4.4357667205
 30
0.0
 10
5.6874139504
 20
4.4286271858
 30
0.0
 10
5.6874598358
 20
4.4229291142
 30
0.0
 10
5.68748584
 20
4.4186728275
 30
0.0
 10
5.6874966829
 20
4.4144322567
 30
0.0
 10
5.6874922823
 20
4.4088171851
 30
0.0
 10
5.6874614024
 20
4.4018566417
 30
0.0
 10
5.6874182071
 20
4.3949390272
 30
0.0
 10
5.6873903084
 20
4.3894611481
 30
0.0
 10
5.68737065
 20
4.3840711928
 30
0.0
 10
5.6873602972
 20
4.377428334
 30
0.0
 10
5.6873696887
 20
4.3708526176
 30
0.0
 10
5.6873893198
 20
4.3656775195
 30
0.0
 10
5.6874170484
 20
4.3606290209
 30
0.0
 10
5.687460202
 20
4.3544482578
 30
0.0
 10
5.6874922934
 20
4.3483575225
 30
0.0
 10
5.6874969818
 20
4.3435972631
 30
0.0
 10
5.6874860923
 20
4.3401163117
 30
0.0
 10
5.6874600811
 20
4.3366980327
 30
0.0
 10
5.6874147661
 20
4.3322721474
 30
0.0
 10
5.6873512479
 20
4.3269135673
 30
0.0
 10
5.6873222716
 20
4.3226727246
 30
0.0
 10
5.687322287
 20
4.3206001583
 30
0.0
 11
5.6873222871
 21
4.4443438079
 31
0.0
 11
5.6873557674
 21
4.4357617887
 31
0.0
 11
5.6874250389
 21
4.4271949518
 31
0.0
 11
5.6874584855
 21
4.4229247927
 31
0.0
 11
5.6874833469
 21
4.4186675085
 31
0.0
 11
5.687494332
 21
4.4144260885
 31
0.0
 11
5.6874916458
 21
4.4102031551
 31
0.0
 11
5.6874587097
 21
4.4018223926
 31
0.0
 11
5.6874116248
 21
4.3935444985
 31
0.0
 11
5.687391243
 21
4.3894501505
 31
0.0
 11
5.6873764065
 21
4.3853887592
 31
0.0
 11
5.6873642433
 21
4.3773746166
 31
0.0
 11
5.6873757406
 21
4.3695216235
 31
0.0
 11
5.6873904798
 21
4.365661669
 31
0.0
 11
5.6874109855
 21
4.3618493084
 31
0.0
 11
5.6874585405
 21
4.354376141
 31
0.0
 11
5.687491854
 21
4.3471192026
 31
0.0
 11
5.6874945525
 21
4.3435771276
 31
0.0
 11
5.6874834033
 21
4.340095481
 31
0.0
 11
5.6874584043
 21
4.3366764448
 31
0.0
 11
5.6874249038
 21
4.3333222928
 31
0.0
 11
5.6873556785
 21
4.3268177675
 31
0.0
 11
5.687322287
 21
4.3206001583
 31
0.0
  0
SPLINE
  5
21B
100
AcDbEntity
  8
0
100
AcDbSpline
 62
6
  6
CONTINUOUS
 70
0
 71
3
 72
39
 73
35
 74
33
 42
0.0000001
 43
0.0000001
 44
0.0000000001
 12
0.2207469226
 22
-0.0370436484
 32
0.0
 13
-0.2229847079
 23
-0.0194744908
 33
0.0
 40
0.0
 40
0.0
 40
0.0
 40
0.0
 40
0.0368385333
 40
0.0734035286
 40
0.1095132379
 40
0.14502004
 40
0.2138070205
 40
0.2469771463
 40
0.2792360433
 40
0.3105478995
 40
0.3409128113
 40
0.3703565138
 40
0.3989370387
 40
0.4267470612
 40
0.4404049129
 40
0.4539180439
 40
0.4805809299
 40
0.5069222564
 40
0.5331338499
 40
0.5594150223
 40
0.5726487587
 40
0.5859722223
 40
0.6129644307
 40
0.6405615376
 40
0.6688970352
 40
0.6980715858
 40
0.7281524683
 40
0.7591788666
 40
0.7911507969
 40
0.8577642565
 40
0.8923517994
 40
0.9276807086
 40
0.9636197258
 40
1.0
 40
1.0
 40
1.0
 40
1.0
 10
7.8493222846
 20
4.3000747461
 30
0.0
 10
7.8520329489
 20
4.2996198682
 30
0.0
 10
7.8574075461
 20
4.2985454542
 30
0.0
 10
7.8653093037
 20
4.2964460555
 30
0.0
 10
7.8729678359
 20
4.2938771018
 30
0.0
 10
7.8826619957
 20
4.2898934978
 30
0.0
 10
7.8917437634
 20
4.2850377101
 30
0.0
 10
7.8999899284
 20
4.2793417834
 30
0.0
 10
7.9055944524
 20
4.2747802399
 30
0.0
 10
7.9106456736
 20
4.2699091213
 30
0.0
 10
7.9151078352
 20
4.264767226
 30
0.0
 10
7.9189465239
 20
4.2593917032
 30
0.0
 10
7.9221295911
 20
4.2538217375
 30
0.0
 10
7.9242308905
 20
4.2490238895
 30
0.0
 10
7.9255528601
 20
4.2451384084
 30
0.0
 10
7.9266260544
 20
4.2412658752
 30
0.0
 10
7.9275308097
 20
4.2363732686
 30
0.0
 10
7.9278979003
 20
4.2304596597
 30
0.0
 10
7.9275343482
 20
4.2245741727
 30
0.0
 10
7.9266298221
 20
4.2197408797
 30
0.0
 10
7.9255546072
 20
4.2159458779
 30
0.0
 10
7.9242351062
 20
4.2121724023
 30
0.0
 10
7.922137061
 20
4.2075464145
 30
0.0
 10
7.9189525014
 20
4.202227306
 30
0.0
 10
7.9151112622
 20
4.1971559789
 30
0.0
 10
7.9106459692
 20
4.1923694504
 30
0.0
 10
7.9055913785
 20
4.1879021023
 30
0.0
 10
7.8999835466
 20
4.1837898248
 30
0.0
 10
7.8917204038
 20
4.1787483394
 30
0.0
 10
7.8826292335
 20
4.174625035
 30
0.0
 10
7.872951452
 20
4.1714286564
 30
0.0
 10
7.8652913684
 20
4.1694768592
 30
0.0
 10
7.857388547
 20
4.1680144096
 30
0.0
 10
7.8520263662
 20
4.1673748337
 30
0.0
 10
7.8493222846
 20
4.1671386712
 30
0.0
 11
7.8493222846
 21
4.3000747461
 31
0.0
 11
7.8574078585
 21
4.2984576413
 31
0.0
 11
7.8653171326
 21
4.2963531349
 31
0.0
 11
7.8729786857
 21
4.2937785627
 31
0.0
 11
7.8803281613
 21
4.2907537088
 31
0.0
 11
7.8938821131
 21
4.2834494097
 31
0.0
 11
7.8999869543
 21
4.2792238469
 31
0.0
 11
7.9055812169
 21
4.2746585862
 31
0.0
 11
7.9106202394
 21
4.2697873111
 31
0.0
 11
7.9150675327
 21
4.2646476125
 31
0.0
 11
7.9188892035
 21
4.2592783154
 31
0.0
 11
7.922055519
 21
4.2537195725
 31
0.0
 11
7.9245443851
 21
4.2480139731
 31
0.0
 11
7.9255281315
 21
4.2451194939
 31
0.0
 11
7.9263351236
 21
4.242204443
 31
0.0
 11
7.9274149053
 21
4.2363348895
 31
0.0
 11
7.9277764293
 21
4.2304499123
 31
0.0
 11
7.9274149053
 21
4.2245940286
 31
0.0
 11
7.9263351236
 21
4.2188113706
 31
0.0
 11
7.9255281315
 21
4.2159612623
 31
0.0
 11
7.9245443851
 21
4.21314595
 31
0.0
 11
7.922055519
 21
4.207640642
 31
0.0
 11
7.9188892035
 21
4.2023367081
 31
0.0
 11
7.9150675327
 21
4.1972749597
 31
0.0
 11
7.9106202394
 21
4.1924931568
 31
0.0
 11
7.9055812169
 21
4.1880273968
 31
0.0
 11
7.8999869543
 21
4.1839123341
 31
0.0
 11
7.8938821131
 21
4.180178058
 31
0.0
 11
7.8803281613
 21
4.1739645124
 31
0.0
 11
7.8729786857
 21
4.1715311071
 31
0.0
 11
7.8653171326
 21
4.169573098
 31
0.0
 11
7.8574078585
 21
4.1681050899
 31
0.0
 11
7.8493222846
 21
4.1671386712
 31
0.0
  0
SPLINE
  5
21C
100
AcDbEntity
  8
0
100
AcDbSpline
 62
6
  6
CONTINUOUS
 70
0
 71
3
 72
52
 73
48
 74
46
 42
0.0000001
 43
0.0000001
 44
0.0000000001
 12
0.0000003819
 22
-0.0512672096
 32
0.0
 13
0.0511843365
 23
-0.0029138411
 33
0.0
 40
0.0
 40
0.0
 40
0.0
 40
0.0
 40
0.1154609843
 40
0.2249150134
 40
0.2772892003
 40
0.3280410507
 40
0.3771320044
 40
0.4245331043
 40
0.5141695258
 40
0.55635526
 40
0.5967520339
 40
0.6353342062
 40
0.6720780214
 40
0.7399712803
 40
0.8002763575
 40
0.8275352628
 40
0.8528401094
 40
0.8761766265
 40
0.8975321021
 40
0.916893539
 40
0.9342482654
 40
0.9495849695
 40
0.9564939271
 40
0.9628958111
 40
0.9687907349
 40
0.9741788179
 40
0.9790598869
 40
0.9834334727
 40
0.9872988114
 40
0.990654846
 40
0.9935002275
 40
0.9947309295
 40
0.9958333303
 40
0.9968071803
 40
0.9976522118
 40
0.9983681394
 40
0.9989546601
 40
0.9991992936
 40
0.9994114537
 40
0.9995910977
 40
0.9997381815
 40
0.9998526603
 40
0.9999344879
 40
0.9999631428
 40
0.9999836172
 40
0.9999959049
 40
1.0
 40
1.0
 40
1.0
 40
1.0
 10
5.687322287
 20
4.3206001583
 30
0.0
 10
5.6873223017
 20
4.3186270374
 30
0.0
 10
5.6873479375
 20
4.314783448
 30
0.0
 10
5.6874125033
 20
4.3100452777
 30
0.0
 10
5.6874592154
 20
4.3064127816
 30
0.0
 10
5.6874855872
 20
4.3038116605
 30
0.0
 10
5.6874970404
 20
4.3012954096
 30
0.0
 10
5.6874930655
 20
4.2981146351
 30
0.0
 10
5.6874686705
 20
4.2950519459
 30
0.0
 10
5.6874356029
 20
4.292109072
 30
0.0
 10
5.6874110934
 20
4.2900386252
 30
0.0
 10
5.6873899056
 20
4.2880611428
 30
0.0
 10
5.6873704745
 20
4.2856137336
 30
0.0
 10
5.687359956
 20
4.282795027
 30
0.0
 10
5.6873689958
 20
4.2801383901
 30
0.0
 10
5.6873891322
 20
4.2782096635
 30
0.0
 10
5.6874098634
 20
4.2769127582
 30
0.0
 10
5.6874340878
 20
4.2757168208
 30
0.0
 10
5.68745825
 20
4.2746224745
 30
0.0
 10
5.6874790212
 20
4.2736302997
 30
0.0
 10
5.6874930284
 20
4.27274087
 30
0.0
 10
5.6874964487
 20
4.2720641155
 30
0.0
 10
5.68749174
 20
4.271574568
 30
0.0
 10
5.6874843699
 20
4.2712464317
 30
0.0
 10
5.6874733496
 20
4.2709444045
 30
0.0
 10
5.6874594907
 20
4.2706685147
 30
0.0
 10
5.6874435013
 20
4.2704187874
 30
0.0
 10
5.6874261138
 20
4.2701952472
 30
0.0
 10
5.6874080552
 20
4.2699979185
 30
0.0
 10
5.6873900527
 20
4.2698268265
 30
0.0
 10
5.68737506
 20
4.2697007022
 30
0.0
 10
5.6873636854
 20
4.2696129402
 30
0.0
 10
5.6873560447
 20
4.2695569459
 30
0.0
 10
5.6873489638
 20
4.2695075282
 30
0.0
 10
5.6873425337
 20
4.2694646902
 30
0.0
 10
5.6873368455
 20
4.2694284352
 30
0.0
 10
5.6873325752
 20
4.2694023436
 30
0.0
 10
5.6873296043
 20
4.2693847641
 30
0.0
 10
5.6873277554
 20
4.2693740451
 30
0.0
 10
5.6873261645
 20
4.2693649777
 30
0.0
 10
5.687324826
 20
4.2693575486
 30
0.0
 10
5.6873237971
 20
4.2693517945
 30
0.0
 10
5.6873230461
 20
4.2693479755
 30
0.0
 10
5.6873226992
 20
4.2693458287
 30
0.0
 10
5.6873223942
 20
4.2693447111
 30
0.0
 10
5.6873224702
 20
4.2693442449
 30
0.0
 10
5.6873222172
 20
4.2693438119
 30
0.0
 10
5.687322287
 20
4.2693438079
 30
0.0
 11
5.687322287
 21
4.3206001583
 31
0.0
 11
5.6873556677
 21
4.3146808899
 31
0.0
 11
5.6874248238
 21
4.3090699134
 31
0.0
 11
5.6874583354
 21
4.3063850441
 31
0.0
 11
5.6874834121
 21
4.3037832592
 31
0.0
 11
5.6874946958
 21
4.3012665283
 31
0.0
 11
5.6874920859
 21
4.2988364076
 31
0.0
 11
5.687458805
 21
4.2942411189
 31
0.0
 11
5.687435038
 21
4.2920785046
 31
0.0
 11
5.6874111229
 21
4.2900076128
 31
0.0
 11
5.6873905061
 21
4.28802972
 31
0.0
 11
5.6873756284
 21
4.2861460258
 31
0.0
 11
5.6873638558
 21
4.2826653478
 31
0.0
 11
5.6873759119
 21
4.2795736983
 31
0.0
 11
5.68739082
 21
4.2781762898
 31
0.0
 11
5.6874113613
 21
4.2768791435
 31
0.0
 11
5.6874351528
 21
4.275682982
 31
0.0
 11
5.6874587834
 21
4.2745884014
 31
0.0
 11
5.6874788345
 21
4.2735959971
 31
0.0
 11
5.687491888
 21
4.2727063645
 31
0.0
 11
5.6874945254
 21
4.2719200989
 31
0.0
 11
5.68749087
 21
4.2715659148
 31
0.0
 11
5.6874833774
 21
4.2712377936
 31
0.0
 11
5.6874723123
 21
4.2709357799
 31
0.0
 11
5.6874583928
 21
4.2706598989
 31
0.0
 11
5.6874423466
 21
4.2704101751
 31
0.0
 11
5.6874249012
 21
4.2701866332
 31
0.0
 11
5.6874067843
 21
4.269989298
 31
0.0
 11
5.6873887236
 21
4.269818194
 31
0.0
 11
5.6873714467
 21
4.269673346
 31
0.0
 11
5.6873633296
 21
4.2696107756
 31
0.0
 11
5.6873556813
 21
4.2695547785
 31
0.0
 11
5.6873485928
 21
4.2695053577
 31
0.0
 11
5.687342155
 21
4.2694625163
 31
0.0
 11
5.6873364588
 21
4.2694262574
 31
0.0
 11
5.6873315954
 21
4.269396584
 31
0.0
 11
5.6873295043
 21
4.2693842179
 31
0.0
 11
5.6873276555
 21
4.2693734993
 31
0.0
 11
5.6873260603
 21
4.2693644287
 31
0.0
 11
5.6873247302
 21
4.2693570063
 31
0.0
 11
5.6873236764
 21
4.2693512327
 31
0.0
 11
5.6873229104
 21
4.2693471082
 31
0.0
 11
5.6873226388
 21
4.2693456644
 31
0.0
 11
5.6873224435
 21
4.2693446331
 31
0.0
 11
5.6873223257
 21
4.2693440142
 31
0.0
 11
5.687322287
 21
4.2693438079
 31
0.0
  0
SPLINE
  5
21D
100
AcDbEntity
  8
0
100
AcDbSpline
 62
6
  6
CONTINUOUS
 70
0
 71
3
 72
39
 73
35
 74
33
 42
0.0000001
 43
0.0000001
 44
0.0000000001
 12
0.2229847079
 22
-0.0194744908
 32
0.0
 13
-0.2207469226
 23
-0.0370436484
 33
0.0
 40
0.0
 40
0.0
 40
0.0
 40
0.0
 40
0.0363802742
 40
0.0723192914
 40
0.1076482006
 40
0.1422357435
 40
0.2088492031
 40
0.2408211334
 40
0.2718475317
 40
0.3019284142
 40
0.3311029648
 40
0.3594384624
 40
0.3870355693
 40
0.4140277777
 40
0.4273512413
 40
0.4405849777
 40
0.4668661501
 40
0.4930777436
 40
0.5194190701
 40
0.5460819561
 40
0.5595950871
 40
0.5732529388
 40
0.6010629613
 40
0.6296434862
 40
0.6590871887
 40
0.6894521005
 40
0.7207639567
 40
0.7530228537
 40
0.7861929795
 40
0.85497996
 40
0.8904867621
 40
0.9265964714
 40
0.9631614667
 40
1.0
 40
1.0
 40
1.0
 40
1.0
 10
7.8493222846
 20
4.7215489446
 30
0.0
 10
7.8520263662
 20
4.7213127821
 30
0.0
 10
7.857388547
 20
4.7206732062
 30
0.0
 10
7.8652913684
 20
4.7192107566
 30
0.0
 10
7.872951452
 20
4.7172589594
 30
0.0
 10
7.8826292335
 20
4.7140625808
 30
0.0
 10
7.8917204038
 20
4.7099392764
 30
0.0
 10
7.8999835466
 20
4.704897791
 30
0.0
 10
7.9055913785
 20
4.7007855135
 30
0.0
 10
7.9106459692
 20
4.6963181653
 30
0.0
 10
7.9151112622
 20
4.6915316369
 30
0.0
 10
7.9189525014
 20
4.6864603098
 30
0.0
 10
7.922137061
 20
4.6811412013
 30
0.0
 10
7.9242351062
 20
4.6765152135
 30
0.0
 10
7.9255546072
 20
4.6727417379
 30
0.0
 10
7.9266298221
 20
4.6689467361
 30
0.0
 10
7.9275343482
 20
4.6641134431
 30
0.0
 10
7.9278979003
 20
4.6582279561
 30
0.0
 10
7.9275308097
 20
4.6523143472
 30
0.0
 10
7.9266260544
 20
4.6474217406
 30
0.0
 10
7.9255528601
 20
4.6435492074
 30
0.0
 10
7.9242308905
 20
4.6396637263
 30
0.0
 10
7.9221295911
 20
4.6348658783
 30
0.0
 10
7.9189465239
 20
4.6292959126
 30
0.0
 10
7.9151078352
 20
4.6239203898
 30
0.0
 10
7.9106456736
 20
4.6187784945
 30
0.0
 10
7.9055944524
 20
4.6139073759
 30
0.0
 10
7.8999899284
 20
4.6093458324
 30
0.0
 10
7.8917437634
 20
4.6036499057
 30
0.0
 10
7.8826619957
 20
4.5987941179
 30
0.0
 10
7.8729678359
 20
4.594810514
 30
0.0
 10
7.8653093037
 20
4.5922415603
 30
0.0
 10
7.8574075461
 20
4.5901421616
 30
0.0
 10
7.8520329489
 20
4.5890677476
 30
0.0
 10
7.8493222846
 20
4.5886128697
 30
0.0
 11
7.8493222846
 21
4.7215489446
 31
0.0
 11
7.8574078585
 21
4.7205825259
 31
0.0
 11
7.8653171326
 21
4.7191145178
 31
0.0
 11
7.8729786857
 21
4.7171565087
 31
0.0
 11
7.8803281613
 21
4.7147231034
 31
0.0
 11
7.8938821131
 21
4.7085095578
 31
0.0
 11
7.8999869543
 21
4.7047752817
 31
0.0
 11
7.9055812169
 21
4.700660219
 31
0.0
 11
7.9106202394
 21
4.696194459
 31
0.0
 11
7.9150675327
 21
4.6914126561
 31
0.0
 11
7.9188892035
 21
4.6863509077
 31
0.0
 11
7.922055519
 21
4.6810469738
 31
0.0
 11
7.9245443851
 21
4.6755416658
 31
0.0
 11
7.9255281315
 21
4.6727263535
 31
0.0
 11
7.9263351236
 21
4.6698762452
 31
0.0
 11
7.9274149053
 21
4.6640935872
 31
0.0
 11
7.9277764293
 21
4.6582377035
 31
0.0
 11
7.9274149053
 21
4.6523527263
 31
0.0
 11
7.9263351236
 21
4.6464831728
 31
0.0
 11
7.9255281315
 21
4.6435681219
 31
0.0
 11
7.9245443851
 21
4.6406736427
 31
0.0
 11
7.922055519
 21
4.6349680433
 31
0.0
 11
7.9188892035
 21
4.6294093004
 31
0.0
 11
7.9150675327
 21
4.6240400033
 31
0.0
 11
7.9106202394
 21
4.6189003047
 31
0.0
 11
7.9055812169
 21
4.6140290296
 31
0.0
 11
7.8999869543
 21
4.6094637689
 31
0.0
 11
7.8938821131
 21
4.6052382061
 31
0.0
 11
7.8803281613
 21
4.597933907
 31
0.0
 11
7.8729786857
 21
4.5949090531
 31
0.0
 11
7.8653171326
 21
4.5923344809
 31
0.0
 11
7.8574078585
 21
4.5902299745
 31
0.0
 11
7.8493222846
 21
4.5886128697
 31
0.0
  0
SPLINE
  5
21E
100
AcDbEntity
  8
0
100
AcDbSpline
 62
6
  6
CONTINUOUS
 70
0
 71
3
 72
30
 73
26
 74
24
 42
0.0000001
 43
0.0000001
 44
0.0000000001
 12
0.0000006244
 22
-0.1237456269
 32
0.0
 13
-0.0000000003
 23
-0.1237456269
 33
0.0
 40
0.0
 40
0.0
 40
0.0
 40
0.0
 40
0.0502461113
 40
0.1028134679
 40
0.1299204627
 40
0.1575511853
 40
0.1856872316
 40
0.2143113742
 40
0.2434067745
 40
0.2729563459
 40
0.3333489205
 40
0.36415727
 40
0.395349987
 40
0.4588105076
 40
0.5235732629
 40
0.5563937484
 40
0.5894807079
 40
0.656375636
 40
0.7241013706
 40
0.7582271366
 40
0.7925024997
 40
0.8269066216
 40
0.8614153138
 40
0.9306472138
 40
1.0
 40
1.0
 40
1.0
 40
1.0
 10
5.6873222869
 20
4.5680875197
 30
0.0
 10
5.6873222974
 20
4.5660149409
 30
0.0
 10
5.6873512067
 20
4.5617740567
 30
0.0
 10
5.6874146165
 20
4.5564154161
 30
0.0
 10
5.6874599703
 20
4.5519894668
 30
0.0
 10
5.6874861168
 20
4.5485711376
 30
0.0
 10
5.6874972655
 20
4.5450901408
 30
0.0
 10
5.6874938054
 20
4.5415487173
 30
0.0
 10
5.6874799535
 20
4.5379490171
 30
0.0
 10
5.6874517907
 20
4.5330389711
 30
0.0
 10
5.68741667
 20
4.5280583122
 30
0.0
 10
5.6873886463
 20
4.5230098287
 30
0.0
 10
5.6873689551
 20
4.5178347563
 30
0.0
 10
5.6873598823
 20
4.5112590738
 30
0.0
 10
5.6873706891
 20
4.5046162526
 30
0.0
 10
5.6873905859
 20
4.4992263326
 30
0.0
 10
5.6874185737
 20
4.4937484981
 30
0.0
 10
5.6874617502
 20
4.4868309398
 30
0.0
 10
5.6874924928
 20
4.479870448
 30
0.0
 10
5.6874967665
 20
4.4742554069
 30
0.0
 10
5.6874858227
 20
4.4700148446
 30
0.0
 10
5.687459768
 20
4.4657585568
 30
0.0
 10
5.6874138681
 20
4.4600604718
 30
0.0
 10
5.6873497113
 20
4.4529209176
 30
0.0
 10
5.6873222869
 20
4.4472045092
 30
0.0
 10
5.6873222869
 20
4.4443438079
 30
0.0
 11
5.6873222869
 21
4.5680875197
 31
0.0
 11
5.6873556342
 21
4.5618698726
 31
0.0
 11
5.6874247744
 21
4.5553652595
 31
0.0
 11
5.6874583104
 21
4.5520110551
 31
0.0
 11
5.6874834467
 21
4.5485919664
 31
0.0
 11
5.6874947964
 21
4.5451102722
 31
0.0
 11
5.6874921433
 21
4.5415681608
 31
0.0
 11
5.6874789017
 21
4.5379677566
 31
0.0
 11
5.687458561
 21
4.5343111829
 31
0.0
 11
5.6874105404
 21
4.5268380202
 31
0.0
 11
5.6873898367
 21
4.5230256779
 31
0.0
 11
5.6873750478
 21
4.5191657439
 31
0.0
 11
5.6873638516
 21
4.51131279
 31
0.0
 11
5.6873764929
 21
4.5032986922
 31
0.0
 11
5.6873915011
 21
4.4992373283
 31
0.0
 11
5.6874119601
 21
4.4951430129
 31
0.0
 11
5.6874590343
 21
4.4868651919
 31
0.0
 11
5.6874918236
 21
4.4784844926
 31
0.0
 11
5.6874944149
 21
4.4742615791
 31
0.0
 11
5.6874833383
 21
4.4700201672
 31
0.0
 11
5.6874584244
 21
4.4657628805
 31
0.0
 11
5.6874249645
 21
4.4614927119
 31
0.0
 11
5.6873557311
 21
4.4529258467
 31
0.0
 11
5.6873222869
 21
4.4443438079
 31
0.0
  0
SPLINE
  5
21F
100
AcDbEntity
  8
0
100
AcDbSpline
 62
6
  6
CONTINUOUS
 70
0
 71
3
 72
52
 73
48
 74
46
 42
0.0000001
 43
0.0000001
 44
0.0000000001
 12
0.0512671459
 22
0.000011701
 32
0.0
 13
0.0000002584
 23
-0.0512671474
 33
0.0
 40
0.0
 40
0.0
 40
0.0
 40
0.0
 40
0.000004103
 40
0.000016398
 40
0.000036879
 40
0.0000655399
 40
0.0001473778
 40
0.0002618648
 40
0.0004089554
 40
0.0005886047
 40
0.0008007693
 40
0.0010454065
 40
0.0016319335
 40
0.0023478676
 40
0.0031929076
 40
0.0041667694
 40
0.0052691869
 40
0.0064999111
 40
0.0093453571
 40
0.0127014847
 40
0.016566944
 40
0.0209406727
 40
0.0258218977
 40
0.0312101366
 40
0.0371051988
 40
0.0504159728
 40
0.0657529742
 40
0.0831081636
 40
0.1024701555
 40
0.1238261561
 40
0.1471630382
 40
0.172467986
 40
0.1997269853
 40
0.2289216642
 40
0.2600328062
 40
0.3279269261
 40
0.364671035
 40
0.4032533657
 40
0.4436503188
 40
0.4858361773
 40
0.5754723278
 40
0.62287281
 40
0.6719626735
 40
0.7227134111
 40
0.7750866676
 40
0.8845394365
 40
1.0
 40
1.0
 40
1.0
 40
1.0
 10
5.687322287
 20
4.6193438079
 30
0.0
 10
5.6873223571
 20
4.6193438079
 30
0.0
 10
5.687322275
 20
4.6193433658
 30
0.0
 10
5.6873225258
 20
4.6193429083
 30
0.0
 10
5.6873226485
 20
4.6193417857
 30
0.0
 10
5.6873231092
 20
4.6193396418
 30
0.0
 10
5.6873237784
 20
4.6193358205
 30
0.0
 10
5.6873248481
 20
4.6193300671
 30
0.0
 10
5.6873261705
 20
4.6193226372
 30
0.0
 10
5.6873277655
 20
4.6193135694
 30
0.0
 10
5.6873296102
 20
4.6193028498
 30
0.0
 10
5.6873325773
 20
4.6192852692
 30
0.0
 10
5.6873368393
 20
4.6192591761
 30
0.0
 10
5.6873425165
 20
4.619222919
 30
0.0
 10
5.6873489334
 20
4.6191800786
 30
0.0
 10
5.6873559999
 20
4.6191306583
 30
0.0
 10
5.6873636257
 20
4.6190746612
 30
0.0
 10
5.6873749792
 20
4.6189868948
 30
0.0
 10
5.6873899482
 20
4.6188607648
 30
0.0
 10
5.6874079311
 20
4.6186896662
 30
0.0
 10
5.6874259829
 20
4.6184923311
 30
0.0
 10
5.687443381
 20
4.6182687848
 30
0.0
 10
5.6874594051
 20
4.6180190523
 30
0.0
 10
5.6874733203
 20
4.6177431583
 30
0.0
 10
5.6874888075
 20
4.6173231405
 30
0.0
 10
5.6874973988
 20
4.6167328281
 30
0.0
 10
5.6874932917
 20
4.6159466691
 30
0.0
 10
5.6874791069
 20
4.615057217
 30
0.0
 10
5.6874580186
 20
4.6140650247
 30
0.0
 10
5.6874335217
 20
4.6129706622
 30
0.0
 10
5.6874090085
 20
4.6117747152
 30
0.0
 10
5.6873880744
 20
4.6104778048
 30
0.0
 10
5.6873736226
 20
4.6090806954
 30
0.0
 10
5.6873652128
 20
4.6075843149
 30
0.0
 10
5.6873619891
 20
4.605393497
 30
0.0
 10
5.6873713403
 20
4.6030736697
 30
0.0
 10
5.6873909534
 20
4.6006262437
 30
0.0
 10
5.6874119393
 20
4.5986487507
 30
0.0
 10
5.6874361635
 20
4.5965782952
 30
0.0
 10
5.6874687673
 20
4.5936354191
 30
0.0
 10
5.6874927888
 20
4.5905727444
 30
0.0
 10
5.6874967081
 20
4.5873920082
 30
0.0
 10
5.6874855363
 20
4.5848758075
 30
0.0
 10
5.6874593198
 20
4.5822747413
 30
0.0
 10
5.6874126576
 20
4.5786423053
 30
0.0
 10
5.6873479753
 20
4.5739041872
 30
0.0
 10
5.687322277
 20
4.570060631
 30
0.0
 10
5.6873222869
 20
4.5680875197
 30
0.0
 11
5.687322287
 21
4.6193438079
 31
0.0
 11
5.6873223282
 21
4.6193436016
 31
0.0
 11
5.687322448
 21
4.6193429828
 31
0.0
 11
5.6873226451
 21
4.6193419514
 31
0.0
 11
5.6873229181
 21
4.6193405077
 31
0.0
 11
5.6873236861
 21
4.619336383
 31
0.0
 11
5.6873247406
 21
4.619330609
 31
0.0
 11
5.6873260704
 21
4.6193231863
 31
0.0
 11
5.6873276642
 21
4.6193141151
 31
0.0
 11
5.6873295107
 21
4.6193033959
 31
0.0
 11
5.6873315986
 21
4.6192910291
 31
0.0
 11
5.6873364534
 21
4.619261354
 31
0.0
 11
5.6873421383
 21
4.6192250931
 31
0.0
 11
5.6873485631
 21
4.6191822493
 31
0.0
 11
5.6873556373
 21
4.6191328259
 31
0.0
 11
5.6873632706
 21
4.619076826
 31
0.0
 11
5.6873713728
 21
4.6190142526
 31
0.0
 11
5.6873886224
 21
4.6188693982
 31
0.0
 11
5.6874066633
 21
4.6186982875
 31
0.0
 11
5.6874247731
 21
4.6185009457
 31
0.0
 11
5.687442229
 21
4.6182773976
 31
0.0
 11
5.6874583086
 21
4.6180276682
 31
0.0
 11
5.6874722893
 21
4.6177517826
 31
0.0
 11
5.6874834483
 21
4.6174497656
 31
0.0
 11
5.6874948045
 21
4.6167674547
 31
0.0
 11
5.6874921536
 21
4.6159811749
 31
0.0
 11
5.6874789103
 21
4.6150915224
 31
0.0
 11
5.687458565
 21
4.6140990968
 31
0.0
 11
5.6874346083
 21
4.6130044977
 31
0.0
 11
5.6874105306
 21
4.6118083246
 31
0.0
 11
5.6873898199
 21
4.6105111775
 31
0.0
 11
5.6873750272
 21
4.6091137646
 31
0.0
 11
5.6873663989
 21
4.6076170616
 31
0.0
 11
5.6873638333
 21
4.6060220842
 31
0.0
 11
5.6873764842
 21
4.6025413693
 31
0.0
 11
5.6873914975
 21
4.6006576635
 31
0.0
 11
5.6874119604
 21
4.5986797633
 31
0.0
 11
5.6874355962
 21
4.5966088616
 31
0.0
 11
5.6874590379
 21
4.59444624
 31
0.0
 11
5.6874918258
 21
4.5898509673
 31
0.0
 11
5.6874944154
 21
4.5874208811
 31
0.0
 11
5.6874833365
 21
4.5849042082
 31
0.0
 11
5.6874584185
 21
4.582302482
 31
0.0
 11
5.6874249537
 21
4.5796176631
 31
0.0
 11
5.6873557157
 21
4.5740067591
 31
0.0
 11
5.6873222869
 21
4.5680875197
 31
0.0
  0
ENDSEC
  0
SECTION
  2
OBJECTS
  0
DICTIONARY
  5
C
100
AcDbDictionary
280
0
281
1
  3
ACAD_GROUP
350
D
  3
ACAD_MLINESTYLE
350
17
  3
ACAD_LAYOUT
350
1A
  3
ACAD_PLOTSETTINGS
350
19
  3
ACAD_PLOTSTYLENAME
350
E
  0
DICTIONARY
  5
D
102
{ACAD_REACTORS
330
C
102
}
100
AcDbDictionary
280
0
281
1
  0
ACDBDICTIONARYWDFLT
  5
E
102
{ACAD_REACTORS
330
C
102
}
100
AcDbDictionary
281
1
  3
Normal
350
F
100
AcDbDictionaryWithDefault
340
F
  0
DICTIONARY
  5
17
102
{ACAD_REACTORS
330
C
102
}
100
AcDbDictionary
280
0
281
1
  3
Standard
350
18
  0
DICTIONARY
  5
19
102
{ACAD_REACTORS
330
C
102
}
100
AcDbDictionary
281
1
  0
DICTIONARY
  5
1A
102
{ACAD_REACTORS
330
C
102
}
100
AcDbDictionary
281
1
  3
Model
350
220
  3
Layout1
350
221
  0
ACDBPLACEHOLDER
  5
F
102
{ACAD_REACTORS
330
E
102
}
  0
MLINESTYLE
  5
18
102
{ACAD_REACTORS
330
17
102
}
100
AcDbMlineStyle
  2
STANDARD
 70
0
  3

 62
256
 51
90.0
 52
90.0
 71
2
 49
0.5
 62
256
  6
BYLAYER
 49
-0.5
 62
256
  6
BYLAYER
  0
LAYOUT
  5
220
102
{ACAD_REACTORS
330
1A
102
}
100
AcDbPlotSettings
  1

  2
none_device
  4
ISO_A4_(297.00_x_210.00_MM)
  6

 40
0.0
 41
0.0
 42
0.0
 43
0.0
 44
297.0
 45
210.0
 46
0.0
 47
0.0
 48
0.0
 49
0.0
140
0.0
141
0.0
142
1.0
143
1.0
 70
1024
 72
0
 73
0
 74
0
  7

 75
0
147
1.0
148
0.0
149
0.0
100
AcDbLayout
  1
Model
 70
0
 71
0
 10
0.0
 20
0.0
 11
11.6929133858
 21
8.2677165354
 12
0.0
 22
0.0
 32
0.0
 14
0.0
 24
0.0
 34
0.0
 15
0.0
 25
0.0
 35
0.0
146
0.0
 13
0.0
 23
0.0
 33
0.0
 16
1.0
 26
0.0
 36
0.0
 17
0.0
 27
1.0
 37
0.0
 76
0
330
203
345
0
346
0
  0
LAYOUT
  5
221
102
{ACAD_REACTORS
330
1A
102
}
100
AcDbPlotSettings
  1

  2
none_device
  4
ISO_A4_(297.00_x_210.00_MM)
  6

 40
0.0
 41
0.0
 42
0.0
 43
0.0
 44
297.0
 45
210.0
 46
0.0
 47
0.0
 48
0.0
 49
0.0
140
0.0
141
0.0
142
1.0
143
1.0
 70
0
 72
0
 73
0
 74
0
  7

 75
0
147
1.0
148
0.0
149
0.0
100
AcDbLayout
  1
Layout1
 70
0
 71
1
 10
0.0
 20
0.0
 11
11.6929133858
 21
8.2677165354
 12
0.0
 22
0.0
 32
0.0
 14
0.0
 24
0.0
 34
0.0
 15
0.0
 25
0.0
 35
0.0
146
0.0
 13
0.0
 23
0.0
 33
0.0
 16
1.0
 26
0.0
 36
0.0
 17
0.0
 27
1.0
 37
0.0
 76
0
330
204
345
0
346
0
  0
ENDSEC
  0
EOF
