999
DXF file: 2-734_Front.dxf
999
Pro/ENGINEER 2023134 by Parametric Technology Corporation
  0
SECTION
  2
HEADER
  9
$ACADVER
  1
AC1032
  9
$DWGCODEPAGE
  3
ANSI_1252
  9
$EXTMAX
 10
11.0
 20
8.5
 30
0.0
  9
$EXTMIN
 10
0.0
 20
0.0
 30
0.0
  9
$LIMMIN
 10
0.0
 20
0.0
  9
$LIMMAX
 10
11.0
 20
8.5
  9
$VIEWCTR
 10
5.5
 20
4.25
  9
$VIEWSIZE
 40
8.5
  9
$CLAYER
  8
0
  9
$LTSCALE
 40
0.605
  9
$CELTYPE
  6
BYLAYER
  9
$DIMSCALE
 40
1.0
  9
$DIMASZ
 40
0.1
  9
$DIMEXO
 40
0.0625
  9
$DIMDLI
 40
0.418
  9
$DIMEXE
 40
0.125
  9
$DIMCEN
 40
0.099
  9
$DIMLFAC
 40
1.0
  9
$DIMBLK
  1
_FILLED
  9
$DIMALT
 70
1
  9
$DIMALTD
 70
2
  9
$DIMALTTD
 70
2
  9
$DIMALTF
 40
25.4
  9
$DIMTXT
 40
0.08
  9
$DIMTOL
 70
1
  9
$DIMLIM
 70
0
  9
$DIMTFAC
 40
1.0
  9
$DIMTP
 40
0.001
  9
$DIMTM
 40
0.001
  9
$DIMGAP
 40
0.09
  9
$DIMDSEP
 70
46
  9
$AUNITS
 70
0
  9
$PDMODE
 70
3
  9
$PDSIZE
 40
0.3125
  9
$HANDSEED
  5
27D
  9
$TILEMODE
 70
1
  9
$MEASUREMENT
 70
0
  9
$INSUNITS
 70
1
  0
ENDSEC
  0
SECTION
  2
CLASSES
  0
CLASS
  1
ACDBDICTIONARYWDFLT
  2
AcDbDictionaryWithDefault
  3
AutoCAD 2000
 90
0
 91
1
280
0
281
0
  0
CLASS
  1
ACDBPLACEHOLDER
  2
AcDbPlaceHolder
  3
AutoCAD 2000
 90
0
 91
1
280
0
281
0
  0
CLASS
  1
LAYOUT
  2
AcDbLayout
  3
AutoCAD 2000
 90
0
 91
0
280
0
281
0
  0
ENDSEC
  0
SECTION
  2
TABLES
  0
TABLE
  2
VPORT
  5
8
100
AcDbSymbolTable
 70
2
  0
VPORT
  5
1F4
100
AcDbSymbolTableRecord
100
AcDbViewportTableRecord
  2
*ACTIVE
 70
0
 10
0.0
 20
0.0
 11
1.0
 21
1.0
 12
5.5
 22
4.25
 13
0.0
 23
0.0
 14
1.0
 24
1.0
 15
0.0
 25
0.0
 16
0.0
 26
0.0
 36
1.0
 17
0.0
 27
0.0
 37
0.0
 40
8.5
 41
1.2941176471
 42
50.0
 43
0.0
 44
0.0
 50
0.0
 51
0.0
 71
0
 72
100
 73
1
 74
1
 75
0
 76
0
 77
0
 78
0
  0
ENDTAB
  0
TABLE
  2
LTYPE
  5
5
100
AcDbSymbolTable
 70
6
  0
LTYPE
  5
14
100
AcDbSymbolTableRecord
100
AcDbLinetypeTableRecord
  2
BYBLOCK
 70
0
  3

 72
65
 73
0
 40
0.0
  0
LTYPE
  5
15
100
AcDbSymbolTableRecord
100
AcDbLinetypeTableRecord
  2
BYLAYER
 70
0
  3

 72
65
 73
0
 40
0.0
  0
LTYPE
  5
16
100
AcDbSymbolTableRecord
100
AcDbLinetypeTableRecord
  2
CONTINUOUS
 70
64
  3
Solid line
 72
65
 73
0
 40
0.0
  0
LTYPE
  5
1F5
100
AcDbSymbolTableRecord
100
AcDbLinetypeTableRecord
  2
CENTER
 70
64
  3
____ _ ____ _ ____ _ ____ _ ____ _ ____ _ ____
 72
65
 73
4
 40
0.6
 49
0.375
 74
0
 49
-0.075
 74
0
 49
0.075
 74
0
 49
-0.075
 74
0
  0
LTYPE
  5
1F6
100
AcDbSymbolTableRecord
100
AcDbLinetypeTableRecord
  2
HIDDEN
 70
64
  3
- - - - - - - - - - - - - - - - - - - -
 72
65
 73
2
 40
0.2
 49
0.1
 74
0
 49
-0.1
 74
0
  0
LTYPE
  5
1F7
100
AcDbSymbolTableRecord
100
AcDbLinetypeTableRecord
  2
PHANTOM
 70
64
  3
_____ _ _ _____ _ _ _____ _ _ _____
 72
65
 73
6
 40
0.8
 49
0.45
 74
0
 49
-0.05
 74
0
 49
0.1
 74
0
 49
-0.05
 74
0
 49
0.1
 74
0
 49
-0.05
 74
0
  0
LTYPE
  5
1F8
100
AcDbSymbolTableRecord
100
AcDbLinetypeTableRecord
  2
DOT
 70
64
  3
. . . . . . . . . . . . . . . . . . . .
 72
65
 73
2
 40
0.2
 49
0.1
 74
0
 49
-0.1
 74
0
  0
LTYPE
  5
1F9
100
AcDbSymbolTableRecord
100
AcDbLinetypeTableRecord
  2
DASHED
 70
64
  3
- - - - - - - - - - - - - - - - - - - -
 72
65
 73
2
 40
0.2
 49
0.1
 74
0
 49
-0.1
 74
0
  0
ENDTAB
  0
TABLE
  2
LAYER
  5
2
100
AcDbSymbolTable
 70
36
  0
LAYER
  5
10
100
AcDbSymbolTableRecord
100
AcDbLayerTableRecord
  2
0
 70
0
 62
7
  6
CONTINUOUS
370
-3
390
F
  0
LAYER
  5
1FA
100
AcDbSymbolTableRecord
100
AcDbLayerTableRecord
  2
DEFAULT_1
 70
0
 62
7
  6
CENTER
370
-3
390
F
  0
LAYER
  5
1FB
100
AcDbSymbolTableRecord
100
AcDbLayerTableRecord
  2
DEFAULT_2
 70
0
 62
8
  6
HIDDEN
370
-3
390
F
  0
LAYER
  5
1FC
100
AcDbSymbolTableRecord
100
AcDbLayerTableRecord
  2
DEFAULT_3
 70
0
 62
7
  6
PHANTOM
370
-3
390
F
  0
LAYER
  5
1FD
100
AcDbSymbolTableRecord
100
AcDbLayerTableRecord
  2
DEFAULT_COORDINATE_SYSTEM
 70
0
 62
7
  6
CONTINUOUS
370
-3
390
F
  0
LAYER
  5
1FE
100
AcDbSymbolTableRecord
100
AcDbLayerTableRecord
  2
DEFAULT_DATUM_AXES
 70
0
 62
7
  6
CONTINUOUS
370
-3
390
F
  0
LAYER
  5
1FF
100
AcDbSymbolTableRecord
100
AcDbLayerTableRecord
  2
DEFAULT_DATUM_CURVES
 70
0
 62
7
  6
CONTINUOUS
370
-3
390
F
  0
LAYER
  5
200
100
AcDbSymbolTableRecord
100
AcDbLayerTableRecord
  2
DEFAULT_DATUM_PLANES
 70
0
 62
7
  6
CONTINUOUS
370
-3
390
F
  0
ENDTAB
  0
TABLE
  2
STYLE
  5
3
100
AcDbSymbolTable
 70
1
  0
STYLE
  5
11
100
AcDbSymbolTableRecord
100
AcDbTextStyleTableRecord
  2
STANDARD
 70
0
 40
0.0
 41
0.8
 50
0.0
 71
0
 42
0.2
  3
txt
  4

  0
STYLE
  5
201
100
AcDbSymbolTableRecord
100
AcDbTextStyleTableRecord
  2
TEXTSTYLE_1
 70
0
 40
0.0
 41
0.8
 50
0.0
 71
0
 42
0.2
  3
gdt
  4

  0
ENDTAB
  0
TABLE
  2
VIEW
  5
6
100
AcDbSymbolTable
 70
0
  0
ENDTAB
  0
TABLE
  2
UCS
  5
7
100
AcDbSymbolTable
 70
0
  0
ENDTAB
  0
TABLE
  2
APPID
  5
9
100
AcDbSymbolTable
 70
1
  0
APPID
  5
202
100
AcDbSymbolTableRecord
100
AcDbRegAppTableRecord
  2
ACAD
 70
0
  0
ENDTAB
  0
TABLE
  2
BLOCK_RECORD
  5
1
100
AcDbSymbolTable
 70
0
  0
BLOCK_RECORD
  5
203
100
AcDbSymbolTableRecord
100
AcDbBlockTableRecord
  2
*Model_Space
  0
BLOCK_RECORD
  5
204
100
AcDbSymbolTableRecord
100
AcDbBlockTableRecord
  2
*Paper_Space
  0
BLOCK_RECORD
  5
205
100
AcDbSymbolTableRecord
100
AcDbBlockTableRecord
  2
_FILLED
  0
ENDTAB
  0
TABLE
  2
DIMSTYLE
  5
A
100
AcDbSymbolTable
 70
1
100
AcDbDimStyleTable
 71
0
  0
DIMSTYLE
105
206
100
AcDbSymbolTableRecord
100
AcDbDimStyleTableRecord
  2
STANDARD
 70
0
  3

  4

 40
1.0
 41
0.1
 42
0.0625
 43
0.38
 44
0.125
 45
0.0
 46
0.0
 47
0.001
 48
0.001
140
0.08
141
0.09
142
0.0
143
25.4
144
1.0
145
0.0
146
1.0
147
0.09
 71
1
 72
0
 73
1
 74
1
 75
0
 76
0
 77
0
 78
4
 79
1
170
1
171
2
172
0
173
0
174
0
175
0
176
0
177
0
178
0
270
2
179
3
271
3
272
3
273
2
274
2
275
0
280
0
281
0
282
0
283
1
284
4
285
0
286
0
287
3
288
0
340
11
278
46
341
205
342
205
343
205
344
205
  0
ENDTAB
  0
ENDSEC
  0
SECTION
  2
BLOCKS
  0
BLOCK
  5
20
100
AcDbEntity
  8
0
100
AcDbBlockBegin
  2
*Model_Space
 70
0
 10
0.0
 20
0.0
 30
0.0
  3
*Model_Space
  1

  0
ENDBLK
  5
21
100
AcDbEntity
  8
0
100
AcDbBlockEnd
  0
BLOCK
  5
1C
100
AcDbEntity
  8
0
100
AcDbBlockBegin
  2
*Paper_Space
 70
0
 10
0.0
 20
0.0
 30
0.0
  3
*Paper_Space
  1

  0
ENDBLK
  5
1D
100
AcDbEntity
  8
0
100
AcDbBlockEnd
  0
BLOCK
  5
207
100
AcDbEntity
  8
0
100
AcDbBlockBegin
  2
_FILLED
 70
64
 10
0.0
 20
0.0
  3
_FILLED
  1

  0
SOLID
  5
208
100
AcDbEntity
  8
0
  6
BYBLOCK
 62
0
100
AcDbTrace
 10
0.0
 20
0.0
 11
-1.0
 21
0.2
 12
-1.0
 22
-0.2
 13
-1.0
 23
-0.2
  0
ENDBLK
  5
209
100
AcDbEntity
  8
0
  6
BYBLOCK
 62
0
100
AcDbBlockEnd
  0
ENDSEC
  0
SECTION
  2
ENTITIES
  0
MTEXT
  5
20A
100
AcDbEntity
  8
0
100
AcDbMText
 62
2
  6
CONTINUOUS
  7
STANDARD
 71
2
 72
1
 10
5.7096497253
 20
2.1299047952
 30
0.0
 11
1.0
 21
0.0
 31
0.0
 73
2
 44
0.9
  1
SCALE 0.500
 40
0.08
 41
0.704
  0
LINE
  5
20B
100
AcDbEntity
  8
0
100
AcDbLine
 62
7
  6
CONTINUOUS
 10
0.0
 20
0.0
 11
0.0
 21
8.5
  0
LINE
  5
20C
100
AcDbEntity
  8
0
100
AcDbLine
 62
7
  6
CONTINUOUS
 10
0.0
 20
0.0
 11
11.0
 21
0.0
  0
LINE
  5
20D
100
AcDbEntity
  8
0
100
AcDbLine
 62
7
  6
CONTINUOUS
 10
0.0
 20
8.5
 11
11.0
 21
8.5
  0
LINE
  5
20E
100
AcDbEntity
  8
0
100
AcDbLine
 62
7
  6
CONTINUOUS
 10
11.0
 20
0.0
 11
11.0
 21
8.5
  0
LINE
  5
20F
100
AcDbEntity
  8
0
100
AcDbLine
 62
7
  6
CONTINUOUS
 10
4.0631497253
 20
6.7170594905
 11
4.0631497253
 21
5.5370594905
  0
LINE
  5
210
100
AcDbEntity
  8
0
100
AcDbLine
 62
7
  6
CONTINUOUS
 10
4.1571497253
 20
6.6270594905
 11
4.1571497253
 21
5.6270594905
  0
LINE
  5
211
100
AcDbEntity
  8
0
100
AcDbLine
 62
7
  6
CONTINUOUS
 10
4.2506497253
 20
6.5330608203
 11
4.2506497253
 21
5.7210581608
  0
LINE
  5
212
100
AcDbEntity
  8
0
100
AcDbLine
 62
7
  6
CONTINUOUS
 10
7.9446497253
 20
3.0645594905
 11
7.5846497253
 21
3.0645594905
  0
LINE
  5
213
100
AcDbEntity
  8
0
100
AcDbLine
 62
7
  6
CONTINUOUS
 10
7.9565240674
 20
3.1115594905
 11
7.5727753832
 21
3.1115594905
  0
LINE
  5
214
100
AcDbEntity
  8
0
100
AcDbLine
 62
7
  6
CONTINUOUS
 10
7.9445294245
 20
3.1409939749
 11
7.5847700261
 21
3.1409939749
  0
LINE
  5
215
100
AcDbEntity
  8
0
100
AcDbLine
 62
7
  6
CONTINUOUS
 10
7.9647687729
 20
3.3384205408
 11
7.5645306777
 21
3.3384205408
  0
LINE
  5
216
100
AcDbEntity
  8
0
100
AcDbLine
 62
7
  6
CONTINUOUS
 10
7.9761881868
 20
3.361923637
 11
7.5531112637
 21
3.361923637
  0
LINE
  5
217
100
AcDbEntity
  8
0
100
AcDbLine
 62
7
  6
CONTINUOUS
 10
7.975812516
 20
3.3747882788
 11
7.5534869346
 21
3.3747882788
  0
LINE
  5
218
100
AcDbEntity
  8
0
100
AcDbLine
 62
7
  6
CONTINUOUS
 10
7.9246497253
 20
3.4620518278
 11
7.6046497253
 21
3.4620518278
  0
LINE
  5
219
100
AcDbEntity
  8
0
100
AcDbLine
 62
7
  6
CONTINUOUS
 10
7.9246497253
 20
3.7720947036
 11
7.6046497253
 21
3.7720947036
  0
LINE
  5
21A
100
AcDbEntity
  8
0
100
AcDbLine
 62
7
  6
CONTINUOUS
 10
7.9655588162
 20
3.8527685188
 11
7.5637406344
 21
3.8527685188
  0
LINE
  5
21B
100
AcDbEntity
  8
0
100
AcDbLine
 62
7
  6
CONTINUOUS
 10
7.4646497253
 20
3.9670594905
 11
6.0398577978
 21
3.9670594905
  0
LINE
  5
21C
100
AcDbEntity
  8
0
100
AcDbLine
 62
7
  6
CONTINUOUS
 10
4.271140779
 20
4.0488094905
 11
5.6423703954
 21
4.0488094905
  0
LINE
  5
21D
100
AcDbEntity
  8
0
100
AcDbLine
 62
7
  6
CONTINUOUS
 10
4.271140779
 20
4.2053094905
 11
5.6423703954
 21
4.2053094905
  0
LINE
  5
21E
100
AcDbEntity
  8
0
100
AcDbLine
 62
7
  6
CONTINUOUS
 10
5.6423703954
 20
3.9470594905
 11
5.6423703954
 21
4.3070594905
  0
LINE
  5
21F
100
AcDbEntity
  8
0
100
AcDbLine
 62
7
  6
CONTINUOUS
 10
5.6893700402
 20
3.9351844905
 11
5.6893700402
 21
4.3189344905
  0
LINE
  5
220
100
AcDbEntity
  8
0
100
AcDbLine
 62
7
  6
CONTINUOUS
 10
5.7188039683
 20
3.9471785382
 11
5.7188039683
 21
4.3069404429
  0
LINE
  5
221
100
AcDbEntity
  8
0
100
AcDbLine
 62
7
  6
CONTINUOUS
 10
7.4646497253
 20
4.2870594905
 11
6.0398577978
 21
4.2870594905
  0
LINE
  5
222
100
AcDbEntity
  8
0
100
AcDbLine
 62
7
  6
CONTINUOUS
 10
7.9655588162
 20
4.4013504623
 11
7.5637406344
 21
4.4013504623
  0
LINE
  5
223
100
AcDbEntity
  8
0
100
AcDbLine
 62
7
  6
CONTINUOUS
 10
7.9246497253
 20
4.4820242775
 11
7.6046497253
 21
4.4820242775
  0
LINE
  5
224
100
AcDbEntity
  8
0
100
AcDbLine
 62
7
  6
CONTINUOUS
 10
5.9162265107
 20
3.9269404429
 11
5.9162265107
 21
4.3271785382
  0
LINE
  5
225
100
AcDbEntity
  8
0
100
AcDbLine
 62
7
  6
CONTINUOUS
 10
5.9397296069
 20
3.915521029
 11
5.9397296069
 21
4.3385979521
  0
LINE
  5
226
100
AcDbEntity
  8
0
100
AcDbLine
 62
7
  6
CONTINUOUS
 10
5.9525942488
 20
3.9158966999
 11
5.9525942488
 21
4.3382222812
  0
LINE
  5
227
100
AcDbEntity
  8
0
100
AcDbLine
 62
7
  6
CONTINUOUS
 10
6.0398577978
 20
3.9670594905
 11
6.0398577978
 21
4.2870594905
  0
LINE
  5
228
100
AcDbEntity
  8
0
100
AcDbLine
 62
7
  6
CONTINUOUS
 10
7.9246497253
 20
4.7920671533
 11
7.6046497253
 21
4.7920671533
  0
LINE
  5
229
100
AcDbEntity
  8
0
100
AcDbLine
 62
7
  6
CONTINUOUS
 10
7.975812516
 20
4.8793307023
 11
7.5534869346
 21
4.8793307023
  0
LINE
  5
22A
100
AcDbEntity
  8
0
100
AcDbLine
 62
7
  6
CONTINUOUS
 10
7.9761881868
 20
4.8921953441
 11
7.5531112637
 21
4.8921953441
  0
LINE
  5
22B
100
AcDbEntity
  8
0
100
AcDbLine
 62
7
  6
CONTINUOUS
 10
7.9647687729
 20
4.9156984403
 11
7.5645306777
 21
4.9156984403
  0
LINE
  5
22C
100
AcDbEntity
  8
0
100
AcDbLine
 62
7
  6
CONTINUOUS
 10
7.9445294245
 20
5.1131250062
 11
7.5847700261
 21
5.1131250062
  0
LINE
  5
22D
100
AcDbEntity
  8
0
100
AcDbLine
 62
7
  6
CONTINUOUS
 10
7.9565240674
 20
5.1425594905
 11
7.5727753832
 21
5.1425594905
  0
LINE
  5
22E
100
AcDbEntity
  8
0
100
AcDbLine
 62
7
  6
CONTINUOUS
 10
7.9446497253
 20
5.1895594905
 11
7.5846497253
 21
5.1895594905
  0
LINE
  5
22F
100
AcDbEntity
  8
0
100
AcDbLine
 62
7
  6
CONTINUOUS
 10
7.4646497253
 20
3.9670594905
 11
7.4646497253
 21
4.2870594905
  0
LINE
  5
230
100
AcDbEntity
  8
0
100
AcDbLine
 62
7
  6
CONTINUOUS
 10
7.6046497253
 20
4.7920671533
 11
7.6046497253
 21
4.4820242775
  0
LINE
  5
231
100
AcDbEntity
  8
0
100
AcDbLine
 62
7
  6
CONTINUOUS
 10
7.6046497253
 20
3.4620518278
 11
7.6046497253
 21
3.7720947036
  0
LINE
  5
232
100
AcDbEntity
  8
0
100
AcDbLine
 62
7
  6
CONTINUOUS
 10
7.6865247253
 20
5.2322142875
 11
7.6865247253
 21
5.1895594905
  0
LINE
  5
233
100
AcDbEntity
  8
0
100
AcDbLine
 62
7
  6
CONTINUOUS
 10
7.6865247253
 20
3.0219046936
 11
7.6865247253
 21
3.0645594905
  0
LINE
  5
234
100
AcDbEntity
  8
0
100
AcDbLine
 62
7
  6
CONTINUOUS
 10
7.8427747253
 20
5.2322142875
 11
7.8427747253
 21
5.1895594905
  0
LINE
  5
235
100
AcDbEntity
  8
0
100
AcDbLine
 62
7
  6
CONTINUOUS
 10
7.8427747253
 20
3.0219046936
 11
7.8427747253
 21
3.0645594905
  0
LINE
  5
236
100
AcDbEntity
  8
0
100
AcDbLine
 62
7
  6
CONTINUOUS
 10
7.9246497253
 20
4.7920671533
 11
7.9246497253
 21
4.4820242775
  0
LINE
  5
237
100
AcDbEntity
  8
0
100
AcDbLine
 62
7
  6
CONTINUOUS
 10
7.9246497253
 20
3.4620518278
 11
7.9246497253
 21
3.7720947036
  0
ARC
  5
238
100
AcDbEntity
  8
0
100
AcDbCircle
 62
7
  6
CONTINUOUS
 10
3.7646497253
 20
4.1270594905
 40
0.5125
100
AcDbArc
 50
8.7824382479
 51
351.2175617521
  0
ARC
  5
239
100
AcDbEntity
  8
0
100
AcDbCircle
 62
7
  6
CONTINUOUS
 10
5.867489631
 20
3.8295594905
 40
0.5
100
AcDbArc
 50
84.4062832312
 51
107.2997870464
  0
ARC
  5
23A
100
AcDbEntity
  8
0
100
AcDbCircle
 62
7
  6
CONTINUOUS
 10
5.867489631
 20
4.4245594905
 40
0.5
100
AcDbArc
 50
252.7002129536
 51
275.5937167688
  0
CIRCLE
  5
23B
100
AcDbEntity
  8
0
100
AcDbCircle
 62
7
  6
CONTINUOUS
 10
3.7646497253
 20
4.1270594905
 40
0.4722866601
  0
CIRCLE
  5
23C
100
AcDbEntity
  8
0
100
AcDbCircle
 62
7
  6
CONTINUOUS
 10
3.7646497253
 20
4.1270594905
 40
0.4489426612
  0
CIRCLE
  5
23D
100
AcDbEntity
  8
0
100
AcDbCircle
 62
7
  6
CONTINUOUS
 10
3.7646497253
 20
4.1270594905
 40
0.3825
  0
ARC
  5
23E
100
AcDbEntity
  8
0
100
AcDbCircle
 62
7
  6
CONTINUOUS
 10
5.7113696851
 20
4.3308094905
 40
0.025
100
AcDbArc
 50
208.3593500282
 51
287.2997870464
  0
ARC
  5
23F
100
AcDbEntity
  8
0
100
AcDbCircle
 62
7
  6
CONTINUOUS
 10
5.6673703954
 20
4.3070594905
 40
0.025
100
AcDbArc
 50
28.3593500282
 51
180.0
  0
ARC
  5
240
100
AcDbEntity
  8
0
100
AcDbCircle
 62
7
  6
CONTINUOUS
 10
5.7113696851
 20
3.9233094905
 40
0.025
100
AcDbArc
 50
72.7002129536
 51
151.6406499718
  0
ARC
  5
241
100
AcDbEntity
  8
0
100
AcDbCircle
 62
7
  6
CONTINUOUS
 10
5.6673703954
 20
3.9470594905
 40
0.025
100
AcDbArc
 50
180.0
 51
331.6406499718
  0
ARC
  5
242
100
AcDbEntity
  8
0
100
AcDbCircle
 62
7
  6
CONTINUOUS
 10
4.0631497253
 20
5.6311483794
 40
0.0940888889
100
AcDbArc
 50
270.0
 51
357.5092714665
  0
ARC
  5
243
100
AcDbEntity
  8
0
100
AcDbCircle
 62
7
  6
CONTINUOUS
 10
4.0631497253
 20
6.6229706017
 40
0.0940888889
100
AcDbArc
 50
2.4907285335
 51
90.0
  0
ARC
  5
244
100
AcDbEntity
  8
0
100
AcDbCircle
 62
7
  6
CONTINUOUS
 10
4.1566497253
 20
5.7210581608
 40
0.094
100
AcDbArc
 50
270.3047662218
 51
360.0
  0
ARC
  5
245
100
AcDbEntity
  8
0
100
AcDbCircle
 62
7
  6
CONTINUOUS
 10
4.1566497253
 20
6.5330608203
 40
0.094
100
AcDbArc
 50
0.0
 51
89.6952337782
  0
ARC
  5
246
100
AcDbEntity
  8
0
100
AcDbCircle
 62
7
  6
CONTINUOUS
 10
7.4671497253
 20
3.289683661
 40
0.5
100
AcDbArc
 50
342.6997300541
 51
5.5937167688
  0
ARC
  5
247
100
AcDbEntity
  8
0
100
AcDbCircle
 62
7
  6
CONTINUOUS
 10
8.0621497253
 20
3.289683661
 40
0.5
100
AcDbArc
 50
174.4062832312
 51
197.3002699459
  0
ARC
  5
248
100
AcDbEntity
  8
0
100
AcDbCircle
 62
7
  6
CONTINUOUS
 10
7.7646497253
 20
2.6270594905
 40
0.4025
100
AcDbArc
 50
101.1921166223
 51
78.8078833777
  0
CIRCLE
  5
249
100
AcDbEntity
  8
0
100
AcDbCircle
 62
7
  6
CONTINUOUS
 10
7.7646497253
 20
2.6270594905
 40
0.3622866601
  0
ARC
  5
24A
100
AcDbEntity
  8
0
100
AcDbCircle
 62
7
  6
CONTINUOUS
 10
7.7646497253
 20
4.1270594905
 40
0.34
100
AcDbArc
 50
208.0724869359
 51
233.7784533802
  0
ARC
  5
24B
100
AcDbEntity
  8
0
100
AcDbCircle
 62
7
  6
CONTINUOUS
 10
7.7646497253
 20
4.1270594905
 40
0.34
100
AcDbArc
 50
306.2215466198
 51
53.7784533802
  0
ARC
  5
24C
100
AcDbEntity
  8
0
100
AcDbCircle
 62
7
  6
CONTINUOUS
 10
7.7646497253
 20
4.1270594905
 40
0.34
100
AcDbArc
 50
126.2215466198
 51
151.9275130641
  0
CIRCLE
  5
24D
100
AcDbEntity
  8
0
100
AcDbCircle
 62
7
  6
CONTINUOUS
 10
7.7646497253
 20
2.6270594905
 40
0.3389426612
  0
CIRCLE
  5
24E
100
AcDbEntity
  8
0
100
AcDbCircle
 62
7
  6
CONTINUOUS
 10
7.7646497253
 20
2.6270594905
 40
0.2725
  0
ARC
  5
24F
100
AcDbEntity
  8
0
100
AcDbCircle
 62
7
  6
CONTINUOUS
 10
8.0246497253
 20
3.4620518278
 40
0.1
100
AcDbArc
 50
180.0
 51
240.7663599774
  0
ARC
  5
250
100
AcDbEntity
  8
0
100
AcDbCircle
 62
7
  6
CONTINUOUS
 10
7.5046497253
 20
3.4620518278
 40
0.1
100
AcDbArc
 50
299.2336400226
 51
360.0
  0
ARC
  5
251
100
AcDbEntity
  8
0
100
AcDbCircle
 62
7
  6
CONTINUOUS
 10
8.0246497253
 20
3.7720947036
 40
0.1
100
AcDbArc
 50
126.2215466198
 51
180.0
  0
ARC
  5
252
100
AcDbEntity
  8
0
100
AcDbCircle
 62
7
  6
CONTINUOUS
 10
7.5046497253
 20
3.7720947036
 40
0.1
100
AcDbArc
 50
0.0
 51
53.7784533802
  0
ARC
  5
253
100
AcDbEntity
  8
0
100
AcDbCircle
 62
7
  6
CONTINUOUS
 10
8.0246497253
 20
4.4820242775
 40
0.1
100
AcDbArc
 50
180.0
 51
233.7784533802
  0
ARC
  5
254
100
AcDbEntity
  8
0
100
AcDbCircle
 62
7
  6
CONTINUOUS
 10
7.5046497253
 20
4.4820242775
 40
0.1
100
AcDbArc
 50
306.2215466198
 51
360.0
  0
ARC
  5
255
100
AcDbEntity
  8
0
100
AcDbCircle
 62
7
  6
CONTINUOUS
 10
6.0398577978
 20
4.3870594905
 40
0.1
100
AcDbArc
 50
209.2336400226
 51
270.0
  0
ARC
  5
256
100
AcDbEntity
  8
0
100
AcDbCircle
 62
7
  6
CONTINUOUS
 10
6.0398577978
 20
3.8670594905
 40
0.1
100
AcDbArc
 50
90.0
 51
150.7663599774
  0
ARC
  5
257
100
AcDbEntity
  8
0
100
AcDbCircle
 62
7
  6
CONTINUOUS
 10
7.9446497253
 20
3.0895594905
 40
0.025
100
AcDbArc
 50
270.0
 51
61.6423634237
  0
ARC
  5
258
100
AcDbEntity
  8
0
100
AcDbCircle
 62
7
  6
CONTINUOUS
 10
7.5846497253
 20
3.0895594905
 40
0.025
100
AcDbArc
 50
118.3576365763
 51
270.0
  0
ARC
  5
259
100
AcDbEntity
  8
0
100
AcDbCircle
 62
7
  6
CONTINUOUS
 10
7.9683984094
 20
3.1335594905
 40
0.025
100
AcDbArc
 50
162.6997300541
 51
241.6423634237
  0
ARC
  5
25A
100
AcDbEntity
  8
0
100
AcDbCircle
 62
7
  6
CONTINUOUS
 10
7.5609010411
 20
3.1335594905
 40
0.025
100
AcDbArc
 50
298.3576365763
 51
17.3002699459
  0
ARC
  5
25B
100
AcDbEntity
  8
0
100
AcDbCircle
 62
7
  6
CONTINUOUS
 10
7.9896497253
 20
3.3408573848
 40
0.025
100
AcDbArc
 50
122.5789703928
 51
185.5937167688
  0
ARC
  5
25C
100
AcDbEntity
  8
0
100
AcDbCircle
 62
7
  6
CONTINUOUS
 10
7.5396497253
 20
3.3408573848
 40
0.025
100
AcDbArc
 50
354.4062832312
 51
57.4210296072
  0
ARC
  5
25D
100
AcDbEntity
  8
0
100
AcDbCircle
 62
7
  6
CONTINUOUS
 10
5.9186633547
 20
4.3520594905
 40
0.025
100
AcDbArc
 50
264.4062832312
 51
327.4210296072
  0
ARC
  5
25E
100
AcDbEntity
  8
0
100
AcDbCircle
 62
7
  6
CONTINUOUS
 10
5.9186633547
 20
3.9020594905
 40
0.025
100
AcDbArc
 50
32.5789703928
 51
95.5937167688
  0
ARC
  5
25F
100
AcDbEntity
  8
0
100
AcDbCircle
 62
7
  6
CONTINUOUS
 10
7.9721497253
 20
3.3682435126
 40
0.0075
100
AcDbArc
 50
302.5789703928
 51
60.7663599774
  0
ARC
  5
260
100
AcDbEntity
  8
0
100
AcDbCircle
 62
7
  6
CONTINUOUS
 10
7.5571497253
 20
3.3682435126
 40
0.0075
100
AcDbArc
 50
119.2336400226
 51
237.4210296072
  0
ARC
  5
261
100
AcDbEntity
  8
0
100
AcDbCircle
 62
7
  6
CONTINUOUS
 10
5.9460494826
 20
4.3345594905
 40
0.0075
100
AcDbArc
 50
29.2336400226
 51
147.4210296072
  0
ARC
  5
262
100
AcDbEntity
  8
0
100
AcDbCircle
 62
7
  6
CONTINUOUS
 10
5.9460494826
 20
3.9195594905
 40
0.0075
100
AcDbArc
 50
212.5789703928
 51
330.7663599774
  0
ARC
  5
263
100
AcDbEntity
  8
0
100
AcDbCircle
 62
7
  6
CONTINUOUS
 10
7.4671497253
 20
4.96443532
 40
0.5
100
AcDbArc
 50
354.4062832312
 51
17.3002699459
  0
ARC
  5
264
100
AcDbEntity
  8
0
100
AcDbCircle
 62
7
  6
CONTINUOUS
 10
8.0621497253
 20
4.96443532
 40
0.5
100
AcDbArc
 50
162.6997300541
 51
185.5937167688
  0
ARC
  5
265
100
AcDbEntity
  8
0
100
AcDbCircle
 62
7
  6
CONTINUOUS
 10
7.7646497253
 20
5.6270594905
 40
0.4025
100
AcDbArc
 50
281.1921166223
 51
258.8078833777
  0
CIRCLE
  5
266
100
AcDbEntity
  8
0
100
AcDbCircle
 62
7
  6
CONTINUOUS
 10
7.7646497253
 20
5.6270594905
 40
0.3622866601
  0
CIRCLE
  5
267
100
AcDbEntity
  8
0
100
AcDbCircle
 62
7
  6
CONTINUOUS
 10
7.7646497253
 20
5.6270594905
 40
0.3389426612
  0
CIRCLE
  5
268
100
AcDbEntity
  8
0
100
AcDbCircle
 62
7
  6
CONTINUOUS
 10
7.7646497253
 20
5.6270594905
 40
0.2725
  0
ARC
  5
269
100
AcDbEntity
  8
0
100
AcDbCircle
 62
7
  6
CONTINUOUS
 10
8.0246497253
 20
4.7920671533
 40
0.1
100
AcDbArc
 50
119.2336400226
 51
180.0
  0
ARC
  5
26A
100
AcDbEntity
  8
0
100
AcDbCircle
 62
7
  6
CONTINUOUS
 10
7.5046497253
 20
4.7920671533
 40
0.1
100
AcDbArc
 50
0.0
 51
60.7663599774
  0
ARC
  5
26B
100
AcDbEntity
  8
0
100
AcDbCircle
 62
7
  6
CONTINUOUS
 10
7.9446497253
 20
5.1645594905
 40
0.025
100
AcDbArc
 50
298.3576365763
 51
90.0
  0
ARC
  5
26C
100
AcDbEntity
  8
0
100
AcDbCircle
 62
7
  6
CONTINUOUS
 10
7.5846497253
 20
5.1645594905
 40
0.025
100
AcDbArc
 50
90.0
 51
241.6423634237
  0
ARC
  5
26D
100
AcDbEntity
  8
0
100
AcDbCircle
 62
7
  6
CONTINUOUS
 10
7.9683984094
 20
5.1205594905
 40
0.025
100
AcDbArc
 50
118.3576365763
 51
197.3002699459
  0
ARC
  5
26E
100
AcDbEntity
  8
0
100
AcDbCircle
 62
7
  6
CONTINUOUS
 10
7.5609010411
 20
5.1205594905
 40
0.025
100
AcDbArc
 50
342.6997300541
 51
61.6423634237
  0
ARC
  5
26F
100
AcDbEntity
  8
0
100
AcDbCircle
 62
7
  6
CONTINUOUS
 10
7.9896497253
 20
4.9132615963
 40
0.025
100
AcDbArc
 50
174.4062832312
 51
237.4210296072
  0
ARC
  5
270
100
AcDbEntity
  8
0
100
AcDbCircle
 62
7
  6
CONTINUOUS
 10
7.5396497253
 20
4.9132615963
 40
0.025
100
AcDbArc
 50
302.5789703928
 51
5.5937167688
  0
ARC
  5
271
100
AcDbEntity
  8
0
100
AcDbCircle
 62
7
  6
CONTINUOUS
 10
7.9721497253
 20
4.8858754684
 40
0.0075
100
AcDbArc
 50
299.2336400226
 51
57.4210296072
  0
ARC
  5
272
100
AcDbEntity
  8
0
100
AcDbCircle
 62
7
  6
CONTINUOUS
 10
7.5571497253
 20
4.8858754684
 40
0.0075
100
AcDbArc
 50
122.5789703928
 51
240.7663599774
  0
SPLINE
  5
273
100
AcDbEntity
  8
0
100
AcDbSpline
 62
7
  6
CONTINUOUS
 70
0
 71
3
 72
13
 73
9
 74
0
 42
0.0000001
 43
0.0000001
 44
0.0000000001
 40
0.0
 40
0.0
 40
0.0
 40
0.0
 40
0.1502319912
 40
0.2978796876
 40
0.4404480468
 40
0.5755802911
 40
0.814900522
 40
1.0
 40
1.0
 40
1.0
 40
1.0
 10
7.7646497253
 20
5.2422611892
 30
0.0
 10
7.7612336308
 20
5.2422611892
 30
0.0
 10
7.7544595699
 20
5.2421389544
 30
0.0
 10
7.7444567371
 20
5.2416033968
 30
0.0
 10
7.7348197387
 20
5.240761885
 30
0.0
 10
7.7231434905
 20
5.2393785068
 30
0.0
 10
7.7105718926
 20
5.2373835563
 30
0.0
 10
7.7011059664
 20
5.2354949776
 30
0.0
 10
7.6969914906
 20
5.2346082659
 30
0.0
  0
LINE
  5
274
100
AcDbEntity
  8
0
100
AcDbLine
 62
7
  6
CONTINUOUS
 10
4.2711407755
 20
4.2053094872
 11
4.2683383291
 21
4.1948259784
  0
SPLINE
  5
275
100
AcDbEntity
  8
0
100
AcDbSpline
 62
7
  6
CONTINUOUS
 70
0
 71
3
 72
13
 73
9
 74
0
 42
0.0000001
 43
0.0000001
 44
0.0000000001
 40
0.0
 40
0.0
 40
0.0
 40
0.0
 40
0.1502319844
 40
0.2978796825
 40
0.4404480431
 40
0.5755802972
 40
0.8149005306
 40
1.0
 40
1.0
 40
1.0
 40
1.0
 10
7.7646497253
 20
3.0118577919
 30
0.0
 10
7.7680658196
 20
3.0118577919
 30
0.0
 10
7.7748398804
 20
3.0119800267
 30
0.0
 10
7.7848427131
 20
3.0125155842
 30
0.0
 10
7.7944797118
 20
3.0133570961
 30
0.0
 10
7.8061559603
 20
3.0147404743
 30
0.0
 10
7.8187275583
 20
3.0167354248
 30
0.0
 10
7.8281934844
 20
3.0186240035
 30
0.0
 10
7.8323079599
 20
3.0195107152
 30
0.0
  0
LINE
  5
276
100
AcDbEntity
  8
0
100
AcDbLine
 62
7
  6
CONTINUOUS
 10
7.8323079599
 20
3.0195107152
 11
7.8427746645
 21
3.0219046473
  0
SPLINE
  5
277
100
AcDbEntity
  8
0
100
AcDbSpline
 62
7
  6
CONTINUOUS
 70
0
 71
3
 72
42
 73
38
 74
0
 42
0.0000001
 43
0.0000001
 44
0.0000000001
 40
0.0
 40
0.0
 40
0.0
 40
0.0
 40
0.0000191708
 40
0.0000769695
 40
0.000173404
 40
0.0003084823
 40
0.0004822126
 40
0.0006946027
 40
0.0012353877
 40
0.0019307278
 40
0.0027803427
 40
0.003783944
 40
0.0049412437
 40
0.0077157853
 40
0.0111016631
 40
0.0150965738
 40
0.0196981271
 40
0.0249025196
 40
0.0307048083
 40
0.0440831914
 40
0.0597933476
 40
0.0777878321
 40
0.0980098585
 40
0.1204019092
 40
0.1449000507
 40
0.1714343071
 40
0.1999343767
 40
0.2303247043
 40
0.296458847
 40
0.3691827521
 40
0.4478061216
 40
0.5316014257
 40
0.6198069186
 40
0.7116195501
 40
0.8061825115
 40
0.9026311208
 40
1.0
 40
1.0
 40
1.0
 40
1.0
 10
7.8427746645
 20
5.2322143338
 30
0.0
 10
7.842775068
 20
5.2322140309
 30
0.0
 10
7.8427709126
 20
5.232215524
 30
0.0
 10
7.8427685927
 20
5.2322156013
 30
0.0
 10
7.8427599806
 20
5.2322179487
 30
0.0
 10
7.842750147
 20
5.2322201973
 30
0.0
 10
7.8427366044
 20
5.2322235095
 30
0.0
 10
7.8427129886
 20
5.2322291838
 30
0.0
 10
7.842675865
 20
5.2322381594
 30
0.0
 10
7.8426225321
 20
5.232251028
 30
0.0
 10
7.8425573181
 20
5.2322667648
 30
0.0
 10
7.8424802952
 20
5.2322853322
 30
0.0
 10
7.8423540094
 20
5.2323157451
 30
0.0
 10
7.842166751
 20
5.2323607569
 30
0.0
 10
7.8419068396
 20
5.2324230669
 30
0.0
 10
7.8416001214
 20
5.2324963879
 30
0.0
 10
7.8412467985
 20
5.2325806062
 30
0.0
 10
7.8408471273
 20
5.2326755312
 30
0.0
 10
7.8402225654
 20
5.2328232127
 30
0.0
 10
7.839328551
 20
5.2330329356
 30
0.0
 10
7.8381214139
 20
5.2333128589
 30
0.0
 10
7.8367378628
 20
5.2336293338
 30
0.0
 10
7.8351816154
 20
5.2339794522
 30
0.0
 10
7.8334568616
 20
5.2343603624
 30
0.0
 10
7.8315680606
 20
5.2347687518
 30
0.0
 10
7.8295199563
 20
5.2352009246
 30
0.0
 10
7.827317642
 20
5.2356532385
 30
0.0
 10
7.8240905487
 20
5.2362961221
 30
0.0
 10
7.8197133863
 20
5.2371228959
 30
0.0
 10
7.8140735071
 20
5.2381010867
 30
0.0
 10
7.8079583533
 20
5.2390543065
 30
0.0
 10
7.801422179
 20
5.239944868
 30
0.0
 10
7.7945235794
 20
5.2407359839
 30
0.0
 10
7.7873261861
 20
5.2413930409
 30
0.0
 10
7.7798981452
 20
5.2418862345
 30
0.0
 10
7.7723136535
 20
5.2421920686
 30
0.0
 10
7.7672123525
 20
5.2422611892
 30
0.0
 10
7.7646497253
 20
5.2422611892
 30
0.0
  0
SPLINE
  5
278
100
AcDbEntity
  8
0
100
AcDbSpline
 62
7
  6
CONTINUOUS
 70
0
 71
3
 72
42
 73
38
 74
0
 42
0.0000001
 43
0.0000001
 44
0.0000000001
 40
0.0
 40
0.0
 40
0.0
 40
0.0
 40
0.0000191708
 40
0.0000769695
 40
0.000173404
 40
0.0003084824
 40
0.0004822128
 40
0.000694603
 40
0.0012353882
 40
0.0019307284
 40
0.0027803433
 40
0.0037839446
 40
0.0049412441
 40
0.0077157855
 40
0.0111016631
 40
0.0150965739
 40
0.0196981276
 40
0.0249025204
 40
0.0307048095
 40
0.0440831933
 40
0.0597933512
 40
0.0777878381
 40
0.0980098671
 40
0.1204019206
 40
0.1449000653
 40
0.1714343239
 40
0.1999343935
 40
0.2303247205
 40
0.2964588648
 40
0.3691827725
 40
0.4478061321
 40
0.5316014349
 40
0.6198069324
 40
0.7116195564
 40
0.8061825181
 40
0.9026311261
 40
1.0
 40
1.0
 40
1.0
 40
1.0
 10
7.6865247861
 20
3.0219046473
 30
0.0
 10
7.6865243825
 20
3.0219049502
 30
0.0
 10
7.686528538
 20
3.0219034571
 30
0.0
 10
7.6865308578
 20
3.0219033798
 30
0.0
 10
7.6865394699
 20
3.0219010324
 30
0.0
 10
7.6865493036
 20
3.0218987838
 30
0.0
 10
7.6865628461
 20
3.0218954716
 30
0.0
 10
7.6865864619
 20
3.0218897973
 30
0.0
 10
7.6866235856
 20
3.0218808217
 30
0.0
 10
7.6866769185
 20
3.0218679531
 30
0.0
 10
7.6867421325
 20
3.0218522163
 30
0.0
 10
7.6868191553
 20
3.0218336488
 30
0.0
 10
7.6869454411
 20
3.0218032359
 30
0.0
 10
7.6871326995
 20
3.0217582242
 30
0.0
 10
7.6873926109
 20
3.0216959142
 30
0.0
 10
7.6876993292
 20
3.0216225932
 30
0.0
 10
7.688052652
 20
3.0215383748
 30
0.0
 10
7.6884523233
 20
3.0214434498
 30
0.0
 10
7.6890768852
 20
3.0212957684
 30
0.0
 10
7.6899708997
 20
3.0210860454
 30
0.0
 10
7.6911780369
 20
3.0208061222
 30
0.0
 10
7.6925615882
 20
3.0204896472
 30
0.0
 10
7.6941178358
 20
3.0201395287
 30
0.0
 10
7.6958425898
 20
3.0197586186
 30
0.0
 10
7.697731391
 20
3.0193502291
 30
0.0
 10
7.6997794955
 20
3.0189180562
 30
0.0
 10
7.7019818098
 20
3.0184657423
 30
0.0
 10
7.7052089031
 20
3.0178228587
 30
0.0
 10
7.7095860656
 20
3.0169960849
 30
0.0
 10
7.7152259447
 20
3.0160178942
 30
0.0
 10
7.7213410982
 20
3.0150646744
 30
0.0
 10
7.7278772724
 20
3.0141741131
 30
0.0
 10
7.7347758719
 20
3.0133829971
 30
0.0
 10
7.7419732651
 20
3.0127259401
 30
0.0
 10
7.7494013058
 20
3.0122327466
 30
0.0
 10
7.7569857973
 20
3.0119269125
 30
0.0
 10
7.7620870982
 20
3.0118577919
 30
0.0
 10
7.7646497253
 20
3.0118577919
 30
0.0
  0
SPLINE
  5
279
100
AcDbEntity
  8
0
100
AcDbSpline
 62
7
  6
CONTINUOUS
 70
0
 71
3
 72
48
 73
44
 74
0
 42
0.0000001
 43
0.0000001
 44
0.0000000001
 40
0.0
 40
0.0
 40
0.0
 40
0.0
 40
0.0504364109
 40
0.1115827377
 40
0.1817765302
 40
0.2592358268
 40
0.3420352944
 40
0.4280624469
 40
0.5150376514
 40
0.6006229522
 40
0.6421864944
 40
0.6825699628
 40
0.7215208024
 40
0.7587965223
 40
0.7941664316
 40
0.8274075574
 40
0.8583037951
 40
0.8866463966
 40
0.912232795
 40
0.9348699881
 40
0.9450257309
 40
0.9543776354
 40
0.9629048435
 40
0.9705893422
 40
0.977413918
 40
0.9833616209
 40
0.9884189299
 40
0.9906101367
 40
0.9925744895
 40
0.9943105703
 40
0.995817049
 40
0.9970931698
 40
0.9981384062
 40
0.9985742784
 40
0.9989522322
 40
0.999272202
 40
0.9995341219
 40
0.9997379262
 40
0.9998835489
 40
0.9999345217
 40
0.9999709245
 40
0.99999275
 40
1.0
 40
1.0
 40
1.0
 40
1.0
 10
4.2683383291
 20
4.1948259784
 30
0.0
 10
4.2677310931
 20
4.1924146012
 30
0.0
 10
4.2664428762
 20
4.1870657196
 30
0.0
 10
4.2645596419
 20
4.1783025406
 30
0.0
 10
4.2627139802
 20
4.1681727944
 30
0.0
 10
4.2611069264
 20
4.1569217126
 30
0.0
 10
4.2599289178
 20
4.1448317713
 30
0.0
 10
4.2593312645
 20
4.1322285251
 30
0.0
 10
4.2593950567
 20
4.1194737309
 30
0.0
 10
4.2599981718
 20
4.1089290771
 30
0.0
 10
4.2607757057
 20
4.1007053058
 30
0.0
 10
4.2614748037
 20
4.0947852923
 30
0.0
 10
4.2622735804
 20
4.0890914217
 30
0.0
 10
4.2631483508
 20
4.0836590284
 30
0.0
 10
4.2640738626
 20
4.0785209248
 30
0.0
 10
4.2650249248
 20
4.0737077858
 30
0.0
 10
4.2659762789
 20
4.0692484561
 30
0.0
 10
4.2669037078
 20
4.0651703452
 30
0.0
 10
4.26778396
 20
4.0614994012
 30
0.0
 10
4.2684833909
 20
4.058707362
 30
0.0
 10
4.2690017155
 20
4.0566951825
 30
0.0
 10
4.2693517691
 20
4.0553580419
 30
0.0
 10
4.2696751707
 20
4.0541398783
 30
0.0
 10
4.2699700758
 20
4.0530430767
 30
0.0
 10
4.2702347389
 20
4.0520698425
 30
0.0
 10
4.2704674047
 20
4.0512221419
 30
0.0
 10
4.2706408865
 20
4.0505950854
 30
0.0
 10
4.2707626294
 20
4.0501574838
 30
0.0
 10
4.2708407108
 20
4.0498777001
 30
0.0
 10
4.2709098888
 20
4.0496304809
 30
0.0
 10
4.270970028
 20
4.0494159673
 30
0.0
 10
4.2710210527
 20
4.0492342737
 30
0.0
 10
4.2710578662
 20
4.0491034114
 30
0.0
 10
4.2710827153
 20
4.0490151912
 30
0.0
 10
4.2710978875
 20
4.0489613803
 30
0.0
 10
4.2711107236
 20
4.0489158604
 30
0.0
 10
4.2711212873
 20
4.0488785113
 30
0.0
 10
4.2711293849
 20
4.0488496842
 30
0.0
 10
4.2711349571
 20
4.0488303175
 30
0.0
 10
4.2711378104
 20
4.048819761
 30
0.0
 10
4.2711397213
 20
4.0488137622
 30
0.0
 10
4.2711398108
 20
4.0488120982
 30
0.0
 10
4.2711410135
 20
4.0488092272
 30
0.0
 10
4.2711407755
 20
4.0488094939
 30
0.0
  0
LINE
  5
27A
100
AcDbEntity
  8
0
100
AcDbLine
 62
7
  6
CONTINUOUS
 10
7.6969914906
 20
5.2346082659
 11
7.6865247861
 21
5.2322143337
  0
ENDSEC
  0
SECTION
  2
OBJECTS
  0
DICTIONARY
  5
C
100
AcDbDictionary
280
0
281
1
  3
ACAD_GROUP
350
D
  3
ACAD_MLINESTYLE
350
17
  3
ACAD_LAYOUT
350
1A
  3
ACAD_PLOTSETTINGS
350
19
  3
ACAD_PLOTSTYLENAME
350
E
  0
DICTIONARY
  5
D
102
{ACAD_REACTORS
330
C
102
}
100
AcDbDictionary
280
0
281
1
  0
ACDBDICTIONARYWDFLT
  5
E
102
{ACAD_REACTORS
330
C
102
}
100
AcDbDictionary
281
1
  3
Normal
350
F
100
AcDbDictionaryWithDefault
340
F
  0
DICTIONARY
  5
17
102
{ACAD_REACTORS
330
C
102
}
100
AcDbDictionary
280
0
281
1
  3
Standard
350
18
  0
DICTIONARY
  5
19
102
{ACAD_REACTORS
330
C
102
}
100
AcDbDictionary
281
1
  0
DICTIONARY
  5
1A
102
{ACAD_REACTORS
330
C
102
}
100
AcDbDictionary
281
1
  3
Model
350
27B
  3
Layout1
350
27C
  0
ACDBPLACEHOLDER
  5
F
102
{ACAD_REACTORS
330
E
102
}
  0
MLINESTYLE
  5
18
102
{ACAD_REACTORS
330
17
102
}
100
AcDbMlineStyle
  2
STANDARD
 70
0
  3

 62
256
 51
90.0
 52
90.0
 71
2
 49
0.5
 62
256
  6
BYLAYER
 49
-0.5
 62
256
  6
BYLAYER
  0
LAYOUT
  5
27B
102
{ACAD_REACTORS
330
1A
102
}
100
AcDbPlotSettings
  1

  2
none_device
  4
ANSI_A_(11.00_x_8.50_Inches)
  6

 40
0.0
 41
0.0
 42
0.0
 43
0.0
 44
279.4
 45
215.9
 46
0.0
 47
0.0
 48
0.0
 49
0.0
140
0.0
141
0.0
142
1.0
143
1.0
 70
1024
 72
0
 73
0
 74
0
  7

 75
0
147
1.0
148
0.0
149
0.0
100
AcDbLayout
  1
Model
 70
0
 71
0
 10
0.0
 20
0.0
 11
11.0
 21
8.5
 12
0.0
 22
0.0
 32
0.0
 14
0.0
 24
0.0
 34
0.0
 15
0.0
 25
0.0
 35
0.0
146
0.0
 13
0.0
 23
0.0
 33
0.0
 16
1.0
 26
0.0
 36
0.0
 17
0.0
 27
1.0
 37
0.0
 76
0
330
203
345
0
346
0
  0
LAYOUT
  5
27C
102
{ACAD_REACTORS
330
1A
102
}
100
AcDbPlotSettings
  1

  2
none_device
  4
ANSI_A_(11.00_x_8.50_Inches)
  6

 40
0.0
 41
0.0
 42
0.0
 43
0.0
 44
279.4
 45
215.9
 46
0.0
 47
0.0
 48
0.0
 49
0.0
140
0.0
141
0.0
142
1.0
143
1.0
 70
0
 72
0
 73
0
 74
0
  7

 75
0
147
1.0
148
0.0
149
0.0
100
AcDbLayout
  1
Layout1
 70
0
 71
1
 10
0.0
 20
0.0
 11
11.0
 21
8.5
 12
0.0
 22
0.0
 32
0.0
 14
0.0
 24
0.0
 34
0.0
 15
0.0
 25
0.0
 35
0.0
146
0.0
 13
0.0
 23
0.0
 33
0.0
 16
1.0
 26
0.0
 36
0.0
 17
0.0
 27
1.0
 37
0.0
 76
0
330
204
345
0
346
0
  0
ENDSEC
  0
EOF
