999
DXF file: 2-734_Top.dxf
999
Pro/ENGINEER 2023134 by Parametric Technology Corporation
  0
SECTION
  2
HEADER
  9
$ACADVER
  1
AC1032
  9
$DWGCODEPAGE
  3
ANSI_1252
  9
$EXTMAX
 10
11.0
 20
8.5
 30
0.0
  9
$EXTMIN
 10
0.0
 20
0.0
 30
0.0
  9
$LIMMIN
 10
0.0
 20
0.0
  9
$LIMMAX
 10
11.0
 20
8.5
  9
$VIEWCTR
 10
5.5
 20
4.25
  9
$VIEWSIZE
 40
8.5
  9
$CLAYER
  8
0
  9
$LTSCALE
 40
0.605
  9
$CELTYPE
  6
BYLAYER
  9
$DIMSCALE
 40
1.0
  9
$DIMASZ
 40
0.1
  9
$DIMEXO
 40
0.0625
  9
$DIMDLI
 40
0.418
  9
$DIMEXE
 40
0.125
  9
$DIMCEN
 40
0.099
  9
$DIMLFAC
 40
1.0
  9
$DIMBLK
  1
_FILLED
  9
$DIMALT
 70
1
  9
$DIMALTD
 70
2
  9
$DIMALTTD
 70
2
  9
$DIMALTF
 40
25.4
  9
$DIMTXT
 40
0.08
  9
$DIMTOL
 70
1
  9
$DIMLIM
 70
0
  9
$DIMTFAC
 40
1.0
  9
$DIMTP
 40
0.001
  9
$DIMTM
 40
0.001
  9
$DIMGAP
 40
0.09
  9
$DIMDSEP
 70
46
  9
$AUNITS
 70
0
  9
$PDMODE
 70
3
  9
$PDSIZE
 40
0.3125
  9
$HANDSEED
  5
250
  9
$TILEMODE
 70
1
  9
$MEASUREMENT
 70
0
  9
$INSUNITS
 70
1
  0
ENDSEC
  0
SECTION
  2
CLASSES
  0
CLASS
  1
ACDBDICTIONARYWDFLT
  2
AcDbDictionaryWithDefault
  3
AutoCAD 2000
 90
0
 91
1
280
0
281
0
  0
CLASS
  1
ACDBPLACEHOLDER
  2
AcDbPlaceHolder
  3
AutoCAD 2000
 90
0
 91
1
280
0
281
0
  0
CLASS
  1
LAYOUT
  2
AcDbLayout
  3
AutoCAD 2000
 90
0
 91
0
280
0
281
0
  0
ENDSEC
  0
SECTION
  2
TABLES
  0
TABLE
  2
VPORT
  5
8
100
AcDbSymbolTable
 70
2
  0
VPORT
  5
1F4
100
AcDbSymbolTableRecord
100
AcDbViewportTableRecord
  2
*ACTIVE
 70
0
 10
0.0
 20
0.0
 11
1.0
 21
1.0
 12
5.5
 22
4.25
 13
0.0
 23
0.0
 14
1.0
 24
1.0
 15
0.0
 25
0.0
 16
0.0
 26
0.0
 36
1.0
 17
0.0
 27
0.0
 37
0.0
 40
8.5
 41
1.2941176471
 42
50.0
 43
0.0
 44
0.0
 50
0.0
 51
0.0
 71
0
 72
100
 73
1
 74
1
 75
0
 76
0
 77
0
 78
0
  0
ENDTAB
  0
TABLE
  2
LTYPE
  5
5
100
AcDbSymbolTable
 70
6
  0
LTYPE
  5
14
100
AcDbSymbolTableRecord
100
AcDbLinetypeTableRecord
  2
BYBLOCK
 70
0
  3

 72
65
 73
0
 40
0.0
  0
LTYPE
  5
15
100
AcDbSymbolTableRecord
100
AcDbLinetypeTableRecord
  2
BYLAYER
 70
0
  3

 72
65
 73
0
 40
0.0
  0
LTYPE
  5
16
100
AcDbSymbolTableRecord
100
AcDbLinetypeTableRecord
  2
CONTINUOUS
 70
64
  3
Solid line
 72
65
 73
0
 40
0.0
  0
LTYPE
  5
1F5
100
AcDbSymbolTableRecord
100
AcDbLinetypeTableRecord
  2
CENTER
 70
64
  3
____ _ ____ _ ____ _ ____ _ ____ _ ____ _ ____
 72
65
 73
4
 40
0.6
 49
0.375
 74
0
 49
-0.075
 74
0
 49
0.075
 74
0
 49
-0.075
 74
0
  0
LTYPE
  5
1F6
100
AcDbSymbolTableRecord
100
AcDbLinetypeTableRecord
  2
HIDDEN
 70
64
  3
- - - - - - - - - - - - - - - - - - - -
 72
65
 73
2
 40
0.2
 49
0.1
 74
0
 49
-0.1
 74
0
  0
LTYPE
  5
1F7
100
AcDbSymbolTableRecord
100
AcDbLinetypeTableRecord
  2
PHANTOM
 70
64
  3
_____ _ _ _____ _ _ _____ _ _ _____
 72
65
 73
6
 40
0.8
 49
0.45
 74
0
 49
-0.05
 74
0
 49
0.1
 74
0
 49
-0.05
 74
0
 49
0.1
 74
0
 49
-0.05
 74
0
  0
LTYPE
  5
1F8
100
AcDbSymbolTableRecord
100
AcDbLinetypeTableRecord
  2
DOT
 70
64
  3
. . . . . . . . . . . . . . . . . . . .
 72
65
 73
2
 40
0.2
 49
0.1
 74
0
 49
-0.1
 74
0
  0
LTYPE
  5
1F9
100
AcDbSymbolTableRecord
100
AcDbLinetypeTableRecord
  2
DASHED
 70
64
  3
- - - - - - - - - - - - - - - - - - - -
 72
65
 73
2
 40
0.2
 49
0.1
 74
0
 49
-0.1
 74
0
  0
ENDTAB
  0
TABLE
  2
LAYER
  5
2
100
AcDbSymbolTable
 70
36
  0
LAYER
  5
10
100
AcDbSymbolTableRecord
100
AcDbLayerTableRecord
  2
0
 70
0
 62
7
  6
CONTINUOUS
370
-3
390
F
  0
LAYER
  5
1FA
100
AcDbSymbolTableRecord
100
AcDbLayerTableRecord
  2
DEFAULT_1
 70
0
 62
7
  6
CENTER
370
-3
390
F
  0
LAYER
  5
1FB
100
AcDbSymbolTableRecord
100
AcDbLayerTableRecord
  2
DEFAULT_2
 70
0
 62
8
  6
HIDDEN
370
-3
390
F
  0
LAYER
  5
1FC
100
AcDbSymbolTableRecord
100
AcDbLayerTableRecord
  2
DEFAULT_3
 70
0
 62
7
  6
PHANTOM
370
-3
390
F
  0
LAYER
  5
1FD
100
AcDbSymbolTableRecord
100
AcDbLayerTableRecord
  2
DEFAULT_COORDINATE_SYSTEM
 70
0
 62
7
  6
CONTINUOUS
370
-3
390
F
  0
LAYER
  5
1FE
100
AcDbSymbolTableRecord
100
AcDbLayerTableRecord
  2
DEFAULT_DATUM_AXES
 70
0
 62
7
  6
CONTINUOUS
370
-3
390
F
  0
LAYER
  5
1FF
100
AcDbSymbolTableRecord
100
AcDbLayerTableRecord
  2
DEFAULT_DATUM_CURVES
 70
0
 62
7
  6
CONTINUOUS
370
-3
390
F
  0
LAYER
  5
200
100
AcDbSymbolTableRecord
100
AcDbLayerTableRecord
  2
DEFAULT_DATUM_PLANES
 70
0
 62
7
  6
CONTINUOUS
370
-3
390
F
  0
ENDTAB
  0
TABLE
  2
STYLE
  5
3
100
AcDbSymbolTable
 70
1
  0
STYLE
  5
11
100
AcDbSymbolTableRecord
100
AcDbTextStyleTableRecord
  2
STANDARD
 70
0
 40
0.0
 41
0.8
 50
0.0
 71
0
 42
0.2
  3
txt
  4

  0
STYLE
  5
201
100
AcDbSymbolTableRecord
100
AcDbTextStyleTableRecord
  2
TEXTSTYLE_1
 70
0
 40
0.0
 41
0.8
 50
0.0
 71
0
 42
0.2
  3
gdt
  4

  0
ENDTAB
  0
TABLE
  2
VIEW
  5
6
100
AcDbSymbolTable
 70
0
  0
ENDTAB
  0
TABLE
  2
UCS
  5
7
100
AcDbSymbolTable
 70
0
  0
ENDTAB
  0
TABLE
  2
APPID
  5
9
100
AcDbSymbolTable
 70
1
  0
APPID
  5
202
100
AcDbSymbolTableRecord
100
AcDbRegAppTableRecord
  2
ACAD
 70
0
  0
ENDTAB
  0
TABLE
  2
BLOCK_RECORD
  5
1
100
AcDbSymbolTable
 70
0
  0
BLOCK_RECORD
  5
203
100
AcDbSymbolTableRecord
100
AcDbBlockTableRecord
  2
*Model_Space
  0
BLOCK_RECORD
  5
204
100
AcDbSymbolTableRecord
100
AcDbBlockTableRecord
  2
*Paper_Space
  0
BLOCK_RECORD
  5
205
100
AcDbSymbolTableRecord
100
AcDbBlockTableRecord
  2
_FILLED
  0
ENDTAB
  0
TABLE
  2
DIMSTYLE
  5
A
100
AcDbSymbolTable
 70
1
100
AcDbDimStyleTable
 71
0
  0
DIMSTYLE
105
206
100
AcDbSymbolTableRecord
100
AcDbDimStyleTableRecord
  2
STANDARD
 70
0
  3

  4

 40
1.0
 41
0.1
 42
0.0625
 43
0.38
 44
0.125
 45
0.0
 46
0.0
 47
0.001
 48
0.001
140
0.08
141
0.09
142
0.0
143
25.4
144
1.0
145
0.0
146
1.0
147
0.09
 71
1
 72
0
 73
1
 74
1
 75
0
 76
0
 77
0
 78
4
 79
1
170
1
171
2
172
0
173
0
174
0
175
0
176
0
177
0
178
0
270
2
179
3
271
3
272
3
273
2
274
2
275
0
280
0
281
0
282
0
283
1
284
4
285
0
286
0
287
3
288
0
340
11
278
46
341
205
342
205
343
205
344
205
  0
ENDTAB
  0
ENDSEC
  0
SECTION
  2
BLOCKS
  0
BLOCK
  5
20
100
AcDbEntity
  8
0
100
AcDbBlockBegin
  2
*Model_Space
 70
0
 10
0.0
 20
0.0
 30
0.0
  3
*Model_Space
  1

  0
ENDBLK
  5
21
100
AcDbEntity
  8
0
100
AcDbBlockEnd
  0
BLOCK
  5
1C
100
AcDbEntity
  8
0
100
AcDbBlockBegin
  2
*Paper_Space
 70
0
 10
0.0
 20
0.0
 30
0.0
  3
*Paper_Space
  1

  0
ENDBLK
  5
1D
100
AcDbEntity
  8
0
100
AcDbBlockEnd
  0
BLOCK
  5
207
100
AcDbEntity
  8
0
100
AcDbBlockBegin
  2
_FILLED
 70
64
 10
0.0
 20
0.0
  3
_FILLED
  1

  0
SOLID
  5
208
100
AcDbEntity
  8
0
  6
BYBLOCK
 62
0
100
AcDbTrace
 10
0.0
 20
0.0
 11
-1.0
 21
0.2
 12
-1.0
 22
-0.2
 13
-1.0
 23
-0.2
  0
ENDBLK
  5
209
100
AcDbEntity
  8
0
  6
BYBLOCK
 62
0
100
AcDbBlockEnd
  0
ENDSEC
  0
SECTION
  2
ENTITIES
  0
MTEXT
  5
20A
100
AcDbEntity
  8
0
100
AcDbMText
 62
2
  6
CONTINUOUS
  7
STANDARD
 71
2
 72
1
 10
5.7539169815
 20
3.2773872191
 30
0.0
 11
1.0
 21
0.0
 31
0.0
 73
2
 44
0.9
  1
SCALE 0.500
 40
0.08
 41
0.704
  0
LINE
  5
20B
100
AcDbEntity
  8
0
100
AcDbLine
 62
7
  6
CONTINUOUS
 10
0.0
 20
0.0
 11
0.0
 21
8.5
  0
LINE
  5
20C
100
AcDbEntity
  8
0
100
AcDbLine
 62
7
  6
CONTINUOUS
 10
0.0
 20
0.0
 11
11.0
 21
0.0
  0
LINE
  5
20D
100
AcDbEntity
  8
0
100
AcDbLine
 62
7
  6
CONTINUOUS
 10
0.0
 20
8.5
 11
11.0
 21
8.5
  0
LINE
  5
20E
100
AcDbEntity
  8
0
100
AcDbLine
 62
7
  6
CONTINUOUS
 10
11.0
 20
0.0
 11
11.0
 21
8.5
  0
LINE
  5
20F
100
AcDbEntity
  8
0
100
AcDbLine
 62
7
  6
CONTINUOUS
 10
4.0631497253
 20
3.8809821429
 11
4.0631497253
 21
5.0609821429
  0
LINE
  5
210
100
AcDbEntity
  8
0
100
AcDbLine
 62
7
  6
CONTINUOUS
 10
4.1571497253
 20
3.9709821429
 11
4.1571497253
 21
4.9709821429
  0
LINE
  5
211
100
AcDbEntity
  8
0
100
AcDbLine
 62
7
  6
CONTINUOUS
 10
4.2506497253
 20
4.0649808131
 11
4.2506497253
 21
4.8769834727
  0
LINE
  5
212
100
AcDbEntity
  8
0
100
AcDbLine
 62
7
  6
CONTINUOUS
 10
6.0398577978
 20
4.3109821429
 11
7.4646497253
 21
4.3109821429
  0
LINE
  5
213
100
AcDbEntity
  8
0
100
AcDbLine
 62
7
  6
CONTINUOUS
 10
5.6423703954
 20
4.6509821429
 11
5.6423703954
 21
4.2909821429
  0
LINE
  5
214
100
AcDbEntity
  8
0
100
AcDbLine
 62
7
  6
CONTINUOUS
 10
5.6893700402
 20
4.6628571429
 11
5.6893700402
 21
4.2791071429
  0
LINE
  5
215
100
AcDbEntity
  8
0
100
AcDbLine
 62
7
  6
CONTINUOUS
 10
5.7188039683
 20
4.6508630952
 11
5.7188039683
 21
4.2911011905
  0
LINE
  5
216
100
AcDbEntity
  8
0
100
AcDbLine
 62
7
  6
CONTINUOUS
 10
8.1035923865
 20
4.3459821429
 11
7.4257070641
 21
4.3459821429
  0
LINE
  5
217
100
AcDbEntity
  8
0
100
AcDbLine
 62
7
  6
CONTINUOUS
 10
4.0631497253
 20
4.3459821429
 11
3.3157070641
 21
4.3459821429
  0
LINE
  5
218
100
AcDbEntity
  8
0
100
AcDbLine
 62
7
  6
CONTINUOUS
 10
8.1269363854
 20
4.3571391677
 11
7.4023630652
 21
4.3571391677
  0
LINE
  5
219
100
AcDbEntity
  8
0
100
AcDbLine
 62
7
  6
CONTINUOUS
 10
4.0631497253
 20
4.3571391677
 11
3.2923630652
 21
4.3571391677
  0
LINE
  5
21A
100
AcDbEntity
  8
0
100
AcDbLine
 62
7
  6
CONTINUOUS
 10
4.259388257
 20
4.3927321429
 11
5.6423703954
 21
4.3927321429
  0
LINE
  5
21B
100
AcDbEntity
  8
0
100
AcDbLine
 62
7
  6
CONTINUOUS
 10
4.259388257
 20
4.5492321429
 11
5.6423703954
 21
4.5492321429
  0
LINE
  5
21C
100
AcDbEntity
  8
0
100
AcDbLine
 62
7
  6
CONTINUOUS
 10
3.2923630652
 20
4.5848251181
 11
4.0631497253
 21
4.5848251181
  0
LINE
  5
21D
100
AcDbEntity
  8
0
100
AcDbLine
 62
7
  6
CONTINUOUS
 10
7.4023630652
 20
4.5848251181
 11
8.1269363854
 21
4.5848251181
  0
LINE
  5
21E
100
AcDbEntity
  8
0
100
AcDbLine
 62
7
  6
CONTINUOUS
 10
3.3157070641
 20
4.5959821429
 11
4.0631497253
 21
4.5959821429
  0
LINE
  5
21F
100
AcDbEntity
  8
0
100
AcDbLine
 62
7
  6
CONTINUOUS
 10
7.4257070641
 20
4.5959821429
 11
8.1035923865
 21
4.5959821429
  0
LINE
  5
220
100
AcDbEntity
  8
0
100
AcDbLine
 62
7
  6
CONTINUOUS
 10
6.0398577978
 20
4.6309821429
 11
7.4646497253
 21
4.6309821429
  0
LINE
  5
221
100
AcDbEntity
  8
0
100
AcDbLine
 62
7
  6
CONTINUOUS
 10
5.9162265107
 20
4.6711011905
 11
5.9162265107
 21
4.2708630952
  0
LINE
  5
222
100
AcDbEntity
  8
0
100
AcDbLine
 62
7
  6
CONTINUOUS
 10
5.9397296069
 20
4.6825206044
 11
5.9397296069
 21
4.2594436813
  0
LINE
  5
223
100
AcDbEntity
  8
0
100
AcDbLine
 62
7
  6
CONTINUOUS
 10
5.9525942488
 20
4.6821449336
 11
5.9525942488
 21
4.2598193522
  0
LINE
  5
224
100
AcDbEntity
  8
0
100
AcDbLine
 62
7
  6
CONTINUOUS
 10
6.0398577978
 20
4.6309821429
 11
6.0398577978
 21
4.3109821429
  0
LINE
  5
225
100
AcDbEntity
  8
0
100
AcDbLine
 62
7
  6
CONTINUOUS
 10
7.4646497253
 20
4.3109821429
 11
7.4646497253
 21
4.3459821429
  0
LINE
  5
226
100
AcDbEntity
  8
0
100
AcDbLine
 62
7
  6
CONTINUOUS
 10
7.4646497253
 20
4.5959821429
 11
7.4646497253
 21
4.6309821429
  0
ARC
  5
227
100
AcDbEntity
  8
0
100
AcDbCircle
 62
7
  6
CONTINUOUS
 10
5.867489631
 20
4.1734821429
 40
0.5
100
AcDbArc
 50
84.4062832312
 51
107.2997870464
  0
ARC
  5
228
100
AcDbEntity
  8
0
100
AcDbCircle
 62
7
  6
CONTINUOUS
 10
5.867489631
 20
4.7684821429
 40
0.5
100
AcDbArc
 50
252.7002129536
 51
275.5937167688
  0
ARC
  5
229
100
AcDbEntity
  8
0
100
AcDbCircle
 62
7
  6
CONTINUOUS
 10
7.7646497253
 20
4.4709821429
 40
0.34
100
AcDbArc
 50
21.5777987628
 51
151.9275130642
  0
ARC
  5
22A
100
AcDbEntity
  8
0
100
AcDbCircle
 62
7
  6
CONTINUOUS
 10
7.7646497253
 20
4.4709821429
 40
0.34
100
AcDbArc
 50
208.0724869359
 51
338.4222012372
  0
ARC
  5
22B
100
AcDbEntity
  8
0
100
AcDbCircle
 62
7
  6
CONTINUOUS
 10
7.7646497253
 20
4.4709821429
 40
0.215
100
AcDbArc
 50
35.5727868221
 51
144.427213178
  0
ARC
  5
22C
100
AcDbEntity
  8
0
100
AcDbCircle
 62
7
  6
CONTINUOUS
 10
7.7646497253
 20
4.4709821429
 40
0.215
100
AcDbArc
 50
215.5727868221
 51
324.427213178
  0
ARC
  5
22D
100
AcDbEntity
  8
0
100
AcDbCircle
 62
7
  6
CONTINUOUS
 10
7.7646497253
 20
4.4709821429
 40
0.2115384615
100
AcDbArc
 50
216.3104174132
 51
323.6895825868
  0
ARC
  5
22E
100
AcDbEntity
  8
0
100
AcDbCircle
 62
7
  6
CONTINUOUS
 10
7.7646497253
 20
4.4709821429
 40
0.2115384615
100
AcDbArc
 50
36.3104174132
 51
143.6895825868
  0
ARC
  5
22F
100
AcDbEntity
  8
0
100
AcDbCircle
 62
7
  6
CONTINUOUS
 10
7.7646497253
 20
4.4709821429
 40
0.205
100
AcDbArc
 50
37.6205605486
 51
142.3794394514
  0
ARC
  5
230
100
AcDbEntity
  8
0
100
AcDbCircle
 62
7
  6
CONTINUOUS
 10
7.7646497253
 20
4.4709821429
 40
0.205
100
AcDbArc
 50
217.6205605486
 51
322.3794394514
  0
ARC
  5
231
100
AcDbEntity
  8
0
100
AcDbCircle
 62
7
  6
CONTINUOUS
 10
3.4333997253
 20
4.4709821429
 40
0.18125
100
AcDbArc
 50
141.0899781742
 51
218.9100218258
  0
ARC
  5
232
100
AcDbEntity
  8
0
100
AcDbCircle
 62
7
  6
CONTINUOUS
 10
4.0958997253
 20
4.4709821429
 40
0.18125
100
AcDbArc
 50
25.5770281212
 51
31.2695841848
  0
ARC
  5
233
100
AcDbEntity
  8
0
100
AcDbCircle
 62
7
  6
CONTINUOUS
 10
4.0958997253
 20
4.4709821429
 40
0.18125
100
AcDbArc
 50
328.7304158152
 51
334.4229718788
  0
ARC
  5
234
100
AcDbEntity
  8
0
100
AcDbCircle
 62
7
  6
CONTINUOUS
 10
7.5433997253
 20
4.4709821429
 40
0.18125
100
AcDbArc
 50
141.0899781742
 51
218.9100218258
  0
ARC
  5
235
100
AcDbEntity
  8
0
100
AcDbCircle
 62
7
  6
CONTINUOUS
 10
7.9858997253
 20
4.4709821429
 40
0.18125
100
AcDbArc
 50
321.0899781742
 51
38.9100218258
  0
ARC
  5
236
100
AcDbEntity
  8
0
100
AcDbCircle
 62
7
  6
CONTINUOUS
 10
7.7646497253
 20
4.4709821429
 40
0.18
100
AcDbArc
 50
224.1024869654
 51
315.8975130346
  0
ARC
  5
237
100
AcDbEntity
  8
0
100
AcDbCircle
 62
7
  6
CONTINUOUS
 10
7.7646497253
 20
4.4709821429
 40
0.18
100
AcDbArc
 50
44.1024869654
 51
135.8975130346
  0
ARC
  5
238
100
AcDbEntity
  8
0
100
AcDbCircle
 62
7
  6
CONTINUOUS
 10
6.0398577978
 20
4.7309821429
 40
0.1
100
AcDbArc
 50
209.2336400226
 51
270.0
  0
ARC
  5
239
100
AcDbEntity
  8
0
100
AcDbCircle
 62
7
  6
CONTINUOUS
 10
6.0398577978
 20
4.2109821429
 40
0.1
100
AcDbArc
 50
90.0
 51
150.7663599774
  0
ARC
  5
23A
100
AcDbEntity
  8
0
100
AcDbCircle
 62
7
  6
CONTINUOUS
 10
4.0631497253
 20
3.9750710317
 40
0.0940888889
100
AcDbArc
 50
270.0
 51
357.5092714665
  0
ARC
  5
23B
100
AcDbEntity
  8
0
100
AcDbCircle
 62
7
  6
CONTINUOUS
 10
4.0631497253
 20
4.966893254
 40
0.0940888889
100
AcDbArc
 50
2.4907285335
 51
90.0
  0
ARC
  5
23C
100
AcDbEntity
  8
0
100
AcDbCircle
 62
7
  6
CONTINUOUS
 10
4.1566497253
 20
4.0649808131
 40
0.094
100
AcDbArc
 50
270.3047662218
 51
360.0
  0
ARC
  5
23D
100
AcDbEntity
  8
0
100
AcDbCircle
 62
7
  6
CONTINUOUS
 10
4.1566497253
 20
4.8769834727
 40
0.094
100
AcDbArc
 50
0.0
 51
89.6952337782
  0
ARC
  5
23E
100
AcDbEntity
  8
0
100
AcDbCircle
 62
7
  6
CONTINUOUS
 10
3.3157070641
 20
4.5659821429
 40
0.03
100
AcDbArc
 50
90.0
 51
141.0899781742
  0
ARC
  5
23F
100
AcDbEntity
  8
0
100
AcDbCircle
 62
7
  6
CONTINUOUS
 10
3.3157070641
 20
4.3759821429
 40
0.03
100
AcDbArc
 50
218.9100218258
 51
270.0
  0
ARC
  5
240
100
AcDbEntity
  8
0
100
AcDbCircle
 62
7
  6
CONTINUOUS
 10
7.4257070641
 20
4.3759821429
 40
0.03
100
AcDbArc
 50
218.9100218258
 51
270.0
  0
ARC
  5
241
100
AcDbEntity
  8
0
100
AcDbCircle
 62
7
  6
CONTINUOUS
 10
8.1035923865
 20
4.3759821429
 40
0.03
100
AcDbArc
 50
270.0
 51
321.0899781742
  0
ARC
  5
242
100
AcDbEntity
  8
0
100
AcDbCircle
 62
7
  6
CONTINUOUS
 10
7.4257070641
 20
4.5659821429
 40
0.03
100
AcDbArc
 50
90.0
 51
141.0899781742
  0
ARC
  5
243
100
AcDbEntity
  8
0
100
AcDbCircle
 62
7
  6
CONTINUOUS
 10
8.1035923865
 20
4.5659821429
 40
0.03
100
AcDbArc
 50
38.9100218258
 51
90.0
  0
ARC
  5
244
100
AcDbEntity
  8
0
100
AcDbCircle
 62
7
  6
CONTINUOUS
 10
5.6673703954
 20
4.6509821429
 40
0.025
100
AcDbArc
 50
28.3593500282
 51
180.0
  0
ARC
  5
245
100
AcDbEntity
  8
0
100
AcDbCircle
 62
7
  6
CONTINUOUS
 10
5.6673703954
 20
4.2909821429
 40
0.025
100
AcDbArc
 50
180.0
 51
331.6406499718
  0
ARC
  5
246
100
AcDbEntity
  8
0
100
AcDbCircle
 62
7
  6
CONTINUOUS
 10
5.7113696851
 20
4.6747321429
 40
0.025
100
AcDbArc
 50
208.3593500282
 51
287.2997870464
  0
ARC
  5
247
100
AcDbEntity
  8
0
100
AcDbCircle
 62
7
  6
CONTINUOUS
 10
5.7113696851
 20
4.2672321429
 40
0.025
100
AcDbArc
 50
72.7002129536
 51
151.6406499718
  0
ARC
  5
248
100
AcDbEntity
  8
0
100
AcDbCircle
 62
7
  6
CONTINUOUS
 10
5.9186633547
 20
4.6959821429
 40
0.025
100
AcDbArc
 50
264.4062832312
 51
327.4210296072
  0
ARC
  5
249
100
AcDbEntity
  8
0
100
AcDbCircle
 62
7
  6
CONTINUOUS
 10
5.9186633547
 20
4.2459821429
 40
0.025
100
AcDbArc
 50
32.5789703928
 51
95.5937167688
  0
ARC
  5
24A
100
AcDbEntity
  8
0
100
AcDbCircle
 62
7
  6
CONTINUOUS
 10
5.9460494826
 20
4.6784821429
 40
0.0075
100
AcDbArc
 50
29.2336400226
 51
147.4210296072
  0
ARC
  5
24B
100
AcDbEntity
  8
0
100
AcDbCircle
 62
7
  6
CONTINUOUS
 10
5.9460494826
 20
4.2634821429
 40
0.0075
100
AcDbArc
 50
212.5789703928
 51
330.7663599774
  0
SPLINE
  5
24C
100
AcDbEntity
  8
0
100
AcDbSpline
 62
7
  6
CONTINUOUS
 70
0
 71
3
 72
45
 73
41
 74
0
 42
0.0000001
 43
0.0000001
 44
0.0000000001
 40
0.0
 40
0.0
 40
0.0
 40
0.0
 40
0.0000235145
 40
0.0000528336
 40
0.0000938544
 40
0.000210983
 40
0.0003748638
 40
0.0005854601
 40
0.0008427352
 40
0.0011466527
 40
0.0014971759
 40
0.0023378931
 40
0.0033645944
 40
0.0045769873
 40
0.0059746955
 40
0.0075569245
 40
0.0093227513
 40
0.0134015105
 40
0.0182036121
 40
0.02372155
 40
0.0299456492
 40
0.0368647259
 40
0.0444676148
 40
0.0527430092
 40
0.0712589704
 40
0.0923046192
 40
0.1157669261
 40
0.1415273417
 40
0.1694647291
 40
0.1994546727
 40
0.2313703789
 40
0.2650811352
 40
0.3373445966
 40
0.4151127277
 40
0.4971535649
 40
0.5821256272
 40
0.6685943666
 40
0.7550741631
 40
0.8400794364
 40
1.0
 40
1.0
 40
1.0
 40
1.0
 10
4.2593882624
 20
4.5492321384
 30
0.0
 10
4.259388977
 20
4.5492315428
 30
0.0
 10
4.2593889479
 20
4.5492290985
 30
0.0
 10
4.2593904329
 20
4.549225799
 30
0.0
 10
4.259392507
 20
4.5492186045
 30
0.0
 10
4.2593965505
 20
4.5492065738
 30
0.0
 10
4.2594024219
 20
4.5491880058
 30
0.0
 10
4.2594100782
 20
4.5491642225
 30
0.0
 10
4.2594193794
 20
4.549135135
 30
0.0
 10
4.2594303726
 20
4.5491007811
 30
0.0
 10
4.2594483784
 20
4.5490444332
 30
0.0
 10
4.2594750565
 20
4.5489608365
 30
0.0
 10
4.2595120402
 20
4.548844735
 30
0.0
 10
4.2595556429
 20
4.5487076143
 30
0.0
 10
4.2596058256
 20
4.5485495225
 30
0.0
 10
4.2596624983
 20
4.5483705182
 30
0.0
 10
4.259750928
 20
4.548090306
 30
0.0
 10
4.2598770301
 20
4.5476883988
 30
0.0
 10
4.2600462375
 20
4.5471444339
 30
0.0
 10
4.2602390143
 20
4.5465189128
 30
0.0
 10
4.2604542931
 20
4.5458126863
 30
0.0
 10
4.2606908557
 20
4.5450267162
 30
0.0
 10
4.2609474858
 20
4.5441620386
 30
0.0
 10
4.2613293229
 20
4.5428559323
 30
0.0
 10
4.2618477493
 20
4.541035665
 30
0.0
 10
4.2625062906
 20
4.5386306727
 30
0.0
 10
4.2632102802
 20
4.535941119
 30
0.0
 10
4.2639467993
 20
4.5329784508
 30
0.0
 10
4.2647030018
 20
4.5297548341
 30
0.0
 10
4.2654659425
 20
4.526283003
 30
0.0
 10
4.2662229683
 20
4.5225764005
 30
0.0
 10
4.2672317033
 20
4.5172148056
 30
0.0
 10
4.2683993391
 20
4.5100381381
 30
0.0
 10
4.2695652132
 20
4.5009289173
 30
0.0
 10
4.2704544589
 20
4.4912832095
 30
0.0
 10
4.2710122349
 20
4.4812677215
 30
0.0
 10
4.2712040942
 20
4.471062876
 30
0.0
 10
4.2710181518
 20
4.4608563446
 30
0.0
 10
4.2702965188
 20
4.4477625233
 30
0.0
 10
4.2692486486
 20
4.4381184086
 30
0.0
 10
4.2683383291
 20
4.4318571429
 30
0.0
  0
SPLINE
  5
24D
100
AcDbEntity
  8
0
100
AcDbSpline
 62
7
  6
CONTINUOUS
 70
0
 71
3
 72
39
 73
35
 74
0
 42
0.0000001
 43
0.0000001
 44
0.0000000001
 40
0.0
 40
0.0
 40
0.0
 40
0.0
 40
0.1092988559
 40
0.2141515714
 40
0.314070636
 40
0.4086624637
 40
0.4975554954
 40
0.5803746391
 40
0.6567431488
 40
0.7263020236
 40
0.7886991475
 40
0.8435999909
 40
0.8681368915
 40
0.8906812885
 40
0.9111988651
 40
0.929655151
 40
0.9460167853
 40
0.9602575951
 40
0.972353937
 40
0.9775905253
 40
0.982282099
 40
0.9864260953
 40
0.9900211551
 40
0.9930661383
 40
0.9955599042
 40
0.9965997239
 40
0.9975013112
 40
0.9982645232
 40
0.9988892171
 40
0.99937525
 40
0.999722479
 40
0.9998439974
 40
0.9999307611
 40
1.0
 40
1.0
 40
1.0
 40
1.0
 10
4.2683383291
 20
4.4318571429
 30
0.0
 10
4.268127706
 20
4.430408457
 30
0.0
 10
4.2676911084
 20
4.4275734332
 30
0.0
 10
4.2669820232
 20
4.4234268761
 30
0.0
 10
4.266242235
 20
4.4194859512
 30
0.0
 10
4.265484066
 20
4.4157664605
 30
0.0
 10
4.2647195827
 20
4.4122824237
 30
0.0
 10
4.2639616734
 20
4.40904719
 30
0.0
 10
4.2632231946
 20
4.4060736703
 30
0.0
 10
4.262517177
 20
4.4033741645
 30
0.0
 10
4.2618565936
 20
4.4009601623
 30
0.0
 10
4.2613364222
 20
4.3991330384
 30
0.0
 10
4.2609533133
 20
4.3978219429
 30
0.0
 10
4.2606957614
 20
4.3969539451
 30
0.0
 10
4.2604583197
 20
4.396164939
 30
0.0
 10
4.2602422489
 20
4.3954559855
 30
0.0
 10
4.2600488033
 20
4.3948280271
 30
0.0
 10
4.2598789327
 20
4.3942819422
 30
0.0
 10
4.2597523151
 20
4.3938784526
 30
0.0
 10
4.2596635384
 20
4.3935971384
 30
0.0
 10
4.2596066632
 20
4.3934174462
 30
0.0
 10
4.2595563215
 20
4.393258747
 30
0.0
 10
4.2595125611
 20
4.3931210978
 30
0.0
 10
4.2594754231
 20
4.3930045339
 30
0.0
 10
4.2594486262
 20
4.3929206
 30
0.0
 10
4.2594305286
 20
4.3928640142
 30
0.0
 10
4.2594194927
 20
4.3928295258
 30
0.0
 10
4.2594101124
 20
4.3928002885
 30
0.0
 10
4.2594025127
 20
4.3927764851
 30
0.0
 10
4.2593963792
 20
4.3927576437
 30
0.0
 10
4.2593928148
 20
4.3927459821
 30
0.0
 10
4.2593900769
 20
4.3927382068
 30
0.0
 10
4.2593897536
 20
4.3927358774
 30
0.0
 10
4.2593875501
 20
4.3927315535
 30
0.0
 10
4.2593882624
 20
4.3927321473
 30
0.0
  0
ENDSEC
  0
SECTION
  2
OBJECTS
  0
DICTIONARY
  5
C
100
AcDbDictionary
280
0
281
1
  3
ACAD_GROUP
350
D
  3
ACAD_MLINESTYLE
350
17
  3
ACAD_LAYOUT
350
1A
  3
ACAD_PLOTSETTINGS
350
19
  3
ACAD_PLOTSTYLENAME
350
E
  0
DICTIONARY
  5
D
102
{ACAD_REACTORS
330
C
102
}
100
AcDbDictionary
280
0
281
1
  0
ACDBDICTIONARYWDFLT
  5
E
102
{ACAD_REACTORS
330
C
102
}
100
AcDbDictionary
281
1
  3
Normal
350
F
100
AcDbDictionaryWithDefault
340
F
  0
DICTIONARY
  5
17
102
{ACAD_REACTORS
330
C
102
}
100
AcDbDictionary
280
0
281
1
  3
Standard
350
18
  0
DICTIONARY
  5
19
102
{ACAD_REACTORS
330
C
102
}
100
AcDbDictionary
281
1
  0
DICTIONARY
  5
1A
102
{ACAD_REACTORS
330
C
102
}
100
AcDbDictionary
281
1
  3
Model
350
24E
  3
Layout1
350
24F
  0
ACDBPLACEHOLDER
  5
F
102
{ACAD_REACTORS
330
E
102
}
  0
MLINESTYLE
  5
18
102
{ACAD_REACTORS
330
17
102
}
100
AcDbMlineStyle
  2
STANDARD
 70
0
  3

 62
256
 51
90.0
 52
90.0
 71
2
 49
0.5
 62
256
  6
BYLAYER
 49
-0.5
 62
256
  6
BYLAYER
  0
LAYOUT
  5
24E
102
{ACAD_REACTORS
330
1A
102
}
100
AcDbPlotSettings
  1

  2
none_device
  4
ANSI_A_(11.00_x_8.50_Inches)
  6

 40
0.0
 41
0.0
 42
0.0
 43
0.0
 44
279.4
 45
215.9
 46
0.0
 47
0.0
 48
0.0
 49
0.0
140
0.0
141
0.0
142
1.0
143
1.0
 70
1024
 72
0
 73
0
 74
0
  7

 75
0
147
1.0
148
0.0
149
0.0
100
AcDbLayout
  1
Model
 70
0
 71
0
 10
0.0
 20
0.0
 11
11.0
 21
8.5
 12
0.0
 22
0.0
 32
0.0
 14
0.0
 24
0.0
 34
0.0
 15
0.0
 25
0.0
 35
0.0
146
0.0
 13
0.0
 23
0.0
 33
0.0
 16
1.0
 26
0.0
 36
0.0
 17
0.0
 27
1.0
 37
0.0
 76
0
330
203
345
0
346
0
  0
LAYOUT
  5
24F
102
{ACAD_REACTORS
330
1A
102
}
100
AcDbPlotSettings
  1

  2
none_device
  4
ANSI_A_(11.00_x_8.50_Inches)
  6

 40
0.0
 41
0.0
 42
0.0
 43
0.0
 44
279.4
 45
215.9
 46
0.0
 47
0.0
 48
0.0
 49
0.0
140
0.0
141
0.0
142
1.0
143
1.0
 70
0
 72
0
 73
0
 74
0
  7

 75
0
147
1.0
148
0.0
149
0.0
100
AcDbLayout
  1
Layout1
 70
0
 71
1
 10
0.0
 20
0.0
 11
11.0
 21
8.5
 12
0.0
 22
0.0
 32
0.0
 14
0.0
 24
0.0
 34
0.0
 15
0.0
 25
0.0
 35
0.0
146
0.0
 13
0.0
 23
0.0
 33
0.0
 16
1.0
 26
0.0
 36
0.0
 17
0.0
 27
1.0
 37
0.0
 76
0
330
204
345
0
346
0
  0
ENDSEC
  0
EOF
