999
DXF file: 20-131_front.dxf
999
Pro/ENGINEER 2018400 by Parametric Technology Corporation
  0
SECTION
  2
HEADER
  9
$ACADVER
  1
AC1027
  9
$DWGCODEPAGE
  3
ANSI_1252
  9
$EXTMAX
 10
11.0
 20
8.5
 30
0.0
  9
$EXTMIN
 10
0.0
 20
0.0
 30
0.0
  9
$LIMMIN
 10
0.0
 20
0.0
  9
$LIMMAX
 10
11.0
 20
8.5
  9
$VIEWCTR
 10
5.5
 20
4.25
  9
$VIEWSIZE
 40
8.5
  9
$CLAYER
  8
0
  9
$LTSCALE
 40
0.605
  9
$CELTYPE
  6
BYLAYER
  9
$DIMSCALE
 40
1.0
  9
$DIMASZ
 40
0.1
  9
$DIMEXO
 40
0.0625
  9
$DIMDLI
 40
0.418
  9
$DIMEXE
 40
0.125
  9
$DIMCEN
 40
0.099
  9
$DIMLFAC
 40
1.0
  9
$DIMBLK
  1
_FILLED
  9
$DIMALT
 70
1
  9
$DIMALTD
 70
2
  9
$DIMALTTD
 70
2
  9
$DIMALTF
 40
25.4
  9
$DIMTXT
 40
0.08
  9
$DIMTOL
 70
1
  9
$DIMLIM
 70
0
  9
$DIMTFAC
 40
1.0
  9
$DIMTP
 40
0.001
  9
$DIMTM
 40
0.001
  9
$DIMGAP
 40
0.09
  9
$DIMDSEP
 70
46
  9
$AUNITS
 70
0
  9
$PDMODE
 70
3
  9
$PDSIZE
 40
0.3125
  9
$HANDSEED
  5
2F9
  9
$TILEMODE
 70
1
  9
$MEASUREMENT
 70
0
  9
$INSUNITS
 70
1
  0
ENDSEC
  0
SECTION
  2
CLASSES
  0
CLASS
  1
ACDBDICTIONARYWDFLT
  2
AcDbDictionaryWithDefault
  3
AutoCAD 2000
 90
0
 91
1
280
0
281
0
  0
CLASS
  1
ACDBPLACEHOLDER
  2
AcDbPlaceHolder
  3
AutoCAD 2000
 90
0
 91
1
280
0
281
0
  0
CLASS
  1
LAYOUT
  2
AcDbLayout
  3
AutoCAD 2000
 90
0
 91
0
280
0
281
0
  0
ENDSEC
  0
SECTION
  2
TABLES
  0
TABLE
  2
VPORT
  5
8
100
AcDbSymbolTable
 70
2
  0
VPORT
  5
1F4
100
AcDbSymbolTableRecord
100
AcDbViewportTableRecord
  2
*ACTIVE
 70
0
 10
0.0
 20
0.0
 11
1.0
 21
1.0
 12
5.5
 22
4.25
 13
0.0
 23
0.0
 14
1.0
 24
1.0
 15
0.0
 25
0.0
 16
0.0
 26
0.0
 36
1.0
 17
0.0
 27
0.0
 37
0.0
 40
8.5
 41
1.2941176471
 42
50.0
 43
0.0
 44
0.0
 50
0.0
 51
0.0
 71
0
 72
100
 73
1
 74
1
 75
0
 76
0
 77
0
 78
0
  0
ENDTAB
  0
TABLE
  2
LTYPE
  5
5
100
AcDbSymbolTable
 70
6
  0
LTYPE
  5
14
100
AcDbSymbolTableRecord
100
AcDbLinetypeTableRecord
  2
BYBLOCK
 70
0
  3

 72
65
 73
0
 40
0.0
  0
LTYPE
  5
15
100
AcDbSymbolTableRecord
100
AcDbLinetypeTableRecord
  2
BYLAYER
 70
0
  3

 72
65
 73
0
 40
0.0
  0
LTYPE
  5
16
100
AcDbSymbolTableRecord
100
AcDbLinetypeTableRecord
  2
CONTINUOUS
 70
64
  3
Solid line
 72
65
 73
0
 40
0.0
  0
LTYPE
  5
1F5
100
AcDbSymbolTableRecord
100
AcDbLinetypeTableRecord
  2
CENTER
 70
64
  3
____ _ ____ _ ____ _ ____ _ ____ _ ____ _ ____
 72
65
 73
4
 40
0.6
 49
0.375
 74
0
 49
-0.075
 74
0
 49
0.075
 74
0
 49
-0.075
 74
0
  0
LTYPE
  5
1F6
100
AcDbSymbolTableRecord
100
AcDbLinetypeTableRecord
  2
HIDDEN
 70
64
  3
- - - - - - - - - - - - - - - - - - - -
 72
65
 73
2
 40
0.2
 49
0.1
 74
0
 49
-0.1
 74
0
  0
LTYPE
  5
1F7
100
AcDbSymbolTableRecord
100
AcDbLinetypeTableRecord
  2
PHANTOM
 70
64
  3
_____ _ _ _____ _ _ _____ _ _ _____
 72
65
 73
6
 40
0.8
 49
0.45
 74
0
 49
-0.05
 74
0
 49
0.1
 74
0
 49
-0.05
 74
0
 49
0.1
 74
0
 49
-0.05
 74
0
  0
LTYPE
  5
1F8
100
AcDbSymbolTableRecord
100
AcDbLinetypeTableRecord
  2
DOT
 70
64
  3
. . . . . . . . . . . . . . . . . . . .
 72
65
 73
2
 40
0.2
 49
0.1
 74
0
 49
-0.1
 74
0
  0
LTYPE
  5
1F9
100
AcDbSymbolTableRecord
100
AcDbLinetypeTableRecord
  2
DASHED
 70
64
  3
- - - - - - - - - - - - - - - - - - - -
 72
65
 73
2
 40
0.2
 49
0.1
 74
0
 49
-0.1
 74
0
  0
ENDTAB
  0
TABLE
  2
LAYER
  5
2
100
AcDbSymbolTable
 70
36
  0
LAYER
  5
10
100
AcDbSymbolTableRecord
100
AcDbLayerTableRecord
  2
0
 70
0
 62
7
  6
CONTINUOUS
370
-3
390
F
  0
LAYER
  5
1FA
100
AcDbSymbolTableRecord
100
AcDbLayerTableRecord
  2
DEFAULT_1
 70
0
 62
7
  6
CENTER
370
-3
390
F
  0
LAYER
  5
1FB
100
AcDbSymbolTableRecord
100
AcDbLayerTableRecord
  2
DEFAULT_2
 70
0
 62
8
  6
HIDDEN
370
-3
390
F
  0
LAYER
  5
1FC
100
AcDbSymbolTableRecord
100
AcDbLayerTableRecord
  2
DEFAULT_3
 70
0
 62
7
  6
PHANTOM
370
-3
390
F
  0
LAYER
  5
1FD
100
AcDbSymbolTableRecord
100
AcDbLayerTableRecord
  2
2201_ASSY_PLANES
 70
0
 62
7
  6
CONTINUOUS
370
-3
390
F
  0
LAYER
  5
1FE
100
AcDbSymbolTableRecord
100
AcDbLayerTableRecord
  2
ALL_ASSEMBLY_MEMBERS
 70
0
 62
7
  6
CONTINUOUS
370
-3
390
F
  0
LAYER
  5
1FF
100
AcDbSymbolTableRecord
100
AcDbLayerTableRecord
  2
ALL_FEATURES
 70
0
 62
7
  6
CONTINUOUS
370
-3
390
F
  0
LAYER
  5
200
100
AcDbSymbolTableRecord
100
AcDbLayerTableRecord
  2
AXES_FEATURES
 70
0
 62
7
  6
CONTINUOUS
370
-3
390
F
  0
LAYER
  5
201
100
AcDbSymbolTableRecord
100
AcDbLayerTableRecord
  2
CHAMFER_FEATURES
 70
0
 62
7
  6
CONTINUOUS
370
-3
390
F
  0
LAYER
  5
202
100
AcDbSymbolTableRecord
100
AcDbLayerTableRecord
  2
CUT_FEATURES
 70
0
 62
7
  6
CONTINUOUS
370
-3
390
F
  0
LAYER
  5
203
100
AcDbSymbolTableRecord
100
AcDbLayerTableRecord
  2
DATUM_CURVES
 70
0
 62
7
  6
CONTINUOUS
370
-3
390
F
  0
LAYER
  5
204
100
AcDbSymbolTableRecord
100
AcDbLayerTableRecord
  2
DATUM_PLANES
 70
0
 62
7
  6
CONTINUOUS
370
-3
390
F
  0
LAYER
  5
205
100
AcDbSymbolTableRecord
100
AcDbLayerTableRecord
  2
DATUM_POINTS
 70
0
 62
7
  6
CONTINUOUS
370
-3
390
F
  0
LAYER
  5
206
100
AcDbSymbolTableRecord
100
AcDbLayerTableRecord
  2
DEFAULT_COORDINATE_SYSTEM
 70
0
 62
7
  6
CONTINUOUS
370
-3
390
F
  0
LAYER
  5
207
100
AcDbSymbolTableRecord
100
AcDbLayerTableRecord
  2
DEFAULT_DATUM_AXES
 70
0
 62
7
  6
CONTINUOUS
370
-3
390
F
  0
LAYER
  5
208
100
AcDbSymbolTableRecord
100
AcDbLayerTableRecord
  2
DEFAULT_DATUM_PLANES
 70
0
 62
7
  6
CONTINUOUS
370
-3
390
F
  0
LAYER
  5
209
100
AcDbSymbolTableRecord
100
AcDbLayerTableRecord
  2
DIMENSIONS
 70
0
 62
7
  6
CONTINUOUS
370
-3
390
F
  0
LAYER
  5
20A
100
AcDbSymbolTableRecord
100
AcDbLayerTableRecord
  2
INTF_1
 70
0
 62
7
  6
CONTINUOUS
370
-3
390
F
  0
LAYER
  5
20B
100
AcDbSymbolTableRecord
100
AcDbLayerTableRecord
  2
POINTS
 70
0
 62
7
  6
CONTINUOUS
370
-3
390
F
  0
LAYER
  5
20C
100
AcDbSymbolTableRecord
100
AcDbLayerTableRecord
  2
PROTRUSION_FEATURES
 70
0
 62
7
  6
CONTINUOUS
370
-3
390
F
  0
LAYER
  5
20D
100
AcDbSymbolTableRecord
100
AcDbLayerTableRecord
  2
QUILT
 70
0
 62
7
  6
CONTINUOUS
370
-3
390
F
  0
LAYER
  5
20E
100
AcDbSymbolTableRecord
100
AcDbLayerTableRecord
  2
QUILTS
 70
0
 62
7
  6
CONTINUOUS
370
-3
390
F
  0
LAYER
  5
20F
100
AcDbSymbolTableRecord
100
AcDbLayerTableRecord
  2
REF_CURVES
 70
0
 62
7
  6
CONTINUOUS
370
-3
390
F
  0
LAYER
  5
210
100
AcDbSymbolTableRecord
100
AcDbLayerTableRecord
  2
RGB(   0_   0_   0 )
 70
0
 62
7
  6
CONTINUOUS
370
-3
390
F
  0
LAYER
  5
211
100
AcDbSymbolTableRecord
100
AcDbLayerTableRecord
  2
ROUND_FEATURES
 70
0
 62
7
  6
CONTINUOUS
370
-3
390
F
  0
LAYER
  5
212
100
AcDbSymbolTableRecord
100
AcDbLayerTableRecord
  2
SHELL_FEATURES
 70
0
 62
7
  6
CONTINUOUS
370
-3
390
F
  0
LAYER
  5
213
100
AcDbSymbolTableRecord
100
AcDbLayerTableRecord
  2
SIZE_REF
 70
0
 62
7
  6
CONTINUOUS
370
-3
390
F
  0
LAYER
  5
214
100
AcDbSymbolTableRecord
100
AcDbLayerTableRecord
  2
SURFACE_FEATURES
 70
0
 62
7
  6
CONTINUOUS
370
-3
390
F
  0
ENDTAB
  0
TABLE
  2
STYLE
  5
3
100
AcDbSymbolTable
 70
1
  0
STYLE
  5
11
100
AcDbSymbolTableRecord
100
AcDbTextStyleTableRecord
  2
STANDARD
 70
0
 40
0.0
 41
0.8
 50
0.0
 71
0
 42
0.2
  3
txt
  4

  0
STYLE
  5
215
100
AcDbSymbolTableRecord
100
AcDbTextStyleTableRecord
  2
TEXTSTYLE_1
 70
0
 40
0.0
 41
0.8
 50
0.0
 71
0
 42
0.2
  3
gdt
  4

  0
ENDTAB
  0
TABLE
  2
VIEW
  5
6
100
AcDbSymbolTable
 70
0
  0
ENDTAB
  0
TABLE
  2
UCS
  5
7
100
AcDbSymbolTable
 70
0
  0
ENDTAB
  0
TABLE
  2
APPID
  5
9
100
AcDbSymbolTable
 70
1
  0
APPID
  5
216
100
AcDbSymbolTableRecord
100
AcDbRegAppTableRecord
  2
ACAD
 70
0
  0
ENDTAB
  0
TABLE
  2
BLOCK_RECORD
  5
1
100
AcDbSymbolTable
 70
0
  0
BLOCK_RECORD
  5
217
100
AcDbSymbolTableRecord
100
AcDbBlockTableRecord
  2
*Model_Space
  0
BLOCK_RECORD
  5
218
100
AcDbSymbolTableRecord
100
AcDbBlockTableRecord
  2
*Paper_Space
  0
BLOCK_RECORD
  5
219
100
AcDbSymbolTableRecord
100
AcDbBlockTableRecord
  2
_FILLED
  0
ENDTAB
  0
TABLE
  2
DIMSTYLE
  5
A
100
AcDbSymbolTable
 70
1
100
AcDbDimStyleTable
 71
0
  0
DIMSTYLE
105
21A
100
AcDbSymbolTableRecord
100
AcDbDimStyleTableRecord
  2
STANDARD
 70
0
  3

  4

 40
1.0
 41
0.1
 42
0.0625
 43
0.38
 44
0.125
 45
0.0
 46
0.0
 47
0.001
 48
0.001
140
0.08
141
0.09
142
0.0
143
25.4
144
1.0
145
0.0
146
1.0
147
0.09
 71
1.0
 72
0.0
 73
1
 74
1
 75
0
 76
0
 77
0
 78
4
 79
1
170
1
171
2
172
0
173
0
174
0
175
0
176
0
177
0
178
0
270
2
179
3
271
3
272
3
273
2
274
2
275
0
280
0
281
0
282
0
283
1
284
4
285
0
286
0
287
3
288
0
340
11
278
46
341
219
342
219
343
219
344
219
  0
ENDTAB
  0
ENDSEC
  0
SECTION
  2
BLOCKS
  0
BLOCK
  5
20
100
AcDbEntity
  8
0
100
AcDbBlockBegin
  2
*Model_Space
 70
0
 10
0.0
 20
0.0
 30
0.0
  3
*Model_Space
  1

  0
ENDBLK
  5
21
100
AcDbEntity
  8
0
100
AcDbBlockEnd
  0
BLOCK
  5
1C
100
AcDbEntity
  8
0
100
AcDbBlockBegin
  2
*Paper_Space
 70
0
 10
0.0
 20
0.0
 30
0.0
  3
*Paper_Space
  1

  0
ENDBLK
  5
1D
100
AcDbEntity
  8
0
100
AcDbBlockEnd
  0
BLOCK
  5
21B
100
AcDbEntity
  8
0
100
AcDbBlockBegin
  2
_FILLED
 70
64
 10
0.0
 20
0.0
  3
_FILLED
  1

  0
SOLID
  5
21C
100
AcDbEntity
  8
0
  6
BYBLOCK
 62
0
100
AcDbTrace
 10
0.0
 20
0.0
 11
-1.0
 21
0.2
 12
-1.0
 22
-0.2
 13
-1.0
 23
-0.2
  0
ENDBLK
  5
21D
100
AcDbEntity
  8
0
  6
BYBLOCK
 62
0
100
AcDbBlockEnd
  0
ENDSEC
  0
SECTION
  2
ENTITIES
  0
MTEXT
  5
21E
100
AcDbEntity
  8
0
100
AcDbMText
 62
2
  6
CONTINUOUS
  7
STANDARD
 71
3
 72
1
 10
5.1541149068
 20
2.8827381258
 30
0.0
 11
1.0
 21
0.0
 31
0.0
 73
2
 44
0.9
  1
SCALE  .500
 40
0.08
 41
0.704
  0
LINE
  5
21F
100
AcDbEntity
  8
0
100
AcDbLine
 62
7
  6
CONTINUOUS
 10
0.0
 20
0.0
 11
0.0
 21
8.5
  0
LINE
  5
220
100
AcDbEntity
  8
0
100
AcDbLine
 62
7
  6
CONTINUOUS
 10
0.0
 20
0.0
 11
11.0
 21
0.0
  0
LINE
  5
221
100
AcDbEntity
  8
0
100
AcDbLine
 62
7
  6
CONTINUOUS
 10
0.0
 20
8.5
 11
11.0
 21
8.5
  0
LINE
  5
222
100
AcDbEntity
  8
0
100
AcDbLine
 62
7
  6
CONTINUOUS
 10
11.0
 20
0.0
 11
11.0
 21
8.5
  0
LINE
  5
223
100
AcDbEntity
  8
ALL_ASSEMBLY_MEMBERS
100
AcDbLine
 62
7
  6
CONTINUOUS
 10
4.9875640673
 20
4.0536552895
 11
4.9873559918
 21
4.053803044
  0
LINE
  5
224
100
AcDbEntity
  8
ALL_ASSEMBLY_MEMBERS
100
AcDbLine
 62
7
  6
CONTINUOUS
 10
4.9877172506
 20
4.0536692506
 11
4.9875147202
 21
4.0538176082
  0
LINE
  5
225
100
AcDbEntity
  8
ALL_ASSEMBLY_MEMBERS
100
AcDbLine
 62
7
  6
CONTINUOUS
 10
4.9833462126
 20
4.0481537773
 11
4.9835506358
 21
4.0479625043
  0
LINE
  5
226
100
AcDbEntity
  8
ALL_ASSEMBLY_MEMBERS
100
AcDbLine
 62
7
  6
CONTINUOUS
 10
4.4877043737
 20
4.2126141577
 11
4.4877043737
 21
4.1165057515
  0
LINE
  5
227
100
AcDbEntity
  8
ALL_ASSEMBLY_MEMBERS
100
AcDbLine
 62
7
  6
CONTINUOUS
 10
4.5154572266
 20
4.2184308096
 11
4.5154572266
 21
4.1223224034
  0
LWPOLYLINE
  5
228
100
AcDbEntity
  8
ALL_ASSEMBLY_MEMBERS
100
AcDbPolyline
 62
7
  6
CONTINUOUS
 90
39
 70
0
 10
4.4750788985
 20
4.5937430125
 10
4.4727296185
 20
4.5873270681
 10
4.4703537331
 20
4.580748196
 10
4.4679542392
 20
4.5740085005
 10
4.4655342451
 20
4.5671099381
 10
4.4630948283
 20
4.5600479969
 10
4.460636174
 20
4.5528133979
 10
4.458160078
 20
4.5453989945
 10
4.4556703003
 20
4.537802596
 10
4.4531701719
 20
4.530020044
 10
4.4506627612
 20
4.5220455556
 10
4.4481514745
 20
4.5138735218
 10
4.4456401351
 20
4.5054988027
 10
4.4431325397
 20
4.4969152624
 10
4.4406324193
 20
4.4881155097
 10
4.438143573
 20
4.4790912091
 10
4.4356707226
 20
4.4698361848
 10
4.4332180463
 20
4.4603410266
 10
4.4307888485
 20
4.4505911529
 10
4.4283885959
 20
4.4405786838
 10
4.4260226279
 20
4.4302936795
 10
4.4236947134
 20
4.4197169335
 10
4.4214113731
 20
4.40883873
 10
4.4191794227
 20
4.3976486456
 10
4.4170040541
 20
4.3861248663
 10
4.4148932941
 20
4.3742563923
 10
4.4128556136
 20
4.3620317952
 10
4.4108981491
 20
4.3494271272
 10
4.4090301686
 20
4.336425704
 10
4.4072628284
 20
4.3230193523
 10
4.405607279
 20
4.3091961462
 10
4.4040743461
 20
4.2949349644
 10
4.4026773816
 20
4.2802310697
 10
4.4014314298
 20
4.2650985708
 10
4.4003489323
 20
4.2495216938
 10
4.3994435626
 20
4.233493044
 10
4.3987307748
 20
4.2170431641
 10
4.3982237933
 20
4.2001771604
 10
4.3979366987
 20
4.1829584156
  0
LINE
  5
229
100
AcDbEntity
  8
ALL_ASSEMBLY_MEMBERS
100
AcDbLine
 62
7
  6
CONTINUOUS
 10
4.4796940927
 20
4.6060980287
 11
4.4750788985
 21
4.5937430125
  0
LINE
  5
22A
100
AcDbEntity
  8
ALL_ASSEMBLY_MEMBERS
100
AcDbLine
 62
7
  6
CONTINUOUS
 10
4.4841649241
 20
4.6177612868
 11
4.4796940927
 21
4.6060980287
  0
LINE
  5
22B
100
AcDbEntity
  8
ALL_ASSEMBLY_MEMBERS
100
AcDbLine
 62
7
  6
CONTINUOUS
 10
4.4884678927
 20
4.6287159676
 11
4.4841649241
 21
4.6177612868
  0
LINE
  5
22C
100
AcDbEntity
  8
ALL_ASSEMBLY_MEMBERS
100
AcDbLine
 62
7
  6
CONTINUOUS
 10
4.4925715792
 20
4.6389312052
 11
4.4884678927
 21
4.6287159676
  0
LINE
  5
22D
100
AcDbEntity
  8
ALL_ASSEMBLY_MEMBERS
100
AcDbLine
 62
7
  6
CONTINUOUS
 10
4.4964672842
 20
4.648430214
 11
4.4925715792
 21
4.6389312052
  0
LINE
  5
22E
100
AcDbEntity
  8
ALL_ASSEMBLY_MEMBERS
100
AcDbLine
 62
7
  6
CONTINUOUS
 10
4.5001514674
 20
4.6572433549
 11
4.4964672842
 21
4.648430214
  0
LINE
  5
22F
100
AcDbEntity
  8
ALL_ASSEMBLY_MEMBERS
100
AcDbLine
 62
7
  6
CONTINUOUS
 10
4.5036292874
 20
4.6654161385
 11
4.5001514674
 21
4.6572433549
  0
LINE
  5
230
100
AcDbEntity
  8
ALL_ASSEMBLY_MEMBERS
100
AcDbLine
 62
7
  6
CONTINUOUS
 10
4.5069076326
 20
4.6729924199
 11
4.5036292874
 21
4.6654161385
  0
LINE
  5
231
100
AcDbEntity
  8
ALL_ASSEMBLY_MEMBERS
100
AcDbLine
 62
7
  6
CONTINUOUS
 10
4.5099926678
 20
4.6800098949
 11
4.5069076326
 21
4.6729924199
  0
LINE
  5
232
100
AcDbEntity
  8
ALL_ASSEMBLY_MEMBERS
100
AcDbLine
 62
7
  6
CONTINUOUS
 10
4.5128960985
 20
4.6865150069
 11
4.5099926678
 21
4.6800098949
  0
LINE
  5
233
100
AcDbEntity
  8
ALL_ASSEMBLY_MEMBERS
100
AcDbLine
 62
7
  6
CONTINUOUS
 10
4.5156297785
 20
4.6925508774
 11
4.5128960985
 21
4.6865150069
  0
LINE
  5
234
100
AcDbEntity
  8
ALL_ASSEMBLY_MEMBERS
100
AcDbLine
 62
7
  6
CONTINUOUS
 10
4.5182013312
 20
4.6981486978
 11
4.5156297785
 21
4.6925508774
  0
LINE
  5
235
100
AcDbEntity
  8
ALL_ASSEMBLY_MEMBERS
100
AcDbLine
 62
7
  6
CONTINUOUS
 10
4.5206214847
 20
4.7033447043
 11
4.5182013312
 21
4.6981486978
  0
LINE
  5
236
100
AcDbEntity
  8
ALL_ASSEMBLY_MEMBERS
100
AcDbLine
 62
7
  6
CONTINUOUS
 10
4.522898241
 20
4.7081673295
 11
4.5206214847
 21
4.7033447043
  0
LINE
  5
237
100
AcDbEntity
  8
ALL_ASSEMBLY_MEMBERS
100
AcDbLine
 62
7
  6
CONTINUOUS
 10
4.5250343952
 20
4.712632578
 11
4.522898241
 21
4.7081673295
  0
LINE
  5
238
100
AcDbEntity
  8
ALL_ASSEMBLY_MEMBERS
100
AcDbLine
 62
7
  6
CONTINUOUS
 10
4.5270281154
 20
4.7167459774
 11
4.5250343952
 21
4.712632578
  0
LINE
  5
239
100
AcDbEntity
  8
ALL_ASSEMBLY_MEMBERS
100
AcDbLine
 62
7
  6
CONTINUOUS
 10
4.5288906555
 20
4.7205390739
 11
4.5270281154
 21
4.7167459774
  0
LINE
  5
23A
100
AcDbEntity
  8
ALL_ASSEMBLY_MEMBERS
100
AcDbLine
 62
7
  6
CONTINUOUS
 10
4.5306313295
 20
4.7240367207
 11
4.5288906555
 21
4.7205390739
  0
LINE
  5
23B
100
AcDbEntity
  8
ALL_ASSEMBLY_MEMBERS
100
AcDbLine
 62
7
  6
CONTINUOUS
 10
4.532261411
 20
4.7272653966
 11
4.5306313295
 21
4.7240367207
  0
LINE
  5
23C
100
AcDbEntity
  8
ALL_ASSEMBLY_MEMBERS
100
AcDbLine
 62
7
  6
CONTINUOUS
 10
4.5338217295
 20
4.7303072127
 11
4.532261411
 21
4.7272653966
  0
LWPOLYLINE
  5
23D
100
AcDbEntity
  8
ALL_ASSEMBLY_MEMBERS
100
AcDbPolyline
 62
7
  6
CONTINUOUS
 90
7
 70
0
 10
4.5392808233
 20
4.7404391202
 10
4.5385097545
 20
4.7390671135
 10
4.5377180817
 20
4.737636395
 10
4.5369405264
 20
4.7362098158
 10
4.5361395375
 20
4.7347198452
 10
4.5353470527
 20
4.7332270174
 10
4.5338217295
 20
4.7303072127
  0
LWPOLYLINE
  5
23E
100
AcDbEntity
  8
ALL_ASSEMBLY_MEMBERS
100
AcDbPolyline
 62
7
  6
CONTINUOUS
 90
5
 70
0
 10
4.5404351987
 20
4.7424542271
 10
4.5405748747
 20
4.7426988635
 10
4.5405664711
 20
4.7426845138
 10
4.5403099268
 20
4.742239794
 10
4.5392808233
 20
4.7404391202
  0
LINE
  5
23F
100
AcDbEntity
  8
ALL_ASSEMBLY_MEMBERS
100
AcDbLine
 62
7
  6
CONTINUOUS
 10
4.983344349
 20
4.0481536431
 11
4.9835325426
 21
4.0479612159
  0
LINE
  5
240
100
AcDbEntity
  8
ALL_ASSEMBLY_MEMBERS
100
AcDbLine
 62
7
  6
CONTINUOUS
 10
4.5454072001
 20
4.2234647728
 11
4.5454072001
 21
4.1273563666
  0
LINE
  5
241
100
AcDbEntity
  8
ALL_ASSEMBLY_MEMBERS
100
AcDbLine
 62
7
  6
CONTINUOUS
 10
4.5772261559
 20
4.2276608941
 11
4.5772261559
 21
4.1315524879
  0
LINE
  5
242
100
AcDbEntity
  8
ALL_ASSEMBLY_MEMBERS
100
AcDbLine
 62
7
  6
CONTINUOUS
 10
4.610565479
 20
4.2309732
 11
4.610565479
 21
4.1348647937
  0
LINE
  5
243
100
AcDbEntity
  8
ALL_ASSEMBLY_MEMBERS
100
AcDbLine
 62
7
  6
CONTINUOUS
 10
4.6450598966
 20
4.2333654
 11
4.6450598966
 21
4.1372569938
  0
LINE
  5
244
100
AcDbEntity
  8
ALL_ASSEMBLY_MEMBERS
100
AcDbLine
 62
7
  6
CONTINUOUS
 10
4.6803314809
 20
4.2348112849
 11
4.6803314809
 21
4.1387028787
  0
LINE
  5
245
100
AcDbEntity
  8
ALL_ASSEMBLY_MEMBERS
100
AcDbLine
 62
7
  6
CONTINUOUS
 10
4.7159937888
 20
4.2352950131
 11
4.7159937888
 21
4.1391866069
  0
LINE
  5
246
100
AcDbEntity
  8
ALL_ASSEMBLY_MEMBERS
100
AcDbLine
 62
7
  6
CONTINUOUS
 10
4.7159937888
 20
4.2521855494
 11
4.7159937888
 21
5.2461282324
  0
LINE
  5
247
100
AcDbEntity
  8
ALL_ASSEMBLY_MEMBERS
100
AcDbLine
 62
7
  6
CONTINUOUS
 10
4.5012769522
 20
4.6598782645
 11
4.1476328502
 21
4.6598783338
  0
LINE
  5
248
100
AcDbEntity
  8
ALL_ASSEMBLY_MEMBERS
100
AcDbLine
 62
7
  6
CONTINUOUS
 10
4.936671322
 20
4.6598781903
 11
5.2843547651
 21
4.6598783338
  0
LINE
  5
249
100
AcDbEntity
  8
ALL_ASSEMBLY_MEMBERS
100
AcDbLine
 62
7
  6
CONTINUOUS
 10
4.7516560968
 20
4.2348112849
 11
4.7516560968
 21
4.1387028787
  0
LINE
  5
24A
100
AcDbEntity
  8
ALL_ASSEMBLY_MEMBERS
100
AcDbLine
 62
7
  6
CONTINUOUS
 10
4.786927681
 20
4.2333654
 11
4.786927681
 21
4.1372569938
  0
LINE
  5
24B
100
AcDbEntity
  8
ALL_ASSEMBLY_MEMBERS
100
AcDbLine
 62
7
  6
CONTINUOUS
 10
4.8214220987
 20
4.2309732
 11
4.8214220987
 21
4.1348647937
  0
LINE
  5
24C
100
AcDbEntity
  8
ALL_ASSEMBLY_MEMBERS
100
AcDbLine
 62
7
  6
CONTINUOUS
 10
4.8547614217
 20
4.2276608941
 11
4.8547614217
 21
4.1315524879
  0
LINE
  5
24D
100
AcDbEntity
  8
ALL_ASSEMBLY_MEMBERS
100
AcDbLine
 62
7
  6
CONTINUOUS
 10
4.8865803776
 20
4.2234647728
 11
4.8865803776
 21
4.1273563666
  0
LINE
  5
24E
100
AcDbEntity
  8
ALL_ASSEMBLY_MEMBERS
100
AcDbLine
 62
7
  6
CONTINUOUS
 10
4.916530351
 20
4.2184308096
 11
4.916530351
 21
4.1223224034
  0
LWPOLYLINE
  5
24F
100
AcDbEntity
  8
ALL_ASSEMBLY_MEMBERS
100
AcDbPolyline
 62
7
  6
CONTINUOUS
 90
17
 70
0
 10
4.8921524292
 20
4.7431457206
 10
4.8914045287
 20
4.7443044153
 10
4.8906378408
 20
4.7454791843
 10
4.8898197021
 20
4.7467176434
 10
4.8889483555
 20
4.7480187768
 10
4.8880238162
 20
4.7493784561
 10
4.8870137669
 20
4.7508385315
 10
4.8858856821
 20
4.7524371009
 10
4.8846638009
 20
4.75412965
 10
4.8833998133
 20
4.7558375832
 10
4.88206682
 20
4.757591685
 10
4.8806839679
 20
4.7593618399
 10
4.8793802412
 20
4.7609861517
 10
4.8781607279
 20
4.7624678598
 10
4.8770270651
 20
4.7638138294
 10
4.8761134327
 20
4.7648773844
 10
4.8755291432
 20
4.7655480543
  0
LINE
  5
250
100
AcDbEntity
  8
ALL_ASSEMBLY_MEMBERS
100
AcDbLine
 62
7
  6
CONTINUOUS
 10
4.8936056683
 20
4.7408602974
 11
4.8921524292
 21
4.7431457206
  0
LINE
  5
251
100
AcDbEntity
  8
ALL_ASSEMBLY_MEMBERS
100
AcDbLine
 62
7
  6
CONTINUOUS
 10
4.8950327681
 20
4.7385753322
 11
4.8936056683
 21
4.7408602974
  0
LINE
  5
252
100
AcDbEntity
  8
ALL_ASSEMBLY_MEMBERS
100
AcDbLine
 62
7
  6
CONTINUOUS
 10
4.8964573116
 20
4.7362576468
 11
4.8950327681
 21
4.7385753322
  0
LINE
  5
253
100
AcDbEntity
  8
ALL_ASSEMBLY_MEMBERS
100
AcDbLine
 62
7
  6
CONTINUOUS
 10
4.8978995229
 20
4.733876856
 11
4.8964573116
 21
4.7362576468
  0
LINE
  5
254
100
AcDbEntity
  8
ALL_ASSEMBLY_MEMBERS
100
AcDbLine
 62
7
  6
CONTINUOUS
 10
4.899387659
 20
4.7313868346
 11
4.8978995229
 21
4.733876856
  0
LINE
  5
255
100
AcDbEntity
  8
ALL_ASSEMBLY_MEMBERS
100
AcDbLine
 62
7
  6
CONTINUOUS
 10
4.9009360709
 20
4.7287618922
 11
4.899387659
 21
4.7313868346
  0
LINE
  5
256
100
AcDbEntity
  8
ALL_ASSEMBLY_MEMBERS
100
AcDbLine
 62
7
  6
CONTINUOUS
 10
4.9025602718
 20
4.7259727361
 11
4.9009360709
 21
4.7287618922
  0
LINE
  5
257
100
AcDbEntity
  8
ALL_ASSEMBLY_MEMBERS
100
AcDbLine
 62
7
  6
CONTINUOUS
 10
4.9042655081
 20
4.7230066002
 11
4.9025602718
 21
4.7259727361
  0
LINE
  5
258
100
AcDbEntity
  8
ALL_ASSEMBLY_MEMBERS
100
AcDbLine
 62
7
  6
CONTINUOUS
 10
4.9060575233
 20
4.7198492627
 11
4.9042655081
 21
4.7230066002
  0
LINE
  5
259
100
AcDbEntity
  8
ALL_ASSEMBLY_MEMBERS
100
AcDbLine
 62
7
  6
CONTINUOUS
 10
4.9079442043
 20
4.7164819872
 11
4.9060575233
 21
4.7198492627
  0
LINE
  5
25A
100
AcDbEntity
  8
ALL_ASSEMBLY_MEMBERS
100
AcDbLine
 62
7
  6
CONTINUOUS
 10
4.9099333724
 20
4.7128852362
 11
4.9079442043
 21
4.7164819872
  0
LINE
  5
25B
100
AcDbEntity
  8
ALL_ASSEMBLY_MEMBERS
100
AcDbLine
 62
7
  6
CONTINUOUS
 10
4.9120311013
 20
4.7090416985
 11
4.9099333724
 21
4.7128852362
  0
LINE
  5
25C
100
AcDbEntity
  8
ALL_ASSEMBLY_MEMBERS
100
AcDbLine
 62
7
  6
CONTINUOUS
 10
4.914245772
 20
4.7049287265
 11
4.9120311013
 21
4.7090416985
  0
LINE
  5
25D
100
AcDbEntity
  8
ALL_ASSEMBLY_MEMBERS
100
AcDbLine
 62
7
  6
CONTINUOUS
 10
4.9165788599
 20
4.7005351335
 11
4.914245772
 21
4.7049287265
  0
LINE
  5
25E
100
AcDbEntity
  8
ALL_ASSEMBLY_MEMBERS
100
AcDbLine
 62
7
  6
CONTINUOUS
 10
4.9190321714
 20
4.6958482023
 11
4.9165788599
 21
4.7005351335
  0
LINE
  5
25F
100
AcDbEntity
  8
ALL_ASSEMBLY_MEMBERS
100
AcDbLine
 62
7
  6
CONTINUOUS
 10
4.9216061787
 20
4.6908568374
 11
4.9190321714
 21
4.6958482023
  0
LINE
  5
260
100
AcDbEntity
  8
ALL_ASSEMBLY_MEMBERS
100
AcDbLine
 62
7
  6
CONTINUOUS
 10
4.9243030611
 20
4.6855458139
 11
4.9216061787
 21
4.6908568374
  0
LINE
  5
261
100
AcDbEntity
  8
ALL_ASSEMBLY_MEMBERS
100
AcDbLine
 62
7
  6
CONTINUOUS
 10
4.9271235582
 20
4.6799016381
 11
4.9243030611
 21
4.6855458139
  0
LINE
  5
262
100
AcDbEntity
  8
ALL_ASSEMBLY_MEMBERS
100
AcDbLine
 62
7
  6
CONTINUOUS
 10
4.9300668836
 20
4.6739125352
 11
4.9271235582
 21
4.6799016381
  0
LINE
  5
263
100
AcDbEntity
  8
ALL_ASSEMBLY_MEMBERS
100
AcDbLine
 62
7
  6
CONTINUOUS
 10
4.9331308009
 20
4.6675671668
 11
4.9300668836
 21
4.6739125352
  0
LINE
  5
264
100
AcDbEntity
  8
ALL_ASSEMBLY_MEMBERS
100
AcDbLine
 62
7
  6
CONTINUOUS
 10
4.9363108736
 20
4.6608567125
 11
4.9331308009
 21
4.6675671668
  0
LINE
  5
265
100
AcDbEntity
  8
ALL_ASSEMBLY_MEMBERS
100
AcDbLine
 62
7
  6
CONTINUOUS
 10
4.9395982828
 20
4.6537804433
 11
4.9363108736
 21
4.6608567125
  0
LINE
  5
266
100
AcDbEntity
  8
ALL_ASSEMBLY_MEMBERS
100
AcDbLine
 62
7
  6
CONTINUOUS
 10
4.9429835528
 20
4.6463383094
 11
4.9395982828
 21
4.6537804433
  0
LINE
  5
267
100
AcDbEntity
  8
ALL_ASSEMBLY_MEMBERS
100
AcDbLine
 62
7
  6
CONTINUOUS
 10
4.9464569879
 20
4.6385300889
 11
4.9429835528
 21
4.6463383094
  0
LINE
  5
268
100
AcDbEntity
  8
ALL_ASSEMBLY_MEMBERS
100
AcDbLine
 62
7
  6
CONTINUOUS
 10
4.9442832039
 20
4.2126141577
 11
4.9442832039
 21
4.1165057515
  0
LWPOLYLINE
  5
269
100
AcDbEntity
  8
ALL_ASSEMBLY_MEMBERS
100
AcDbPolyline
 62
7
  6
CONTINUOUS
 90
62
 70
0
 10
5.0340594486
 20
4.1829369762
 10
5.0340220179
 20
4.18822723
 10
5.0338648507
 20
4.1997308283
 10
5.0336346605
 20
4.2110946516
 10
5.0333331539
 20
4.2223165154
 10
5.0329617433
 20
4.2334000305
 10
5.0325219629
 20
4.2443408056
 10
5.032015339
 20
4.2551345026
 10
5.0314429286
 20
4.2657850353
 10
5.0308060639
 20
4.2762886398
 10
5.0301060705
 20
4.2866416607
 10
5.0293436617
 20
4.2968483373
 10
5.0285199461
 20
4.3069057817
 10
5.0276360743
 20
4.3168106029
 10
5.0266925142
 20
4.3265663818
 10
5.0256899978
 20
4.3361725194
 10
5.0246297845
 20
4.3456244128
 10
5.0235140589
 20
4.3549208458
 10
5.0223457549
 20
4.3640604497
 10
5.0211274705
 20
4.3730441544
 10
5.0198614201
 20
4.3818748673
 10
5.0185502725
 20
4.3905515985
 10
5.0171963521
 20
4.3990753257
 10
5.0158010815
 20
4.4074518395
 10
5.0143666737
 20
4.4156812252
 10
5.0128952925
 20
4.423763586
 10
5.0113879749
 20
4.4317046191
 10
5.0098466566
 20
4.4395045015
 10
5.0082732251
 20
4.4471634551
 10
5.0066683471
 20
4.454687149
 10
5.0050335894
 20
4.4620763414
 10
5.0033706759
 20
4.4693309054
 10
5.0016802632
 20
4.4764550679
 10
4.999963469
 20
4.4834505831
 10
4.998222068
 20
4.4903171945
 10
4.9964577196
 20
4.497057452
 10
4.9946717192
 20
4.5036755322
 10
4.9928658435
 20
4.5101736397
 10
4.9910425715
 20
4.51655151
 10
4.989203302
 20
4.5228127168
 10
4.9873495879
 20
4.5289601261
 10
4.9854842183
 20
4.5349925217
 10
4.9836087361
 20
4.5409128194
 10
4.9817244521
 20
4.5467244856
 10
4.9798339077
 20
4.5524271053
 10
4.9779384481
 20
4.5580238695
 10
4.9760394825
 20
4.563517585
 10
4.9741397756
 20
4.568907076
 10
4.9722406998
 20
4.5741951189
 10
4.9703435696
 20
4.5793844564
 10
4.9684512055
 20
4.5844736232
 10
4.9665656975
 20
4.5894631418
 10
4.9646875948
 20
4.5943574447
 10
4.9628172939
 20
4.5991607903
 10
4.9609551115
 20
4.6038762339
 10
4.9591020476
 20
4.6085045713
 10
4.9572591437
 20
4.6130463448
 10
4.9554267177
 20
4.6175037047
 10
4.9536055405
 20
4.6218774998
 10
4.951797351
 20
4.6261661438
 10
4.9500020516
 20
4.6303722943
 10
4.9464569879
 20
4.6385300889
  0
LINE
  5
26A
100
AcDbEntity
  8
ALL_ASSEMBLY_MEMBERS
100
AcDbLine
 62
7
  6
CONTINUOUS
 10
5.05590671
 20
4.0415968256
 11
5.0557668929
 21
4.041366801
  0
LINE
  5
26B
100
AcDbEntity
  8
ALL_ASSEMBLY_MEMBERS
100
AcDbLine
 62
7
  6
CONTINUOUS
 10
5.0558978217
 20
4.0415803284
 11
5.0557519339
 21
4.0413573719
  0
ARC
  5
26C
100
AcDbEntity
  8
ALL_ASSEMBLY_MEMBERS
100
AcDbCircle
 62
7
  6
CONTINUOUS
 10
4.5681012829
 20
3.8334258012
 40
0.2540088532
100
AcDbArc
 50
109.8596062657
 51
110.9804588975
  0
ARC
  5
26D
100
AcDbEntity
  8
ALL_ASSEMBLY_MEMBERS
100
AcDbCircle
 62
7
  6
CONTINUOUS
 10
4.5588529845
 20
3.8576308221
 40
0.2280972158
100
AcDbArc
 50
110.9883552961
 51
112.3198173161
  0
ARC
  5
26E
100
AcDbEntity
  8
ALL_ASSEMBLY_MEMBERS
100
AcDbCircle
 62
7
  6
CONTINUOUS
 10
4.493265789
 20
4.0864592791
 40
0.1351650713
100
AcDbArc
 50
118.1741062976
 51
120.9088452904
  0
ARC
  5
26F
100
AcDbEntity
  8
ALL_ASSEMBLY_MEMBERS
100
AcDbCircle
 62
7
  6
CONTINUOUS
 10
4.5200967846
 20
3.942850121
 40
0.1344300594
100
AcDbArc
 50
117.9490148886
 51
118.3851881387
  0
ARC
  5
270
100
AcDbEntity
  8
ALL_ASSEMBLY_MEMBERS
100
AcDbCircle
 62
7
  6
CONTINUOUS
 10
4.4845551049
 20
4.1083165284
 40
0.1273877524
100
AcDbArc
 50
216.5430505766
 51
222.3108785382
  0
ARC
  5
271
100
AcDbEntity
  8
ALL_ASSEMBLY_MEMBERS
100
AcDbCircle
 62
7
  6
CONTINUOUS
 10
4.4830888187
 20
4.0907431459
 40
0.1255064501
100
AcDbArc
 50
137.6450124778
 51
143.4849739052
  0
ARC
  5
272
100
AcDbEntity
  8
ALL_ASSEMBLY_MEMBERS
100
AcDbCircle
 62
7
  6
CONTINUOUS
 10
4.4806307898
 20
4.1052809227
 40
0.1224274817
100
AcDbArc
 50
216.1941120859
 51
216.4952242611
  0
ARC
  5
273
100
AcDbEntity
  8
ALL_ASSEMBLY_MEMBERS
100
AcDbCircle
 62
7
  6
CONTINUOUS
 10
4.4794978151
 20
4.0934407355
 40
0.1210152052
100
AcDbArc
 50
143.4997872005
 51
144.8658521734
  0
ARC
  5
274
100
AcDbEntity
  8
ALL_ASSEMBLY_MEMBERS
100
AcDbCircle
 62
7
  6
CONTINUOUS
 10
4.4784923057
 20
4.1037405044
 40
0.1197920297
100
AcDbArc
 50
211.3803787271
 51
216.2035218555
  0
ARC
  5
275
100
AcDbEntity
  8
ALL_ASSEMBLY_MEMBERS
100
AcDbCircle
 62
7
  6
CONTINUOUS
 10
4.476424159
 20
4.0954976382
 40
0.1173178475
100
AcDbArc
 50
144.8235009058
 51
154.2503365046
  0
ARC
  5
276
100
AcDbEntity
  8
ALL_ASSEMBLY_MEMBERS
100
AcDbCircle
 62
7
  6
CONTINUOUS
 10
4.4754558385
 20
4.1018466962
 40
0.1162135759
100
AcDbArc
 50
205.7213668514
 51
211.362798422
  0
ARC
  5
277
100
AcDbEntity
  8
ALL_ASSEMBLY_MEMBERS
100
AcDbCircle
 62
7
  6
CONTINUOUS
 10
4.4663749342
 20
4.1001495052
 40
0.1070753794
100
AcDbArc
 50
208.2907835234
 51
213.1134302812
  0
ARC
  5
278
100
AcDbEntity
  8
ALL_ASSEMBLY_MEMBERS
100
AcDbCircle
 62
7
  6
CONTINUOUS
 10
4.4571455084
 20
4.1019685139
 40
0.0969085953
100
AcDbArc
 50
156.3538093111
 51
164.539022596
  0
ARC
  5
279
100
AcDbEntity
  8
ALL_ASSEMBLY_MEMBERS
100
AcDbCircle
 62
7
  6
CONTINUOUS
 10
4.4562993503
 20
4.110572917
 40
0.0919720149
100
AcDbArc
 50
156.5122798347
 51
157.9891229994
  0
ARC
  5
27A
100
AcDbEntity
  8
ALL_ASSEMBLY_MEMBERS
100
AcDbCircle
 62
7
  6
CONTINUOUS
 10
4.4499666159
 20
4.1038814816
 40
0.0894795555
100
AcDbArc
 50
164.4941860002
 51
173.675531669
  0
ARC
  5
27B
100
AcDbEntity
  8
ALL_ASSEMBLY_MEMBERS
100
AcDbCircle
 62
7
  6
CONTINUOUS
 10
4.4284921979
 20
4.0791584336
 40
0.0640570447
100
AcDbArc
 50
200.2995106434
 51
205.6607735475
  0
ARC
  5
27C
100
AcDbEntity
  8
ALL_ASSEMBLY_MEMBERS
100
AcDbCircle
 62
7
  6
CONTINUOUS
 10
4.7040219536
 20
4.8990433189
 40
0.9413983614
100
AcDbArc
 50
264.2398664395
 51
266.1878872269
  0
ARC
  5
27D
100
AcDbEntity
  8
ALL_ASSEMBLY_MEMBERS
100
AcDbCircle
 62
7
  6
CONTINUOUS
 10
4.940963913
 20
4.0904155355
 40
0.1306189849
100
AcDbArc
 50
59.0435550244
 51
61.8734933876
  0
ARC
  5
27E
100
AcDbEntity
  8
ALL_ASSEMBLY_MEMBERS
100
AcDbCircle
 62
7
  6
CONTINUOUS
 10
4.9474324727
 20
4.0895608596
 40
0.1273877524
100
AcDbArc
 50
36.5430505766
 51
42.3108785382
  0
ARC
  5
27F
100
AcDbEntity
  8
ALL_ASSEMBLY_MEMBERS
100
AcDbCircle
 62
7
  6
CONTINUOUS
 10
4.948898759
 20
4.1071342421
 40
0.1255064501
100
AcDbArc
 50
317.6450124779
 51
323.4849739052
  0
ARC
  5
280
100
AcDbEntity
  8
ALL_ASSEMBLY_MEMBERS
100
AcDbCircle
 62
7
  6
CONTINUOUS
 10
4.9513567879
 20
4.0925964654
 40
0.1224274816
100
AcDbArc
 50
36.1941120855
 51
36.4952242612
  0
ARC
  5
281
100
AcDbEntity
  8
ALL_ASSEMBLY_MEMBERS
100
AcDbCircle
 62
7
  6
CONTINUOUS
 10
4.9524897625
 20
4.1044366525
 40
0.1210152052
100
AcDbArc
 50
323.4997872005
 51
324.8658521734
  0
ARC
  5
282
100
AcDbEntity
  8
ALL_ASSEMBLY_MEMBERS
100
AcDbCircle
 62
7
  6
CONTINUOUS
 10
4.9540262954
 20
4.103375338
 40
0.1191478403
100
AcDbArc
 50
324.8580074485
 51
328.638660346
  0
ARC
  5
283
100
AcDbEntity
  8
ALL_ASSEMBLY_MEMBERS
100
AcDbCircle
 62
7
  6
CONTINUOUS
 10
4.9554769039
 20
4.0954557325
 40
0.1174133389
100
AcDbArc
 50
25.7507416097
 51
36.25537003
  0
ARC
  5
284
100
AcDbEntity
  8
ALL_ASSEMBLY_MEMBERS
100
AcDbCircle
 62
7
  6
CONTINUOUS
 10
4.975231664
 20
4.1103778772
 40
0.0924684798
100
AcDbArc
 50
22.512124604
 51
24.0841961603
  0
ARC
  5
285
100
AcDbEntity
  8
ALL_ASSEMBLY_MEMBERS
100
AcDbCircle
 62
7
  6
CONTINUOUS
 10
4.9814370974
 20
4.1037503631
 40
0.0900772555
100
AcDbArc
 50
7.6221802296
 51
15.4954065383
  0
ARC
  5
286
100
AcDbEntity
  8
ALL_ASSEMBLY_MEMBERS
100
AcDbCircle
 62
7
  6
CONTINUOUS
 10
4.9858446067
 20
4.1044185447
 40
0.0856200973
100
AcDbArc
 50
5.7343311429
 51
7.570207662
  0
ARC
  5
287
100
AcDbEntity
  8
ALL_ASSEMBLY_MEMBERS
100
AcDbCircle
 62
7
  6
CONTINUOUS
 10
5.0025395326
 20
4.0795641515
 40
0.0650943476
100
AcDbArc
 50
334.3892270156
 51
339.7621088356
  0
ARC
  5
288
100
AcDbEntity
  8
ALL_ASSEMBLY_MEMBERS
100
AcDbCircle
 62
7
  6
CONTINUOUS
 10
4.7159937888
 20
4.6598783338
 40
0.7125
100
AcDbArc
 50
297.698928796
 51
242.3038011389
  0
ARC
  5
289
100
AcDbEntity
  8
ALL_ASSEMBLY_MEMBERS
100
AcDbCircle
 62
7
  6
CONTINUOUS
 10
4.7159937888
 20
4.6598783338
 40
0.6465838329
100
AcDbArc
 50
303.2288176824
 51
236.7722934249
  0
ARC
  5
28A
100
AcDbEntity
  8
ALL_ASSEMBLY_MEMBERS
100
AcDbCircle
 62
7
  6
CONTINUOUS
 10
4.7159937888
 20
4.6598783338
 40
0.6265
100
AcDbArc
 50
303.7800472163
 51
236.2306798464
  0
ARC
  5
28B
100
AcDbEntity
  8
ALL_ASSEMBLY_MEMBERS
100
AcDbCircle
 62
7
  6
CONTINUOUS
 10
4.7159937888
 20
4.6598783338
 40
0.58625
100
AcDbArc
 50
303.9275101286
 51
236.073749642
  0
SPLINE
  5
28C
100
AcDbEntity
  8
ALL_ASSEMBLY_MEMBERS
100
AcDbSpline
 62
7
  6
CONTINUOUS
 70
0
 71
3
 72
48
 73
44
 74
0
 42
0.0000001
 43
0.0000001
 44
0.0000000001
 40
0.0
 40
0.0
 40
0.0
 40
0.0
 40
0.010829975
 40
0.0221934466
 40
0.0340811293
 40
0.0464825988
 40
0.0593866539
 40
0.0727817118
 40
0.1009943319
 40
0.1310126011
 40
0.1627033174
 40
0.1959217241
 40
0.2305099705
 40
0.2663023557
 40
0.3031224255
 40
0.3407882372
 40
0.37911086
 40
0.4178980754
 40
0.4569537454
 40
0.4960806025
 40
0.535080486
 40
0.5737563367
 40
0.6119130595
 40
0.6493590569
 40
0.6859074761
 40
0.7213775585
 40
0.7555960085
 40
0.7883986002
 40
0.8196315039
 40
0.8491535699
 40
0.8768376425
 40
0.8899560881
 40
0.9025758684
 40
0.9146860574
 40
0.9262773647
 40
0.9373433001
 40
0.9478788847
 40
0.9578807245
 40
0.9673483145
 40
0.9762852412
 40
0.984698216
 40
0.9925977192
 40
1.0
 40
1.0
 40
1.0
 40
1.0
 10
4.4742202533
 20
4.0641615249
 30
0.0
 10
4.4759336291
 20
4.0649486876
 30
0.0
 10
4.4794719748
 20
4.0665030929
 30
0.0
 10
4.484973268
 20
4.0687285961
 30
0.0
 10
4.4907886771
 20
4.0709011489
 30
0.0
 10
4.4969093377
 20
4.0730171215
 30
0.0
 10
4.5033265262
 20
4.0750730779
 30
0.0
 10
4.5124243052
 20
4.07777778
 30
0.0
 10
4.5244811853
 20
4.0809746789
 30
0.0
 10
4.5397447659
 20
4.0844683194
 30
0.0
 10
4.5559624208
 20
4.0876644996
 30
0.0
 10
4.5730463112
 20
4.090544307
 30
0.0
 10
4.5909041745
 20
4.0930929613
 30
0.0
 10
4.6094394766
 20
4.095295522
 30
0.0
 10
4.628552005
 20
4.0971407632
 30
0.0
 10
4.6481382257
 20
4.0986177017
 30
0.0
 10
4.6680921035
 20
4.0997189999
 30
0.0
 10
4.6883055043
 20
4.1004379165
 30
0.0
 10
4.7086689537
 20
4.1007711481
 30
0.0
 10
4.7290720761
 20
4.1007162816
 30
0.0
 10
4.7494043488
 20
4.100274147
 30
0.0
 10
4.7695555739
 20
4.0994466957
 30
0.0
 10
4.7894166024
 20
4.0982388867
 30
0.0
 10
4.8088798236
 20
4.0966569838
 30
0.0
 10
4.827839867
 20
4.0947099804
 30
0.0
 10
4.846194073
 20
4.0924083263
 30
0.0
 10
4.8638431874
 20
4.0897648674
 30
0.0
 10
4.8806917745
 20
4.0867940265
 30
0.0
 10
4.8966490213
 20
4.0835122478
 30
0.0
 10
4.9116287097
 20
4.0799375566
 30
0.0
 10
4.9234333466
 20
4.0766752454
 30
0.0
 10
4.9323177077
 20
4.0739203715
 30
0.0
 10
4.9385677901
 20
4.0718307176
 30
0.0
 10
4.9445163345
 20
4.0696831447
 30
0.0
 10
4.9501552374
 20
4.0674803076
 30
0.0
 10
4.9554771309
 20
4.0652254804
 30
0.0
 10
4.9604750051
 20
4.0629217529
 30
0.0
 10
4.9651420361
 20
4.0605720644
 30
0.0
 10
4.9694719121
 20
4.0581793136
 30
0.0
 10
4.9734591958
 20
4.0557469604
 30
0.0
 10
4.9770988626
 20
4.0532780986
 30
0.0
 10
4.9803857353
 20
4.0507757827
 30
0.0
 10
4.9824027983
 20
4.0490317836
 30
0.0
 10
4.9833462126
 20
4.0481537773
 30
0.0
  0
SPLINE
  5
28D
100
AcDbEntity
  8
ALL_ASSEMBLY_MEMBERS
100
AcDbSpline
 62
7
  6
CONTINUOUS
 70
0
 71
3
 72
9
 73
5
 74
0
 42
0.0000001
 43
0.0000001
 44
0.0000000001
 40
0.0
 40
0.0
 40
0.0
 40
0.0
 40
0.5071215283
 40
1.0
 40
1.0
 40
1.0
 40
1.0
 10
5.0717815274
 20
4.0989425423
 30
0.0
 10
5.0718985077
 20
4.0962161901
 30
0.0
 10
5.0718856141
 20
4.0908263663
 30
0.0
 10
5.071355224
 20
4.0854614812
 30
0.0
 10
5.0709593441
 20
4.0828389752
 30
0.0
  0
SPLINE
  5
28E
100
AcDbEntity
  8
ALL_ASSEMBLY_MEMBERS
100
AcDbSpline
 62
7
  6
CONTINUOUS
 70
0
 71
3
 72
17
 73
13
 74
0
 42
0.0000001
 43
0.0000001
 44
0.0000000001
 40
0.0
 40
0.0
 40
0.0
 40
0.0
 40
0.0488721732
 40
0.0981502916
 40
0.1482289173
 40
0.1994830189
 40
0.3067970028
 40
0.4225746223
 40
0.5486596844
 40
0.6864073324
 40
0.8366777251
 40
1.0
 40
1.0
 40
1.0
 40
1.0
 10
4.4378390263
 20
4.0289090711
 30
0.0
 10
4.4378390924
 20
4.0294981144
 30
0.0
 10
4.4378955074
 20
4.0306818431
 30
0.0
 10
4.4381483657
 20
4.0324528904
 30
0.0
 10
4.438569282
 20
4.0342213091
 30
0.0
 10
4.4393657522
 20
4.0366095634
 30
0.0
 10
4.4408097756
 20
4.0396011365
 30
0.0
 10
4.4431780773
 20
4.0430946063
 30
0.0
 10
4.4461983297
 20
4.0465445318
 30
0.0
 10
4.4498622052
 20
4.0499446341
 30
0.0
 10
4.454158535
 20
4.0532903141
 30
0.0
 10
4.4573045399
 20
4.0553911152
 30
0.0
 10
4.4589734422
 20
4.0564349915
 30
0.0
  0
SPLINE
  5
28F
100
AcDbEntity
  8
ALL_ASSEMBLY_MEMBERS
100
AcDbSpline
 62
7
  6
CONTINUOUS
 70
0
 71
3
 72
49
 73
45
 74
0
 42
0.0000001
 43
0.0000001
 44
0.0000000001
 40
0.0
 40
0.0
 40
0.0
 40
0.0
 40
0.0088307181
 40
0.0182007683
 40
0.0281136903
 40
0.0385701485
 40
0.0495674149
 40
0.0611005368
 40
0.0731625941
 40
0.0857443108
 40
0.0988352494
 40
0.1124231914
 40
0.1410334968
 40
0.1714544326
 40
0.2035472551
 40
0.2371590512
 40
0.2721248262
 40
0.3082694713
 40
0.3454093476
 40
0.3833537126
 40
0.4219061795
 40
0.4608662596
 40
0.5000307151
 40
0.5391948856
 40
0.5781541126
 40
0.6167051636
 40
0.6546475603
 40
0.6917849294
 40
0.7279265452
 40
0.7628887907
 40
0.7964965837
 40
0.828584961
 40
0.8590010439
 40
0.8876061312
 40
0.9011913444
 40
0.9142794807
 40
0.9268583333
 40
0.9389174712
 40
0.9504476276
 40
0.9614418965
 40
0.9718953343
 40
0.9818052305
 40
0.9911722665
 40
1.0
 40
1.0
 40
1.0
 40
1.0
 10
5.0135154731
 20
4.1991083258
 30
0.0
 10
5.0120172616
 20
4.2000990421
 30
0.0
 10
5.008875746
 20
4.2020607166
 30
0.0
 10
5.0038934066
 20
4.2048701283
 30
0.0
 10
4.9985089
 20
4.2076295723
 30
0.0
 10
4.9927296306
 20
4.2103348983
 30
0.0
 10
4.9865635549
 20
4.2129826255
 30
0.0
 10
4.9800191567
 20
4.215569022
 30
0.0
 10
4.9731054477
 20
4.218090346
 30
0.0
 10
4.9658320744
 20
4.220543287
 30
0.0
 10
4.9582090887
 20
4.2229242427
 30
0.0
 10
4.9474064878
 20
4.2260523583
 30
0.0
 10
4.9331001417
 20
4.2297410466
 30
0.0
 10
4.9150032938
 20
4.2337586289
 30
0.0
 10
4.8957940871
 20
4.2374170543
 30
0.0
 10
4.8755797366
 20
4.2406955512
 30
0.0
 10
4.854472928
 20
4.2435754863
 30
0.0
 10
4.832591551
 20
4.246040494
 30
0.0
 10
4.8100578694
 20
4.2480765487
 30
0.0
 10
4.7869978827
 20
4.2496720705
 30
0.0
 10
4.7635405908
 20
4.2508180549
 30
0.0
 10
4.7398172376
 20
4.2515080118
 30
0.0
 10
4.7159605658
 20
4.2517380173
 30
0.0
 10
4.6921040799
 20
4.2515067291
 30
0.0
 10
4.6683812834
 20
4.2508154964
 30
0.0
 10
4.6449249159
 20
4.2496682507
 30
0.0
 10
4.6218662159
 20
4.2480714894
 30
0.0
 10
4.599334176
 20
4.2460342242
 30
0.0
 10
4.5774547867
 20
4.2435680412
 30
0.0
 10
4.5563503003
 20
4.2406869731
 30
0.0
 10
4.536138593
 20
4.237407392
 30
0.0
 10
4.5169323351
 20
4.2337479379
 30
0.0
 10
4.4988387252
 20
4.2297293874
 30
0.0
 10
4.4845352684
 20
4.2260399131
 30
0.0
 10
4.473735117
 20
4.2229111978
 30
0.0
 10
4.4661140481
 20
4.2205298315
 30
0.0
 10
4.458842649
 20
4.2180765002
 30
0.0
 10
4.451930969
 20
4.215554805
 30
0.0
 10
4.445388652
 20
4.2129680562
 30
0.0
 10
4.4392247059
 20
4.2103199987
 30
0.0
 10
4.4334476122
 20
4.2076143614
 30
0.0
 10
4.4280653235
 20
4.2048546276
 30
0.0
 10
4.4230852409
 20
4.2020449481
 30
0.0
 10
4.4199452776
 20
4.2000830882
 30
0.0
 10
4.4184478523
 20
4.1990922837
 30
0.0
  0
SPLINE
  5
290
100
AcDbEntity
  8
ALL_ASSEMBLY_MEMBERS
100
AcDbSpline
 62
7
  6
CONTINUOUS
 70
0
 71
3
 72
12
 73
8
 74
0
 42
0.0000001
 43
0.0000001
 44
0.0000000001
 40
0.0
 40
0.0
 40
0.0
 40
0.0
 40
0.243481676
 40
0.3665426722
 40
0.4906979942
 40
0.742584107
 40
1.0
 40
1.0
 40
1.0
 40
1.0
 10
5.0135047566
 20
4.1991188105
 30
0.0
 10
5.0160056357
 20
4.1974649196
 30
0.0
 10
5.0197070092
 20
4.194876638
 30
0.0
 10
5.0245099935
 20
4.1912089851
 30
0.0
 10
5.0292846197
 20
4.1873376766
 30
0.0
 10
5.0351121456
 20
4.1821439435
 30
0.0
 10
5.0395029521
 20
4.1776570098
 30
0.0
 10
5.0416361359
 20
4.1753122986
 30
0.0
  0
SPLINE
  5
291
100
AcDbEntity
  8
ALL_ASSEMBLY_MEMBERS
100
AcDbSpline
 62
7
  6
CONTINUOUS
 70
0
 71
3
 72
16
 73
12
 74
0
 42
0.0000001
 43
0.0000001
 44
0.0000000001
 40
0.0
 40
0.0
 40
0.0
 40
0.0
 40
0.1079763442
 40
0.165053353
 40
0.2241015403
 40
0.347469246
 40
0.4764018236
 40
0.608504416
 40
0.7412140035
 40
0.8722707012
 40
1.0
 40
1.0
 40
1.0
 40
1.0
 10
4.3707491347
 20
4.1464506136
 30
0.0
 10
4.3693546781
 20
4.1435495964
 30
0.0
 10
4.367567467
 20
4.1389410424
 30
0.0
 10
4.3658072992
 20
4.1324933967
 30
0.0
 10
4.3643948571
 20
4.1254899792
 30
0.0
 10
4.3634622841
 20
4.1162291026
 30
0.0
 10
4.3636808457
 20
4.1047476766
 30
0.0
 10
4.3652048439
 20
4.0930865884
 30
0.0
 10
4.3679451475
 20
4.0815874913
 30
0.0
 10
4.3717590917
 20
4.0705395912
 30
0.0
 10
4.3749562049
 20
4.0635047255
 30
0.0
 10
4.3766895937
 20
4.0601145754
 30
0.0
  0
SPLINE
  5
292
100
AcDbEntity
  8
ALL_ASSEMBLY_MEMBERS
100
AcDbSpline
 62
7
  6
CONTINUOUS
 70
0
 71
3
 72
11
 73
7
 74
0
 42
0.0000001
 43
0.0000001
 44
0.0000000001
 40
0.0
 40
0.0
 40
0.0
 40
0.0
 40
0.2575931679
 40
0.5093412738
 40
0.7564004681
 40
1.0
 40
1.0
 40
1.0
 40
1.0
 10
4.3903414528
 20
4.1752996072
 30
0.0
 10
4.3924747216
 20
4.1776438757
 30
0.0
 10
4.3968623503
 20
4.1821277367
 30
0.0
 10
4.403809703
 20
4.1883305752
 30
0.0
 10
4.4109955725
 20
4.1939795955
 30
0.0
 10
4.4159481695
 20
4.1974381718
 30
0.0
 10
4.4184478494
 20
4.1990923011
 30
0.0
  0
SPLINE
  5
293
100
AcDbEntity
  8
ALL_ASSEMBLY_MEMBERS
100
AcDbSpline
 62
7
  6
CONTINUOUS
 70
0
 71
3
 72
13
 73
9
 74
0
 42
0.0000001
 43
0.0000001
 44
0.0000000001
 40
0.0
 40
0.0
 40
0.0
 40
0.0
 40
0.1197651094
 40
0.2430057188
 40
0.3687868621
 40
0.4960467334
 40
0.7506278761
 40
1.0
 40
1.0
 40
1.0
 40
1.0
 10
4.3610282322
 20
4.1150384136
 30
0.0
 10
4.3606300757
 20
4.1124008167
 30
0.0
 10
4.3600982043
 20
4.107004017
 30
0.0
 10
4.3600850655
 20
4.0987787754
 30
0.0
 10
4.3608426595
 20
4.0904204711
 30
0.0
 10
4.3628470456
 20
4.0792812094
 30
0.0
 10
4.3670616396
 20
4.0658018276
 30
0.0
 10
4.3720229078
 20
4.0556825722
 30
0.0
 10
4.3748206113
 20
4.0508844909
 30
0.0
  0
SPLINE
  5
294
100
AcDbEntity
  8
ALL_ASSEMBLY_MEMBERS
100
AcDbSpline
 62
7
  6
CONTINUOUS
 70
0
 71
3
 72
9
 73
5
 74
0
 42
0.0000001
 43
0.0000001
 44
0.0000000001
 40
0.0
 40
0.0
 40
0.0
 40
0.0
 40
0.4928891126
 40
1.0
 40
1.0
 40
1.0
 40
1.0
 10
4.3610255478
 20
4.0828567769
 30
0.0
 10
4.3606307433
 20
4.0854762836
 30
0.0
 10
4.3601018618
 20
4.0908347895
 30
0.0
 10
4.3600891964
 20
4.0962181229
 30
0.0
 10
4.3602059905
 20
4.0989411475
 30
0.0
  0
SPLINE
  5
295
100
AcDbEntity
  8
ALL_ASSEMBLY_MEMBERS
100
AcDbSpline
 62
7
  6
CONTINUOUS
 70
0
 71
3
 72
9
 73
5
 74
0
 42
0.0000001
 43
0.0000001
 44
0.0000000001
 40
0.0
 40
0.0
 40
0.0
 40
0.0
 40
0.5015873166
 40
1.0
 40
1.0
 40
1.0
 40
1.0
 10
4.3637473632
 20
4.0700618841
 30
0.0
 10
4.3647407888
 20
4.0664654481
 30
0.0
 10
4.367151373
 20
4.0594081412
 30
0.0
 10
4.3703326293
 20
4.0526664023
 30
0.0
 10
4.3720893231
 20
4.0494014962
 30
0.0
  0
SPLINE
  5
296
100
AcDbEntity
  8
ALL_ASSEMBLY_MEMBERS
100
AcDbSpline
 62
7
  6
CONTINUOUS
 70
0
 71
3
 72
12
 73
8
 74
0
 42
0.0000001
 43
0.0000001
 44
0.0000000001
 40
0.0
 40
0.0
 40
0.0
 40
0.0
 40
0.243481676
 40
0.3665426722
 40
0.4906979942
 40
0.742584107
 40
1.0
 40
1.0
 40
1.0
 40
1.0
 10
4.418482821
 20
3.9987585775
 30
0.0
 10
4.4159819419
 20
4.0004124684
 30
0.0
 10
4.4122805684
 20
4.0030007501
 30
0.0
 10
4.4074775841
 20
4.0066684029
 30
0.0
 10
4.402702958
 20
4.0105397114
 30
0.0
 10
4.396875432
 20
4.0157334445
 30
0.0
 10
4.3924846255
 20
4.0202203782
 30
0.0
 10
4.3903514417
 20
4.0225650894
 30
0.0
  0
SPLINE
  5
297
100
AcDbEntity
  8
ALL_ASSEMBLY_MEMBERS
100
AcDbSpline
 62
7
  6
CONTINUOUS
 70
0
 71
3
 72
49
 73
45
 74
0
 42
0.0000001
 43
0.0000001
 44
0.0000000001
 40
0.0
 40
0.0
 40
0.0
 40
0.0
 40
0.0088277335
 40
0.0181947695
 40
0.0281046657
 40
0.0385581035
 40
0.0495523724
 40
0.0610825288
 40
0.0731416667
 40
0.0857205193
 40
0.0988086556
 40
0.1123938688
 40
0.1409989561
 40
0.171415039
 40
0.2035034163
 40
0.2371112093
 40
0.2720734548
 40
0.3082150706
 40
0.3453524397
 40
0.3832948364
 40
0.4218458874
 40
0.4608051144
 40
0.4999692849
 40
0.5391337404
 40
0.5780938205
 40
0.6166462874
 40
0.6545906524
 40
0.6917305287
 40
0.7278751738
 40
0.7628409488
 40
0.7964527449
 40
0.8285455674
 40
0.8589665032
 40
0.8875768086
 40
0.9011647506
 40
0.9142556892
 40
0.9268374059
 40
0.9388994632
 40
0.9504325851
 40
0.9614298515
 40
0.9718863097
 40
0.9817992317
 40
0.9911692819
 40
1.0
 40
1.0
 40
1.0
 40
1.0
 10
5.0135397254
 20
3.9987851043
 30
0.0
 10
5.0120423
 20
3.9977942999
 30
0.0
 10
5.0089023368
 20
3.9958324399
 30
0.0
 10
5.0039222541
 20
3.9930227604
 30
0.0
 10
4.9985399655
 20
3.9902630266
 30
0.0
 10
4.9927628718
 20
3.9875573893
 30
0.0
 10
4.9865989257
 20
3.9849093318
 30
0.0
 10
4.9800566087
 20
3.982322583
 30
0.0
 10
4.9731449287
 20
3.9798008878
 30
0.0
 10
4.9658735296
 20
3.9773475565
 30
0.0
 10
4.9582524607
 20
3.9749661902
 30
0.0
 10
4.9474523092
 20
3.9718374749
 30
0.0
 10
4.9331488524
 20
3.9681480006
 30
0.0
 10
4.9150552425
 20
3.9641294502
 30
0.0
 10
4.8958489846
 20
3.9604699961
 30
0.0
 10
4.8756372774
 20
3.957190415
 30
0.0
 10
4.854532791
 20
3.9543093468
 30
0.0
 10
4.8326534016
 20
3.9518431638
 30
0.0
 10
4.8101213618
 20
3.9498058986
 30
0.0
 10
4.7870626618
 20
3.9482091373
 30
0.0
 10
4.7636062942
 20
3.9470618916
 30
0.0
 10
4.7398834978
 20
3.946370659
 30
0.0
 10
4.7160270119
 20
3.9461393707
 30
0.0
 10
4.6921703401
 20
3.9463693762
 30
0.0
 10
4.6684469868
 20
3.9470593331
 30
0.0
 10
4.6449896949
 20
3.9482053175
 30
0.0
 10
4.6219297082
 20
3.9498008393
 30
0.0
 10
4.5993960266
 20
3.9518368941
 30
0.0
 10
4.5775146496
 20
3.9543019017
 30
0.0
 10
4.556407841
 20
3.9571818368
 30
0.0
 10
4.5361934906
 20
3.9604603338
 30
0.0
 10
4.5169842838
 20
3.9641187591
 30
0.0
 10
4.4988874359
 20
3.9681363415
 30
0.0
 10
4.4845810899
 20
3.9718250298
 30
0.0
 10
4.473778489
 20
3.9749531454
 30
0.0
 10
4.4661555033
 20
3.9773341011
 30
0.0
 10
4.4588821299
 20
3.979787042
 30
0.0
 10
4.451968421
 20
3.982308366
 30
0.0
 10
4.4454240227
 20
3.9848947625
 30
0.0
 10
4.4392579471
 20
3.9875424897
 30
0.0
 10
4.4334786777
 20
3.9902478158
 30
0.0
 10
4.4280941711
 20
3.9930072597
 30
0.0
 10
4.4231118317
 20
3.9958166715
 30
0.0
 10
4.419970316
 20
3.997778346
 30
0.0
 10
4.4184721045
 20
3.9987690622
 30
0.0
  0
SPLINE
  5
298
100
AcDbEntity
  8
ALL_ASSEMBLY_MEMBERS
100
AcDbSpline
 62
7
  6
CONTINUOUS
 70
0
 71
3
 72
11
 73
7
 74
0
 42
0.0000001
 43
0.0000001
 44
0.0000000001
 40
0.0
 40
0.0
 40
0.0
 40
0.0
 40
0.2575931679
 40
0.5093412738
 40
0.7564004681
 40
1.0
 40
1.0
 40
1.0
 40
1.0
 10
5.0416461248
 20
4.0225777809
 30
0.0
 10
5.0395128561
 20
4.0202335124
 30
0.0
 10
5.0351252273
 20
4.0157496514
 30
0.0
 10
5.0281778746
 20
4.0095468128
 30
0.0
 10
5.0209920052
 20
4.0038977925
 30
0.0
 10
5.0160394081
 20
4.0004392163
 30
0.0
 10
5.0135397282
 20
3.998785087
 30
0.0
  0
SPLINE
  5
299
100
AcDbEntity
  8
ALL_ASSEMBLY_MEMBERS
100
AcDbSpline
 62
7
  6
CONTINUOUS
 70
0
 71
3
 72
9
 73
5
 74
0
 42
0.0000001
 43
0.0000001
 44
0.0000000001
 40
0.0
 40
0.0
 40
0.0
 40
0.0
 40
0.4966425346
 40
1.0
 40
1.0
 40
1.0
 40
1.0
 10
5.0552979839
 20
4.0416544064
 30
0.0
 10
5.0581290185
 20
4.0459987383
 30
0.0
 10
5.0632151009
 20
4.0551638115
 30
0.0
 10
5.0668451115
 20
4.0650088447
 30
0.0
 10
5.0682437593
 20
4.070074786
 30
0.0
  0
SPLINE
  5
29A
100
AcDbEntity
  8
ALL_ASSEMBLY_MEMBERS
100
AcDbSpline
 62
7
  6
CONTINUOUS
 70
0
 71
3
 72
9
 73
5
 74
0
 42
0.0000001
 43
0.0000001
 44
0.0000000001
 40
0.0
 40
0.0
 40
0.0
 40
0.0
 40
0.4780737216
 40
1.0
 40
1.0
 40
1.0
 40
1.0
 10
4.4589734422
 20
4.0564349915
 30
0.0
 10
4.4613179225
 20
4.0578241031
 30
0.0
 10
4.4663313493
 20
4.0605466986
 30
0.0
 10
4.4714962366
 20
4.0629653584
 30
0.0
 10
4.4742202533
 20
4.0641615249
 30
0.0
  0
SPLINE
  5
29B
100
AcDbEntity
  8
ALL_ASSEMBLY_MEMBERS
100
AcDbSpline
 62
7
  6
CONTINUOUS
 70
0
 71
3
 72
9
 73
5
 74
0
 42
0.0000001
 43
0.0000001
 44
0.0000000001
 40
0.0
 40
0.0
 40
0.0
 40
0.0
 40
0.2496190767
 40
1.0
 40
1.0
 40
1.0
 40
1.0
 10
5.0635775453
 20
4.1409212322
 30
0.0
 10
5.064041526
 20
4.1398602675
 30
0.0
 10
5.0658273252
 20
4.1355785077
 30
0.0
 10
5.0673133788
 20
4.1311708657
 30
0.0
 10
5.0682402135
 20
4.1278155035
 30
0.0
  0
SPLINE
  5
29C
100
AcDbEntity
  8
ALL_ASSEMBLY_MEMBERS
100
AcDbSpline
 62
7
  6
CONTINUOUS
 70
0
 71
3
 72
16
 73
12
 74
0
 42
0.0000001
 43
0.0000001
 44
0.0000000001
 40
0.0
 40
0.0
 40
0.0
 40
0.0
 40
0.1277374828
 40
0.2588025947
 40
0.3251041119
 40
0.3915603938
 40
0.5236667247
 40
0.6526006269
 40
0.7759671486
 40
0.8920255062
 40
1.0
 40
1.0
 40
1.0
 40
1.0
 10
5.0552979839
 20
4.0601145754
 30
0.0
 10
5.0570316093
 20
4.0635051881
 30
0.0
 10
5.0602290139
 20
4.0705406857
 30
0.0
 10
5.0633966295
 20
4.0797171081
 30
0.0
 10
5.0654092517
 20
4.0873234591
 30
0.0
 10
5.0670398428
 20
4.0950522866
 30
0.0
 10
5.0683071516
 20
4.1047535154
 30
0.0
 10
5.0685251871
 20
4.1162361339
 30
0.0
 10
5.0674207651
 20
4.1271911172
 30
0.0
 10
5.0650555483
 20
4.1373043692
 30
0.0
 10
5.0626296527
 20
4.1435573667
 30
0.0
 10
5.0612347155
 20
4.14645835
 30
0.0
  0
SPLINE
  5
29D
100
AcDbEntity
  8
ALL_ASSEMBLY_MEMBERS
100
AcDbSpline
 62
7
  6
CONTINUOUS
 70
0
 71
3
 72
20
 73
16
 74
0
 42
0.0000001
 43
0.0000001
 44
0.0000000001
 40
0.0
 40
0.0
 40
0.0
 40
0.0
 40
0.1317927304
 40
0.2682475974
 40
0.4064665692
 40
0.4750762129
 40
0.5426359046
 40
0.6086319686
 40
0.6726009977
 40
0.7341595593
 40
0.7930277116
 40
0.8490412832
 40
0.9021526396
 40
0.9524215572
 40
1.0
 40
1.0
 40
1.0
 40
1.0
 10
5.0497115138
 20
4.0692435331
 30
0.0
 10
5.0514656582
 20
4.0732589807
 30
0.0
 10
5.054644617
 20
4.0816091335
 30
0.0
 10
5.0582186984
 20
4.0946631261
 30
0.0
 10
5.0601152017
 20
4.1059414359
 30
0.0
 10
5.0608970276
 20
4.1150346961
 30
0.0
 10
5.0610964817
 20
4.1217572093
 30
0.0
 10
5.0609061148
 20
4.1283257188
 30
0.0
 10
5.0603298354
 20
4.1346716881
 30
0.0
 10
5.0593794271
 20
4.1407330245
 30
0.0
 10
5.0580735083
 20
4.1464571906
 30
0.0
 10
5.0564360007
 20
4.151802711
 30
0.0
 10
5.0544942209
 20
4.1567398713
 30
0.0
 10
5.0522777313
 20
4.1612493273
 30
0.0
 10
5.0505922318
 20
4.1640378838
 30
0.0
 10
5.0497115138
 20
4.1653519394
 30
0.0
  0
SPLINE
  5
29E
100
AcDbEntity
  8
ALL_ASSEMBLY_MEMBERS
100
AcDbSpline
 62
7
  6
CONTINUOUS
 70
0
 71
3
 72
20
 73
16
 74
0
 42
0.0000001
 43
0.0000001
 44
0.0000000001
 40
0.0
 40
0.0
 40
0.0
 40
0.0
 40
0.1317486851
 40
0.2690973123
 40
0.4088064106
 40
0.4782317819
 40
0.5465665854
 40
0.6132219033
 40
0.6776575391
 40
0.7394146077
 40
0.798141822
 40
0.8536101845
 40
0.9057158283
 40
0.9544728164
 40
1.0
 40
1.0
 40
1.0
 40
1.0
 10
5.0404687624
 20
4.0781713454
 30
0.0
 10
5.0419373535
 20
4.0822481938
 30
0.0
 10
5.0445923604
 20
4.0907035142
 30
0.0
 10
5.0475648831
 20
4.1038311735
 30
0.0
 10
5.0491412646
 20
4.1151338183
 30
0.0
 10
5.0497924946
 20
4.1242393678
 30
0.0
 10
5.0499587942
 20
4.1309633178
 30
0.0
 10
5.0498005366
 20
4.1375233684
 30
0.0
 10
5.0493210223
 20
4.1438511002
 30
0.0
 10
5.04853014
 20
4.1498848521
 30
0.0
 10
5.0474434527
 20
4.1555727094
 30
0.0
 10
5.0460809121
 20
4.1608740091
 30
0.0
 10
5.0444652495
 20
4.1657599754
 30
0.0
 10
5.0426209583
 20
4.1702123414
 30
0.0
 10
5.0412084673
 20
4.1729777934
 30
0.0
 10
5.0404687624
 20
4.1742797516
 30
0.0
  0
SPLINE
  5
29F
100
AcDbEntity
  8
ALL_ASSEMBLY_MEMBERS
100
AcDbSpline
 62
7
  6
CONTINUOUS
 70
0
 71
3
 72
20
 73
16
 74
0
 42
0.0000001
 43
0.0000001
 44
0.0000000001
 40
0.0
 40
0.0
 40
0.0
 40
0.0
 40
0.1316862725
 40
0.2698143381
 40
0.4108393993
 40
0.4809899967
 40
0.5500183879
 40
0.617269831
 40
0.682136329
 40
0.7440912402
 40
0.8027173821
 40
0.8577231255
 40
0.9089462752
 40
0.9563478033
 40
1.0
 40
1.0
 40
1.0
 40
1.0
 10
5.0276709954
 20
4.0868001971
 30
0.0
 10
5.0288348758
 20
4.090929058
 30
0.0
 10
5.0309341432
 20
4.0994717598
 30
0.0
 10
5.033275865
 20
4.112657646
 30
0.0
 10
5.0345171223
 20
4.1239785597
 30
0.0
 10
5.0350308477
 20
4.1330935797
 30
0.0
 10
5.0351621408
 20
4.1398185581
 30
0.0
 10
5.035037496
 20
4.1463715458
 30
0.0
 10
5.0346595577
 20
4.1526841672
 30
0.0
 10
5.0340361988
 20
4.1586950571
 30
0.0
 10
5.0331797736
 20
4.1643527396
 30
0.0
 10
5.0321061003
 20
4.169617148
 30
0.0
 10
5.0308331941
 20
4.1744602038
 30
0.0
 10
5.0293803773
 20
4.1788645519
 30
0.0
 10
5.0282596441
 20
4.1816141634
 30
0.0
 10
5.0276709954
 20
4.1829086034
 30
0.0
  0
SPLINE
  5
2A0
100
AcDbEntity
  8
ALL_ASSEMBLY_MEMBERS
100
AcDbSpline
 62
7
  6
CONTINUOUS
 70
0
 71
3
 72
21
 73
17
 74
0
 42
0.0000001
 43
0.0000001
 44
0.0000000001
 40
0.0
 40
0.0
 40
0.0
 40
0.0
 40
0.1316265876
 40
0.2703889058
 40
0.3413163779
 40
0.4124901786
 40
0.4832312839
 40
0.5528264558
 40
0.6205658805
 40
0.6857949744
 40
0.7479205848
 40
0.8064803032
 40
0.8611135006
 40
0.9116348958
 40
0.9579332584
 40
1.0
 40
1.0
 40
1.0
 40
1.0
 10
5.0114584276
 20
4.0950355489
 30
0.0
 10
5.0123017969
 20
4.0992054241
 30
0.0
 10
5.0138197641
 20
4.1078157534
 30
0.0
 10
5.0152174482
 20
4.1187629884
 30
0.0
 10
5.016041342
 20
4.1278040967
 30
0.0
 10
5.0164963201
 20
4.1346690765
 30
0.0
 10
5.0167735382
 20
4.1415004394
 30
0.0
 10
5.0168687927
 20
4.1482258158
 30
0.0
 10
5.0167785099
 20
4.1547731536
 30
0.0
 10
5.0165063265
 20
4.1610739031
 30
0.0
 10
5.0160562374
 20
4.1670670533
 30
0.0
 10
5.0154390535
 20
4.1727010431
 30
0.0
 10
5.0146645997
 20
4.1779368554
 30
0.0
 10
5.0137470952
 20
4.1827468838
 30
0.0
 10
5.0126994999
 20
4.187113631
 30
0.0
 10
5.011886783
 20
4.1898535544
 30
0.0
 10
5.0114584276
 20
4.1911439551
 30
0.0
  0
SPLINE
  5
2A1
100
AcDbEntity
  8
ALL_ASSEMBLY_MEMBERS
100
AcDbSpline
 62
7
  6
CONTINUOUS
 70
0
 71
3
 72
21
 73
17
 74
0
 42
0.0000001
 43
0.0000001
 44
0.0000000001
 40
0.0
 40
0.0
 40
0.0
 40
0.0
 40
0.1315784606
 40
0.2707826507
 40
0.3420641074
 40
0.4136419062
 40
0.4848063428
 40
0.5548100063
 40
0.6229080267
 40
0.6883987421
 40
0.7506603021
 40
0.8091802146
 40
0.8635719355
 40
0.9135782152
 40
0.9590634363
 40
1.0
 40
1.0
 40
1.0
 40
1.0
 10
4.9920086874
 20
4.1027871724
 30
0.0
 10
4.992519634
 20
4.106985264
 30
0.0
 10
4.9934379706
 20
4.11564137
 30
0.0
 10
4.9942810906
 20
4.1266049087
 30
0.0
 10
4.9947789187
 20
4.135657329
 30
0.0
 10
4.9950536117
 20
4.1425310652
 30
0.0
 10
4.9952213639
 20
4.149367163
 30
0.0
 10
4.9952787008
 20
4.1560932549
 30
0.0
 10
4.9952244453
 20
4.1626370314
 30
0.0
 10
4.9950598081
 20
4.1689300728
 30
0.0
 10
4.994788272
 20
4.1749112963
 30
0.0
 10
4.9944153029
 20
4.1805296347
 30
0.0
 10
4.9939478945
 20
4.1857455992
 30
0.0
 10
4.9933940612
 20
4.1905316909
 30
0.0
 10
4.9927623425
 20
4.194871552
 30
0.0
 10
4.9922693288
 20
4.1976059084
 30
0.0
 10
4.9920086874
 20
4.1988955787
 30
0.0
  0
SPLINE
  5
2A2
100
AcDbEntity
  8
ALL_ASSEMBLY_MEMBERS
100
AcDbSpline
 62
7
  6
CONTINUOUS
 70
0
 71
3
 72
17
 73
13
 74
0
 42
0.0000001
 43
0.0000001
 44
0.0000000001
 40
0.0
 40
0.0
 40
0.0
 40
0.0
 40
0.1315546698
 40
0.2709914102
 40
0.4142421477
 40
0.5558413587
 40
0.6897531504
 40
0.8105875152
 40
0.8648518744
 40
0.9145981589
 40
0.9596660931
 40
1.0
 40
1.0
 40
1.0
 40
1.0
 10
4.9695348703
 20
4.1099701393
 30
0.0
 10
4.9697060225
 20
4.1141827088
 30
0.0
 10
4.970013405
 20
4.1228621282
 30
0.0
 10
4.9703542435
 20
4.1361335223
 30
0.0
 10
4.9705704898
 20
4.1497295067
 30
0.0
 10
4.9706471312
 20
4.1631499607
 30
0.0
 10
4.9705785611
 20
4.1758520662
 30
0.0
 10
4.9703999925
 20
4.1857539526
 30
0.0
 10
4.9701838961
 20
4.1929565865
 30
0.0
 10
4.9699987375
 20
4.1977307185
 30
0.0
 10
4.9697876136
 20
4.2020568523
 30
0.0
 10
4.9696223879
 20
4.2047888965
 30
0.0
 10
4.9695348703
 20
4.2060785456
 30
0.0
  0
SPLINE
  5
2A3
100
AcDbEntity
  8
ALL_ASSEMBLY_MEMBERS
100
AcDbSpline
 62
7
  6
CONTINUOUS
 70
0
 71
3
 72
17
 73
13
 74
0
 42
0.0000001
 43
0.0000001
 44
0.0000000001
 40
0.0
 40
0.0
 40
0.0
 40
0.0
 40
0.040332708
 40
0.0854002609
 40
0.1351457609
 40
0.1894100372
 40
0.3102448128
 40
0.4441584269
 40
0.585760344
 40
0.7290118435
 40
0.8684475774
 40
1.0
 40
1.0
 40
1.0
 40
1.0
 10
4.4624527074
 20
4.2060785456
 30
0.0
 10
4.4623651923
 20
4.2047889349
 30
0.0
 10
4.4621999699
 20
4.2020569412
 30
0.0
 10
4.4619888468
 20
4.1977308832
 30
0.0
 10
4.46180369
 20
4.1929567912
 30
0.0
 10
4.4615875918
 20
4.185754172
 30
0.0
 10
4.4614090225
 20
4.1758522167
 30
0.0
 10
4.4613404378
 20
4.163149953
 30
0.0
 10
4.4614170938
 20
4.1497293294
 30
0.0
 10
4.4616333407
 20
4.1361332662
 30
0.0
 10
4.4619741781
 20
4.1228619519
 30
0.0
 10
4.4622815581
 20
4.1141826368
 30
0.0
 10
4.4624527074
 20
4.1099701393
 30
0.0
  0
SPLINE
  5
2A4
100
AcDbEntity
  8
ALL_ASSEMBLY_MEMBERS
100
AcDbSpline
 62
7
  6
CONTINUOUS
 70
0
 71
3
 72
21
 73
17
 74
0
 42
0.0000001
 43
0.0000001
 44
0.0000000001
 40
0.0
 40
0.0
 40
0.0
 40
0.0
 40
0.0409353491
 40
0.0864201941
 40
0.1364256876
 40
0.1908173293
 40
0.2493373603
 40
0.3115992178
 40
0.377090426
 40
0.4451897805
 40
0.5151950916
 40
0.5863605789
 40
0.6579389712
 40
0.7292205963
 40
0.8684237837
 40
1.0
 40
1.0
 40
1.0
 40
1.0
 10
4.4399788902
 20
4.1988955787
 30
0.0
 10
4.4397182566
 20
4.1976059467
 30
0.0
 10
4.4392252524
 20
4.1948716406
 30
0.0
 10
4.4385935364
 20
4.1905318564
 30
0.0
 10
4.4380397087
 20
4.1857458042
 30
0.0
 10
4.4375722969
 20
4.1805298641
 30
0.0
 10
4.4371993291
 20
4.1749115148
 30
0.0
 10
4.4369277843
 20
4.1689302626
 30
0.0
 10
4.4367631283
 20
4.1626371534
 30
0.0
 10
4.4367088625
 20
4.1560932652
 30
0.0
 10
4.4367662095
 20
4.1493670437
 30
0.0
 10
4.4369339802
 20
4.1425308406
 30
0.0
 10
4.4372086816
 20
4.1356570465
 30
0.0
 10
4.4377065083
 20
4.126604634
 30
0.0
 10
4.4385496235
 20
4.1156411941
 30
0.0
 10
4.4394679524
 20
4.1069851923
 30
0.0
 10
4.4399788902
 20
4.1027871724
 30
0.0
  0
SPLINE
  5
2A5
100
AcDbEntity
  8
ALL_ASSEMBLY_MEMBERS
100
AcDbSpline
 62
7
  6
CONTINUOUS
 70
0
 71
3
 72
21
 73
17
 74
0
 42
0.0000001
 43
0.0000001
 44
0.0000000001
 40
0.0
 40
0.0
 40
0.0
 40
0.0
 40
0.042066702
 40
0.0883650419
 40
0.138886534
 40
0.1935198195
 40
0.2520795129
 40
0.3142050749
 40
0.3794341321
 40
0.4471735444
 40
0.5167687042
 40
0.587509767
 40
0.6586834969
 40
0.7296109457
 40
0.8683734958
 40
1.0
 40
1.0
 40
1.0
 40
1.0
 10
4.42052915
 20
4.1911439551
 30
0.0
 10
4.4201007951
 20
4.1898535556
 30
0.0
 10
4.4192880778
 20
4.1871136344
 30
0.0
 10
4.4182404823
 20
4.1827468861
 30
0.0
 10
4.4173229786
 20
4.1779368521
 30
0.0
 10
4.4165485232
 20
4.1727010349
 30
0.0
 10
4.4159313386
 20
4.1670670447
 30
0.0
 10
4.4154812511
 20
4.1610738979
 30
0.0
 10
4.4152090677
 20
4.1547731516
 30
0.0
 10
4.415118785
 20
4.1482258157
 30
0.0
 10
4.4152140394
 20
4.1415004415
 30
0.0
 10
4.4154912574
 20
4.1346690827
 30
0.0
 10
4.415946234
 20
4.1278041073
 30
0.0
 10
4.4167701295
 20
4.1187629946
 30
0.0
 10
4.4181678124
 20
4.1078157554
 30
0.0
 10
4.4196857813
 20
4.0992054215
 30
0.0
 10
4.42052915
 20
4.0950355489
 30
0.0
  0
SPLINE
  5
2A6
100
AcDbEntity
  8
ALL_ASSEMBLY_MEMBERS
100
AcDbSpline
 62
7
  6
CONTINUOUS
 70
0
 71
3
 72
20
 73
16
 74
0
 42
0.0000001
 43
0.0000001
 44
0.0000000001
 40
0.0
 40
0.0
 40
0.0
 40
0.0
 40
0.0436509108
 40
0.0910520847
 40
0.1422744405
 40
0.1972801213
 40
0.2559063862
 40
0.3178616154
 40
0.3827286321
 40
0.4499814042
 40
0.5190114175
 40
0.5891630539
 40
0.7301888784
 40
0.8683159595
 40
1.0
 40
1.0
 40
1.0
 40
1.0
 10
4.4043165823
 20
4.1829086034
 30
0.0
 10
4.4037279509
 20
4.1816142015
 30
0.0
 10
4.4026072393
 20
4.1788646395
 30
0.0
 10
4.4011544299
 20
4.1744603724
 30
0.0
 10
4.3998815358
 20
4.1696173543
 30
0.0
 10
4.3988078548
 20
4.164352972
 30
0.0
 10
4.3979514324
 20
4.1586952766
 30
0.0
 10
4.3973280538
 20
4.152684358
 30
0.0
 10
4.3969500725
 20
4.1463716686
 30
0.0
 10
4.3968254039
 20
4.139818568
 30
0.0
 10
4.39695672
 20
4.1330934597
 30
0.0
 10
4.3974705012
 20
4.1239783315
 30
0.0
 10
4.3987117577
 20
4.1126573923
 30
0.0
 10
4.4010534718
 20
4.0994715856
 30
0.0
 10
4.4031527216
 20
4.0909289879
 30
0.0
 10
4.4043165823
 20
4.0868001971
 30
0.0
  0
SPLINE
  5
2A7
100
AcDbEntity
  8
ALL_ASSEMBLY_MEMBERS
100
AcDbSpline
 62
7
  6
CONTINUOUS
 70
0
 71
3
 72
20
 73
16
 74
0
 42
0.0000001
 43
0.0000001
 44
0.0000000001
 40
0.0
 40
0.0
 40
0.0
 40
0.0
 40
0.0455258481
 40
0.0942824965
 40
0.1463873403
 40
0.2018556518
 40
0.2605829923
 40
0.322340394
 40
0.3867765681
 40
0.4534332119
 40
0.5217696189
 40
0.5911960203
 40
0.7309058826
 40
0.8682535379
 40
1.0
 40
1.0
 40
1.0
 40
1.0
 10
4.3915188152
 20
4.1742797516
 30
0.0
 10
4.3907791321
 20
4.1729778317
 30
0.0
 10
4.3893666679
 20
4.1702124284
 30
0.0
 10
4.3875223874
 20
4.1657601463
 30
0.0
 10
4.3859067394
 20
4.1608742166
 30
0.0
 10
4.3845441895
 20
4.1555729441
 30
0.0
 10
4.3834575054
 20
4.1498850725
 30
0.0
 10
4.3826665984
 20
4.1438512918
 30
0.0
 10
4.3821870296
 20
4.1375234919
 30
0.0
 10
4.3820287417
 20
4.1309633273
 30
0.0
 10
4.3821950705
 20
4.1242392472
 30
0.0
 10
4.3828463712
 20
4.1151335914
 30
0.0
 10
4.3844227516
 20
4.1038309213
 30
0.0
 10
4.3873952647
 20
4.0907033413
 30
0.0
 10
4.3900502489
 20
4.0822481249
 30
0.0
 10
4.3915188152
 20
4.0781713454
 30
0.0
  0
SPLINE
  5
2A8
100
AcDbEntity
  8
ALL_ASSEMBLY_MEMBERS
100
AcDbSpline
 62
7
  6
CONTINUOUS
 70
0
 71
3
 72
20
 73
16
 74
0
 42
0.0000001
 43
0.0000001
 44
0.0000000001
 40
0.0
 40
0.0
 40
0.0
 40
0.0
 40
0.0475770528
 40
0.0978456455
 40
0.1509561947
 40
0.2069697281
 40
0.2658380104
 40
0.3273969226
 40
0.3913665127
 40
0.4573638999
 40
0.5249251739
 40
0.5935358371
 40
0.731755573
 40
0.8682094824
 40
1.0
 40
1.0
 40
1.0
 40
1.0
 10
4.3822760638
 20
4.1653519394
 30
0.0
 10
4.3813953716
 20
4.1640379223
 30
0.0
 10
4.3797099039
 20
4.1612494141
 30
0.0
 10
4.3774934283
 20
4.1567400449
 30
0.0
 10
4.3755516653
 20
4.1518029199
 30
0.0
 10
4.373914147
 20
4.146457428
 30
0.0
 10
4.3726082316
 20
4.1407332461
 30
0.0
 10
4.3716577939
 20
4.1346718806
 30
0.0
 10
4.3710814492
 20
4.128325843
 30
0.0
 10
4.3708910459
 20
4.1217572184
 30
0.0
 10
4.371090535
 20
4.1150345748
 30
0.0
 10
4.3718724457
 20
4.1059412106
 30
0.0
 10
4.3737689475
 20
4.0946628758
 30
0.0
 10
4.3773430175
 20
4.0816089622
 30
0.0
 10
4.380521949
 20
4.0732589131
 30
0.0
 10
4.3822760638
 20
4.0692435331
 30
0.0
  0
SPLINE
  5
2A9
100
AcDbEntity
  8
ALL_ASSEMBLY_MEMBERS
100
AcDbSpline
 62
7
  6
CONTINUOUS
 70
0
 71
3
 72
13
 73
9
 74
0
 42
0.0000001
 43
0.0000001
 44
0.0000000001
 40
0.0
 40
0.0
 40
0.0
 40
0.0
 40
0.2493664534
 40
0.5039421035
 40
0.6312012046
 40
0.7569837382
 40
0.8802282982
 40
1.0
 40
1.0
 40
1.0
 40
1.0
 10
5.0571669663
 20
4.0508844909
 30
0.0
 10
5.0599638542
 20
4.0556811734
 30
0.0
 10
5.0649238786
 20
4.0657973569
 30
0.0
 10
5.069138163
 20
4.079272534
 30
0.0
 10
5.0711432184
 20
4.0904084651
 30
0.0
 10
5.0719017963
 20
4.0987645087
 30
0.0
 10
5.0718900993
 20
4.1069877991
 30
0.0
 10
5.0713594896
 20
4.1123834864
 30
0.0
 10
5.0709620312
 20
4.1150206119
 30
0.0
  0
SPLINE
  5
2AA
100
AcDbEntity
  8
ALL_ASSEMBLY_MEMBERS
100
AcDbSpline
 62
7
  6
CONTINUOUS
 70
0
 71
3
 72
16
 73
12
 74
0
 42
0.0000001
 43
0.0000001
 44
0.0000000001
 40
0.0
 40
0.0
 40
0.0
 40
0.0
 40
0.1367236791
 40
0.204136953
 40
0.2707935882
 40
0.4015214748
 40
0.5285519448
 40
0.6517327385
 40
0.7711522012
 40
0.8870969149
 40
1.0
 40
1.0
 40
1.0
 40
1.0
 10
5.0710362507
 20
4.112973359
 30
0.0
 10
5.0712945029
 20
4.1103991382
 30
0.0
 10
5.0715040849
 20
4.1065344582
 30
0.0
 10
5.071409183
 20
4.1014097222
 30
0.0
 10
5.0710705752
 20
4.0964087939
 30
0.0
 10
5.0701982175
 20
4.0903207949
 30
0.0
 10
5.0684403224
 20
4.0833166922
 30
0.0
 10
5.0660227344
 20
4.0767391248
 30
0.0
 10
5.0630023696
 20
4.070648898
 30
0.0
 10
5.0594441104
 20
4.0650873268
 30
0.0
 10
5.0567241416
 20
4.0617052597
 30
0.0
 10
5.0552979839
 20
4.0601145754
 30
0.0
  0
SPLINE
  5
2AB
100
AcDbEntity
  8
ALL_ASSEMBLY_MEMBERS
100
AcDbSpline
 62
7
  6
CONTINUOUS
 70
0
 71
3
 72
9
 73
5
 74
0
 42
0.0000001
 43
0.0000001
 44
0.0000000001
 40
0.0
 40
0.0
 40
0.0
 40
0.0
 40
0.488103212
 40
1.0
 40
1.0
 40
1.0
 40
1.0
 10
4.3766895937
 20
4.0416544064
 30
0.0
 10
4.375563552
 20
4.0431369117
 30
0.0
 10
4.37341626
 20
4.0462982532
 30
0.0
 10
4.3715989472
 20
4.049659475
 30
0.0
 10
4.370752862
 20
4.0514190379
 30
0.0
  0
SPLINE
  5
2AC
100
AcDbEntity
  8
ALL_ASSEMBLY_MEMBERS
100
AcDbSpline
 62
7
  6
CONTINUOUS
 70
0
 71
3
 72
51
 73
47
 74
0
 42
0.0000001
 43
0.0000001
 44
0.0000000001
 40
0.0
 40
0.0
 40
0.0
 40
0.0
 40
0.0053909301
 40
0.0109006586
 40
0.016637165
 40
0.0226958415
 40
0.0291565913
 40
0.0360833436
 40
0.043524691
 40
0.0515172747
 40
0.0600873273
 40
0.0692528005
 40
0.0790252624
 40
0.0894101933
 40
0.1004091277
 40
0.1120193927
 40
0.1242351977
 40
0.1370482425
 40
0.1504473058
 40
0.1644196287
 40
0.1789500984
 40
0.1940220982
 40
0.2257155757
 40
0.2593401063
 40
0.2947153148
 40
0.3316449811
 40
0.369919539
 40
0.4093182996
 40
0.4496115058
 40
0.490562311
 40
0.5319287909
 40
0.5734658464
 40
0.6149270678
 40
0.6560665975
 40
0.6966410453
 40
0.7364114247
 40
0.7751450518
 40
0.8126174901
 40
0.8486145763
 40
0.8829346475
 40
0.9153910016
 40
0.9458145638
 40
0.9602176766
 40
0.9740589516
 40
0.9873238583
 40
1.0
 40
1.0
 40
1.0
 40
1.0
 10
5.0354937888
 20
4.0289090716
 30
0.0
 10
5.0354937888
 20
4.0300112146
 30
0.0
 10
5.0353197383
 20
4.0322434285
 30
0.0
 10
5.034542402
 20
4.0355668383
 30
0.0
 10
5.0332520771
 20
4.0388729025
 30
0.0
 10
5.0314547854
 20
4.0421543554
 30
0.0
 10
5.0291566699
 20
4.045407691
 30
0.0
 10
5.026362732
 20
4.0486293076
 30
0.0
 10
5.0230783997
 20
4.0518162005
 30
0.0
 10
5.0193086152
 20
4.0549642978
 30
0.0
 10
5.0150592455
 20
4.0580696822
 30
0.0
 10
5.0103366996
 20
4.0611281809
 30
0.0
 10
5.0051479856
 20
4.0641351059
 30
0.0
 10
4.9995011541
 20
4.0670862827
 30
0.0
 10
4.9934047626
 20
4.0699768668
 30
0.0
 10
4.9868683319
 20
4.0728025217
 30
0.0
 10
4.9799020436
 20
4.07555881
 30
0.0
 10
4.9725167784
 20
4.0782411925
 30
0.0
 10
4.9647242001
 20
4.0808456745
 30
0.0
 10
4.9565365476
 20
4.0833678245
 30
0.0
 10
4.9479667782
 20
4.0858038521
 30
0.0
 10
4.9358449674
 20
4.0889850893
 30
0.0
 10
4.9198309793
 20
4.0926994002
 30
0.0
 10
4.8996310404
 20
4.0966846566
 30
0.0
 10
4.8782658449
 20
4.1002434656
 30
0.0
 10
4.855870849
 20
4.1033528781
 30
0.0
 10
4.8325878487
 20
4.1059927612
 30
0.0
 10
4.8085645166
 20
4.1081460594
 30
0.0
 10
4.7839533
 20
4.1097988549
 30
0.0
 10
4.758910462
 20
4.1109405116
 30
0.0
 10
4.7335950411
 20
4.111563682
 30
0.0
 10
4.7081678212
 20
4.1116643525
 30
0.0
 10
4.6827903072
 20
4.1112418683
 30
0.0
 10
4.6576236925
 20
4.1102989285
 30
0.0
 10
4.6328278122
 20
4.1088416172
 30
0.0
 10
4.6085601028
 20
4.1068793476
 30
0.0
 10
4.584974592
 20
4.1044247809
 30
0.0
 10
4.5622208965
 20
4.1014937651
 30
0.0
 10
4.5404432856
 20
4.0981052198
 30
0.0
 10
4.519779522
 20
4.09428109
 30
0.0
 10
4.5003604734
 20
4.0900460809
 30
0.0
 10
4.4850490784
 20
4.0861293628
 30
0.0
 10
4.473527185
 20
4.0827933408
 30
0.0
 10
4.4654295552
 20
4.0802517737
 30
0.0
 10
4.4577299653
 20
4.0776289607
 30
0.0
 10
4.4527558481
 20
4.075786736
 30
0.0
 10
4.4503392477
 20
4.0748506658
 30
0.0
  0
SPLINE
  5
2AD
100
AcDbEntity
  8
ALL_ASSEMBLY_MEMBERS
100
AcDbSpline
 62
7
  6
CONTINUOUS
 70
0
 71
3
 72
24
 73
20
 74
0
 42
0.0000001
 43
0.0000001
 44
0.0000000001
 40
0.0
 40
0.0
 40
0.0
 40
0.0
 40
0.0920266735
 40
0.1797949105
 40
0.2632687189
 40
0.3424316544
 40
0.4172929163
 40
0.4878841536
 40
0.5542721722
 40
0.6165619451
 40
0.6749019948
 40
0.729500892
 40
0.7806319447
 40
0.8050117519
 40
0.8286658931
 40
0.8740210229
 40
0.9172591389
 40
0.9590161741
 40
1.0
 40
1.0
 40
1.0
 40
1.0
 10
4.4503392477
 20
4.0748506658
 30
0.0
 10
4.4482099251
 20
4.0740258727
 30
0.0
 10
4.444070634
 20
4.0723598667
 30
0.0
 10
4.4380837442
 20
4.0697436791
 30
0.0
 10
4.4324725777
 20
4.0670723931
 30
0.0
 10
4.4272446853
 20
4.0643494711
 30
0.0
 10
4.42240683
 20
4.0615787464
 30
0.0
 10
4.4179654458
 20
4.0587635697
 30
0.0
 10
4.4139262636
 20
4.0559075684
 30
0.0
 10
4.4102944136
 20
4.0530143555
 30
0.0
 10
4.4070747766
 20
4.0500869088
 30
0.0
 10
4.4042716001
 20
4.047128963
 30
0.0
 10
4.4022546836
 20
4.0446017296
 30
0.0
 10
4.4008652686
 20
4.0425697267
 30
0.0
 10
4.3996572135
 20
4.0405912833
 30
0.0
 10
4.3983995728
 20
4.0380987814
 30
0.0
 10
4.3973021677
 20
4.0350468595
 30
0.0
 10
4.3966415261
 20
4.0319819611
 30
0.0
 10
4.3964937888
 20
4.0299260149
 30
0.0
 10
4.3964937888
 20
4.0289090716
 30
0.0
  0
SPLINE
  5
2AE
100
AcDbEntity
  8
ALL_ASSEMBLY_MEMBERS
100
AcDbSpline
 62
7
  6
CONTINUOUS
 70
0
 71
3
 72
17
 73
13
 74
0
 42
0.0000001
 43
0.0000001
 44
0.0000000001
 40
0.0
 40
0.0
 40
0.0
 40
0.0
 40
0.0497340646
 40
0.0998536896
 40
0.1507184213
 40
0.2026711054
 40
0.3110210935
 40
0.4272419797
 40
0.553112265
 40
0.6899491821
 40
0.8386980676
 40
1.0
 40
1.0
 40
1.0
 40
1.0
 10
5.0354937888
 20
4.0289090716
 30
0.0
 10
5.0354937888
 20
4.0282662767
 30
0.0
 10
5.0354353665
 20
4.0269749571
 30
0.0
 10
5.0351731787
 20
4.0250422644
 30
0.0
 10
5.0347366155
 20
4.0231118214
 30
0.0
 10
5.033911509
 20
4.020507359
 30
0.0
 10
5.0324168719
 20
4.0172440376
 30
0.0
 10
5.0299601425
 20
4.0134240569
 30
0.0
 10
5.0268249888
 20
4.009648185
 30
0.0
 10
5.0230205351
 20
4.0059212664
 30
0.0
 10
5.0185550277
 20
4.0022486181
 30
0.0
 10
5.0152783559
 20
3.9999355076
 30
0.0
 10
5.0135397254
 20
3.9987851043
 30
0.0
  0
SPLINE
  5
2AF
100
AcDbEntity
  8
ALL_ASSEMBLY_MEMBERS
100
AcDbSpline
 62
7
  6
CONTINUOUS
 70
0
 71
3
 72
33
 73
29
 74
0
 42
0.0000001
 43
0.0000001
 44
0.0000000001
 40
0.0
 40
0.0
 40
0.0
 40
0.0
 40
0.0972319333
 40
0.1912628728
 40
0.2815647626
 40
0.3677240452
 40
0.4493613417
 40
0.5261185309
 40
0.5625656571
 40
0.597678681
 40
0.6314269884
 40
0.6637823066
 40
0.6947225569
 40
0.7242318374
 40
0.7522980584
 40
0.7789142062
 40
0.8040834253
 40
0.8278184457
 40
0.8501407527
 40
0.8710835694
 40
0.8906985635
 40
0.909056407
 40
0.9262487927
 40
0.9423938087
 40
0.9576426468
 40
0.97217904
 40
0.9862177382
 40
1.0
 40
1.0
 40
1.0
 40
1.0
 10
4.6095394163
 20
3.9623982821
 30
0.0
 10
4.6033280899
 20
3.9630642422
 30
0.0
 10
4.5911236627
 20
3.9645071558
 30
0.0
 10
4.5732117039
 20
3.9670502026
 30
0.0
 10
4.5560708924
 20
3.9699266763
 30
0.0
 10
4.5397965367
 20
3.9731192853
 30
0.0
 10
4.5244748944
 20
3.9766113782
 30
0.0
 10
4.5123682675
 20
3.979806801
 30
0.0
 10
4.5032304578
 20
3.9825112839
 30
0.0
 10
4.4967839578
 20
3.9845670982
 30
0.0
 10
4.4906341095
 20
3.9866825851
 30
0.0
 10
4.4847893031
 20
3.9888551482
 30
0.0
 10
4.4792573498
 20
3.9910818323
 30
0.0
 10
4.4740454482
 20
3.9933594259
 30
0.0
 10
4.4691605548
 20
3.9956848589
 30
0.0
 10
4.4646093923
 20
3.9980553497
 30
0.0
 10
4.4603978924
 20
4.0004676606
 30
0.0
 10
4.4565313347
 20
4.0029184701
 30
0.0
 10
4.4530147756
 20
4.0054046755
 30
0.0
 10
4.4498531397
 20
4.0079236264
 30
0.0
 10
4.4470503688
 20
4.0104721957
 30
0.0
 10
4.4446098787
 20
4.0130474503
 30
0.0
 10
4.4425351651
 20
4.0156468364
 30
0.0
 10
4.4408302259
 20
4.0182682542
 30
0.0
 10
4.4394982655
 20
4.0209087845
 30
0.0
 10
4.4385426376
 20
4.023565471
 30
0.0
 10
4.437967146
 20
4.02623361
 30
0.0
 10
4.437838927
 20
4.0280235929
 30
0.0
 10
4.4378390263
 20
4.0289090711
 30
0.0
  0
SPLINE
  5
2B0
100
AcDbEntity
  8
ALL_ASSEMBLY_MEMBERS
100
AcDbSpline
 62
7
  6
CONTINUOUS
 70
0
 71
3
 72
51
 73
47
 74
0
 42
0.0000001
 43
0.0000001
 44
0.0000000001
 40
0.0
 40
0.0
 40
0.0
 40
0.0
 40
0.0081850681
 40
0.0158996674
 40
0.0231806564
 40
0.0300742552
 40
0.0366374093
 40
0.0429370831
 40
0.0490498213
 40
0.0550602964
 40
0.0610582301
 40
0.0671337041
 40
0.0733730922
 40
0.0798558797
 40
0.0866519472
 40
0.0938202441
 40
0.1014097294
 40
0.1094604852
 40
0.1180044676
 40
0.1270655095
 40
0.1366616097
 40
0.1468062966
 40
0.1575093407
 40
0.1687759592
 40
0.1806079793
 40
0.1930051907
 40
0.2194831036
 40
0.2481691807
 40
0.2789960201
 40
0.311875665
 40
0.3467021521
 40
0.3833568992
 40
0.4217062495
 40
0.4616086631
 40
0.5029101735
 40
0.5454514232
 40
0.5890635589
 40
0.6335735225
 40
0.678802887
 40
0.7245699433
 40
0.7706886157
 40
0.8169692343
 40
0.863226491
 40
0.9092814515
 40
0.9549445127
 40
1.0
 40
1.0
 40
1.0
 40
1.0
 10
4.9835506358
 20
4.0479625043
 30
0.0
 10
4.9843364011
 20
4.0472233156
 30
0.0
 10
4.9858187055
 20
4.045739318
 30
0.0
 10
4.9878181161
 20
4.0434253281
 30
0.0
 10
4.9895228015
 20
4.0410933205
 30
0.0
 10
4.9909299594
 20
4.0387451835
 30
0.0
 10
4.9920376883
 20
4.0363832033
 30
0.0
 10
4.9928437584
 20
4.034009769
 30
0.0
 10
4.9933458338
 20
4.031627796
 30
0.0
 10
4.9935415672
 20
4.0292409227
 30
0.0
 10
4.9934306212
 20
4.0268535058
 30
0.0
 10
4.9930137702
 20
4.0244697814
 30
0.0
 10
4.9922924309
 20
4.0220935414
 30
0.0
 10
4.9912682381
 20
4.0197280964
 30
0.0
 10
4.9899436157
 20
4.0173760726
 30
0.0
 10
4.988321415
 20
4.0150394023
 30
0.0
 10
4.9864039685
 20
4.0127200137
 30
0.0
 10
4.9841933944
 20
4.0104199102
 30
0.0
 10
4.9816919459
 20
4.0081413048
 30
0.0
 10
4.978902663
 20
4.0058859917
 30
0.0
 10
4.9758285773
 20
4.0036561063
 30
0.0
 10
4.972472789
 20
4.0014538756
 30
0.0
 10
4.9688385667
 20
3.999281791
 30
0.0
 10
4.9649298792
 20
3.9971419751
 30
0.0
 10
4.9607510568
 20
3.9950365179
 30
0.0
 10
4.9546910929
 20
3.9922159891
 30
0.0
 10
4.9464584361
 20
3.9888103873
 30
0.0
 10
4.9357879275
 20
3.9849799611
 30
0.0
 10
4.9241645355
 20
3.9813381852
 30
0.0
 10
4.9116383032
 20
3.9779009767
 30
0.0
 10
4.898262887
 20
3.9746831606
 30
0.0
 10
4.8840960056
 20
3.9716995363
 30
0.0
 10
4.869198915
 20
3.9689624253
 30
0.0
 10
4.8536361558
 20
3.9664848747
 30
0.0
 10
4.8374752094
 20
3.9642767496
 30
0.0
 10
4.8207862529
 20
3.9623488143
 30
0.0
 10
4.8036417918
 20
3.9607085834
 30
0.0
 10
4.786116308
 20
3.9593640625
 30
0.0
 10
4.7682858592
 20
3.9583205635
 30
0.0
 10
4.7502279533
 20
3.9575831106
 30
0.0
 10
4.7320215008
 20
3.9571547367
 30
0.0
 10
4.713745785
 20
3.9570371142
 30
0.0
 10
4.6954791226
 20
3.9572311858
 30
0.0
 10
4.6772997976
 20
3.9577358893
 30
0.0
 10
4.6592902721
 20
3.9585494115
 30
0.0
 10
4.6473562184
 20
3.9593002462
 30
0.0
 10
4.6414332324
 20
3.9597278624
 30
0.0
  0
SPLINE
  5
2B1
100
AcDbEntity
  8
ALL_ASSEMBLY_MEMBERS
100
AcDbSpline
 62
7
  6
CONTINUOUS
 70
0
 71
3
 72
9
 73
5
 74
0
 42
0.0000001
 43
0.0000001
 44
0.0000000001
 40
0.0
 40
0.0
 40
0.0
 40
0.0
 40
0.4981736422
 40
1.0
 40
1.0
 40
1.0
 40
1.0
 10
5.0497115138
 20
4.1653519394
 30
0.0
 10
5.0516384226
 20
4.1626622981
 30
0.0
 10
5.0552534842
 20
4.1570770776
 30
0.0
 10
5.0582904979
 20
4.1511551118
 30
0.0
 10
5.0596504642
 20
4.1481122904
 30
0.0
  0
SPLINE
  5
2B2
100
AcDbEntity
  8
ALL_ASSEMBLY_MEMBERS
100
AcDbSpline
 62
7
  6
CONTINUOUS
 70
0
 71
3
 72
20
 73
16
 74
0
 42
0.0000001
 43
0.0000001
 44
0.0000000001
 40
0.0
 40
0.0
 40
0.0
 40
0.0
 40
0.1340366739
 40
0.2670917392
 40
0.3980103494
 40
0.4623848795
 40
0.5258733284
 40
0.5884088305
 40
0.6499529075
 40
0.7105015028
 40
0.7700803896
 40
0.8287402224
 40
0.8865521833
 40
0.9436100231
 40
1.0
 40
1.0
 40
1.0
 40
1.0
 10
5.0606539098
 20
4.1457821098
 30
0.0
 10
5.0620533991
 20
4.1424050697
 30
0.0
 10
5.0644426458
 20
4.1355004262
 30
0.0
 10
5.0666602426
 20
4.1248444459
 30
0.0
 10
5.0672777129
 20
4.1158778798
 30
0.0
 10
5.0669951905
 20
4.1088205576
 30
0.0
 10
5.0664055121
 20
4.1036564555
 30
0.0
 10
5.0654445952
 20
4.0986271046
 30
0.0
 10
5.0641246438
 20
4.0937627712
 30
0.0
 10
5.0624624997
 20
4.0890900282
 30
0.0
 10
5.0604776023
 20
4.0846310165
 30
0.0
 10
5.0581917278
 20
4.0804033762
 30
0.0
 10
5.0556280293
 20
4.0764198556
 30
0.0
 10
5.0528103348
 20
4.0726896293
 30
0.0
 10
5.050767028
 20
4.0703620341
 30
0.0
 10
5.0497115138
 20
4.0692435331
 30
0.0
  0
SPLINE
  5
2B3
100
AcDbEntity
  8
ALL_ASSEMBLY_MEMBERS
100
AcDbSpline
 62
7
  6
CONTINUOUS
 70
0
 71
3
 72
9
 73
5
 74
0
 42
0.0000001
 43
0.0000001
 44
0.0000000001
 40
0.0
 40
0.0
 40
0.0
 40
0.0
 40
0.2494676516
 40
1.0
 40
1.0
 40
1.0
 40
1.0
 10
5.0404687624
 20
4.1742797516
 30
0.0
 10
5.0411066048
 20
4.1734585218
 30
0.0
 10
5.0436126058
 20
4.170127547
 30
0.0
 10
5.045908819
 20
4.1666378853
 30
0.0
 10
5.0474940613
 20
4.1639408846
 30
0.0
  0
SPLINE
  5
2B4
100
AcDbEntity
  8
ALL_ASSEMBLY_MEMBERS
100
AcDbSpline
 62
7
  6
CONTINUOUS
 70
0
 71
3
 72
21
 73
17
 74
0
 42
0.0000001
 43
0.0000001
 44
0.0000000001
 40
0.0
 40
0.0
 40
0.0
 40
0.0
 40
0.1318400644
 40
0.2631590945
 40
0.3283586728
 40
0.393049101
 40
0.457116179
 40
0.5204658214
 40
0.5830320026
 40
0.6447815933
 40
0.7057135067
 40
0.7658581129
 40
0.8252749612
 40
0.8840411944
 40
0.9422526683
 40
1.0
 40
1.0
 40
1.0
 40
1.0
 10
5.0474940613
 20
4.1639408846
 30
0.0
 10
5.0495590708
 20
4.1604276475
 30
0.0
 10
5.05322373
 20
4.1531331713
 30
0.0
 10
5.0564454035
 20
4.1434655679
 30
0.0
 10
5.0580872464
 20
4.1355526571
 30
0.0
 10
5.0588293339
 20
4.1295965745
 30
0.0
 10
5.0590716351
 20
4.1236564799
 30
0.0
 10
5.0588095673
 20
4.1177826419
 30
0.0
 10
5.0580475226
 20
4.1120246789
 30
0.0
 10
5.0567981599
 20
4.1064289719
 30
0.0
 10
5.0550813567
 20
4.1010371388
 30
0.0
 10
5.0529233017
 20
4.0958845467
 30
0.0
 10
5.050354773
 20
4.090999656
 30
0.0
 10
5.0474091895
 20
4.0864035706
 30
0.0
 10
5.0441215415
 20
4.0821113966
 30
0.0
 10
5.0417160223
 20
4.0794482431
 30
0.0
 10
5.0404687624
 20
4.0781713454
 30
0.0
  0
SPLINE
  5
2B5
100
AcDbEntity
  8
ALL_ASSEMBLY_MEMBERS
100
AcDbSpline
 62
7
  6
CONTINUOUS
 70
0
 71
3
 72
23
 73
19
 74
0
 42
0.0000001
 43
0.0000001
 44
0.0000000001
 40
0.0
 40
0.0
 40
0.0
 40
0.0
 40
0.0650430332
 40
0.1301180161
 40
0.1951352185
 40
0.2599969436
 40
0.3245942247
 40
0.3888164782
 40
0.4525591578
 40
0.5157349882
 40
0.5782828726
 40
0.6401743126
 40
0.7014155693
 40
0.7620452348
 40
0.8221295689
 40
0.8817530574
 40
0.9410121052
 40
1.0
 40
1.0
 40
1.0
 40
1.0
 10
5.0276709954
 20
4.1829086034
 30
0.0
 10
5.0291412891
 20
4.1811408865
 30
0.0
 10
5.0319596374
 20
4.1774999014
 30
0.0
 10
5.035768916
 20
4.1717413774
 30
0.0
 10
5.0391116679
 20
4.1657061209
 30
0.0
 10
5.0419361765
 20
4.1594293685
 30
0.0
 10
5.0441938718
 20
4.1529560623
 30
0.0
 10
5.0458420626
 20
4.146341387
 30
0.0
 10
5.0468470528
 20
4.1396490636
 30
0.0
 10
5.0471869404
 20
4.1329489609
 30
0.0
 10
5.0468537
 20
4.126313699
 30
0.0
 10
5.0458542371
 20
4.1198147519
 30
0.0
 10
5.0442096174
 20
4.1135185968
 30
0.0
 10
5.0419531208
 20
4.1074834816
 30
0.0
 10
5.0391274834
 20
4.10175734
 30
0.0
 10
5.0357816445
 20
4.0963764319
 30
0.0
 10
5.0319680567
 20
4.0913665146
 30
0.0
 10
5.0291428204
 20
4.0882772996
 30
0.0
 10
5.0276709954
 20
4.0868001971
 30
0.0
  0
SPLINE
  5
2B6
100
AcDbEntity
  8
ALL_ASSEMBLY_MEMBERS
100
AcDbSpline
 62
7
  6
CONTINUOUS
 70
0
 71
3
 72
21
 73
17
 74
0
 42
0.0000001
 43
0.0000001
 44
0.0000000001
 40
0.0
 40
0.0
 40
0.0
 40
0.0
 40
0.064652745
 40
0.1292647257
 40
0.2577994791
 40
0.3217246604
 40
0.3853015534
 40
0.4484751348
 40
0.5112087605
 40
0.573490921
 40
0.6353368259
 40
0.6967770383
 40
0.7578650363
 40
0.818661941
 40
0.8792706366
 40
1.0
 40
1.0
 40
1.0
 40
1.0
 10
5.0114584276
 20
4.1911439551
 30
0.0
 10
5.012977603
 20
4.1894191534
 30
0.0
 10
5.015891075
 20
4.1858581455
 30
0.0
 10
5.0211377973
 20
4.1783365648
 30
0.0
 10
5.0254356638
 20
4.1702087081
 30
0.0
 10
5.0285533338
 20
4.1616455378
 30
0.0
 10
5.0302606135
 20
4.1550738357
 30
0.0
 10
5.0312986889
 20
4.1484065788
 30
0.0
 10
5.0316510662
 20
4.1417136151
 30
0.0
 10
5.0313036455
 20
4.1350674295
 30
0.0
 10
5.0302696172
 20
4.1285395479
 30
0.0
 10
5.0285650105
 20
4.1221980639
 30
0.0
 10
5.0262306319
 20
4.1161011735
 30
0.0
 10
5.0233050394
 20
4.1102978075
 30
0.0
 10
5.0186982134
 20
4.103014721
 30
0.0
 10
5.014498411
 20
4.0980653581
 30
0.0
 10
5.0114584276
 20
4.0950355489
 30
0.0
  0
SPLINE
  5
2B7
100
AcDbEntity
  8
ALL_ASSEMBLY_MEMBERS
100
AcDbSpline
 62
7
  6
CONTINUOUS
 70
0
 71
3
 72
23
 73
19
 74
0
 42
0.0000001
 43
0.0000001
 44
0.0000000001
 40
0.0
 40
0.0
 40
0.0
 40
0.0
 40
0.0641294925
 40
0.1280988115
 40
0.1918671329
 40
0.2554003678
 40
0.3186670829
 40
0.3816451824
 40
0.4443243713
 40
0.5067101875
 40
0.5688246638
 40
0.630704852
 40
0.6923992324
 40
0.7539627169
 40
0.815452858
 40
0.8769241022
 40
0.938427225
 40
1.0
 40
1.0
 40
1.0
 40
1.0
 10
4.9920086874
 20
4.1988955787
 30
0.0
 10
4.9935615331
 20
4.1972130573
 30
0.0
 10
4.9965395379
 20
4.1937350592
 30
0.0
 10
5.0005716737
 20
4.1881882079
 30
0.0
 10
5.0041103499
 20
4.1823375391
 30
0.0
 10
5.00710055
 20
4.1762153882
 30
0.0
 10
5.0094905774
 20
4.1698640606
 30
0.0
 10
5.0112349436
 20
4.1633366344
 30
0.0
 10
5.0122977704
 20
4.1566954127
 30
0.0
 10
5.0126558372
 20
4.1500096389
 30
0.0
 10
5.012300844
 20
4.1433520968
 30
0.0
 10
5.0112405058
 20
4.1367951047
 30
0.0
 10
5.0094976351
 20
4.1304065081
 30
0.0
 10
5.0071079433
 20
4.1242463073
 30
0.0
 10
5.0041169964
 20
4.118364472
 30
0.0
 10
5.0005767255
 20
4.1127995261
 30
0.0
 10
4.9965425242
 20
4.1075796372
 30
0.0
 10
4.9935619412
 20
4.1043427912
 30
0.0
 10
4.9920086874
 20
4.1027871724
 30
0.0
  0
SPLINE
  5
2B8
100
AcDbEntity
  8
ALL_ASSEMBLY_MEMBERS
100
AcDbSpline
 62
7
  6
CONTINUOUS
 70
0
 71
3
 72
17
 73
13
 74
0
 42
0.0000001
 43
0.0000001
 44
0.0000000001
 40
0.0
 40
0.0
 40
0.0
 40
0.0
 40
0.1613247586
 40
0.3100898707
 40
0.4469360078
 40
0.5728083899
 40
0.6890243991
 40
0.7973632588
 40
0.8493084896
 40
0.900164811
 40
0.9502753586
 40
1.0
 40
1.0
 40
1.0
 40
1.0
 10
4.4184721045
 20
3.9987690622
 30
0.0
 10
4.4167315996
 20
3.9999199989
 30
0.0
 10
4.413451396
 20
4.0022341932
 30
0.0
 10
4.4089809813
 20
4.0059086788
 30
0.0
 10
4.4051723249
 20
4.0096375207
 30
0.0
 10
4.4020336859
 20
4.0134153911
 30
0.0
 10
4.399574205
 20
4.0172374413
 30
0.0
 10
4.3980778578
 20
4.020502616
 30
0.0
 10
4.3972518136
 20
4.0231085653
 30
0.0
 10
4.3968147598
 20
4.0250400895
 30
0.0
 10
4.3965522771
 20
4.0269738682
 30
0.0
 10
4.3964937888
 20
4.0282659169
 30
0.0
 10
4.3964937888
 20
4.0289090716
 30
0.0
  0
SPLINE
  5
2B9
100
AcDbEntity
  8
ALL_ASSEMBLY_MEMBERS
100
AcDbSpline
 62
7
  6
CONTINUOUS
 70
0
 71
3
 72
23
 73
19
 74
0
 42
0.0000001
 43
0.0000001
 44
0.0000000001
 40
0.0
 40
0.0
 40
0.0
 40
0.0
 40
0.0634451651
 40
0.1267072064
 40
0.1897705888
 40
0.2526309769
 40
0.3152900381
 40
0.3777600329
 40
0.4400634895
 40
0.5022340283
 40
0.5643140018
 40
0.6263508223
 40
0.6883925973
 40
0.7504838491
 40
0.8126636514
 40
0.8749624683
 40
0.9374043824
 40
1.0
 40
1.0
 40
1.0
 40
1.0
 10
4.9695348703
 20
4.2060785456
 30
0.0
 10
4.9711044182
 20
4.2044389054
 30
0.0
 10
4.9741150879
 20
4.2010426644
 30
0.0
 10
4.9781927293
 20
4.1956047868
 30
0.0
 10
4.9817713914
 20
4.1898492635
 30
0.0
 10
4.9847953064
 20
4.1838069883
 30
0.0
 10
4.9872120836
 20
4.1775189634
 30
0.0
 10
4.9889756355
 20
4.1710372158
 30
0.0
 10
4.9900496637
 20
4.164423311
 30
0.0
 10
4.990410764
 20
4.1577461039
 30
0.0
 10
4.9900507106
 20
4.1510783345
 30
0.0
 10
4.9889775214
 20
4.1444925915
 30
0.0
 10
4.9872144653
 20
4.1380572698
 30
0.0
 10
4.9847977876
 20
4.131833171
 30
0.0
 10
4.9817736045
 20
4.1258712869
 30
0.0
 10
4.978194391
 20
4.1202113539
 30
0.0
 10
4.9741160439
 20
4.114882871
 30
0.0
 10
4.9711045385
 20
4.1115673228
 30
0.0
 10
4.9695348703
 20
4.1099701393
 30
0.0
  0
SPLINE
  5
2BA
100
AcDbEntity
  8
ALL_ASSEMBLY_MEMBERS
100
AcDbSpline
 62
7
  6
CONTINUOUS
 70
0
 71
3
 72
23
 73
19
 74
0
 42
0.0000001
 43
0.0000001
 44
0.0000000001
 40
0.0
 40
0.0
 40
0.0
 40
0.0
 40
0.0625955507
 40
0.1250373473
 40
0.1873360807
 40
0.2495157821
 40
0.3116069457
 40
0.3736486326
 40
0.4356853707
 40
0.4977653052
 40
0.5599358805
 40
0.6222394186
 40
0.6847095013
 40
0.7473686506
 40
0.8102291401
 40
0.8732926068
 40
0.936554767
 40
1.0
 40
1.0
 40
1.0
 40
1.0
 10
4.9442832039
 20
4.2126141577
 30
0.0
 10
4.9458528705
 20
4.2110169759
 30
0.0
 10
4.9488643718
 20
4.207701433
 30
0.0
 10
4.9529427136
 20
4.2023729582
 30
0.0
 10
4.9565219241
 20
4.1967130361
 30
0.0
 10
4.9595461057
 20
4.1907511623
 30
0.0
 10
4.9619627843
 20
4.1845270744
 30
0.0
 10
4.9637258412
 20
4.1780917625
 30
0.0
 10
4.9647990331
 20
4.1715060277
 30
0.0
 10
4.9651590977
 20
4.1648382621
 30
0.0
 10
4.9647980086
 20
4.1581610514
 30
0.0
 10
4.963723983
 20
4.1515471385
 30
0.0
 10
4.9619604319
 20
4.1450653813
 30
0.0
 10
4.9595436556
 20
4.1387773453
 30
0.0
 10
4.9565197392
 20
4.1327350598
 30
0.0
 10
4.9529410741
 20
4.1269795255
 30
0.0
 10
4.9488634273
 20
4.1215416398
 30
0.0
 10
4.9458527535
 20
4.1181453934
 30
0.0
 10
4.9442832039
 20
4.1165057515
 30
0.0
  0
SPLINE
  5
2BB
100
AcDbEntity
  8
ALL_ASSEMBLY_MEMBERS
100
AcDbSpline
 62
7
  6
CONTINUOUS
 70
0
 71
3
 72
17
 73
13
 74
0
 42
0.0000001
 43
0.0000001
 44
0.0000000001
 40
0.0
 40
0.0
 40
0.0
 40
0.0
 40
0.1315546698
 40
0.2709914102
 40
0.4142421477
 40
0.5558413587
 40
0.6897531504
 40
0.8105875152
 40
0.8648518744
 40
0.9145981589
 40
0.9596660931
 40
1.0
 40
1.0
 40
1.0
 40
1.0
 10
4.9442832039
 20
4.1165057515
 30
0.0
 10
4.9441120517
 20
4.1207183209
 30
0.0
 10
4.9438046692
 20
4.1293977403
 30
0.0
 10
4.9434638307
 20
4.1426691345
 30
0.0
 10
4.9432475844
 20
4.1562651188
 30
0.0
 10
4.943170943
 20
4.1696855729
 30
0.0
 10
4.9432395131
 20
4.1823876783
 30
0.0
 10
4.9434180817
 20
4.1922895648
 30
0.0
 10
4.9436341781
 20
4.1994921986
 30
0.0
 10
4.9438193367
 20
4.2042663306
 30
0.0
 10
4.9440304606
 20
4.2085924645
 30
0.0
 10
4.9441956863
 20
4.2113245087
 30
0.0
 10
4.9442832039
 20
4.2126141577
 30
0.0
  0
SPLINE
  5
2BC
100
AcDbEntity
  8
ALL_ASSEMBLY_MEMBERS
100
AcDbSpline
 62
7
  6
CONTINUOUS
 70
0
 71
3
 72
23
 73
19
 74
0
 42
0.0000001
 43
0.0000001
 44
0.0000000001
 40
0.0
 40
0.0
 40
0.0
 40
0.0
 40
0.0615727091
 40
0.1230757161
 40
0.1845468772
 40
0.2460369177
 40
0.3076003137
 40
0.3692946055
 40
0.4311747101
 40
0.4932891447
 40
0.5556749951
 40
0.6183542649
 40
0.6813324524
 40
0.7445992559
 40
0.8081325932
 40
0.8719009996
 40
0.9358704389
 40
1.0
 40
1.0
 40
1.0
 40
1.0
 10
4.916530351
 20
4.2184308096
 30
0.0
 10
4.9180836031
 20
4.2168751926
 30
0.0
 10
4.9210641821
 20
4.2136383517
 30
0.0
 10
4.9250983781
 20
4.2084184706
 30
0.0
 10
4.928638646
 20
4.2028535356
 30
0.0
 10
4.9316295915
 20
4.1969717105
 30
0.0
 10
4.9340192842
 20
4.1908115208
 30
0.0
 10
4.9357621557
 20
4.1844229339
 30
0.0
 10
4.9368224965
 20
4.1778659503
 30
0.0
 10
4.9371775009
 20
4.1712084122
 30
0.0
 10
4.9368194451
 20
4.164522635
 30
0.0
 10
4.9357566209
 20
4.1578814053
 30
0.0
 10
4.9340122555
 20
4.1513539695
 30
0.0
 10
4.931622229
 20
4.1450026308
 30
0.0
 10
4.9286320274
 20
4.1388804696
 30
0.0
 10
4.9250933482
 20
4.1330297897
 30
0.0
 10
4.9210612071
 20
4.1274829301
 30
0.0
 10
4.9180831984
 20
4.1240049265
 30
0.0
 10
4.916530351
 20
4.1223224034
 30
0.0
  0
SPLINE
  5
2BD
100
AcDbEntity
  8
ALL_ASSEMBLY_MEMBERS
100
AcDbSpline
 62
7
  6
CONTINUOUS
 70
0
 71
3
 72
21
 73
17
 74
0
 42
0.0000001
 43
0.0000001
 44
0.0000000001
 40
0.0
 40
0.0
 40
0.0
 40
0.0
 40
0.1315784606
 40
0.2707826507
 40
0.3420641074
 40
0.4136419062
 40
0.4848063428
 40
0.5548100063
 40
0.6229080267
 40
0.6883987421
 40
0.7506603021
 40
0.8091802146
 40
0.8635719355
 40
0.9135782152
 40
0.9590634363
 40
1.0
 40
1.0
 40
1.0
 40
1.0
 10
4.916530351
 20
4.1223224034
 30
0.0
 10
4.9160194045
 20
4.1265204949
 30
0.0
 10
4.9151010678
 20
4.1351766009
 30
0.0
 10
4.9142579479
 20
4.1461401397
 30
0.0
 10
4.9137601198
 20
4.15519256
 30
0.0
 10
4.9134854268
 20
4.1620662961
 30
0.0
 10
4.9133176745
 20
4.168902394
 30
0.0
 10
4.9132603377
 20
4.1756284858
 30
0.0
 10
4.9133145932
 20
4.1821722623
 30
0.0
 10
4.9134792304
 20
4.1884653038
 30
0.0
 10
4.9137507664
 20
4.1944465273
 30
0.0
 10
4.9141237356
 20
4.2000648656
 30
0.0
 10
4.9145911439
 20
4.2052808302
 30
0.0
 10
4.9151449772
 20
4.2100669219
 30
0.0
 10
4.9157766959
 20
4.2144067829
 30
0.0
 10
4.9162697097
 20
4.2171411394
 30
0.0
 10
4.916530351
 20
4.2184308096
 30
0.0
  0
SPLINE
  5
2BE
100
AcDbEntity
  8
ALL_ASSEMBLY_MEMBERS
100
AcDbSpline
 62
7
  6
CONTINUOUS
 70
0
 71
3
 72
21
 73
17
 74
0
 42
0.0000001
 43
0.0000001
 44
0.0000000001
 40
0.0
 40
0.0
 40
0.0
 40
0.0
 40
0.1207291927
 40
0.1813377598
 40
0.2421345902
 40
0.3032226116
 40
0.3646628372
 40
0.4265088024
 40
0.4887910346
 40
0.5515247775
 40
0.6146984626
 40
0.6782754104
 40
0.7422006353
 40
0.8707353776
 40
0.9353472936
 40
1.0
 40
1.0
 40
1.0
 40
1.0
 10
4.8865803776
 20
4.2234647728
 30
0.0
 10
4.8896203566
 20
4.2204349678
 30
0.0
 10
4.8938201537
 20
4.2154856145
 30
0.0
 10
4.8984269743
 20
4.2082025404
 30
0.0
 10
4.9013525676
 20
4.2023991819
 30
0.0
 10
4.9036869473
 20
4.1963022935
 30
0.0
 10
4.905391562
 20
4.189960808
 30
0.0
 10
4.9064255908
 20
4.1834329212
 30
0.0
 10
4.9067730177
 20
4.176786727
 30
0.0
 10
4.9064206371
 20
4.170093753
 30
0.0
 10
4.9053825648
 20
4.1634264858
 30
0.0
 10
4.9036752813
 20
4.156854777
 30
0.0
 10
4.9005576096
 20
4.1482916041
 30
0.0
 10
4.8962597425
 20
4.140163749
 30
0.0
 10
4.8910130228
 20
4.1326421715
 30
0.0
 10
4.8880995521
 20
4.1290811673
 30
0.0
 10
4.8865803776
 20
4.1273563666
 30
0.0
  0
SPLINE
  5
2BF
100
AcDbEntity
  8
ALL_ASSEMBLY_MEMBERS
100
AcDbSpline
 62
7
  6
CONTINUOUS
 70
0
 71
3
 72
21
 73
17
 74
0
 42
0.0000001
 43
0.0000001
 44
0.0000000001
 40
0.0
 40
0.0
 40
0.0
 40
0.0
 40
0.1316266789
 40
0.2703891486
 40
0.3413166022
 40
0.4124903676
 40
0.4832313845
 40
0.552826453
 40
0.6205657857
 40
0.685794797
 40
0.7479203907
 40
0.8064801018
 40
0.8611133554
 40
0.9116348263
 40
0.9579332377
 40
1.0
 40
1.0
 40
1.0
 40
1.0
 10
4.8865803776
 20
4.1273563666
 30
0.0
 10
4.8857370077
 20
4.1315262447
 30
0.0
 10
4.8842190394
 20
4.1401365818
 30
0.0
 10
4.8828213551
 20
4.151083824
 30
0.0
 10
4.8819974612
 20
4.1601249355
 30
0.0
 10
4.8815424846
 20
4.1669899108
 30
0.0
 10
4.8812652661
 20
4.1738212663
 30
0.0
 10
4.8811700129
 20
4.1805466335
 30
0.0
 10
4.8812602945
 20
4.1870939624
 30
0.0
 10
4.8815324783
 20
4.1933947057
 30
0.0
 10
4.8819825658
 20
4.1993878525
 30
0.0
 10
4.8825997495
 20
4.2050218434
 30
0.0
 10
4.8833742033
 20
4.2102576597
 30
0.0
 10
4.8842917084
 20
4.215067694
 30
0.0
 10
4.8853393047
 20
4.2194344457
 30
0.0
 10
4.886152022
 20
4.2221743714
 30
0.0
 10
4.8865803776
 20
4.2234647728
 30
0.0
  0
SPLINE
  5
2C0
100
AcDbEntity
  8
ALL_ASSEMBLY_MEMBERS
100
AcDbSpline
 62
7
  6
CONTINUOUS
 70
0
 71
3
 72
23
 73
19
 74
0
 42
0.0000001
 43
0.0000001
 44
0.0000000001
 40
0.0
 40
0.0
 40
0.0
 40
0.0
 40
0.0589878314
 40
0.1182467669
 40
0.1778701728
 40
0.2379544061
 40
0.2985839813
 40
0.3598251475
 40
0.4217165007
 40
0.4842643375
 40
0.547440198
 40
0.6111829583
 40
0.6754053009
 40
0.7400026721
 40
0.8048645018
 40
0.8698817915
 40
0.9349568971
 40
1.0
 40
1.0
 40
1.0
 40
1.0
 10
4.8547614217
 20
4.2276608941
 30
0.0
 10
4.8562332451
 20
4.2261837932
 30
0.0
 10
4.8590584777
 20
4.2230945832
 30
0.0
 10
4.8628720604
 20
4.2180846736
 30
0.0
 10
4.8662178965
 20
4.2127037761
 30
0.0
 10
4.8690435326
 20
4.2069776447
 30
0.0
 10
4.8713000301
 20
4.2009425405
 30
0.0
 10
4.8729446505
 20
4.1946463953
 30
0.0
 10
4.8739441159
 20
4.1881474568
 30
0.0
 10
4.8742773668
 20
4.1815121993
 30
0.0
 10
4.8739374897
 20
4.1748120937
 30
0.0
 10
4.8729325019
 20
4.1681197626
 30
0.0
 10
4.8712843118
 20
4.1615050777
 30
0.0
 10
4.8690266174
 20
4.1550317605
 30
0.0
 10
4.8662021075
 20
4.1487549978
 30
0.0
 10
4.8628593527
 20
4.14271973
 30
0.0
 10
4.8590500691
 20
4.1369611974
 30
0.0
 10
4.856231717
 20
4.1333202067
 30
0.0
 10
4.8547614217
 20
4.1315524879
 30
0.0
  0
SPLINE
  5
2C1
100
AcDbEntity
  8
ALL_ASSEMBLY_MEMBERS
100
AcDbSpline
 62
7
  6
CONTINUOUS
 70
0
 71
3
 72
20
 73
16
 74
0
 42
0.0000001
 43
0.0000001
 44
0.0000000001
 40
0.0
 40
0.0
 40
0.0
 40
0.0
 40
0.1316862725
 40
0.2698143381
 40
0.4108393993
 40
0.4809899967
 40
0.5500183879
 40
0.617269831
 40
0.682136329
 40
0.7440912402
 40
0.8027173821
 40
0.8577231255
 40
0.9089462752
 40
0.9563478033
 40
1.0
 40
1.0
 40
1.0
 40
1.0
 10
4.8547614217
 20
4.1315524879
 30
0.0
 10
4.8535975413
 20
4.1356813487
 30
0.0
 10
4.8514982739
 20
4.1442240506
 30
0.0
 10
4.8491565521
 20
4.1574099367
 30
0.0
 10
4.8479152948
 20
4.1687308504
 30
0.0
 10
4.8474015694
 20
4.1778458705
 30
0.0
 10
4.8472702763
 20
4.1845708489
 30
0.0
 10
4.8473949211
 20
4.1911238365
 30
0.0
 10
4.8477728594
 20
4.1974364579
 30
0.0
 10
4.8483962183
 20
4.2034473478
 30
0.0
 10
4.8492526435
 20
4.2091050303
 30
0.0
 10
4.8503263168
 20
4.2143694388
 30
0.0
 10
4.851599223
 20
4.2192124945
 30
0.0
 10
4.8530520398
 20
4.2236168427
 30
0.0
 10
4.854172773
 20
4.2263664541
 30
0.0
 10
4.8547614217
 20
4.2276608941
 30
0.0
  0
SPLINE
  5
2C2
100
AcDbEntity
  8
ALL_ASSEMBLY_MEMBERS
100
AcDbSpline
 62
7
  6
CONTINUOUS
 70
0
 71
3
 72
21
 73
17
 74
0
 42
0.0000001
 43
0.0000001
 44
0.0000000001
 40
0.0
 40
0.0
 40
0.0
 40
0.0
 40
0.0574356873
 40
0.1154029783
 40
0.174021686
 40
0.2334048008
 40
0.2936406531
 40
0.3547841156
 40
0.4168465862
 40
0.4797926076
 40
0.5435405379
 40
0.6079691392
 40
0.6729291308
 40
0.7382568222
 40
0.8692706554
 40
1.0
 40
1.0
 40
1.0
 40
1.0
 10
4.8214220987
 20
4.2309732
 30
0.0
 10
4.8228297868
 20
4.2295320617
 30
0.0
 10
4.8255321464
 20
4.2265098876
 30
0.0
 10
4.829171537
 20
4.2215991058
 30
0.0
 10
4.8323639118
 20
4.2163053592
 30
0.0
 10
4.8350592603
 20
4.2106533205
 30
0.0
 10
4.8372110724
 20
4.204678173
 30
0.0
 10
4.8387788356
 20
4.1984268056
 30
0.0
 10
4.8397310896
 20
4.1919565028
 30
0.0
 10
4.8400479888
 20
4.1853329517
 30
0.0
 10
4.8397230642
 20
4.1786270781
 30
0.0
 10
4.838764036
 20
4.1719114491
 30
0.0
 10
4.8371915191
 20
4.165255851
 30
0.0
 10
4.8343182272
 20
4.1565424873
 30
0.0
 10
4.8293823914
 20
4.1461299183
 30
0.0
 10
4.824234778
 20
4.1384861526
 30
0.0
 10
4.8214220987
 20
4.1348647937
 30
0.0
  0
SPLINE
  5
2C3
100
AcDbEntity
  8
ALL_ASSEMBLY_MEMBERS
100
AcDbSpline
 62
7
  6
CONTINUOUS
 70
0
 71
3
 72
20
 73
16
 74
0
 42
0.0000001
 43
0.0000001
 44
0.0000000001
 40
0.0
 40
0.0
 40
0.0
 40
0.0
 40
0.1317486851
 40
0.2690973123
 40
0.4088064106
 40
0.4782317819
 40
0.5465665854
 40
0.6132219033
 40
0.6776575391
 40
0.7394146077
 40
0.798141822
 40
0.8536101845
 40
0.9057158283
 40
0.9544728164
 40
1.0
 40
1.0
 40
1.0
 40
1.0
 10
4.8214220987
 20
4.1348647937
 30
0.0
 10
4.8199535076
 20
4.1389416421
 30
0.0
 10
4.8172985007
 20
4.1473969625
 30
0.0
 10
4.814325978
 20
4.1605246218
 30
0.0
 10
4.8127495966
 20
4.1718272667
 30
0.0
 10
4.8120983666
 20
4.1809328161
 30
0.0
 10
4.8119320669
 20
4.1876567661
 30
0.0
 10
4.8120903246
 20
4.1942168168
 30
0.0
 10
4.8125698389
 20
4.2005445486
 30
0.0
 10
4.8133607211
 20
4.2065783005
 30
0.0
 10
4.8144474085
 20
4.2122661578
 30
0.0
 10
4.815809949
 20
4.2175674575
 30
0.0
 10
4.8174256117
 20
4.2224534237
 30
0.0
 10
4.8192699028
 20
4.2269057897
 30
0.0
 10
4.8206823938
 20
4.2296712418
 30
0.0
 10
4.8214220987
 20
4.2309732
 30
0.0
  0
SPLINE
  5
2C4
100
AcDbEntity
  8
ALL_ASSEMBLY_MEMBERS
100
AcDbSpline
 62
7
  6
CONTINUOUS
 70
0
 71
3
 72
21
 73
17
 74
0
 42
0.0000001
 43
0.0000001
 44
0.0000000001
 40
0.0
 40
0.0
 40
0.0
 40
0.0
 40
0.055699955
 40
0.1122533263
 40
0.1698032646
 40
0.2284730125
 40
0.288345462
 40
0.3494527595
 40
0.4117667192
 40
0.475197797
 40
0.5395997993
 40
0.6047815765
 40
0.6705239371
 40
0.7365979619
 40
0.8687891247
 40
1.0
 40
1.0
 40
1.0
 40
1.0
 10
4.786927681
 20
4.2333654
 30
0.0
 10
4.7882564323
 20
4.2319573568
 30
0.0
 10
4.7908072124
 20
4.2289964637
 30
0.0
 10
4.7942321009
 20
4.2241795488
 30
0.0
 10
4.7972355784
 20
4.218968574
 30
0.0
 10
4.7997707118
 20
4.213387186
 30
0.0
 10
4.8017939958
 20
4.2074694943
 30
0.0
 10
4.8032676148
 20
4.2012613103
 30
0.0
 10
4.8041622531
 20
4.1948189106
 30
0.0
 10
4.8044594412
 20
4.1882071535
 30
0.0
 10
4.8041531849
 20
4.1814964292
 30
0.0
 10
4.803250714
 20
4.1747591448
 30
0.0
 10
4.8017713445
 20
4.1680653765
 30
0.0
 10
4.7990703286
 20
4.159286648
 30
0.0
 10
4.7944372447
 20
4.1487644677
 30
0.0
 10
4.7895837238
 20
4.1409643837
 30
0.0
 10
4.786927681
 20
4.1372569938
 30
0.0
  0
SPLINE
  5
2C5
100
AcDbEntity
  8
ALL_ASSEMBLY_MEMBERS
100
AcDbSpline
 62
7
  6
CONTINUOUS
 70
0
 71
3
 72
20
 73
16
 74
0
 42
0.0000001
 43
0.0000001
 44
0.0000000001
 40
0.0
 40
0.0
 40
0.0
 40
0.0
 40
0.1317927304
 40
0.2682475974
 40
0.4064665692
 40
0.4750762129
 40
0.5426359046
 40
0.6086319686
 40
0.6726009977
 40
0.7341595593
 40
0.7930277116
 40
0.8490412832
 40
0.9021526396
 40
0.9524215572
 40
1.0
 40
1.0
 40
1.0
 40
1.0
 10
4.786927681
 20
4.1372569938
 30
0.0
 10
4.7851735367
 20
4.1412724414
 30
0.0
 10
4.7819945778
 20
4.1496225941
 30
0.0
 10
4.7784204964
 20
4.1626765867
 30
0.0
 10
4.7765239931
 20
4.1739548966
 30
0.0
 10
4.7757421672
 20
4.1830481568
 30
0.0
 10
4.7755427131
 20
4.18977067
 30
0.0
 10
4.77573308
 20
4.1963391795
 30
0.0
 10
4.7763093594
 20
4.2026851488
 30
0.0
 10
4.7772597677
 20
4.2087464852
 30
0.0
 10
4.7785656865
 20
4.2144706513
 30
0.0
 10
4.7802031941
 20
4.2198161717
 30
0.0
 10
4.782144974
 20
4.224753332
 30
0.0
 10
4.7843614635
 20
4.229262788
 30
0.0
 10
4.786046963
 20
4.2320513445
 30
0.0
 10
4.786927681
 20
4.2333654
 30
0.0
  0
SPLINE
  5
2C6
100
AcDbEntity
  8
ALL_ASSEMBLY_MEMBERS
100
AcDbSpline
 62
7
  6
CONTINUOUS
 70
0
 71
3
 72
19
 73
15
 74
0
 42
0.0000001
 43
0.0000001
 44
0.0000000001
 40
0.0
 40
0.0
 40
0.0
 40
0.0
 40
0.0538200363
 40
0.1088762334
 40
0.1653295827
 40
0.2233051629
 40
0.2828699342
 40
0.3440218
 40
0.4066815272
 40
0.4706949438
 40
0.6017476623
 40
0.7350922751
 40
0.8684467922
 40
1.0
 40
1.0
 40
1.0
 40
1.0
 10
4.7516560968
 20
4.2348112849
 30
0.0
 10
4.7528918556
 20
4.2334329645
 30
0.0
 10
4.7552636586
 20
4.2305267307
 30
0.0
 10
4.7584360132
 20
4.2257975522
 30
0.0
 10
4.7612172396
 20
4.2206642356
 30
0.0
 10
4.7635640801
 20
4.2151494263
 30
0.0
 10
4.765436542
 20
4.2092861103
 30
0.0
 10
4.7667999157
 20
4.2031191021
 30
0.0
 10
4.7676272375
 20
4.1967032075
 30
0.0
 10
4.7679960728
 20
4.1878368867
 30
0.0
 10
4.7670329919
 20
4.1765274495
 30
0.0
 10
4.7637692708
 20
4.1631904696
 30
0.0
 10
4.7586332248
 20
4.1504461025
 30
0.0
 10
4.7541265247
 20
4.1424938458
 30
0.0
 10
4.7516560968
 20
4.1387028787
 30
0.0
  0
SPLINE
  5
2C7
100
AcDbEntity
  8
ALL_ASSEMBLY_MEMBERS
100
AcDbSpline
 62
7
  6
CONTINUOUS
 70
0
 71
3
 72
19
 73
15
 74
0
 42
0.0000001
 43
0.0000001
 44
0.0000000001
 40
0.0
 40
0.0
 40
0.0
 40
0.0
 40
0.1318060072
 40
0.2672954778
 40
0.3356959822
 40
0.4039930517
 40
0.5384237498
 40
0.6037425158
 40
0.6672471519
 40
0.7876002411
 40
0.8442294303
 40
0.8984306319
 40
0.9502977162
 40
1.0
 40
1.0
 40
1.0
 40
1.0
 10
4.7516560968
 20
4.1387028787
 30
0.0
 10
4.7496383297
 20
4.142649214
 30
0.0
 10
4.7459731149
 20
4.1508780367
 30
0.0
 10
4.7425320094
 20
4.1616558283
 30
0.0
 10
4.7405153335
 20
4.1705890135
 30
0.0
 10
4.7390464302
 20
4.1795912609
 30
0.0
 10
4.7384245795
 20
4.1886137838
 30
0.0
 10
4.7387216079
 20
4.1974678056
 30
0.0
 10
4.7395951534
 20
4.2058061664
 30
0.0
 10
4.7413169839
 20
4.2137477658
 30
0.0
 10
4.7438956482
 20
4.2210896377
 30
0.0
 10
4.7461429307
 20
4.2260857493
 30
0.0
 10
4.7487075834
 20
4.230660646
 30
0.0
 10
4.7506451698
 20
4.2334803354
 30
0.0
 10
4.7516560968
 20
4.2348112849
 30
0.0
  0
SPLINE
  5
2C8
100
AcDbEntity
  8
ALL_ASSEMBLY_MEMBERS
100
AcDbSpline
 62
7
  6
CONTINUOUS
 70
0
 71
3
 72
23
 73
19
 74
0
 42
0.0000001
 43
0.0000001
 44
0.0000000001
 40
0.0
 40
0.0
 40
0.0
 40
0.0
 40
0.051769965
 40
0.1052508596
 40
0.1605719905
 40
0.2178326181
 40
0.2771025333
 40
0.3383243531
 40
0.4013633843
 40
0.4659849395
 40
0.5318960745
 40
0.5987462211
 40
0.6661609627
 40
0.7337678376
 40
0.8012187138
 40
0.8682468818
 40
0.9345902827
 40
1.0
 40
1.0
 40
1.0
 40
1.0
 10
4.7159937888
 20
4.2352950131
 30
0.0
 10
4.7171229716
 20
4.2339429648
 30
0.0
 10
4.7192893276
 20
4.2310834785
 30
0.0
 10
4.7221750257
 20
4.2264351967
 30
0.0
 10
4.7247030603
 20
4.2213727659
 30
0.0
 10
4.7268362678
 20
4.21591988
 30
0.0
 10
4.7285362066
 20
4.2101074567
 30
0.0
 10
4.7297756512
 20
4.2039792773
 30
0.0
 10
4.7305256721
 20
4.1975890909
 30
0.0
 10
4.7307755012
 20
4.1910005914
 30
0.0
 10
4.7305157529
 20
4.1842830693
 30
0.0
 10
4.7297566319
 20
4.1775082861
 30
0.0
 10
4.7285099976
 20
4.1707477613
 30
0.0
 10
4.7268050659
 20
4.164067342
 30
0.0
 10
4.7246698776
 20
4.1575259547
 30
0.0
 10
4.7221427973
 20
4.1511722993
 30
0.0
 10
4.7192610009
 20
4.1450487542
 30
0.0
 10
4.7171148893
 20
4.1411093021
 30
0.0
 10
4.7159937888
 20
4.1391866069
 30
0.0
  0
SPLINE
  5
2C9
100
AcDbEntity
  8
ALL_ASSEMBLY_MEMBERS
100
AcDbSpline
 62
7
  6
CONTINUOUS
 70
0
 71
3
 72
23
 73
19
 74
0
 42
0.0000001
 43
0.0000001
 44
0.0000000001
 40
0.0
 40
0.0
 40
0.0
 40
0.0
 40
0.0654097643
 40
0.1317532033
 40
0.1987812776
 40
0.2662320458
 40
0.3338389392
 40
0.4012537438
 40
0.4681039223
 40
0.5340150606
 40
0.5986366198
 40
0.6616756796
 40
0.7228975488
 40
0.782167484
 40
0.8394280233
 40
0.8947490707
 40
0.9482299958
 40
1.0
 40
1.0
 40
1.0
 40
1.0
 10
4.7159937888
 20
4.1391866069
 30
0.0
 10
4.7148726875
 20
4.1411093035
 30
0.0
 10
4.7127265759
 20
4.1450487589
 30
0.0
 10
4.7098447797
 20
4.1511723036
 30
0.0
 10
4.7073176983
 20
4.1575259526
 30
0.0
 10
4.7051825134
 20
4.1640673346
 30
0.0
 10
4.7034775838
 20
4.1707477534
 30
0.0
 10
4.702230946
 20
4.1775082814
 30
0.0
 10
4.7014718247
 20
4.184283068
 30
0.0
 10
4.7012120765
 20
4.1910005914
 30
0.0
 10
4.7014619055
 20
4.1975890921
 30
0.0
 10
4.7022119265
 20
4.2039792814
 30
0.0
 10
4.7034513749
 20
4.2101074634
 30
0.0
 10
4.7051513117
 20
4.2159198865
 30
0.0
 10
4.7072845154
 20
4.2213727684
 30
0.0
 10
4.7098125516
 20
4.2264351932
 30
0.0
 10
4.7126982493
 20
4.2310834744
 30
0.0
 10
4.7148646052
 20
4.2339429637
 30
0.0
 10
4.7159937888
 20
4.2352950131
 30
0.0
  0
SPLINE
  5
2CA
100
AcDbEntity
  8
ALL_ASSEMBLY_MEMBERS
100
AcDbSpline
 62
7
  6
CONTINUOUS
 70
0
 71
3
 72
19
 73
15
 74
0
 42
0.0000001
 43
0.0000001
 44
0.0000000001
 40
0.0
 40
0.0
 40
0.0
 40
0.0
 40
0.0497008375
 40
0.1015676114
 40
0.1557679979
 40
0.2123971629
 40
0.3327507654
 40
0.3962559886
 40
0.4615760763
 40
0.5960093328
 40
0.6643069904
 40
0.7327076647
 40
0.8681961936
 40
1.0
 40
1.0
 40
1.0
 40
1.0
 10
4.6803314809
 20
4.2348112849
 30
0.0
 10
4.6813423784
 20
4.2334803742
 30
0.0
 10
4.6832799286
 20
4.2306607329
 30
0.0
 10
4.6858445637
 20
4.2260859257
 30
0.0
 10
4.688091828
 20
4.2210898487
 30
0.0
 10
4.6906705122
 20
4.2137479956
 30
0.0
 10
4.69239234
 20
4.2058063613
 30
0.0
 10
4.6932659858
 20
4.197467931
 30
0.0
 10
4.6935630708
 20
4.1886137583
 30
0.0
 10
4.6929411068
 20
4.1795910893
 30
0.0
 10
4.6914721532
 20
4.1705887399
 30
0.0
 10
4.6894554829
 20
4.1616555603
 30
0.0
 10
4.6860143964
 20
4.1508778677
 30
0.0
 10
4.6823492142
 20
4.1426491478
 30
0.0
 10
4.6803314809
 20
4.1387028787
 30
0.0
  0
SPLINE
  5
2CB
100
AcDbEntity
  8
ALL_ASSEMBLY_MEMBERS
100
AcDbSpline
 62
7
  6
CONTINUOUS
 70
0
 71
3
 72
19
 73
15
 74
0
 42
0.0000001
 43
0.0000001
 44
0.0000000001
 40
0.0
 40
0.0
 40
0.0
 40
0.0
 40
0.1315553823
 40
0.26491081
 40
0.3982546608
 40
0.5293049013
 40
0.5933169964
 40
0.65597608
 40
0.7171275351
 40
0.7766921638
 40
0.8346677418
 40
0.8911219244
 40
0.946178407
 40
1.0
 40
1.0
 40
1.0
 40
1.0
 10
4.6803314809
 20
4.1387028787
 30
0.0
 10
4.6778610118
 20
4.1424939088
 30
0.0
 10
4.6733542717
 20
4.1504462677
 30
0.0
 10
4.6682182089
 20
4.1631907118
 30
0.0
 10
4.6649544988
 20
4.1765276226
 30
0.0
 10
4.6639915956
 20
4.1878369135
 30
0.0
 10
4.6643603586
 20
4.1967030806
 30
0.0
 10
4.6651875879
 20
4.2031189059
 30
0.0
 10
4.6665509208
 20
4.2092858835
 30
0.0
 10
4.6684233856
 20
4.2151491788
 30
0.0
 10
4.6707702129
 20
4.2206640201
 30
0.0
 10
4.6735514609
 20
4.2257973693
 30
0.0
 10
4.6767238397
 20
4.2305266428
 30
0.0
 10
4.6790956862
 20
4.2334329245
 30
0.0
 10
4.6803314809
 20
4.2348112849
 30
0.0
  0
SPLINE
  5
2CC
100
AcDbEntity
  8
ALL_ASSEMBLY_MEMBERS
100
AcDbSpline
 62
7
  6
CONTINUOUS
 70
0
 71
3
 72
20
 73
16
 74
0
 42
0.0000001
 43
0.0000001
 44
0.0000000001
 40
0.0
 40
0.0
 40
0.0
 40
0.0
 40
0.0475770528
 40
0.0978456455
 40
0.1509561947
 40
0.2069697281
 40
0.2658380104
 40
0.3273969226
 40
0.3913665127
 40
0.4573638999
 40
0.5249251739
 40
0.5935358371
 40
0.731755573
 40
0.8682094824
 40
1.0
 40
1.0
 40
1.0
 40
1.0
 10
4.6450598966
 20
4.2333654
 30
0.0
 10
4.6459405888
 20
4.232051383
 30
0.0
 10
4.6476260566
 20
4.2292628748
 30
0.0
 10
4.6498425322
 20
4.2247535056
 30
0.0
 10
4.6517842951
 20
4.2198163806
 30
0.0
 10
4.6534218135
 20
4.2144708887
 30
0.0
 10
4.6547277288
 20
4.2087467067
 30
0.0
 10
4.6556781665
 20
4.2026853413
 30
0.0
 10
4.6562545113
 20
4.1963393037
 30
0.0
 10
4.6564449145
 20
4.1897706791
 30
0.0
 10
4.6562454255
 20
4.1830480355
 30
0.0
 10
4.6554635148
 20
4.1739546713
 30
0.0
 10
4.6535670129
 20
4.1626763364
 30
0.0
 10
4.6499929429
 20
4.1496224228
 30
0.0
 10
4.6468140114
 20
4.1412723738
 30
0.0
 10
4.6450598966
 20
4.1372569938
 30
0.0
  0
SPLINE
  5
2CD
100
AcDbEntity
  8
ALL_ASSEMBLY_MEMBERS
100
AcDbSpline
 62
7
  6
CONTINUOUS
 70
0
 71
3
 72
21
 73
17
 74
0
 42
0.0000001
 43
0.0000001
 44
0.0000000001
 40
0.0
 40
0.0
 40
0.0
 40
0.0
 40
0.1312130354
 40
0.2634050946
 40
0.3294789504
 40
0.395220734
 40
0.460401548
 40
0.5248020619
 40
0.5882318168
 40
0.6505451039
 40
0.7116519711
 40
0.7715242743
 40
0.8301940083
 40
0.8877447899
 40
0.9442984372
 40
1.0
 40
1.0
 40
1.0
 40
1.0
 10
4.6450598966
 20
4.1372569938
 30
0.0
 10
4.6424038099
 20
4.1409644451
 30
0.0
 10
4.6375502446
 20
4.1487646294
 30
0.0
 10
4.632917135
 20
4.1592869081
 30
0.0
 10
4.6302161122
 20
4.1680656412
 30
0.0
 10
4.6287367868
 20
4.1747593608
 30
0.0
 10
4.6278344158
 20
4.1814965535
 30
0.0
 10
4.6275282137
 20
4.1882071469
 30
0.0
 10
4.6278253444
 20
4.1948187831
 30
0.0
 10
4.6287198827
 20
4.2012611126
 30
0.0
 10
4.6301934582
 20
4.2074692652
 30
0.0
 10
4.6322167448
 20
4.2133869346
 30
0.0
 10
4.6347518644
 20
4.2189683556
 30
0.0
 10
4.6377553645
 20
4.2241793625
 30
0.0
 10
4.6411802804
 20
4.2289963746
 30
0.0
 10
4.6437311068
 20
4.231957316
 30
0.0
 10
4.6450598966
 20
4.2333654
 30
0.0
  0
SPLINE
  5
2CE
100
AcDbEntity
  8
ALL_ASSEMBLY_MEMBERS
100
AcDbSpline
 62
7
  6
CONTINUOUS
 70
0
 71
3
 72
20
 73
16
 74
0
 42
0.0000001
 43
0.0000001
 44
0.0000000001
 40
0.0
 40
0.0
 40
0.0
 40
0.0
 40
0.0455258481
 40
0.0942824965
 40
0.1463873403
 40
0.2018556518
 40
0.2605829923
 40
0.322340394
 40
0.3867765681
 40
0.4534332119
 40
0.5217696189
 40
0.5911960203
 40
0.7309058826
 40
0.8682535379
 40
1.0
 40
1.0
 40
1.0
 40
1.0
 10
4.610565479
 20
4.2309732
 30
0.0
 10
4.6113051621
 20
4.22967128
 30
0.0
 10
4.6127176262
 20
4.2269058768
 30
0.0
 10
4.6145619068
 20
4.2224535946
 30
0.0
 10
4.6161775548
 20
4.2175676649
 30
0.0
 10
4.6175401046
 20
4.2122663925
 30
0.0
 10
4.6186267888
 20
4.2065785209
 30
0.0
 10
4.6194176958
 20
4.2005447401
 30
0.0
 10
4.6198972646
 20
4.1942169402
 30
0.0
 10
4.6200555524
 20
4.1876567756
 30
0.0
 10
4.6198892236
 20
4.1809326955
 30
0.0
 10
4.619237923
 20
4.1718270398
 30
0.0
 10
4.6176615426
 20
4.1605243697
 30
0.0
 10
4.6146890295
 20
4.1473967896
 30
0.0
 10
4.6120340452
 20
4.1389415732
 30
0.0
 10
4.610565479
 20
4.1348647937
 30
0.0
  0
SPLINE
  5
2CF
100
AcDbEntity
  8
ALL_ASSEMBLY_MEMBERS
100
AcDbSpline
 62
7
  6
CONTINUOUS
 70
0
 71
3
 72
21
 73
17
 74
0
 42
0.0000001
 43
0.0000001
 44
0.0000000001
 40
0.0
 40
0.0
 40
0.0
 40
0.0
 40
0.1307314889
 40
0.261746205
 40
0.3270737282
 40
0.3920331485
 40
0.4564608042
 40
0.5202072687
 40
0.5831519631
 40
0.645213732
 40
0.7063567447
 40
0.7665924471
 40
0.8259755372
 40
0.8845950983
 40
0.9425626577
 40
1.0
 40
1.0
 40
1.0
 40
1.0
 10
4.610565479
 20
4.1348647937
 30
0.0
 10
4.6077527533
 20
4.1384862124
 30
0.0
 10
4.6026050923
 20
4.1461300773
 30
0.0
 10
4.5976692294
 20
4.1565427443
 30
0.0
 10
4.5947959301
 20
4.1652561122
 30
0.0
 10
4.5932234599
 20
4.1719116633
 30
0.0
 10
4.592264538
 20
4.1786272031
 30
0.0
 10
4.591939671
 20
4.1853329458
 30
0.0
 10
4.5922565088
 20
4.1919563746
 30
0.0
 10
4.5932086569
 20
4.1984266063
 30
0.0
 10
4.5947763742
 20
4.2046779413
 30
0.0
 10
4.5969281884
 20
4.2106530652
 30
0.0
 10
4.5996235229
 20
4.2163051376
 30
0.0
 10
4.6028159211
 20
4.2215989159
 30
0.0
 10
4.6064553418
 20
4.2265097972
 30
0.0
 10
4.6091577501
 20
4.22953202
 30
0.0
 10
4.610565479
 20
4.2309732
 30
0.0
  0
SPLINE
  5
2D0
100
AcDbEntity
  8
ALL_ASSEMBLY_MEMBERS
100
AcDbSpline
 62
7
  6
CONTINUOUS
 70
0
 71
3
 72
20
 73
16
 74
0
 42
0.0000001
 43
0.0000001
 44
0.0000000001
 40
0.0
 40
0.0
 40
0.0
 40
0.0
 40
0.0436509108
 40
0.0910520847
 40
0.1422744405
 40
0.1972801213
 40
0.2559063862
 40
0.3178616154
 40
0.3827286321
 40
0.4499814042
 40
0.5190114175
 40
0.5891630539
 40
0.7301888784
 40
0.8683159595
 40
1.0
 40
1.0
 40
1.0
 40
1.0
 10
4.5772261559
 20
4.2276608941
 30
0.0
 10
4.5778147873
 20
4.2263664923
 30
0.0
 10
4.5789354989
 20
4.2236169302
 30
0.0
 10
4.5803883082
 20
4.2192126631
 30
0.0
 10
4.5816612023
 20
4.2143696451
 30
0.0
 10
4.5827348834
 20
4.2091052627
 30
0.0
 10
4.5835913058
 20
4.2034475674
 30
0.0
 10
4.5842146844
 20
4.1974366487
 30
0.0
 10
4.5845926657
 20
4.1911239594
 30
0.0
 10
4.5847173342
 20
4.1845708587
 30
0.0
 10
4.5845860182
 20
4.1778457504
 30
0.0
 10
4.584072237
 20
4.1687306223
 30
0.0
 10
4.5828309804
 20
4.157409683
 30
0.0
 10
4.5804892663
 20
4.1442238764
 30
0.0
 10
4.5783900166
 20
4.1356812787
 30
0.0
 10
4.5772261559
 20
4.1315524879
 30
0.0
  0
SPLINE
  5
2D1
100
AcDbEntity
  8
ALL_ASSEMBLY_MEMBERS
100
AcDbSpline
 62
7
  6
CONTINUOUS
 70
0
 71
3
 72
23
 73
19
 74
0
 42
0.0000001
 43
0.0000001
 44
0.0000000001
 40
0.0
 40
0.0
 40
0.0
 40
0.0
 40
0.0650449735
 40
0.1301203407
 40
0.1951385649
 40
0.2600003332
 40
0.3245975367
 40
0.3888193144
 40
0.4525611474
 40
0.5157355629
 40
0.5782820662
 40
0.6401726883
 40
0.7014133858
 40
0.762042807
 40
0.8221270056
 40
0.8817512743
 40
0.9410104718
 40
1.0
 40
1.0
 40
1.0
 40
1.0
 10
4.5772261559
 20
4.1315524879
 30
0.0
 10
4.5757558182
 20
4.1333202577
 30
0.0
 10
4.5729374161
 20
4.1369613068
 30
0.0
 10
4.5691280995
 20
4.1427199483
 30
0.0
 10
4.5657853212
 20
4.14875525
 30
0.0
 10
4.5629608241
 20
4.1550320467
 30
0.0
 10
4.5607031304
 20
4.161505335
 30
0.0
 10
4.5590549903
 20
4.1681199751
 30
0.0
 10
4.5580501138
 20
4.1748122193
 30
0.0
 10
4.5577102969
 20
4.1815121941
 30
0.0
 10
4.5580434832
 20
4.1881473281
 30
0.0
 10
4.5590428378
 20
4.1946461943
 30
0.0
 10
4.5606874106
 20
4.200942306
 30
0.0
 10
4.5629439097
 20
4.2069773852
 30
0.0
 10
4.5657695316
 20
4.212703551
 30
0.0
 10
4.5691153917
 20
4.21808448
 30
0.0
 10
4.5729290067
 20
4.223094491
 30
0.0
 10
4.57575429
 20
4.2261837506
 30
0.0
 10
4.5772261559
 20
4.2276608941
 30
0.0
  0
SPLINE
  5
2D2
100
AcDbEntity
  8
ALL_ASSEMBLY_MEMBERS
100
AcDbSpline
 62
7
  6
CONTINUOUS
 70
0
 71
3
 72
21
 73
17
 74
0
 42
0.0000001
 43
0.0000001
 44
0.0000000001
 40
0.0
 40
0.0
 40
0.0
 40
0.0
 40
0.0420667225
 40
0.0883651097
 40
0.1388866728
 40
0.193520011
 40
0.2520796978
 40
0.3142052445
 40
0.3794342229
 40
0.4471735471
 40
0.5167686077
 40
0.5875095864
 40
0.6586832833
 40
0.7296107149
 40
0.8683734067
 40
1.0
 40
1.0
 40
1.0
 40
1.0
 10
4.5454072001
 20
4.2234647728
 30
0.0
 10
4.5458355553
 20
4.2221743726
 30
0.0
 10
4.5466482728
 20
4.2194344492
 30
0.0
 10
4.5476958693
 20
4.2150676966
 30
0.0
 10
4.5486133736
 20
4.2102576571
 30
0.0
 10
4.549387829
 20
4.205021836
 30
0.0
 10
4.5500050134
 20
4.1993878448
 30
0.0
 10
4.5504550994
 20
4.1933947012
 30
0.0
 10
4.5507272832
 20
4.1870939608
 30
0.0
 10
4.5508175647
 20
4.1805466335
 30
0.0
 10
4.5507223115
 20
4.173821268
 30
0.0
 10
4.5504450931
 20
4.1669899162
 30
0.0
 10
4.549990118
 20
4.1601249451
 30
0.0
 10
4.5491662224
 20
4.1510838294
 30
0.0
 10
4.5477685393
 20
4.1401365833
 30
0.0
 10
4.5462505694
 20
4.131526242
 30
0.0
 10
4.5454072001
 20
4.1273563666
 30
0.0
  0
SPLINE
  5
2D3
100
AcDbEntity
  8
ALL_ASSEMBLY_MEMBERS
100
AcDbSpline
 62
7
  6
CONTINUOUS
 70
0
 71
3
 72
21
 73
17
 74
0
 42
0.0000001
 43
0.0000001
 44
0.0000000001
 40
0.0
 40
0.0
 40
0.0
 40
0.0
 40
0.0646527508
 40
0.129264707
 40
0.2577992676
 40
0.3217245075
 40
0.3853015119
 40
0.4484752226
 40
0.5112089644
 40
0.5734911959
 40
0.6353371856
 40
0.6967774633
 40
0.7578655002
 40
0.8186622378
 40
0.8792707278
 40
1.0
 40
1.0
 40
1.0
 40
1.0
 10
4.5454072001
 20
4.1273563666
 30
0.0
 10
4.5438880246
 20
4.1290811685
 30
0.0
 10
4.5409745535
 20
4.1326421764
 30
0.0
 10
4.5357278354
 20
4.1401637504
 30
0.0
 10
4.5314299672
 20
4.1482916003
 30
0.0
 10
4.5283123011
 20
4.156854771
 30
0.0
 10
4.526605013
 20
4.163426482
 30
0.0
 10
4.5255669403
 20
4.1700937521
 30
0.0
 10
4.5252145601
 20
4.1767867269
 30
0.0
 10
4.5255619866
 20
4.183432922
 30
0.0
 10
4.5265960158
 20
4.1899608115
 30
0.0
 10
4.528300635
 20
4.1963022992
 30
0.0
 10
4.5306350119
 20
4.2023991875
 30
0.0
 10
4.5335606006
 20
4.2082025424
 30
0.0
 10
4.5381674252
 20
4.2154856101
 30
0.0
 10
4.542367219
 20
4.2204349659
 30
0.0
 10
4.5454072001
 20
4.2234647728
 30
0.0
  0
SPLINE
  5
2D4
100
AcDbEntity
  8
ALL_ASSEMBLY_MEMBERS
100
AcDbSpline
 62
7
  6
CONTINUOUS
 70
0
 71
3
 72
21
 73
17
 74
0
 42
0.0000001
 43
0.0000001
 44
0.0000000001
 40
0.0
 40
0.0
 40
0.0
 40
0.0
 40
0.0409353491
 40
0.0864201941
 40
0.1364256876
 40
0.1908173293
 40
0.2493373603
 40
0.3115992178
 40
0.377090426
 40
0.4451897805
 40
0.5151950916
 40
0.5863605789
 40
0.6579389712
 40
0.7292205963
 40
0.8684237837
 40
1.0
 40
1.0
 40
1.0
 40
1.0
 10
4.5154572266
 20
4.2184308096
 30
0.0
 10
4.5157178602
 20
4.2171411776
 30
0.0
 10
4.5162108644
 20
4.2144068715
 30
0.0
 10
4.5168425804
 20
4.2100670873
 30
0.0
 10
4.5173964081
 20
4.2052810351
 30
0.0
 10
4.51786382
 20
4.200065095
 30
0.0
 10
4.5182367877
 20
4.1944467457
 30
0.0
 10
4.5185083325
 20
4.1884654935
 30
0.0
 10
4.5186729885
 20
4.1821723843
 30
0.0
 10
4.5187272543
 20
4.1756284961
 30
0.0
 10
4.5186699074
 20
4.1689022747
 30
0.0
 10
4.5185021366
 20
4.1620660715
 30
0.0
 10
4.5182274353
 20
4.1551922775
 30
0.0
 10
4.5177296085
 20
4.1461398649
 30
0.0
 10
4.5168864934
 20
4.1351764251
 30
0.0
 10
4.5159681644
 20
4.1265204233
 30
0.0
 10
4.5154572266
 20
4.1223224034
 30
0.0
  0
SPLINE
  5
2D5
100
AcDbEntity
  8
ALL_ASSEMBLY_MEMBERS
100
AcDbSpline
 62
7
  6
CONTINUOUS
 70
0
 71
3
 72
23
 73
19
 74
0
 42
0.0000001
 43
0.0000001
 44
0.0000000001
 40
0.0
 40
0.0
 40
0.0
 40
0.0
 40
0.0641314033
 40
0.1281010927
 40
0.1918704136
 40
0.255403689
 40
0.3186703281
 40
0.381647969
 40
0.4443263536
 40
0.5067107961
 40
0.5688238786
 40
0.6307031973
 40
0.6923969875
 40
0.7539602233
 40
0.815450215
 40
0.8769222592
 40
0.9384255225
 40
1.0
 40
1.0
 40
1.0
 40
1.0
 10
4.5154572266
 20
4.1223224034
 30
0.0
 10
4.5139043344
 20
4.1240049751
 30
0.0
 10
4.510926273
 20
4.1274830338
 30
0.0
 10
4.5068940965
 20
4.1330300011
 30
0.0
 10
4.5033553926
 20
4.1388807134
 30
0.0
 10
4.5003652046
 20
4.1450029094
 30
0.0
 10
4.4979751788
 20
4.1513542195
 30
0.0
 10
4.4962308662
 20
4.1578816141
 30
0.0
 10
4.4951681602
 20
4.1645227615
 30
0.0
 10
4.4948101679
 20
4.1712084087
 30
0.0
 10
4.4951651032
 20
4.1778658207
 30
0.0
 10
4.4962253274
 20
4.1844227293
 30
0.0
 10
4.4979681491
 20
4.19081128
 30
0.0
 10
4.5003578425
 20
4.1969714427
 30
0.0
 10
4.5033487737
 20
4.2028533029
 30
0.0
 10
4.5068890664
 20
4.2084182696
 30
0.0
 10
4.5109232977
 20
4.2136382553
 30
0.0
 10
4.5139039297
 20
4.2168751477
 30
0.0
 10
4.5154572266
 20
4.2184308096
 30
0.0
  0
SPLINE
  5
2D6
100
AcDbEntity
  8
ALL_ASSEMBLY_MEMBERS
100
AcDbSpline
 62
7
  6
CONTINUOUS
 70
0
 71
3
 72
17
 73
13
 74
0
 42
0.0000001
 43
0.0000001
 44
0.0000000001
 40
0.0
 40
0.0
 40
0.0
 40
0.0
 40
0.040332708
 40
0.0854002609
 40
0.1351457609
 40
0.1894100372
 40
0.3102448128
 40
0.4441584269
 40
0.585760344
 40
0.7290118435
 40
0.8684475774
 40
1.0
 40
1.0
 40
1.0
 40
1.0
 10
4.4877043737
 20
4.2126141577
 30
0.0
 10
4.4877918887
 20
4.211324547
 30
0.0
 10
4.4879571112
 20
4.2085925534
 30
0.0
 10
4.4881682342
 20
4.2042664953
 30
0.0
 10
4.488353391
 20
4.1994924033
 30
0.0
 10
4.4885694893
 20
4.1922897841
 30
0.0
 10
4.4887480586
 20
4.1823878288
 30
0.0
 10
4.4888166433
 20
4.1696855652
 30
0.0
 10
4.4887399873
 20
4.1562649416
 30
0.0
 10
4.4885237404
 20
4.1426688784
 30
0.0
 10
4.4881829029
 20
4.1293975641
 30
0.0
 10
4.487875523
 20
4.120718249
 30
0.0
 10
4.4877043737
 20
4.1165057515
 30
0.0
  0
SPLINE
  5
2D7
100
AcDbEntity
  8
ALL_ASSEMBLY_MEMBERS
100
AcDbSpline
 62
7
  6
CONTINUOUS
 70
0
 71
3
 72
23
 73
19
 74
0
 42
0.0000001
 43
0.0000001
 44
0.0000000001
 40
0.0
 40
0.0
 40
0.0
 40
0.0
 40
0.0634470552
 40
0.1267094622
 40
0.1897738333
 40
0.2526342627
 40
0.3152932496
 40
0.3777627975
 40
0.4400654735
 40
0.5022346564
 40
0.5643132264
 40
0.6263491528
 40
0.688390324
 40
0.7504813248
 40
0.8126609727
 40
0.8749605991
 40
0.9374026522
 40
1.0
 40
1.0
 40
1.0
 40
1.0
 10
4.4877043737
 20
4.1165057515
 30
0.0
 10
4.4861347788
 20
4.1181454407
 30
0.0
 10
4.4831240518
 20
4.1215417408
 30
0.0
 10
4.4790463691
 20
4.1269797334
 30
0.0
 10
4.4754676791
 20
4.1327352994
 30
0.0
 10
4.4724437764
 20
4.1387776199
 30
0.0
 10
4.4700270006
 20
4.1450656277
 30
0.0
 10
4.468263503
 20
4.1515473455
 30
0.0
 10
4.4671895973
 20
4.1581611782
 30
0.0
 10
4.4668285721
 20
4.1648382595
 30
0.0
 10
4.4671885666
 20
4.171505898
 30
0.0
 10
4.4682616408
 20
4.178091556
 30
0.0
 10
4.4700246475
 20
4.1845268302
 30
0.0
 10
4.4724413267
 20
4.1907508903
 30
0.0
 10
4.475465494
 20
4.1967127993
 30
0.0
 10
4.4790447293
 20
4.2023727534
 30
0.0
 10
4.483123107
 20
4.2077013342
 30
0.0
 10
4.4861346618
 20
4.2110169298
 30
0.0
 10
4.4877043737
 20
4.2126141577
 30
0.0
  0
SPLINE
  5
2D8
100
AcDbEntity
  8
ALL_ASSEMBLY_MEMBERS
100
AcDbSpline
 62
7
  6
CONTINUOUS
 70
0
 71
3
 72
23
 73
19
 74
0
 42
0.0000001
 43
0.0000001
 44
0.0000000001
 40
0.0
 40
0.0
 40
0.0
 40
0.0
 40
0.0625974156
 40
0.1250395748
 40
0.187339286
 40
0.2495190314
 40
0.3116101234
 40
0.3736513768
 40
0.4356873598
 40
0.4977659544
 40
0.559935114
 40
0.6222377346
 40
0.6847072011
 40
0.747366097
 40
0.8102264284
 40
0.8732907139
 40
0.9365530135
 40
1.0
 40
1.0
 40
1.0
 40
1.0
 10
4.4624527074
 20
4.1099701393
 30
0.0
 10
4.4608829938
 20
4.1115673689
 30
0.0
 10
4.4578714351
 20
4.1148829695
 30
0.0
 10
4.4537930523
 20
4.120211558
 30
0.0
 10
4.4502138137
 20
4.1258715223
 30
0.0
 10
4.4471896446
 20
4.1318334415
 30
0.0
 10
4.4447729671
 20
4.1380575127
 30
0.0
 10
4.4430099646
 20
4.1444927966
 30
0.0
 10
4.4419368955
 20
4.1510784613
 30
0.0
 10
4.4415769058
 20
4.1577461022
 30
0.0
 10
4.4419379358
 20
4.1644231813
 30
0.0
 10
4.4430118466
 20
4.1710370074
 30
0.0
 10
4.4447753484
 20
4.1775187156
 30
0.0
 10
4.4471921259
 20
4.1838067122
 30
0.0
 10
4.4502160268
 20
4.1898490226
 30
0.0
 10
4.4537947135
 20
4.1956045783
 30
0.0
 10
4.4578723911
 20
4.201042563
 30
0.0
 10
4.4608831142
 20
4.2044388581
 30
0.0
 10
4.4624527074
 20
4.2060785456
 30
0.0
  0
SPLINE
  5
2D9
100
AcDbEntity
  8
ALL_ASSEMBLY_MEMBERS
100
AcDbSpline
 62
7
  6
CONTINUOUS
 70
0
 71
3
 72
9
 73
5
 74
0
 42
0.0000001
 43
0.0000001
 44
0.0000000001
 40
0.0
 40
0.0
 40
0.0
 40
0.0
 40
0.5119092395
 40
1.0
 40
1.0
 40
1.0
 40
1.0
 10
5.0612384431
 20
4.0514267743
 30
0.0
 10
5.0603919475
 20
4.049665732
 30
0.0
 10
5.0585736237
 20
4.0463017899
 30
0.0
 10
5.056424841
 20
4.0431379852
 30
0.0
 10
5.0552979839
 20
4.0416544064
 30
0.0
  0
SPLINE
  5
2DA
100
AcDbEntity
  8
ALL_ASSEMBLY_MEMBERS
100
AcDbSpline
 62
7
  6
CONTINUOUS
 70
0
 71
3
 72
23
 73
19
 74
0
 42
0.0000001
 43
0.0000001
 44
0.0000000001
 40
0.0
 40
0.0
 40
0.0
 40
0.0
 40
0.0615745442
 40
0.1230779122
 40
0.1845500405
 40
0.2460401295
 40
0.3076034571
 40
0.3692973308
 40
0.4311767076
 40
0.4932898161
 40
0.5556742364
 40
0.6183525666
 40
0.6813301266
 40
0.7445966744
 40
0.8081298508
 40
0.8718990853
 40
0.9358686661
 40
1.0
 40
1.0
 40
1.0
 40
1.0
 10
4.4399788902
 20
4.1027871724
 30
0.0
 10
4.4384255916
 20
4.1043428361
 30
0.0
 10
4.4354449557
 20
4.1075797333
 30
0.0
 10
4.4314107193
 20
4.1127997266
 30
0.0
 10
4.4278704234
 20
4.1183647034
 30
0.0
 10
4.4248794905
 20
4.1242465737
 30
0.0
 10
4.4224897987
 20
4.1304067476
 30
0.0
 10
4.4207469812
 20
4.136795308
 30
0.0
 10
4.4196867621
 20
4.1433522235
 30
0.0
 10
4.4193318315
 20
4.150009638
 30
0.0
 10
4.4196898286
 20
4.1566952832
 30
0.0
 10
4.4207525395
 20
4.163336424
 30
0.0
 10
4.4224968563
 20
4.1698638091
 30
0.0
 10
4.4248868838
 20
4.1762151081
 30
0.0
 10
4.4278770701
 20
4.1823372939
 30
0.0
 10
4.4314157707
 20
4.1881879959
 30
0.0
 10
4.4354479421
 20
4.1937349552
 30
0.0
 10
4.4384259997
 20
4.1972130088
 30
0.0
 10
4.4399788902
 20
4.1988955787
 30
0.0
  0
SPLINE
  5
2DB
100
AcDbEntity
  8
ALL_ASSEMBLY_MEMBERS
100
AcDbSpline
 62
7
  6
CONTINUOUS
 70
0
 71
3
 72
21
 73
17
 74
0
 42
0.0000001
 43
0.0000001
 44
0.0000000001
 40
0.0
 40
0.0
 40
0.0
 40
0.0
 40
0.120729448
 40
0.181338072
 40
0.2421348873
 40
0.3032228989
 40
0.3646631605
 40
0.426509085
 40
0.48879124
 40
0.5515248599
 40
0.614698462
 40
0.6782754078
 40
0.7422006017
 40
0.8707351851
 40
0.9353472096
 40
1.0
 40
1.0
 40
1.0
 40
1.0
 10
4.42052915
 20
4.0950355489
 30
0.0
 10
4.4174891645
 20
4.0980653603
 30
0.0
 10
4.4132893651
 20
4.1030147259
 30
0.0
 10
4.408682535
 20
4.1102978065
 30
0.0
 10
4.4057569471
 20
4.1161011691
 30
0.0
 10
4.4034225713
 20
4.1221980594
 30
0.0
 10
4.4017179605
 20
4.1285395453
 30
0.0
 10
4.4006839317
 20
4.1350674292
 30
0.0
 10
4.4003365117
 20
4.1417136151
 30
0.0
 10
4.4006888884
 20
4.1484065791
 30
0.0
 10
4.4017269643
 20
4.1550738384
 30
0.0
 10
4.4034342481
 20
4.1616455425
 30
0.0
 10
4.4065519127
 20
4.1702087107
 30
0.0
 10
4.4108497802
 20
4.1783365627
 30
0.0
 10
4.4160965012
 20
4.1858581405
 30
0.0
 10
4.4190099736
 20
4.1894191522
 30
0.0
 10
4.42052915
 20
4.1911439551
 30
0.0
  0
SPLINE
  5
2DC
100
AcDbEntity
  8
ALL_ASSEMBLY_MEMBERS
100
AcDbSpline
 62
7
  6
CONTINUOUS
 70
0
 71
3
 72
23
 73
19
 74
0
 42
0.0000001
 43
0.0000001
 44
0.0000000001
 40
0.0
 40
0.0
 40
0.0
 40
0.0
 40
0.0589895924
 40
0.1182488914
 40
0.1778732433
 40
0.2379575394
 40
0.2985870549
 40
0.3598278397
 40
0.4217185237
 40
0.484265056
 40
0.5474394513
 40
0.6111812309
 40
0.6754029272
 40
0.7400000378
 40
0.8048617049
 40
0.8698798406
 40
0.9349550971
 40
1.0
 40
1.0
 40
1.0
 40
1.0
 10
4.4043165823
 20
4.0868001971
 30
0.0
 10
4.4028447147
 20
4.0882773423
 30
0.0
 10
4.4000194278
 20
4.0913666065
 30
0.0
 10
4.3962058079
 20
4.0963766249
 30
0.0
 10
4.3928599448
 20
4.1017575637
 30
0.0
 10
4.3900343213
 20
4.1074837396
 30
0.0
 10
4.3877778238
 20
4.1135188301
 30
0.0
 10
4.386133255
 20
4.1198149517
 30
0.0
 10
4.3851339051
 20
4.1263138251
 30
0.0
 10
4.3848007233
 20
4.1329489617
 30
0.0
 10
4.3851405447
 20
4.1396489348
 30
0.0
 10
4.3861454259
 20
4.1463411727
 30
0.0
 10
4.3877935699
 20
4.1529558035
 30
0.0
 10
4.3900512652
 20
4.1594290808
 30
0.0
 10
4.3928757607
 20
4.1657058673
 30
0.0
 10
4.3962185359
 20
4.1717411585
 30
0.0
 10
4.4000278477
 20
4.1774997917
 30
0.0
 10
4.4028462461
 20
4.1811408354
 30
0.0
 10
4.4043165823
 20
4.1829086034
 30
0.0
  0
SPLINE
  5
2DD
100
AcDbEntity
  8
ALL_ASSEMBLY_MEMBERS
100
AcDbSpline
 62
7
  6
CONTINUOUS
 70
0
 71
3
 72
11
 73
7
 74
0
 42
0.0000001
 43
0.0000001
 44
0.0000000001
 40
0.0
 40
0.0
 40
0.0
 40
0.0
 40
0.2310833736
 40
0.4741051301
 40
0.7303717677
 40
1.0
 40
1.0
 40
1.0
 40
1.0
 10
4.3748206113
 20
4.0508844909
 30
0.0
 10
4.373080963
 20
4.0529674918
 30
0.0
 10
4.3698195404
 20
4.0575077352
 30
0.0
 10
4.3658390926
 20
4.0651365102
 30
0.0
 10
4.3627935861
 20
4.0736663602
 30
0.0
 10
4.3614974763
 20
4.0797255574
 30
0.0
 10
4.3610255478
 20
4.0828567769
 30
0.0
  0
SPLINE
  5
2DE
100
AcDbEntity
  8
ALL_ASSEMBLY_MEMBERS
100
AcDbSpline
 62
7
  6
CONTINUOUS
 70
0
 71
3
 72
21
 73
17
 74
0
 42
0.0000001
 43
0.0000001
 44
0.0000000001
 40
0.0
 40
0.0
 40
0.0
 40
0.0
 40
0.0574374049
 40
0.115405064
 40
0.1740247081
 40
0.2334078962
 40
0.2936436946
 40
0.3547867972
 40
0.4168486302
 40
0.4797933551
 40
0.5435398003
 40
0.6079674026
 40
0.6729267407
 40
0.7382541696
 40
0.8692686936
 40
1.0
 40
1.0
 40
1.0
 40
1.0
 10
4.3915188152
 20
4.0781713454
 30
0.0
 10
4.3901110848
 20
4.0796125269
 30
0.0
 10
4.387408673
 20
4.0826347543
 30
0.0
 10
4.3837692476
 20
4.0875456429
 30
0.0
 10
4.3805768465
 20
4.092839431
 30
0.0
 10
4.3778815105
 20
4.0984915135
 30
0.0
 10
4.3757296979
 20
4.1044666486
 30
0.0
 10
4.3741619843
 20
4.1107179936
 30
0.0
 10
4.3732098408
 20
4.1171882325
 30
0.0
 10
4.3728930073
 20
4.1238116641
 30
0.0
 10
4.3732178785
 20
4.1305174051
 30
0.0
 10
4.374176805
 20
4.1372329388
 30
0.0
 10
4.3757492789
 20
4.1438884807
 30
0.0
 10
4.3786225801
 20
4.1526018343
 30
0.0
 10
4.3835584393
 20
4.1630144845
 30
0.0
 10
4.3887060934
 20
4.170658338
 30
0.0
 10
4.3915188152
 20
4.1742797516
 30
0.0
  0
SPLINE
  5
2DF
100
AcDbEntity
  8
ALL_ASSEMBLY_MEMBERS
100
AcDbSpline
 62
7
  6
CONTINUOUS
 70
0
 71
3
 72
11
 73
7
 74
0
 42
0.0000001
 43
0.0000001
 44
0.0000000001
 40
0.0
 40
0.0
 40
0.0
 40
0.0
 40
0.2696196688
 40
0.5258831717
 40
0.7689081443
 40
1.0
 40
1.0
 40
1.0
 40
1.0
 10
5.0709593441
 20
4.0828389752
 30
0.0
 10
5.0704869441
 20
4.0797095614
 30
0.0
 10
5.0691902544
 20
4.0736538759
 30
0.0
 10
5.0661449891
 20
4.0651289735
 30
0.0
 10
5.0621657763
 20
4.0575044167
 30
0.0
 10
5.0589057914
 20
4.052966506
 30
0.0
 10
5.0571669663
 20
4.0508844909
 30
0.0
  0
SPLINE
  5
2E0
100
AcDbEntity
  8
ALL_ASSEMBLY_MEMBERS
100
AcDbSpline
 62
7
  6
CONTINUOUS
 70
0
 71
3
 72
19
 73
15
 74
0
 42
0.0000001
 43
0.0000001
 44
0.0000000001
 40
0.0
 40
0.0
 40
0.0
 40
0.0
 40
0.0564320283
 40
0.1135236973
 40
0.1713626605
 40
0.2300395439
 40
0.2896248225
 40
0.3501705149
 40
0.4117021601
 40
0.4742170333
 40
0.6019455978
 40
0.7328284164
 40
0.8658907347
 40
1.0
 40
1.0
 40
1.0
 40
1.0
 10
4.3822760638
 20
4.0692435331
 30
0.0
 10
4.38123016
 20
4.0703518503
 30
0.0
 10
4.3792048866
 20
4.0726573613
 30
0.0
 10
4.3764095647
 20
4.0763502055
 30
0.0
 10
4.3738632319
 20
4.0802918457
 30
0.0
 10
4.3715890624
 20
4.0844734668
 30
0.0
 10
4.3696095669
 20
4.0888827908
 30
0.0
 10
4.3679460839
 20
4.0935028139
 30
0.0
 10
4.3666177348
 20
4.0983124895
 30
0.0
 10
4.3653057845
 20
4.1049892334
 30
0.0
 10
4.3645976563
 20
4.1136662303
 30
0.0
 10
4.3652525606
 20
4.1242565988
 30
0.0
 10
4.3673653056
 20
4.134826795
 30
0.0
 10
4.3696737422
 20
4.1416848333
 30
0.0
 10
4.3710309251
 20
4.1450424282
 30
0.0
  0
SPLINE
  5
2E1
100
AcDbEntity
  8
ALL_ASSEMBLY_MEMBERS
100
AcDbSpline
 62
7
  6
CONTINUOUS
 70
0
 71
3
 72
9
 73
5
 74
0
 42
0.0000001
 43
0.0000001
 44
0.0000000001
 40
0.0
 40
0.0
 40
0.0
 40
0.0
 40
0.5018529734
 40
1.0
 40
1.0
 40
1.0
 40
1.0
 10
4.3719476293
 20
4.1472285946
 30
0.0
 10
4.3733402443
 20
4.1504335164
 30
0.0
 10
4.3764786789
 20
4.1566670579
 30
0.0
 10
4.3802559979
 20
4.1625322663
 30
0.0
 10
4.3822760638
 20
4.1653519394
 30
0.0
  0
SPLINE
  5
2E2
100
AcDbEntity
  8
ALL_ASSEMBLY_MEMBERS
100
AcDbSpline
 62
7
  6
CONTINUOUS
 70
0
 71
3
 72
16
 73
12
 74
0
 42
0.0000001
 43
0.0000001
 44
0.0000000001
 40
0.0
 40
0.0
 40
0.0
 40
0.0
 40
0.1127823659
 40
0.2286442612
 40
0.3480276049
 40
0.4712195044
 40
0.5983000736
 40
0.7290998216
 40
0.795792534
 40
0.8632391581
 40
1.0
 40
1.0
 40
1.0
 40
1.0
 10
4.3766895937
 20
4.0601145754
 30
0.0
 10
4.3752456761
 20
4.0617250685
 30
0.0
 10
4.3724934764
 20
4.0651519041
 30
0.0
 10
4.3689007784
 20
4.070792435
 30
0.0
 10
4.3658610698
 20
4.0769738047
 30
0.0
 10
4.3634415024
 20
4.0836524793
 30
0.0
 10
4.3617005598
 20
4.0907644343
 30
0.0
 10
4.360858745
 20
4.0969440529
 30
0.0
 10
4.3605537611
 20
4.1020178693
 30
0.0
 10
4.36049972
 20
4.1072146652
 30
0.0
 10
4.3607462104
 20
4.1111311392
 30
0.0
 10
4.3610316328
 20
4.1137384398
 30
0.0
  0
SPLINE
  5
2E3
100
AcDbEntity
  8
ALL_ASSEMBLY_MEMBERS
100
AcDbSpline
 62
7
  6
CONTINUOUS
 70
0
 71
3
 72
17
 73
13
 74
0
 42
0.0000001
 43
0.0000001
 44
0.0000000001
 40
0.0
 40
0.0
 40
0.0
 40
0.0
 40
0.0443705537
 40
0.0893334157
 40
0.1354582025
 40
0.1832727014
 40
0.2856576251
 40
0.3995372398
 40
0.5269073593
 40
0.6690563282
 40
0.8266563085
 40
1.0
 40
1.0
 40
1.0
 40
1.0
 10
4.4279227552
 20
4.0289090716
 30
0.0
 10
4.4279227552
 20
4.0281329963
 30
0.0
 10
4.428017383
 20
4.0265688898
 30
0.0
 10
4.4284419643
 20
4.0242327425
 30
0.0
 10
4.4291487271
 20
4.0219028856
 30
0.0
 10
4.4304963233
 20
4.0187382499
 30
0.0
 10
4.4329449389
 20
4.014788381
 30
0.0
 10
4.4369053426
 20
4.0102416181
 30
0.0
 10
4.4419337642
 20
4.0057821709
 30
0.0
 10
4.4480133192
 20
4.001422529
 30
0.0
 10
4.455121088
 20
3.9971710475
 30
0.0
 10
4.460283511
 20
3.9945431525
 30
0.0
 10
4.463021981
 20
3.993241887
 30
0.0
  0
SPLINE
  5
2E4
100
AcDbEntity
  8
ALL_ASSEMBLY_MEMBERS
100
AcDbSpline
 62
7
  6
CONTINUOUS
 70
0
 71
3
 72
18
 73
14
 74
0
 42
0.0000001
 43
0.0000001
 44
0.0000000001
 40
0.0
 40
0.0
 40
0.0
 40
0.0
 40
0.0415338998
 40
0.08672893
 40
0.1354782427
 40
0.1876525241
 40
0.243085825
 40
0.3015789313
 40
0.4268758902
 40
0.5615981546
 40
0.7035905518
 40
0.8506073613
 40
1.0
 40
1.0
 40
1.0
 40
1.0
 10
4.463021981
 20
3.993241887
 30
0.0
 10
4.4662427398
 20
3.9917114474
 30
0.0
 10
4.4730717426
 20
3.9887314815
 30
0.0
 10
4.4839602853
 20
3.9846301866
 30
0.0
 10
4.4958851024
 20
3.9807231935
 30
0.0
 10
4.5087940933
 20
3.9770304786
 30
0.0
 10
4.522630443
 20
3.9735682679
 30
0.0
 10
4.5426966749
 20
3.9691775908
 30
0.0
 10
4.5696408974
 20
3.9644352146
 30
0.0
 10
4.6038776435
 20
3.9599891978
 30
0.0
 10
4.6401220669
 20
3.9567535375
 30
0.0
 10
4.6777173007
 20
3.9547900394
 30
0.0
 10
4.703167714
 20
3.9543504249
 30
0.0
 10
4.7159937888
 20
3.9543504249
 30
0.0
  0
SPLINE
  5
2E5
100
AcDbEntity
  8
ALL_ASSEMBLY_MEMBERS
100
AcDbSpline
 62
7
  6
CONTINUOUS
 70
0
 71
3
 72
18
 73
14
 74
0
 42
0.0000001
 43
0.0000001
 44
0.0000000001
 40
0.0
 40
0.0
 40
0.0
 40
0.0
 40
0.1493926387
 40
0.2964094482
 40
0.4384018454
 40
0.5731241098
 40
0.6984210687
 40
0.756914175
 40
0.8123474759
 40
0.8645217573
 40
0.91327107
 40
0.9584661002
 40
1.0
 40
1.0
 40
1.0
 40
1.0
 10
4.7159937888
 20
3.9543504249
 30
0.0
 10
4.7288198636
 20
3.9543504249
 30
0.0
 10
4.754270277
 20
3.9547900394
 30
0.0
 10
4.7918655108
 20
3.9567535375
 30
0.0
 10
4.8281099341
 20
3.9599891978
 30
0.0
 10
4.8623466803
 20
3.9644352146
 30
0.0
 10
4.8892909027
 20
3.9691775908
 30
0.0
 10
4.9093571346
 20
3.9735682679
 30
0.0
 10
4.9231934843
 20
3.9770304786
 30
0.0
 10
4.9361024752
 20
3.9807231935
 30
0.0
 10
4.9480272924
 20
3.9846301866
 30
0.0
 10
4.9589158351
 20
3.9887314815
 30
0.0
 10
4.9657448378
 20
3.9917114474
 30
0.0
 10
4.9689655967
 20
3.993241887
 30
0.0
  0
SPLINE
  5
2E6
100
AcDbEntity
  8
ALL_ASSEMBLY_MEMBERS
100
AcDbSpline
 62
7
  6
CONTINUOUS
 70
0
 71
3
 72
17
 73
13
 74
0
 42
0.0000001
 43
0.0000001
 44
0.0000000001
 40
0.0
 40
0.0
 40
0.0
 40
0.0
 40
0.1733436915
 40
0.3309436718
 40
0.4730926407
 40
0.6004627602
 40
0.7143423749
 40
0.8167272986
 40
0.8645417975
 40
0.9106665843
 40
0.9556294463
 40
1.0
 40
1.0
 40
1.0
 40
1.0
 10
4.9689655967
 20
3.993241887
 30
0.0
 10
4.9717040666
 20
3.9945431525
 30
0.0
 10
4.9768664897
 20
3.9971710475
 30
0.0
 10
4.9839742585
 20
4.001422529
 30
0.0
 10
4.9900538134
 20
4.0057821709
 30
0.0
 10
4.995082235
 20
4.0102416181
 30
0.0
 10
4.9990426387
 20
4.014788381
 30
0.0
 10
5.0014912543
 20
4.0187382499
 30
0.0
 10
5.0028388505
 20
4.0219028856
 30
0.0
 10
5.0035456134
 20
4.0242327425
 30
0.0
 10
5.0039701947
 20
4.0265688898
 30
0.0
 10
5.0040648225
 20
4.0281329963
 30
0.0
 10
5.0040648225
 20
4.0289090716
 30
0.0
  0
SPLINE
  5
2E7
100
AcDbEntity
  8
ALL_ASSEMBLY_MEMBERS
100
AcDbSpline
 62
7
  6
CONTINUOUS
 70
0
 71
3
 72
20
 73
16
 74
0
 42
0.0000001
 43
0.0000001
 44
0.0000000001
 40
0.0
 40
0.0
 40
0.0
 40
0.0
 40
0.1519983872
 40
0.3012267051
 40
0.444948503
 40
0.5139236269
 40
0.5805813721
 40
0.6446406571
 40
0.7058249202
 40
0.7638642614
 40
0.8185063364
 40
0.8695701322
 40
0.9169153674
 40
0.9604219091
 40
1.0
 40
1.0
 40
1.0
 40
1.0
 10
4.7159937888
 20
4.2521855494
 30
0.0
 10
4.7011748359
 20
4.2521855494
 30
0.0
 10
4.671804101
 20
4.2516506111
 30
0.0
 10
4.6284799313
 20
4.2492811549
 30
0.0
 10
4.5933363702
 20
4.2459972486
 30
0.0
 10
4.56631479
 20
4.2425751486
 30
0.0
 10
4.5470591418
 20
4.2396895827
 30
0.0
 10
4.528627657
 20
4.2364660281
 30
0.0
 10
4.5111115643
 20
4.2329205382
 30
0.0
 10
4.4946010455
 20
4.2290697261
 30
0.0
 10
4.4791804277
 20
4.2249264049
 30
0.0
 10
4.4649219975
 20
4.2205141598
 30
0.0
 10
4.4518874896
 20
4.2158583771
 30
0.0
 10
4.4401368504
 20
4.2109833057
 30
0.0
 10
4.432847994
 20
4.2074327975
 30
0.0
 10
4.4294472723
 20
4.2056095767
 30
0.0
  0
SPLINE
  5
2E8
100
AcDbEntity
  8
ALL_ASSEMBLY_MEMBERS
100
AcDbSpline
 62
7
  6
CONTINUOUS
 70
0
 71
3
 72
20
 73
16
 74
0
 42
0.0000001
 43
0.0000001
 44
0.0000000001
 40
0.0
 40
0.0
 40
0.0
 40
0.0
 40
0.0395780909
 40
0.0830846326
 40
0.1304298678
 40
0.1814936636
 40
0.2361357386
 40
0.2941750798
 40
0.3553593429
 40
0.4194186279
 40
0.4860763731
 40
0.555051497
 40
0.6987732949
 40
0.8480016128
 40
1.0
 40
1.0
 40
1.0
 40
1.0
 10
5.0025403053
 20
4.2056095767
 30
0.0
 10
4.9991395836
 20
4.2074327975
 30
0.0
 10
4.9918507272
 20
4.2109833057
 30
0.0
 10
4.980100088
 20
4.2158583771
 30
0.0
 10
4.9670655801
 20
4.2205141598
 30
0.0
 10
4.95280715
 20
4.2249264049
 30
0.0
 10
4.9373865322
 20
4.2290697261
 30
0.0
 10
4.9208760133
 20
4.2329205382
 30
0.0
 10
4.9033599206
 20
4.2364660281
 30
0.0
 10
4.8849284358
 20
4.2396895827
 30
0.0
 10
4.8656727876
 20
4.2425751486
 30
0.0
 10
4.8386512075
 20
4.2459972486
 30
0.0
 10
4.8035076463
 20
4.2492811549
 30
0.0
 10
4.7601834767
 20
4.2516506111
 30
0.0
 10
4.7308127417
 20
4.2521855494
 30
0.0
 10
4.7159937888
 20
4.2521855494
 30
0.0
  0
SPLINE
  5
2E9
100
AcDbEntity
  8
ALL_ASSEMBLY_MEMBERS
100
AcDbSpline
 62
7
  6
CONTINUOUS
 70
0
 71
3
 72
17
 73
13
 74
0
 42
0.0000001
 43
0.0000001
 44
0.0000000001
 40
0.0
 40
0.0
 40
0.0
 40
0.0
 40
0.1436835851
 40
0.2856286454
 40
0.4237570736
 40
0.5563426739
 40
0.6817368833
 40
0.7983559127
 40
0.852941385
 40
0.9048343018
 40
0.9538913312
 40
1.0
 40
1.0
 40
1.0
 40
1.0
 10
4.7159937888
 20
4.1034677183
 30
0.0
 10
4.7046314475
 20
4.1034677183
 30
0.0
 10
4.6820427192
 20
4.1031212954
 30
0.0
 10
4.6485628726
 20
4.1015754736
 30
0.0
 10
4.6160244736
 20
4.0990191357
 30
0.0
 10
4.584892875
 20
4.09549316
 30
0.0
 10
4.5555977052
 20
4.0910493098
 30
0.0
 10
4.5325707158
 20
4.086540145
 30
0.0
 10
4.515399663
 20
4.0824815948
 30
0.0
 10
4.5035118113
 20
4.0793186604
 30
0.0
 10
4.4923703749
 20
4.0759791333
 30
0.0
 10
4.4852395438
 20
4.0735671646
 30
0.0
 10
4.4818102693
 20
4.0723282049
 30
0.0
  0
SPLINE
  5
2EA
100
AcDbEntity
  8
ALL_ASSEMBLY_MEMBERS
100
AcDbSpline
 62
7
  6
CONTINUOUS
 70
0
 71
3
 72
9
 73
5
 74
0
 42
0.0000001
 43
0.0000001
 44
0.0000000001
 40
0.0
 40
0.0
 40
0.0
 40
0.0
 40
0.5186449153
 40
1.0
 40
1.0
 40
1.0
 40
1.0
 10
4.472227103
 20
4.0686386335
 30
0.0
 10
4.4695571672
 20
4.067541447
 30
0.0
 10
4.4644512652
 20
4.0653214948
 30
0.0
 10
4.4594579019
 20
4.0628565848
 30
0.0
 10
4.4570913409
 20
4.0616009312
 30
0.0
  0
LINE
  5
2EB
100
AcDbEntity
  8
ALL_ASSEMBLY_MEMBERS
100
AcDbLine
 62
7
  6
CONTINUOUS
 10
4.4561891658
 20
4.0611178559
 11
4.448886397
 21
4.0568312528
  0
SPLINE
  5
2EC
100
AcDbEntity
  8
ALL_ASSEMBLY_MEMBERS
100
AcDbSpline
 62
7
  6
CONTINUOUS
 70
0
 71
3
 72
15
 73
11
 74
0
 42
0.0000001
 43
0.0000001
 44
0.0000000001
 40
0.0
 40
0.0
 40
0.0
 40
0.0
 40
0.1625446654
 40
0.3121676129
 40
0.449499713
 40
0.5755052978
 40
0.691511314
 40
0.7993002794
 40
0.9011918507
 40
1.0
 40
1.0
 40
1.0
 40
1.0
 10
4.448886397
 20
4.0568312528
 30
0.0
 10
4.4472281901
 20
4.0557688315
 30
0.0
 10
4.4441031611
 20
4.0536324283
 30
0.0
 10
4.4398404195
 20
4.0502339941
 30
0.0
 10
4.436208261
 20
4.0467821021
 30
0.0
 10
4.433213808
 20
4.0432827603
 30
0.0
 10
4.4308650308
 20
4.0397401981
 30
0.0
 10
4.42917298
 20
4.0361576189
 30
0.0
 10
4.4281517457
 20
4.0325434921
 30
0.0
 10
4.4279227552
 20
4.0301062138
 30
0.0
 10
4.4279227552
 20
4.0289090716
 30
0.0
  0
SPLINE
  5
2ED
100
AcDbEntity
  8
ALL_ASSEMBLY_MEMBERS
100
AcDbSpline
 62
7
  6
CONTINUOUS
 70
0
 71
3
 72
15
 73
11
 74
0
 42
0.0000001
 43
0.0000001
 44
0.0000000001
 40
0.0
 40
0.0
 40
0.0
 40
0.0
 40
0.1028857736
 40
0.2082812016
 40
0.3185243327
 40
0.4356286615
 40
0.5612107027
 40
0.6965316391
 40
0.8425542676
 40
1.0
 40
1.0
 40
1.0
 40
1.0
 10
5.0040648225
 20
4.0289090716
 30
0.0
 10
5.0040648225
 20
4.0299639044
 30
0.0
 10
5.0038881738
 20
4.0321032101
 30
0.0
 10
5.0030983991
 20
4.0352849054
 30
0.0
 10
5.0017868577
 20
4.0384468189
 30
0.0
 10
4.9999610446
 20
4.0415816817
 30
0.0
 10
4.9976290109
 20
4.0446865057
 30
0.0
 10
4.9947965911
 20
4.0477579071
 30
0.0
 10
4.9914689888
 20
4.0507922112
 30
0.0
 10
4.9890179256
 20
4.0527132653
 30
0.0
 10
4.9877172506
 20
4.0536692506
 30
0.0
  0
LINE
  5
2EE
100
AcDbEntity
  8
ALL_ASSEMBLY_MEMBERS
100
AcDbLine
 62
7
  6
CONTINUOUS
 10
4.9875147202
 20
4.0538176082
 11
4.9831011806
 21
4.0568312528
  0
SPLINE
  5
2EF
100
AcDbEntity
  8
ALL_ASSEMBLY_MEMBERS
100
AcDbSpline
 62
7
  6
CONTINUOUS
 70
0
 71
3
 72
11
 73
7
 74
0
 42
0.0000001
 43
0.0000001
 44
0.0000000001
 40
0.0
 40
0.0
 40
0.0
 40
0.0
 40
0.2211511483
 40
0.4615293585
 40
0.7212051271
 40
1.0
 40
1.0
 40
1.0
 40
1.0
 10
4.9831011806
 20
4.0568312528
 30
0.0
 10
4.9810435025
 20
4.0581496171
 30
0.0
 10
4.9766465513
 20
4.0607423019
 30
0.0
 10
4.9695493202
 20
4.0643756863
 30
0.0
 10
4.9616954283
 20
4.0679033006
 30
0.0
 10
4.956163686
 20
4.0701006727
 30
0.0
 10
4.9532799684
 20
4.0711848073
 30
0.0
  0
SPLINE
  5
2F0
100
AcDbEntity
  8
ALL_ASSEMBLY_MEMBERS
100
AcDbSpline
 62
7
  6
CONTINUOUS
 70
0
 71
3
 72
17
 73
13
 74
0
 42
0.0000001
 43
0.0000001
 44
0.0000000001
 40
0.0
 40
0.0
 40
0.0
 40
0.0
 40
0.0454457043
 40
0.0939449842
 40
0.1453878323
 40
0.1996315845
 40
0.3158696829
 40
0.441258311
 40
0.5741534205
 40
0.7128346625
 40
0.8555033632
 40
1.0
 40
1.0
 40
1.0
 40
1.0
 10
4.9532799684
 20
4.0711848073
 30
0.0
 10
4.9498691709
 20
4.0724670978
 30
0.0
 10
4.9427597818
 20
4.0749635323
 30
0.0
 10
4.9316237348
 20
4.0784177169
 30
0.0
 10
4.919700236
 20
4.0816916495
 30
0.0
 10
4.9024086403
 20
4.0858992837
 30
0.0
 10
4.8791403923
 20
4.0905762445
 30
0.0
 10
4.8494586678
 20
4.0951853313
 30
0.0
 10
4.8178335438
 20
4.0988459521
 30
0.0
 10
4.7847189112
 20
4.1015012489
 30
0.0
 10
4.7506064107
 20
4.1031077539
 30
0.0
 10
4.7275796441
 20
4.1034677183
 30
0.0
 10
4.7159937888
 20
4.1034677183
 30
0.0
  0
SPLINE
  5
2F1
100
AcDbEntity
  8
ALL_ASSEMBLY_MEMBERS
100
AcDbSpline
 62
7
  6
CONTINUOUS
 70
0
 71
3
 72
28
 73
24
 74
0
 42
0.0000001
 43
0.0000001
 44
0.0000000001
 40
0.0
 40
0.0
 40
0.0
 40
0.0
 40
0.0624815578
 40
0.0937499825
 40
0.1250141627
 40
0.1875082177
 40
0.2500027194
 40
0.2812617582
 40
0.3125206932
 40
0.3750184138
 40
0.40627674
 40
0.4375351272
 40
0.5000329906
 40
0.5625304987
 40
0.6250280967
 40
0.6875247485
 40
0.7187825118
 40
0.7500401932
 40
0.8125362176
 40
0.875027426
 40
0.9062814395
 40
0.9375351583
 40
1.0
 40
1.0
 40
1.0
 40
1.0
 10
5.2843548033
 20
4.6598783337
 30
0.0
 10
5.2844532637
 20
4.6784958256
 30
0.0
 10
5.2832367988
 20
4.7064625807
 30
0.0
 10
5.2788978937
 20
4.7434704895
 30
0.0
 10
5.2727419863
 20
4.7802267519
 30
0.0
 10
5.2616624565
 20
4.8255308211
 30
0.0
 10
5.2461547496
 20
4.8695156819
 30
0.0
 10
5.2311855096
 20
4.9036407547
 30
0.0
 10
5.2145393344
 20
4.9369794377
 30
0.0
 10
5.1954147367
 20
4.9690318915
 30
0.0
 10
5.1739887013
 20
4.9995189495
 30
0.0
 10
5.1510675609
 20
5.0289001984
 30
0.0
 10
5.119716317
 20
5.0634348858
 30
0.0
 10
5.078166548
 20
5.1009174943
 30
0.0
 10
5.0331119414
 20
5.1341032008
 30
0.0
 10
4.9930085967
 20
5.1579167116
 30
0.0
 10
4.9596530052
 20
5.1745280656
 30
0.0
 10
4.9255196042
 20
5.1894763286
 30
0.0
 10
4.8815432226
 20
5.2049993372
 30
0.0
 10
4.8362648492
 20
5.2161588043
 30
0.0
 10
4.7995356591
 20
5.2224226036
 30
0.0
 10
4.7625568075
 20
5.2268983133
 30
0.0
 10
4.7346065601
 20
5.2282409063
 30
0.0
 10
4.7159937888
 20
5.2282386045
 30
0.0
  0
LINE
  5
2F2
100
AcDbEntity
  8
ALL_ASSEMBLY_MEMBERS
100
AcDbLine
 62
7
  6
CONTINUOUS
 10
5.2843548033
 20
4.6598783337
 11
5.3022430651
 21
4.6602426987
  0
SPLINE
  5
2F3
100
AcDbEntity
  8
ALL_ASSEMBLY_MEMBERS
100
AcDbSpline
 62
7
  6
CONTINUOUS
 70
0
 71
3
 72
28
 73
24
 74
0
 42
0.0000001
 43
0.0000001
 44
0.0000000001
 40
0.0
 40
0.0
 40
0.0
 40
0.0
 40
0.0624588837
 40
0.0937008239
 40
0.1249431238
 40
0.187415759
 40
0.249895207
 40
0.2811467454
 40
0.3124005801
 40
0.3748961787
 40
0.4373998969
 40
0.4999061533
 40
0.5624120688
 40
0.5936742604
 40
0.6249363658
 40
0.6874416004
 40
0.7187043082
 40
0.7499671166
 40
0.8124691047
 40
0.8749707115
 40
0.9062387141
 40
0.9375109611
 40
1.0
 40
1.0
 40
1.0
 40
1.0
 10
4.7159937888
 20
5.2282383406
 30
0.0
 10
4.6973838175
 20
5.2282355218
 30
0.0
 10
4.6694407197
 20
5.2268861575
 30
0.0
 10
4.6324738881
 20
5.2224015872
 30
0.0
 10
4.5957601353
 20
5.2161341076
 30
0.0
 10
4.5505001794
 20
5.2049695323
 30
0.0
 10
4.5065386227
 20
5.1894497856
 30
0.0
 10
4.4724148967
 20
5.1745043703
 30
0.0
 10
4.4390632399
 20
5.15789723
 30
0.0
 10
4.3989602639
 20
5.1340875766
 30
0.0
 10
4.3539004189
 20
5.1009074459
 30
0.0
 10
4.3123408604
 20
5.0634301746
 30
0.0
 10
4.2809798609
 20
5.0288995416
 30
0.0
 10
4.2580506411
 20
4.999521288
 30
0.0
 10
4.2366164153
 20
4.9690369975
 30
0.0
 10
4.2174834447
 20
4.9369866806
 30
0.0
 10
4.2008291892
 20
4.903649303
 30
0.0
 10
4.1858521424
 20
4.869524998
 30
0.0
 10
4.1703357419
 20
4.8255399007
 30
0.0
 10
4.1592498691
 20
4.7802341326
 30
0.0
 10
4.1530907417
 20
4.7434758777
 30
0.0
 10
4.1487499465
 20
4.7064657031
 30
0.0
 10
4.147533577
 20
4.6784970256
 30
0.0
 10
4.1476328324
 20
4.6598783337
 30
0.0
  0
SPLINE
  5
2F4
100
AcDbEntity
  8
ALL_ASSEMBLY_MEMBERS
100
AcDbSpline
 62
7
  6
CONTINUOUS
 70
0
 71
3
 72
22
 73
18
 74
0
 42
0.0000001
 43
0.0000001
 44
0.0000000001
 40
0.0
 40
0.0
 40
0.0
 40
0.0
 40
0.1249377609
 40
0.1874580689
 40
0.2499622587
 40
0.312459934
 40
0.3749607566
 40
0.4374650149
 40
0.4999693266
 40
0.5624728482
 40
0.6249760331
 40
0.6874795542
 40
0.7499835527
 40
0.8124873772
 40
0.8749916724
 40
0.9374960429
 40
1.0
 40
1.0
 40
1.0
 40
1.0
 10
4.1476327687
 20
4.6598783335
 30
0.0
 10
4.1477581908
 20
4.6367949189
 30
0.0
 10
4.1500436617
 20
4.6021240651
 30
0.0
 10
4.157230144
 20
4.5564841225
 30
0.0
 10
4.1646810924
 20
4.5226243476
 30
0.0
 10
4.1741565272
 20
4.4892806558
 30
0.0
 10
4.1856275629
 20
4.4565690667
 30
0.0
 10
4.1990498196
 20
4.4246074202
 30
0.0
 10
4.2143784738
 20
4.393514225
 30
0.0
 10
4.2315630302
 20
4.3634072725
 30
0.0
 10
4.250535417
 20
4.3343938958
 30
0.0
 10
4.2712320257
 20
4.3065839851
 30
0.0
 10
4.2935763219
 20
4.2800796479
 30
0.0
 10
4.3174877854
 20
4.2549797435
 30
0.0
 10
4.3428847819
 20
4.2313834193
 30
0.0
 10
4.3696679721
 20
4.2093751941
 30
0.0
 10
4.3883875051
 20
4.1958169473
 30
0.0
 10
4.3979428642
 20
4.1893316026
 30
0.0
  0
LINE
  5
2F5
100
AcDbEntity
  8
ALL_ASSEMBLY_MEMBERS
100
AcDbLine
 62
7
  6
CONTINUOUS
 10
4.1476327687
 20
4.6598783335
 11
4.129744351
 21
4.6602455568
  0
SPLINE
  5
2F6
100
AcDbEntity
  8
ALL_ASSEMBLY_MEMBERS
100
AcDbSpline
 62
7
  6
CONTINUOUS
 70
0
 71
3
 72
22
 73
18
 74
0
 42
0.0000001
 43
0.0000001
 44
0.0000000001
 40
0.0
 40
0.0
 40
0.0
 40
0.0
 40
0.0625040704
 40
0.1250085374
 40
0.1875129083
 40
0.2500167744
 40
0.3125208189
 40
0.3750243866
 40
0.437527596
 40
0.5000311278
 40
0.5625354073
 40
0.6250396282
 40
0.6875404292
 40
0.7500380592
 40
0.8125421709
 40
0.8750623449
 40
1.0
 40
1.0
 40
1.0
 40
1.0
 10
5.034108484
 20
4.1892786961
 30
0.0
 10
5.0436640263
 20
4.195764494
 30
0.0
 10
5.0623836375
 20
4.2093240498
 30
0.0
 10
5.089166002
 20
4.2313352204
 30
0.0
 10
5.1145611792
 20
4.2549352942
 30
0.0
 10
5.138469779
 20
4.2800395932
 30
0.0
 10
5.1608102601
 20
4.3065487107
 30
0.0
 10
5.1815022504
 20
4.3343635391
 30
0.0
 10
5.2004693553
 20
4.3633817764
 30
0.0
 10
5.2176481124
 20
4.3934933738
 30
0.0
 10
5.2329706091
 20
4.4245908802
 30
0.0
 10
5.2463865718
 20
4.4565563988
 30
0.0
 10
5.2578514848
 20
4.4892713266
 30
0.0
 10
5.2673212385
 20
4.5226177916
 30
0.0
 10
5.2747670994
 20
4.5564798007
 30
0.0
 10
5.281947832
 20
4.6021221354
 30
0.0
 10
5.2842304025
 20
4.6367941634
 30
0.0
 10
5.2843548428
 20
4.6598783335
 30
0.0
  0
ENDSEC
  0
SECTION
  2
OBJECTS
  0
DICTIONARY
  5
C
100
AcDbDictionary
280
0
281
1
  3
ACAD_GROUP
350
D
  3
ACAD_MLINESTYLE
350
17
  3
ACAD_LAYOUT
350
1A
  3
ACAD_PLOTSETTINGS
350
19
  3
ACAD_PLOTSTYLENAME
350
E
  0
DICTIONARY
  5
D
102
{ACAD_REACTORS
330
C
102
}
100
AcDbDictionary
280
0
281
1
  0
ACDBDICTIONARYWDFLT
  5
E
102
{ACAD_REACTORS
330
C
102
}
100
AcDbDictionary
281
1
  3
Normal
350
F
100
AcDbDictionaryWithDefault
340
F
  0
DICTIONARY
  5
17
102
{ACAD_REACTORS
330
C
102
}
100
AcDbDictionary
280
0
281
1
  3
Standard
350
18
  0
DICTIONARY
  5
19
102
{ACAD_REACTORS
330
C
102
}
100
AcDbDictionary
281
1
  0
DICTIONARY
  5
1A
102
{ACAD_REACTORS
330
C
102
}
100
AcDbDictionary
281
1
  3
Model
350
2F7
  3
Layout1
350
2F8
  0
ACDBPLACEHOLDER
  5
F
102
{ACAD_REACTORS
330
E
102
}
  0
MLINESTYLE
  5
18
102
{ACAD_REACTORS
330
17
102
}
100
AcDbMlineStyle
  2
STANDARD
 70
0
  3

 62
256
 51
90.0
 52
90.0
 71
2
 49
0.5
 62
256
  6
BYLAYER
 49
-0.5
 62
256
  6
BYLAYER
  0
LAYOUT
  5
2F7
102
{ACAD_REACTORS
330
1A
102
}
100
AcDbPlotSettings
  1

  2
none_device
  4
ANSI_A_(11.00_x_8.50_Inches)
  6

 40
0.0
 41
0.0
 42
0.0
 43
0.0
 44
279.4
 45
215.9
 46
0.0
 47
0.0
 48
0.0
 49
0.0
140
0.0
141
0.0
142
1.0
143
1.0
 70
1024
 72
0
 73
0
 74
0
  7

 75
0
147
1.0
148
0.0
149
0.0
100
AcDbLayout
  1
Model
 70
0
 71
0
 10
0.0
 20
0.0
 11
11.0
 21
8.5
 12
0.0
 22
0.0
 32
0.0
 14
0.0
 24
0.0
 34
0.0
 15
0.0
 25
0.0
 35
0.0
146
0.0
 13
0.0
 23
0.0
 33
0.0
 16
1.0
 26
0.0
 36
0.0
 17
0.0
 27
1.0
 37
0.0
 76
0
330
217
345
0
346
0
  0
LAYOUT
  5
2F8
102
{ACAD_REACTORS
330
1A
102
}
100
AcDbPlotSettings
  1

  2
none_device
  4
ANSI_A_(11.00_x_8.50_Inches)
  6

 40
0.0
 41
0.0
 42
0.0
 43
0.0
 44
279.4
 45
215.9
 46
0.0
 47
0.0
 48
0.0
 49
0.0
140
0.0
141
0.0
142
1.0
143
1.0
 70
0
 72
0
 73
0
 74
0
  7

 75
0
147
1.0
148
0.0
149
0.0
100
AcDbLayout
  1
Layout1
 70
0
 71
1
 10
0.0
 20
0.0
 11
11.0
 21
8.5
 12
0.0
 22
0.0
 32
0.0
 14
0.0
 24
0.0
 34
0.0
 15
0.0
 25
0.0
 35
0.0
146
0.0
 13
0.0
 23
0.0
 33
0.0
 16
1.0
 26
0.0
 36
0.0
 17
0.0
 27
1.0
 37
0.0
 76
0
330
218
345
0
346
0
  0
ENDSEC
  0
EOF
