999
DXF file: 20-131_right.dxf
999
Pro/ENGINEER 2018400 by Parametric Technology Corporation
  0
SECTION
  2
HEADER
  9
$ACADVER
  1
AC1027
  9
$DWGCODEPAGE
  3
ANSI_1252
  9
$EXTMAX
 10
11.0
 20
8.5
 30
0.0
  9
$EXTMIN
 10
0.0
 20
0.0
 30
0.0
  9
$LIMMIN
 10
0.0
 20
0.0
  9
$LIMMAX
 10
11.0
 20
8.5
  9
$VIEWCTR
 10
5.5
 20
4.25
  9
$VIEWSIZE
 40
8.5
  9
$CLAYER
  8
0
  9
$LTSCALE
 40
0.605
  9
$CELTYPE
  6
BYLAYER
  9
$DIMSCALE
 40
1.0
  9
$DIMASZ
 40
0.1
  9
$DIMEXO
 40
0.0625
  9
$DIMDLI
 40
0.418
  9
$DIMEXE
 40
0.125
  9
$DIMCEN
 40
0.099
  9
$DIMLFAC
 40
1.0
  9
$DIMBLK
  1
_FILLED
  9
$DIMALT
 70
1
  9
$DIMALTD
 70
2
  9
$DIMALTTD
 70
2
  9
$DIMALTF
 40
25.4
  9
$DIMTXT
 40
0.08
  9
$DIMTOL
 70
1
  9
$DIMLIM
 70
0
  9
$DIMTFAC
 40
1.0
  9
$DIMTP
 40
0.001
  9
$DIMTM
 40
0.001
  9
$DIMGAP
 40
0.09
  9
$DIMDSEP
 70
46
  9
$AUNITS
 70
0
  9
$PDMODE
 70
3
  9
$PDSIZE
 40
0.3125
  9
$HANDSEED
  5
2A0
  9
$TILEMODE
 70
1
  9
$MEASUREMENT
 70
0
  9
$INSUNITS
 70
1
  0
ENDSEC
  0
SECTION
  2
CLASSES
  0
CLASS
  1
ACDBDICTIONARYWDFLT
  2
AcDbDictionaryWithDefault
  3
AutoCAD 2000
 90
0
 91
1
280
0
281
0
  0
CLASS
  1
ACDBPLACEHOLDER
  2
AcDbPlaceHolder
  3
AutoCAD 2000
 90
0
 91
1
280
0
281
0
  0
CLASS
  1
LAYOUT
  2
AcDbLayout
  3
AutoCAD 2000
 90
0
 91
0
280
0
281
0
  0
ENDSEC
  0
SECTION
  2
TABLES
  0
TABLE
  2
VPORT
  5
8
100
AcDbSymbolTable
 70
2
  0
VPORT
  5
1F4
100
AcDbSymbolTableRecord
100
AcDbViewportTableRecord
  2
*ACTIVE
 70
0
 10
0.0
 20
0.0
 11
1.0
 21
1.0
 12
5.5
 22
4.25
 13
0.0
 23
0.0
 14
1.0
 24
1.0
 15
0.0
 25
0.0
 16
0.0
 26
0.0
 36
1.0
 17
0.0
 27
0.0
 37
0.0
 40
8.5
 41
1.2941176471
 42
50.0
 43
0.0
 44
0.0
 50
0.0
 51
0.0
 71
0
 72
100
 73
1
 74
1
 75
0
 76
0
 77
0
 78
0
  0
ENDTAB
  0
TABLE
  2
LTYPE
  5
5
100
AcDbSymbolTable
 70
6
  0
LTYPE
  5
14
100
AcDbSymbolTableRecord
100
AcDbLinetypeTableRecord
  2
BYBLOCK
 70
0
  3

 72
65
 73
0
 40
0.0
  0
LTYPE
  5
15
100
AcDbSymbolTableRecord
100
AcDbLinetypeTableRecord
  2
BYLAYER
 70
0
  3

 72
65
 73
0
 40
0.0
  0
LTYPE
  5
16
100
AcDbSymbolTableRecord
100
AcDbLinetypeTableRecord
  2
CONTINUOUS
 70
64
  3
Solid line
 72
65
 73
0
 40
0.0
  0
LTYPE
  5
1F5
100
AcDbSymbolTableRecord
100
AcDbLinetypeTableRecord
  2
CENTER
 70
64
  3
____ _ ____ _ ____ _ ____ _ ____ _ ____ _ ____
 72
65
 73
4
 40
0.6
 49
0.375
 74
0
 49
-0.075
 74
0
 49
0.075
 74
0
 49
-0.075
 74
0
  0
LTYPE
  5
1F6
100
AcDbSymbolTableRecord
100
AcDbLinetypeTableRecord
  2
HIDDEN
 70
64
  3
- - - - - - - - - - - - - - - - - - - -
 72
65
 73
2
 40
0.2
 49
0.1
 74
0
 49
-0.1
 74
0
  0
LTYPE
  5
1F7
100
AcDbSymbolTableRecord
100
AcDbLinetypeTableRecord
  2
PHANTOM
 70
64
  3
_____ _ _ _____ _ _ _____ _ _ _____
 72
65
 73
6
 40
0.8
 49
0.45
 74
0
 49
-0.05
 74
0
 49
0.1
 74
0
 49
-0.05
 74
0
 49
0.1
 74
0
 49
-0.05
 74
0
  0
LTYPE
  5
1F8
100
AcDbSymbolTableRecord
100
AcDbLinetypeTableRecord
  2
DOT
 70
64
  3
. . . . . . . . . . . . . . . . . . . .
 72
65
 73
2
 40
0.2
 49
0.1
 74
0
 49
-0.1
 74
0
  0
LTYPE
  5
1F9
100
AcDbSymbolTableRecord
100
AcDbLinetypeTableRecord
  2
DASHED
 70
64
  3
- - - - - - - - - - - - - - - - - - - -
 72
65
 73
2
 40
0.2
 49
0.1
 74
0
 49
-0.1
 74
0
  0
ENDTAB
  0
TABLE
  2
LAYER
  5
2
100
AcDbSymbolTable
 70
36
  0
LAYER
  5
10
100
AcDbSymbolTableRecord
100
AcDbLayerTableRecord
  2
0
 70
0
 62
7
  6
CONTINUOUS
370
-3
390
F
  0
LAYER
  5
1FA
100
AcDbSymbolTableRecord
100
AcDbLayerTableRecord
  2
DEFAULT_1
 70
0
 62
7
  6
CENTER
370
-3
390
F
  0
LAYER
  5
1FB
100
AcDbSymbolTableRecord
100
AcDbLayerTableRecord
  2
DEFAULT_2
 70
0
 62
8
  6
HIDDEN
370
-3
390
F
  0
LAYER
  5
1FC
100
AcDbSymbolTableRecord
100
AcDbLayerTableRecord
  2
DEFAULT_3
 70
0
 62
7
  6
PHANTOM
370
-3
390
F
  0
LAYER
  5
1FD
100
AcDbSymbolTableRecord
100
AcDbLayerTableRecord
  2
2201_ASSY_PLANES
 70
0
 62
7
  6
CONTINUOUS
370
-3
390
F
  0
LAYER
  5
1FE
100
AcDbSymbolTableRecord
100
AcDbLayerTableRecord
  2
ALL_ASSEMBLY_MEMBERS
 70
0
 62
7
  6
CONTINUOUS
370
-3
390
F
  0
LAYER
  5
1FF
100
AcDbSymbolTableRecord
100
AcDbLayerTableRecord
  2
ALL_FEATURES
 70
0
 62
7
  6
CONTINUOUS
370
-3
390
F
  0
LAYER
  5
200
100
AcDbSymbolTableRecord
100
AcDbLayerTableRecord
  2
AXES_FEATURES
 70
0
 62
7
  6
CONTINUOUS
370
-3
390
F
  0
LAYER
  5
201
100
AcDbSymbolTableRecord
100
AcDbLayerTableRecord
  2
CHAMFER_FEATURES
 70
0
 62
7
  6
CONTINUOUS
370
-3
390
F
  0
LAYER
  5
202
100
AcDbSymbolTableRecord
100
AcDbLayerTableRecord
  2
CUT_FEATURES
 70
0
 62
7
  6
CONTINUOUS
370
-3
390
F
  0
LAYER
  5
203
100
AcDbSymbolTableRecord
100
AcDbLayerTableRecord
  2
DATUM_CURVES
 70
0
 62
7
  6
CONTINUOUS
370
-3
390
F
  0
LAYER
  5
204
100
AcDbSymbolTableRecord
100
AcDbLayerTableRecord
  2
DATUM_PLANES
 70
0
 62
7
  6
CONTINUOUS
370
-3
390
F
  0
LAYER
  5
205
100
AcDbSymbolTableRecord
100
AcDbLayerTableRecord
  2
DATUM_POINTS
 70
0
 62
7
  6
CONTINUOUS
370
-3
390
F
  0
LAYER
  5
206
100
AcDbSymbolTableRecord
100
AcDbLayerTableRecord
  2
DEFAULT_COORDINATE_SYSTEM
 70
0
 62
7
  6
CONTINUOUS
370
-3
390
F
  0
LAYER
  5
207
100
AcDbSymbolTableRecord
100
AcDbLayerTableRecord
  2
DEFAULT_DATUM_AXES
 70
0
 62
7
  6
CONTINUOUS
370
-3
390
F
  0
LAYER
  5
208
100
AcDbSymbolTableRecord
100
AcDbLayerTableRecord
  2
DEFAULT_DATUM_PLANES
 70
0
 62
7
  6
CONTINUOUS
370
-3
390
F
  0
LAYER
  5
209
100
AcDbSymbolTableRecord
100
AcDbLayerTableRecord
  2
DIMENSIONS
 70
0
 62
7
  6
CONTINUOUS
370
-3
390
F
  0
LAYER
  5
20A
100
AcDbSymbolTableRecord
100
AcDbLayerTableRecord
  2
INTF_1
 70
0
 62
7
  6
CONTINUOUS
370
-3
390
F
  0
LAYER
  5
20B
100
AcDbSymbolTableRecord
100
AcDbLayerTableRecord
  2
POINTS
 70
0
 62
7
  6
CONTINUOUS
370
-3
390
F
  0
LAYER
  5
20C
100
AcDbSymbolTableRecord
100
AcDbLayerTableRecord
  2
PROTRUSION_FEATURES
 70
0
 62
7
  6
CONTINUOUS
370
-3
390
F
  0
LAYER
  5
20D
100
AcDbSymbolTableRecord
100
AcDbLayerTableRecord
  2
QUILT
 70
0
 62
7
  6
CONTINUOUS
370
-3
390
F
  0
LAYER
  5
20E
100
AcDbSymbolTableRecord
100
AcDbLayerTableRecord
  2
QUILTS
 70
0
 62
7
  6
CONTINUOUS
370
-3
390
F
  0
LAYER
  5
20F
100
AcDbSymbolTableRecord
100
AcDbLayerTableRecord
  2
REF_CURVES
 70
0
 62
7
  6
CONTINUOUS
370
-3
390
F
  0
LAYER
  5
210
100
AcDbSymbolTableRecord
100
AcDbLayerTableRecord
  2
RGB(   0_   0_   0 )
 70
0
 62
7
  6
CONTINUOUS
370
-3
390
F
  0
LAYER
  5
211
100
AcDbSymbolTableRecord
100
AcDbLayerTableRecord
  2
ROUND_FEATURES
 70
0
 62
7
  6
CONTINUOUS
370
-3
390
F
  0
LAYER
  5
212
100
AcDbSymbolTableRecord
100
AcDbLayerTableRecord
  2
SHELL_FEATURES
 70
0
 62
7
  6
CONTINUOUS
370
-3
390
F
  0
LAYER
  5
213
100
AcDbSymbolTableRecord
100
AcDbLayerTableRecord
  2
SIZE_REF
 70
0
 62
7
  6
CONTINUOUS
370
-3
390
F
  0
LAYER
  5
214
100
AcDbSymbolTableRecord
100
AcDbLayerTableRecord
  2
SURFACE_FEATURES
 70
0
 62
7
  6
CONTINUOUS
370
-3
390
F
  0
ENDTAB
  0
TABLE
  2
STYLE
  5
3
100
AcDbSymbolTable
 70
1
  0
STYLE
  5
11
100
AcDbSymbolTableRecord
100
AcDbTextStyleTableRecord
  2
STANDARD
 70
0
 40
0.0
 41
0.8
 50
0.0
 71
0
 42
0.2
  3
txt
  4

  0
STYLE
  5
215
100
AcDbSymbolTableRecord
100
AcDbTextStyleTableRecord
  2
TEXTSTYLE_1
 70
0
 40
0.0
 41
0.8
 50
0.0
 71
0
 42
0.2
  3
gdt
  4

  0
ENDTAB
  0
TABLE
  2
VIEW
  5
6
100
AcDbSymbolTable
 70
0
  0
ENDTAB
  0
TABLE
  2
UCS
  5
7
100
AcDbSymbolTable
 70
0
  0
ENDTAB
  0
TABLE
  2
APPID
  5
9
100
AcDbSymbolTable
 70
1
  0
APPID
  5
216
100
AcDbSymbolTableRecord
100
AcDbRegAppTableRecord
  2
ACAD
 70
0
  0
ENDTAB
  0
TABLE
  2
BLOCK_RECORD
  5
1
100
AcDbSymbolTable
 70
0
  0
BLOCK_RECORD
  5
217
100
AcDbSymbolTableRecord
100
AcDbBlockTableRecord
  2
*Model_Space
  0
BLOCK_RECORD
  5
218
100
AcDbSymbolTableRecord
100
AcDbBlockTableRecord
  2
*Paper_Space
  0
BLOCK_RECORD
  5
219
100
AcDbSymbolTableRecord
100
AcDbBlockTableRecord
  2
_FILLED
  0
ENDTAB
  0
TABLE
  2
DIMSTYLE
  5
A
100
AcDbSymbolTable
 70
1
100
AcDbDimStyleTable
 71
0
  0
DIMSTYLE
105
21A
100
AcDbSymbolTableRecord
100
AcDbDimStyleTableRecord
  2
STANDARD
 70
0
  3

  4

 40
1.0
 41
0.1
 42
0.0625
 43
0.38
 44
0.125
 45
0.0
 46
0.0
 47
0.001
 48
0.001
140
0.08
141
0.09
142
0.0
143
25.4
144
1.0
145
0.0
146
1.0
147
0.09
 71
1.0
 72
0.0
 73
1
 74
1
 75
0
 76
0
 77
0
 78
4
 79
1
170
1
171
2
172
0
173
0
174
0
175
0
176
0
177
0
178
0
270
2
179
3
271
3
272
3
273
2
274
2
275
0
280
0
281
0
282
0
283
1
284
4
285
0
286
0
287
3
288
0
340
11
278
46
341
219
342
219
343
219
344
219
  0
ENDTAB
  0
ENDSEC
  0
SECTION
  2
BLOCKS
  0
BLOCK
  5
20
100
AcDbEntity
  8
0
100
AcDbBlockBegin
  2
*Model_Space
 70
0
 10
0.0
 20
0.0
 30
0.0
  3
*Model_Space
  1

  0
ENDBLK
  5
21
100
AcDbEntity
  8
0
100
AcDbBlockEnd
  0
BLOCK
  5
1C
100
AcDbEntity
  8
0
100
AcDbBlockBegin
  2
*Paper_Space
 70
0
 10
0.0
 20
0.0
 30
0.0
  3
*Paper_Space
  1

  0
ENDBLK
  5
1D
100
AcDbEntity
  8
0
100
AcDbBlockEnd
  0
BLOCK
  5
21B
100
AcDbEntity
  8
0
100
AcDbBlockBegin
  2
_FILLED
 70
64
 10
0.0
 20
0.0
  3
_FILLED
  1

  0
SOLID
  5
21C
100
AcDbEntity
  8
0
  6
BYBLOCK
 62
0
100
AcDbTrace
 10
0.0
 20
0.0
 11
-1.0
 21
0.2
 12
-1.0
 22
-0.2
 13
-1.0
 23
-0.2
  0
ENDBLK
  5
21D
100
AcDbEntity
  8
0
  6
BYBLOCK
 62
0
100
AcDbBlockEnd
  0
ENDSEC
  0
SECTION
  2
ENTITIES
  0
MTEXT
  5
21E
100
AcDbEntity
  8
0
100
AcDbMText
 62
2
  6
CONTINUOUS
  7
STANDARD
 71
3
 72
1
 10
5.7476730586
 20
2.8827381258
 30
0.0
 11
1.0
 21
0.0
 31
0.0
 73
2
 44
0.9
  1
SCALE  .500
 40
0.08
 41
0.704
  0
LINE
  5
21F
100
AcDbEntity
  8
0
100
AcDbLine
 62
7
  6
CONTINUOUS
 10
0.0
 20
0.0
 11
0.0
 21
8.5
  0
LINE
  5
220
100
AcDbEntity
  8
0
100
AcDbLine
 62
7
  6
CONTINUOUS
 10
0.0
 20
0.0
 11
11.0
 21
0.0
  0
LINE
  5
221
100
AcDbEntity
  8
0
100
AcDbLine
 62
7
  6
CONTINUOUS
 10
0.0
 20
8.5
 11
11.0
 21
8.5
  0
LINE
  5
222
100
AcDbEntity
  8
0
100
AcDbLine
 62
7
  6
CONTINUOUS
 10
11.0
 20
0.0
 11
11.0
 21
8.5
  0
LINE
  5
223
100
AcDbEntity
  8
ALL_ASSEMBLY_MEMBERS
100
AcDbLine
 62
7
  6
CONTINUOUS
 10
3.1256223658
 20
4.2435269631
 11
3.1262694134
 21
4.2459417777
  0
LINE
  5
224
100
AcDbEntity
  8
ALL_ASSEMBLY_MEMBERS
100
AcDbLine
 62
7
  6
CONTINUOUS
 10
3.1774800855
 20
4.2060785456
 11
3.1517279157
 21
4.1099701393
  0
LINE
  5
225
100
AcDbEntity
  8
ALL_ASSEMBLY_MEMBERS
100
AcDbLine
 62
7
  6
CONTINUOUS
 10
3.2042872829
 20
4.1988955787
 11
3.178535113
 21
4.1027871724
  0
LINE
  5
226
100
AcDbEntity
  8
ALL_ASSEMBLY_MEMBERS
100
AcDbLine
 62
7
  6
CONTINUOUS
 10
3.2332167357
 20
4.1911439551
 11
3.2074645659
 21
4.0950355489
  0
LINE
  5
227
100
AcDbEntity
  8
ALL_ASSEMBLY_MEMBERS
100
AcDbLine
 62
7
  6
CONTINUOUS
 10
3.2639514869
 20
4.1829086034
 11
3.2381993171
 21
4.0868001971
  0
LINE
  5
228
100
AcDbEntity
  8
ALL_ASSEMBLY_MEMBERS
100
AcDbLine
 62
7
  6
CONTINUOUS
 10
3.2961548001
 20
4.1742797516
 11
3.2704026303
 21
4.0781713454
  0
LINE
  5
229
100
AcDbEntity
  8
ALL_ASSEMBLY_MEMBERS
100
AcDbLine
 62
7
  6
CONTINUOUS
 10
3.329473849
 20
4.1653519394
 11
3.3037216792
 21
4.0692435331
  0
LINE
  5
22A
100
AcDbEntity
  8
ALL_ASSEMBLY_MEMBERS
100
AcDbLine
 62
7
  6
CONTINUOUS
 10
3.3635435831
 20
4.1562229816
 11
3.3377914133
 21
4.0601145754
  0
LINE
  5
22B
100
AcDbEntity
  8
ALL_ASSEMBLY_MEMBERS
100
AcDbLine
 62
7
  6
CONTINUOUS
 10
3.3979907274
 20
4.1469928971
 11
3.3722385576
 21
4.0508844909
  0
LINE
  5
22C
100
AcDbEntity
  8
ALL_ASSEMBLY_MEMBERS
100
AcDbLine
 62
7
  6
CONTINUOUS
 10
3.4324378717
 20
4.1377628126
 11
3.4066857019
 21
4.0416544064
  0
LINE
  5
22D
100
AcDbEntity
  8
ALL_ASSEMBLY_MEMBERS
100
AcDbLine
 62
7
  6
CONTINUOUS
 10
3.4665076059
 20
4.1286338549
 11
3.440755436
 21
4.0325254487
  0
LINE
  5
22E
100
AcDbEntity
  8
ALL_ASSEMBLY_MEMBERS
100
AcDbLine
 62
7
  6
CONTINUOUS
 10
3.4998266547
 20
4.1197060426
 11
3.4740744849
 21
4.0235976364
  0
LINE
  5
22F
100
AcDbEntity
  8
ALL_ASSEMBLY_MEMBERS
100
AcDbLine
 62
7
  6
CONTINUOUS
 10
3.5320299679
 20
4.1110771909
 11
3.5062777981
 21
4.0149687847
  0
LINE
  5
230
100
AcDbEntity
  8
ALL_ASSEMBLY_MEMBERS
100
AcDbLine
 62
7
  6
CONTINUOUS
 10
3.5627647191
 20
4.1028418391
 11
3.5370125493
 21
4.0067334329
  0
LINE
  5
231
100
AcDbEntity
  8
ALL_ASSEMBLY_MEMBERS
100
AcDbLine
 62
7
  6
CONTINUOUS
 10
3.0577369602
 20
4.1116017565
 11
3.6749635632
 21
3.9462163867
  0
LINE
  5
232
100
AcDbEntity
  8
ALL_ASSEMBLY_MEMBERS
100
AcDbLine
 62
7
  6
CONTINUOUS
 10
3.591694172
 20
4.0950902156
 11
3.5659420021
 21
3.9989818094
  0
LINE
  5
233
100
AcDbEntity
  8
ALL_ASSEMBLY_MEMBERS
100
AcDbLine
 62
7
  6
CONTINUOUS
 10
3.6185013694
 20
4.0879072487
 11
3.5927491995
 21
3.9917988425
  0
LINE
  5
234
100
AcDbEntity
  8
ALL_ASSEMBLY_MEMBERS
100
AcDbLine
 62
7
  6
CONTINUOUS
 10
3.6821356808
 20
4.0944096698
 11
3.6827827284
 21
4.0968244843
  0
LWPOLYLINE
  5
235
100
AcDbEntity
  8
ALL_ASSEMBLY_MEMBERS
100
AcDbPolyline
 62
7
  6
CONTINUOUS
 90
33
 70
0
 10
3.7175343864
 20
4.0875128056
 10
3.7236338325
 20
4.1078241767
 10
3.7324788215
 20
4.132496516
 10
3.7426009404
 20
4.1563258837
 10
3.7538675476
 20
4.1791641879
 10
3.7662311622
 20
4.2010487905
 10
3.7797779055
 20
4.2221768492
 10
3.7944722293
 20
4.242483397
 10
3.8102596117
 20
4.2619088307
 10
3.8272757885
 20
4.2806105729
 10
3.8454943257
 20
4.2985107426
 10
3.8648867224
 20
4.315530006
 10
3.8856511226
 20
4.3317555488
 10
3.9078074716
 20
4.347078844
 10
3.9313098822
 20
4.3613424326
 10
3.9562951348
 20
4.3744809013
 10
3.9827918331
 20
4.3863237876
 10
4.0106953384
 20
4.3966262558
 10
4.0399406306
 20
4.4051581394
 10
4.0703827807
 20
4.4118576873
 10
4.1018662965
 20
4.4172953461
 10
4.1342889925
 20
4.4222238485
 10
4.1675384961
 20
4.4269620516
 10
4.2016435072
 20
4.4314668998
 10
4.2367951336
 20
4.4357136585
 10
4.2729698399
 20
4.4396729345
 10
4.31018172
 20
4.4433211352
 10
4.3486788347
 20
4.4466435432
 10
4.388450552
 20
4.4495938514
 10
4.429518392
 20
4.4521306409
 10
4.4721863141
 20
4.4542232607
 10
4.516556342
 20
4.4558163691
 10
4.5282029173
 20
4.4561364588
  0
LINE
  5
236
100
AcDbEntity
  8
ALL_ASSEMBLY_MEMBERS
100
AcDbLine
 62
7
  6
CONTINUOUS
 10
3.0952657218
 20
4.2516610013
 11
3.7124923248
 21
4.0862756315
  0
LINE
  5
237
100
AcDbEntity
  8
ALL_ASSEMBLY_MEMBERS
100
AcDbLine
 62
7
  6
CONTINUOUS
 10
3.7175343876
 20
4.0875128053
 11
3.1029674149
 21
4.2521855293
  0
LINE
  5
238
100
AcDbEntity
  8
ALL_ASSEMBLY_MEMBERS
100
AcDbLine
 62
7
  6
CONTINUOUS
 10
6.3272752276
 20
3.9473783338
 11
6.3937752276
 21
3.9473783338
  0
LINE
  5
239
100
AcDbEntity
  8
ALL_ASSEMBLY_MEMBERS
100
AcDbLine
 62
7
  6
CONTINUOUS
 10
6.1802752276
 20
4.0333783338
 11
6.1812341375
 21
4.0333783338
  0
LINE
  5
23A
100
AcDbEntity
  8
ALL_ASSEMBLY_MEMBERS
100
AcDbLine
 62
7
  6
CONTINUOUS
 10
6.1062752276
 20
4.0736283338
 11
6.0349678134
 21
4.0736283338
  0
LINE
  5
23B
100
AcDbEntity
  8
ALL_ASSEMBLY_MEMBERS
100
AcDbLine
 62
7
  6
CONTINUOUS
 10
4.5809914255
 20
4.4570766514
 11
4.6100770673
 21
4.4572375511
  0
LWPOLYLINE
  5
23C
100
AcDbEntity
  8
ALL_ASSEMBLY_MEMBERS
100
AcDbPolyline
 62
7
  6
CONTINUOUS
 90
19
 70
0
 10
4.5809914255
 20
4.4570766514
 10
4.6660071033
 20
4.4568342759
 10
4.7626860433
 20
4.4539230446
 10
4.8597133668
 20
4.4481725194
 10
4.9583578957
 20
4.4394082717
 10
5.0571717213
 20
4.4276645782
 10
5.1507820559
 20
4.4137436131
 10
5.2369785882
 20
4.3985613698
 10
5.3179237436
 20
4.3818532473
 10
5.3947975573
 20
4.3628433912
 10
5.4668308447
 20
4.3419060319
 10
5.5346980909
 20
4.3192177654
 10
5.6017274071
 20
4.2939157813
 10
5.6689336638
 20
4.2655636125
 10
5.7350659508
 20
4.2345951728
 10
5.7999308413
 20
4.2010846718
 10
5.8634048575
 20
4.1651037564
 10
5.9254240899
 20
4.1266966761
 10
5.9778887839
 20
4.0915187407
  0
LINE
  5
23D
100
AcDbEntity
  8
ALL_ASSEMBLY_MEMBERS
100
AcDbLine
 62
7
  6
CONTINUOUS
 10
5.9778899622
 20
4.6598783337
 11
6.0349660856
 21
4.6602426987
  0
LINE
  5
23E
100
AcDbEntity
  8
ALL_ASSEMBLY_MEMBERS
100
AcDbLine
 62
7
  6
CONTINUOUS
 10
5.5562752276
 20
4.6598783339
 11
5.9778899888
 21
4.6598783338
  0
LWPOLYLINE
  5
23F
100
AcDbEntity
  8
ALL_ASSEMBLY_MEMBERS
100
AcDbPolyline
 62
7
  6
CONTINUOUS
 90
24
 70
0
 10
5.977889134
 20
5.2282382475
 10
5.9197231355
 20
5.1893896989
 10
5.8544948732
 20
5.1494043682
 10
5.7876722479
 20
5.1120903987
 10
5.7193082705
 20
5.0774898814
 10
5.6495654923
 20
5.0457032038
 10
5.5787290807
 20
5.0168537629
 10
5.5084063829
 20
4.9914418178
 10
5.4372831741
 20
4.9688431761
 10
5.3611105783
 20
4.9480142067
 10
5.2782940038
 20
4.9293484103
 10
5.1904301958
 20
4.9138311568
 10
5.098084267
 20
4.9006111808
 10
4.9992187791
 20
4.8878953972
 10
4.8962317511
 20
4.8758601776
 10
4.7965496087
 20
4.8654530728
 10
4.7023419447
 20
4.8567134863
 10
4.6114983651
 20
4.8493003984
 10
4.5250891604
 20
4.8431718069
 10
4.4439297128
 20
4.8382307678
 10
4.3672413193
 20
4.8342867221
 10
4.2937002264
 20
4.8311652424
 10
4.22310362
 20
4.8287730326
 10
4.1954080291
 20
4.8279979718
  0
LWPOLYLINE
  5
240
100
AcDbEntity
  8
ALL_ASSEMBLY_MEMBERS
100
AcDbPolyline
 62
7
  6
CONTINUOUS
 90
26
 70
0
 10
4.1040036707
 20
4.8260957157
 10
4.0907086991
 20
4.8258913712
 10
4.0281045494
 20
4.8252887028
 10
3.9680090173
 20
4.8236545617
 10
3.910215908
 20
4.8187884376
 10
3.8549215382
 20
4.8110130777
 10
3.8022167256
 20
4.8007855542
 10
3.7517189402
 20
4.7882792174
 10
3.7037739364
 20
4.7738434243
 10
3.6581239532
 20
4.7576806624
 10
3.6135128424
 20
4.7394866247
 10
3.5697253756
 20
4.7191771047
 10
3.5271422157
 20
4.6969333052
 10
3.4854874144
 20
4.6726097933
 10
3.4446930905
 20
4.6461172888
 10
3.4050429671
 20
4.6175907591
 10
3.3668017797
 20
4.587201494
 10
3.3300906572
 20
4.5550454037
 10
3.2949613782
 20
4.5211821301
 10
3.2615417506
 20
4.4857710193
 10
3.2298947088
 20
4.4489172028
 10
3.2000810033
 20
4.4107211489
 10
3.1721933649
 20
4.3713389515
 10
3.1462770544
 20
4.3308866054
 10
3.1223538799
 20
4.2894376521
 10
3.1029673437
 20
4.2521855484
  0
LINE
  5
241
100
AcDbEntity
  8
ALL_ASSEMBLY_MEMBERS
100
AcDbLine
 62
7
  6
CONTINUOUS
 10
6.1062752276
 20
5.2461283338
 11
6.0349676993
 21
5.2461283338
  0
LINE
  5
242
100
AcDbEntity
  8
ALL_ASSEMBLY_MEMBERS
100
AcDbLine
 62
7
  6
CONTINUOUS
 10
6.1802752276
 20
5.2863783338
 11
6.1812341375
 21
5.2863783338
  0
LINE
  5
243
100
AcDbEntity
  8
ALL_ASSEMBLY_MEMBERS
100
AcDbLine
 62
7
  6
CONTINUOUS
 10
6.3272752276
 20
5.3723783338
 11
6.3937752276
 21
5.3723783338
  0
LINE
  5
244
100
AcDbEntity
  8
ALL_ASSEMBLY_MEMBERS
100
AcDbLine
 62
7
  6
CONTINUOUS
 10
6.1062752276
 20
5.2461283338
 11
6.1062752276
 21
4.0736283338
  0
LINE
  5
245
100
AcDbEntity
  8
ALL_ASSEMBLY_MEMBERS
100
AcDbLine
 62
7
  6
CONTINUOUS
 10
6.1802752276
 20
4.0333783338
 11
6.1802752276
 21
5.2863783338
  0
LINE
  5
246
100
AcDbEntity
  8
ALL_ASSEMBLY_MEMBERS
100
AcDbLine
 62
7
  6
CONTINUOUS
 10
6.1812341375
 20
5.2863783338
 11
6.1812341375
 21
4.0333783338
  0
LINE
  5
247
100
AcDbEntity
  8
ALL_ASSEMBLY_MEMBERS
100
AcDbLine
 62
7
  6
CONTINUOUS
 10
6.2153395417
 20
5.306462166
 11
6.2153395417
 21
4.0132945016
  0
LINE
  5
248
100
AcDbEntity
  8
ALL_ASSEMBLY_MEMBERS
100
AcDbLine
 62
7
  6
CONTINUOUS
 10
6.3272752276
 20
3.9473783338
 11
6.3272752276
 21
5.3723783338
  0
LINE
  5
249
100
AcDbEntity
  8
ALL_ASSEMBLY_MEMBERS
100
AcDbLine
 62
7
  6
CONTINUOUS
 10
6.3937752276
 20
3.9473783338
 11
6.3937752276
 21
5.3723783338
  0
ARC
  5
24A
100
AcDbEntity
  8
ALL_ASSEMBLY_MEMBERS
100
AcDbCircle
 62
7
  6
CONTINUOUS
 10
3.9730350653
 20
13.3215135179
 40
8.4964258767
100
AcDbArc
 50
270.8832236534
 51
271.4997467452
  0
ARC
  5
24B
100
AcDbEntity
  8
ALL_ASSEMBLY_MEMBERS
100
AcDbCircle
 62
7
  6
CONTINUOUS
 10
4.613976104
 20
1.1226882873
 40
3.3345515068
100
AcDbArc
 50
90.5667669793
 51
91.4739564477
  0
ARC
  5
24C
100
AcDbEntity
  8
ALL_ASSEMBLY_MEMBERS
100
AcDbCircle
 62
7
  6
CONTINUOUS
 10
6.3272752276
 20
4.0753783338
 40
0.128
100
AcDbArc
 50
209.0144340224
 51
270.0
  0
ARC
  5
24D
100
AcDbEntity
  8
ALL_ASSEMBLY_MEMBERS
100
AcDbCircle
 62
7
  6
CONTINUOUS
 10
6.3272752276
 20
5.2443783338
 40
0.128
100
AcDbArc
 50
90.0
 51
150.9855659776
  0
ARC
  5
24E
100
AcDbEntity
  8
ALL_ASSEMBLY_MEMBERS
100
AcDbCircle
 62
7
  6
CONTINUOUS
 10
6.0349673846
 20
4.1736287171
 40
0.1000001902
100
AcDbArc
 50
235.1952825867
 51
270.000245687
  0
ARC
  5
24F
100
AcDbEntity
  8
ALL_ASSEMBLY_MEMBERS
100
AcDbCircle
 62
7
  6
CONTINUOUS
 10
6.0349677376
 20
5.1461282943
 40
0.0999999395
100
AcDbArc
 50
90.0000219451
 51
124.8048436736
  0
ARC
  5
250
100
AcDbEntity
  8
ALL_ASSEMBLY_MEMBERS
100
AcDbCircle
 62
7
  6
CONTINUOUS
 10
3.1280110961
 20
4.1678293816
 40
0.09
100
AcDbArc
 50
111.3360575146
 51
131.4426902381
  0
ARC
  5
251
100
AcDbEntity
  8
ALL_ASSEMBLY_MEMBERS
100
AcDbCircle
 62
7
  6
CONTINUOUS
 10
3.1280110961
 20
4.1678293816
 40
0.09
100
AcDbArc
 50
198.5573097619
 51
218.6639424854
  0
ARC
  5
252
100
AcDbEntity
  8
ALL_ASSEMBLY_MEMBERS
100
AcDbCircle
 62
7
  6
CONTINUOUS
 10
3.6422181889
 20
4.0300480064
 40
0.09
100
AcDbArc
 50
18.5573097619
 51
38.6639424854
  0
ARC
  5
253
100
AcDbEntity
  8
ALL_ASSEMBLY_MEMBERS
100
AcDbCircle
 62
7
  6
CONTINUOUS
 10
3.6422181889
 20
4.0300480064
 40
0.09
100
AcDbArc
 50
291.3360575146
 51
311.4426902381
  0
ARC
  5
254
100
AcDbEntity
  8
ALL_ASSEMBLY_MEMBERS
100
AcDbCircle
 62
7
  6
CONTINUOUS
 10
3.6422563132
 20
4.0290837743
 40
0.0892986606
100
AcDbArc
 50
320.6168169964
 51
328.9468211076
  0
ARC
  5
255
100
AcDbEntity
  8
ALL_ASSEMBLY_MEMBERS
100
AcDbCircle
 62
7
  6
CONTINUOUS
 10
3.1279715571
 20
4.1687946106
 40
0.0892969332
100
AcDbArc
 50
140.6154174579
 51
148.9436677979
  0
ARC
  5
256
100
AcDbEntity
  8
ALL_ASSEMBLY_MEMBERS
100
AcDbCircle
 62
7
  6
CONTINUOUS
 10
3.1269972045
 20
4.1669678433
 40
0.088799156
100
AcDbArc
 50
181.0297080289
 51
189.4066527106
  0
ARC
  5
257
100
AcDbEntity
  8
ALL_ASSEMBLY_MEMBERS
100
AcDbCircle
 62
7
  6
CONTINUOUS
 10
3.6432322823
 20
4.0309095799
 40
0.0887989508
100
AcDbArc
 50
1.0329389137
 51
9.4079769888
  0
ARC
  5
258
100
AcDbEntity
  8
ALL_ASSEMBLY_MEMBERS
100
AcDbCircle
 62
7
  6
CONTINUOUS
 10
6.1802752276
 20
4.1073783338
 40
0.074
100
AcDbArc
 50
180.0
 51
270.0
  0
ARC
  5
259
100
AcDbEntity
  8
ALL_ASSEMBLY_MEMBERS
100
AcDbCircle
 62
7
  6
CONTINUOUS
 10
6.1802752276
 20
5.2123783338
 40
0.074
100
AcDbArc
 50
90.0
 51
180.0
  0
ARC
  5
25A
100
AcDbEntity
  8
ALL_ASSEMBLY_MEMBERS
100
AcDbCircle
 62
7
  6
CONTINUOUS
 10
6.1812341375
 20
5.3253783338
 40
0.039
100
AcDbArc
 50
270.0
 51
330.9855659776
  0
ARC
  5
25B
100
AcDbEntity
  8
ALL_ASSEMBLY_MEMBERS
100
AcDbCircle
 62
7
  6
CONTINUOUS
 10
6.1812341375
 20
3.9943783338
 40
0.039
100
AcDbArc
 50
29.0144340224
 51
90.0
  0
SPLINE
  5
25C
100
AcDbEntity
  8
ALL_ASSEMBLY_MEMBERS
100
AcDbSpline
 62
7
  6
CONTINUOUS
 70
0
 71
3
 72
19
 73
15
 74
0
 42
0.0000001
 43
0.0000001
 44
0.0000000001
 40
0.0
 40
0.0
 40
0.0
 40
0.0
 40
0.1177053919
 40
0.2410809277
 40
0.304661565
 40
0.3692041583
 40
0.4344276946
 40
0.5000001116
 40
0.5655725062
 40
0.6307960201
 40
0.6953385914
 40
0.7589192189
 40
0.8822946508
 40
1.0
 40
1.0
 40
1.0
 40
1.0
 10
3.701786541
 20
3.9625823749
 30
0.0
 10
3.704880103
 20
3.9653138159
 30
0.0
 10
3.7108122008
 20
3.9713825622
 30
0.0
 10
3.7171141779
 20
3.9800564477
 30
0.0
 10
3.7214929706
 20
3.9877177596
 30
0.0
 10
3.724420049
 20
3.9938392419
 30
0.0
 10
3.726912257
 20
4.0002250085
 30
0.0
 10
3.7289406946
 20
4.0068107924
 30
0.0
 10
3.7304769067
 20
4.013528467
 30
0.0
 10
3.7315114726
 20
4.0203048049
 30
0.0
 10
3.7320372874
 20
4.0270697016
 30
0.0
 10
3.7320757968
 20
4.0358939839
 30
0.0
 10
3.7309550663
 20
4.046556772
 30
0.0
 10
3.7288520931
 20
4.0547785042
 30
0.0
 10
3.7275387108
 20
4.0586907811
 30
0.0
  0
SPLINE
  5
25D
100
AcDbEntity
  8
ALL_ASSEMBLY_MEMBERS
100
AcDbSpline
 62
7
  6
CONTINUOUS
 70
0
 71
3
 72
9
 73
5
 74
0
 42
0.0000001
 43
0.0000001
 44
0.0000000001
 40
0.0
 40
0.0
 40
0.0
 40
0.0
 40
0.5000003223
 40
1.0
 40
1.0
 40
1.0
 40
1.0
 10
3.6999812426
 20
3.9630661031
 30
0.0
 10
3.7122228154
 20
3.9750724991
 30
0.0
 10
3.7297057925
 20
4.0066057881
 30
0.0
 10
3.7303317215
 20
4.0426559003
 30
0.0
 10
3.7257334125
 20
4.0591745094
 30
0.0
  0
SPLINE
  5
25E
100
AcDbEntity
  8
ALL_ASSEMBLY_MEMBERS
100
AcDbSpline
 62
7
  6
CONTINUOUS
 70
0
 71
3
 72
15
 73
11
 74
0
 42
0.0000001
 43
0.0000001
 44
0.0000000001
 40
0.0
 40
0.0
 40
0.0
 40
0.0
 40
0.2367281257
 40
0.3008942434
 40
0.3664578747
 40
0.5000003312
 40
0.6335426929
 40
0.6991062259
 40
0.7632722362
 40
1.0
 40
1.0
 40
1.0
 40
1.0
 10
3.6945851268
 20
3.964511988
 30
0.0
 10
3.7000217587
 20
3.9705365918
 30
0.0
 10
3.7059242543
 20
3.9791658783
 30
0.0
 10
3.7115197931
 20
3.9904108456
 30
0.0
 10
3.7150704327
 20
3.9987142652
 30
0.0
 10
3.7186446396
 20
4.0095696328
 30
0.0
 10
3.7209769645
 20
4.0207577581
 30
0.0
 10
3.722053724
 20
4.0297240405
 30
0.0
 10
3.7228303218
 20
4.0422602182
 30
0.0
 10
3.7220332534
 20
4.0526846305
 30
0.0
 10
3.7203372967
 20
4.0606203942
 30
0.0
  0
SPLINE
  5
25F
100
AcDbEntity
  8
ALL_ASSEMBLY_MEMBERS
100
AcDbSpline
 62
7
  6
CONTINUOUS
 70
0
 71
3
 72
17
 73
13
 74
0
 42
0.0000001
 43
0.0000001
 44
0.0000000001
 40
0.0
 40
0.0
 40
0.0
 40
0.0
 40
0.11256106
 40
0.1726448111
 40
0.2350154664
 40
0.365299598
 40
0.5000003357
 40
0.6347009766
 40
0.7649848985
 40
0.8273554441
 40
0.8874391035
 40
1.0
 40
1.0
 40
1.0
 40
1.0
 10
3.6856573146
 20
3.9669041881
 30
0.0
 10
3.6880148857
 20
3.9699143463
 30
0.0
 10
3.6913635187
 20
3.9747469348
 30
0.0
 10
3.6953960822
 20
3.9816390578
 30
0.0
 10
3.6993513421
 20
3.9892626986
 30
0.0
 10
3.7037248471
 20
3.9995068552
 30
0.0
 10
3.7078549518
 20
4.0124607209
 30
0.0
 10
3.7107551033
 20
4.025744144
 30
0.0
 10
3.712089608
 20
4.0368025829
 30
0.0
 10
3.7124760702
 20
4.0453824657
 30
0.0
 10
3.7124298276
 20
4.0533674885
 30
0.0
 10
3.711946121
 20
4.0592269408
 30
0.0
 10
3.7114094844
 20
4.0630125943
 30
0.0
  0
SPLINE
  5
260
100
AcDbEntity
  8
ALL_ASSEMBLY_MEMBERS
100
AcDbSpline
 62
7
  6
CONTINUOUS
 70
0
 71
3
 72
21
 73
17
 74
0
 42
0.0000001
 43
0.0000001
 44
0.0000000001
 40
0.0
 40
0.0
 40
0.0
 40
0.0
 40
0.0540663898
 40
0.111070841
 40
0.170872747
 40
0.2332353293
 40
0.2978184167
 40
0.3641788591
 40
0.500000339
 40
0.6358217205
 40
0.7021820606
 40
0.7667650365
 40
0.8291275078
 40
0.8889293214
 40
0.9459336709
 40
1.0
 40
1.0
 40
1.0
 40
1.0
 10
3.6732956209
 20
3.9702164939
 30
0.0
 10
3.6743026486
 20
3.9717332513
 30
0.0
 10
3.6762965617
 20
3.9748994554
 30
0.0
 10
3.6791435541
 20
3.9799016627
 30
0.0
 10
3.6819026619
 20
3.9852691172
 30
0.0
 10
3.6845469417
 20
3.9909764854
 30
0.0
 10
3.6870480218
 20
3.996988027
 30
0.0
 10
3.6901766474
 20
4.0054105771
 30
0.0
 10
3.6935294526
 20
4.0162992268
 30
0.0
 10
3.6960701594
 20
4.0274054739
 30
0.0
 10
3.6975719602
 20
4.0362639193
 30
0.0
 10
3.6984117286
 20
4.0427205965
 30
0.0
 10
3.6989753971
 20
4.0489854518
 30
0.0
 10
3.6992696652
 20
4.0550133474
 30
0.0
 10
3.6993052008
 20
4.0607688737
 30
0.0
 10
3.6991615235
 20
4.0645078379
 30
0.0
 10
3.6990477907
 20
4.0663249002
 30
0.0
  0
SPLINE
  5
261
100
AcDbEntity
  8
ALL_ASSEMBLY_MEMBERS
100
AcDbSpline
 62
7
  6
CONTINUOUS
 70
0
 71
3
 72
23
 73
19
 74
0
 42
0.0000001
 43
0.0000001
 44
0.0000000001
 40
0.0
 40
0.0
 40
0.0
 40
0.0
 40
0.0532808145
 40
0.1098243001
 40
0.1694190389
 40
0.2317754747
 40
0.2965478538
 40
0.3632404441
 40
0.4312770845
 40
0.5000001146
 40
0.5687231206
 40
0.6367597356
 40
0.7034523004
 40
0.7682246672
 40
0.8305810553
 40
0.8901757381
 40
0.9467191946
 40
1.0
 40
1.0
 40
1.0
 40
1.0
 10
3.6576354829
 20
3.9744126152
 30
0.0
 10
3.658489495
 20
3.975975932
 30
0.0
 10
3.6601905748
 20
3.979230934
 30
0.0
 10
3.6626462511
 20
3.9843362789
 30
0.0
 10
3.6650618572
 20
3.9897943214
 30
0.0
 10
3.6674162421
 20
3.995577175
 30
0.0
 10
3.6696849706
 20
4.0016481521
 30
0.0
 10
3.6718449703
 20
4.0079597048
 30
0.0
 10
3.6738697967
 20
4.0144543875
 30
0.0
 10
3.675737612
 20
4.0210665151
 30
0.0
 10
3.6774260997
 20
4.0277266925
 30
0.0
 10
3.6789198888
 20
4.0343636636
 30
0.0
 10
3.6802050494
 20
4.0409096265
 30
0.0
 10
3.6812757608
 20
4.0473016083
 30
0.0
 10
3.6821282297
 20
4.0534868952
 30
0.0
 10
3.6827652739
 20
4.0594214973
 30
0.0
 10
3.683191268
 20
4.0650706907
 30
0.0
 10
3.6833455905
 20
4.0687401437
 30
0.0
 10
3.6833876528
 20
4.0705210215
 30
0.0
  0
SPLINE
  5
262
100
AcDbEntity
  8
ALL_ASSEMBLY_MEMBERS
100
AcDbSpline
 62
7
  6
CONTINUOUS
 70
0
 71
3
 72
15
 73
11
 74
0
 42
0.0000001
 43
0.0000001
 44
0.0000000001
 40
0.0
 40
0.0
 40
0.0
 40
0.0
 40
0.1089319683
 40
0.2307305431
 40
0.3625794945
 40
0.5000003435
 40
0.6374210917
 40
0.7692698239
 40
0.8910681925
 40
1.0
 40
1.0
 40
1.0
 40
1.0
 10
3.6388484766
 20
3.9794465784
 30
0.0
 10
3.640284517
 20
3.9827732754
 30
0.0
 10
3.6431605467
 20
3.989891675
 30
0.0
 10
3.6472466017
 20
4.0012415277
 30
0.0
 10
3.6512245152
 20
4.0136291786
 30
0.0
 10
3.6549361886
 20
4.0266402607
 30
0.0
 10
3.658227323
 20
4.0397640182
 30
0.0
 10
3.6609761684
 20
4.0524809787
 30
0.0
 10
3.663112463
 20
4.0643532479
 30
0.0
 10
3.6641809461
 20
4.0719559656
 30
0.0
 10
3.6646006464
 20
4.0755549846
 30
0.0
  0
SPLINE
  5
263
100
AcDbEntity
  8
ALL_ASSEMBLY_MEMBERS
100
AcDbSpline
 62
7
  6
CONTINUOUS
 70
0
 71
3
 72
15
 73
11
 74
0
 42
0.0000001
 43
0.0000001
 44
0.0000000001
 40
0.0
 40
0.0
 40
0.0
 40
0.0
 40
0.108470174
 40
0.2301934133
 40
0.3622396717
 40
0.5000003445
 40
0.637760916
 40
0.769806954
 40
0.8915299864
 40
1.0
 40
1.0
 40
1.0
 40
1.0
 10
3.6171404362
 20
3.9852632303
 30
0.0
 10
3.6182411905
 20
3.9886894787
 30
0.0
 10
3.6205187996
 20
3.995979418
 30
0.0
 10
3.6239539268
 20
4.0074963811
 30
0.0
 10
3.6275209503
 20
4.0199871661
 30
0.0
 10
3.6310909786
 20
4.0330295654
 30
0.0
 10
3.6345204408
 20
4.0461096217
 30
0.0
 10
3.6376766953
 20
4.0587104538
 30
0.0
 10
3.6404602646
 20
4.0704019811
 30
0.0
 10
3.6421327641
 20
4.0778540464
 30
0.0
 10
3.642892606
 20
4.0813716365
 30
0.0
  0
SPLINE
  5
264
100
AcDbEntity
  8
ALL_ASSEMBLY_MEMBERS
100
AcDbSpline
 62
7
  6
CONTINUOUS
 70
0
 71
3
 72
15
 73
11
 74
0
 42
0.0000001
 43
0.0000001
 44
0.0000000001
 40
0.0
 40
0.0
 40
0.0
 40
0.0
 40
0.1084680939
 40
0.230190187
 40
0.3622368102
 40
0.4999996283
 40
0.637762593
 40
0.769809429
 40
0.8915317348
 40
1.0
 40
1.0
 40
1.0
 40
1.0
 10
3.1530888488
 20
4.2126141577
 30
0.0
 10
3.1519881156
 20
4.209187975
 30
0.0
 10
3.1497105369
 20
4.2018981384
 30
0.0
 10
3.1462754356
 20
4.1903812666
 30
0.0
 10
3.1427083993
 20
4.1778904383
 30
0.0
 10
3.1391383144
 20
4.1648478857
 30
0.0
 10
3.1357088198
 20
4.1517676549
 30
0.0
 10
3.1325525447
 20
4.1391667437
 30
0.0
 10
3.1297689888
 20
4.1274752704
 30
0.0
 10
3.1280965086
 20
4.1200232849
 30
0.0
 10
3.127336679
 20
4.1165057515
 30
0.0
  0
SPLINE
  5
265
100
AcDbEntity
  8
ALL_ASSEMBLY_MEMBERS
100
AcDbSpline
 62
7
  6
CONTINUOUS
 70
0
 71
3
 72
15
 73
11
 74
0
 42
0.0000001
 43
0.0000001
 44
0.0000000001
 40
0.0
 40
0.0
 40
0.0
 40
0.0
 40
0.1089298845
 40
0.2307273164
 40
0.3625766366
 40
0.4999996294
 40
0.637422768
 40
0.7692723001
 40
0.891069944
 40
1.0
 40
1.0
 40
1.0
 40
1.0
 10
3.1313808084
 20
4.2184308096
 30
0.0
 10
3.1299447954
 20
4.2151041763
 30
0.0
 10
3.1270688016
 20
4.2079858781
 30
0.0
 10
3.1229827753
 20
4.196636116
 30
0.0
 10
3.1190048468
 20
4.1842484225
 30
0.0
 10
3.1152930879
 20
4.171237195
 30
0.0
 10
3.1120019475
 20
4.1581132557
 30
0.0
 10
3.109253083
 20
4.1453962158
 30
0.0
 10
3.1071167996
 20
4.1335240011
 30
0.0
 10
3.1060483322
 20
4.1259213645
 30
0.0
 10
3.1056286386
 20
4.1223224034
 30
0.0
  0
SPLINE
  5
266
100
AcDbEntity
  8
ALL_ASSEMBLY_MEMBERS
100
AcDbSpline
 62
7
  6
CONTINUOUS
 70
0
 71
3
 72
23
 73
19
 74
0
 42
0.0000001
 43
0.0000001
 44
0.0000000001
 40
0.0
 40
0.0
 40
0.0
 40
0.0
 40
0.0532807595
 40
0.109824181
 40
0.1694189516
 40
0.2317754309
 40
0.2965477775
 40
0.3632402898
 40
0.4312768783
 40
0.4999998852
 40
0.5687229163
 40
0.6367595305
 40
0.7034520678
 40
0.7682244267
 40
0.8305809542
 40
0.8901757814
 40
0.9467192317
 40
1.0
 40
1.0
 40
1.0
 40
1.0
 10
3.1125938021
 20
4.2234647728
 30
0.0
 10
3.1117397909
 20
4.2219014576
 30
0.0
 10
3.1100387122
 20
4.2186464596
 30
0.0
 10
3.1075830372
 20
4.2135411173
 30
0.0
 10
3.1051674319
 20
4.208083074
 30
0.0
 10
3.1028130455
 20
4.2023002194
 30
0.0
 10
3.100544317
 20
4.1962292448
 30
0.0
 10
3.0983843193
 20
4.1899176971
 30
0.0
 10
3.0963594939
 20
4.1834230194
 30
0.0
 10
3.0944916785
 20
4.1768108936
 30
0.0
 10
3.0928031906
 20
4.1701507162
 30
0.0
 10
3.0913094009
 20
4.1635137454
 30
0.0
 10
3.0900242388
 20
4.156967784
 30
0.0
 10
3.0889535273
 20
4.1505757987
 30
0.0
 10
3.0881010576
 20
4.1443905026
 30
0.0
 10
3.0874640107
 20
4.1384558915
 30
0.0
 10
3.0870380163
 20
4.1328066947
 30
0.0
 10
3.0868836945
 20
4.1291372431
 30
0.0
 10
3.0868416322
 20
4.1273563666
 30
0.0
  0
SPLINE
  5
267
100
AcDbEntity
  8
ALL_ASSEMBLY_MEMBERS
100
AcDbSpline
 62
7
  6
CONTINUOUS
 70
0
 71
3
 72
21
 73
17
 74
0
 42
0.0000001
 43
0.0000001
 44
0.0000000001
 40
0.0
 40
0.0
 40
0.0
 40
0.0
 40
0.0540647483
 40
0.1110687389
 40
0.1708696502
 40
0.2332321002
 40
0.2978152245
 40
0.3641760161
 40
0.499999634
 40
0.6358233945
 40
0.7021842885
 40
0.766767518
 40
0.8291300831
 40
0.8889310879
 40
0.9459351912
 40
1.0
 40
1.0
 40
1.0
 40
1.0
 10
3.0969336641
 20
4.2276608941
 30
0.0
 10
3.095926667
 20
4.2261441829
 30
0.0
 10
3.0939327928
 20
4.2229780383
 30
0.0
 10
3.0910858385
 20
4.2179759294
 30
0.0
 10
3.0883267557
 20
4.2126085224
 30
0.0
 10
3.0856824801
 20
4.2069011929
 30
0.0
 10
3.0831813988
 20
4.2008896427
 30
0.0
 10
3.0800527219
 20
4.1924670221
 30
0.0
 10
3.0766997932
 20
4.1815782372
 30
0.0
 10
3.0741591163
 20
4.1704718062
 30
0.0
 10
3.0726573165
 20
4.1616132529
 30
0.0
 10
3.0718175381
 20
4.1551565465
 30
0.0
 10
3.071253881
 20
4.148891706
 30
0.0
 10
3.0709596113
 20
4.142863843
 30
0.0
 10
3.0709240913
 20
4.1371084035
 30
0.0
 10
3.0710677647
 20
4.1333694989
 30
0.0
 10
3.0711814943
 20
4.1315524879
 30
0.0
  0
SPLINE
  5
268
100
AcDbEntity
  8
ALL_ASSEMBLY_MEMBERS
100
AcDbSpline
 62
7
  6
CONTINUOUS
 70
0
 71
3
 72
17
 73
13
 74
0
 42
0.0000001
 43
0.0000001
 44
0.0000000001
 40
0.0
 40
0.0
 40
0.0
 40
0.0
 40
0.1125589463
 40
0.1726417036
 40
0.2350122349
 40
0.3652967675
 40
0.4999996373
 40
0.6347026474
 40
0.7649873846
 40
0.8273580297
 40
0.8874408794
 40
1.0
 40
1.0
 40
1.0
 40
1.0
 10
3.0845719704
 20
4.2309732
 30
0.0
 10
3.0822144437
 20
4.2279630983
 30
0.0
 10
3.078865861
 20
4.223130604
 30
0.0
 10
3.0748333508
 20
4.2162385775
 30
0.0
 10
3.0708780861
 20
4.2086149664
 30
0.0
 10
3.066504552
 20
4.1983707366
 30
0.0
 10
3.0623742768
 20
4.1854167478
 30
0.0
 10
3.059474197
 20
4.1721331214
 30
0.0
 10
3.0581396696
 20
4.1610745759
 30
0.0
 10
3.0577532206
 20
4.1524946889
 30
0.0
 10
3.0577994616
 20
4.1445097507
 30
0.0
 10
3.0582831725
 20
4.1386503874
 30
0.0
 10
3.0588198006
 20
4.1348647937
 30
0.0
  0
SPLINE
  5
269
100
AcDbEntity
  8
ALL_ASSEMBLY_MEMBERS
100
AcDbSpline
 62
7
  6
CONTINUOUS
 70
0
 71
3
 72
15
 73
11
 74
0
 42
0.0000001
 43
0.0000001
 44
0.0000000001
 40
0.0
 40
0.0
 40
0.0
 40
0.0
 40
0.2367248972
 40
0.3008910586
 40
0.3664550568
 40
0.499999642
 40
0.6335443647
 40
0.6991084626
 40
0.7632747258
 40
1.0
 40
1.0
 40
1.0
 40
1.0
 10
3.0756441582
 20
4.2333654
 30
0.0
 10
3.0702076007
 20
4.2273408787
 30
0.0
 10
3.0643051505
 20
4.2187116966
 30
0.0
 10
3.0587096556
 20
4.2074668156
 30
0.0
 10
3.055158951
 20
4.1991633316
 30
0.0
 10
3.0515845769
 20
4.1883078393
 30
0.0
 10
3.0492523212
 20
4.1771195182
 30
0.0
 10
3.0481755762
 20
4.1681531264
 30
0.0
 10
3.0473989699
 20
4.155617007
 30
0.0
 10
3.0481960495
 20
4.1451926737
 30
0.0
 10
3.0498919883
 20
4.1372569938
 30
0.0
  0
SPLINE
  5
26A
100
AcDbEntity
  8
ALL_ASSEMBLY_MEMBERS
100
AcDbSpline
 62
7
  6
CONTINUOUS
 70
0
 71
3
 72
9
 73
5
 74
0
 42
0.0000001
 43
0.0000001
 44
0.0000000001
 40
0.0
 40
0.0
 40
0.0
 40
0.0
 40
0.4999996523
 40
1.0
 40
1.0
 40
1.0
 40
1.0
 10
3.0702480424
 20
4.2348112849
 30
0.0
 10
3.0580064834
 20
4.2228049024
 30
0.0
 10
3.0405234172
 20
4.1912716501
 30
0.0
 10
3.0398975563
 20
4.1552215134
 30
0.0
 10
3.0444958726
 20
4.1387028787
 30
0.0
  0
SPLINE
  5
26B
100
AcDbEntity
  8
ALL_ASSEMBLY_MEMBERS
100
AcDbSpline
 62
7
  6
CONTINUOUS
 70
0
 71
3
 72
19
 73
15
 74
0
 42
0.0000001
 43
0.0000001
 44
0.0000000001
 40
0.0
 40
0.0
 40
0.0
 40
0.0
 40
0.1177052716
 40
0.2410808908
 40
0.3046614989
 40
0.3692040141
 40
0.4344274976
 40
0.4999998883
 40
0.5655723017
 40
0.6307958077
 40
0.6953383446
 40
0.7589189623
 40
0.8822946865
 40
1.0
 40
1.0
 40
1.0
 40
1.0
 10
3.0684427441
 20
4.2352950131
 30
0.0
 10
3.0653491852
 20
4.2325635749
 30
0.0
 10
3.0594170864
 20
4.2264948313
 30
0.0
 10
3.0531151129
 20
4.2178209461
 30
0.0
 10
3.0487363169
 20
4.210159637
 30
0.0
 10
3.045809242
 20
4.2040381591
 30
0.0
 10
3.0433170344
 20
4.1976523985
 30
0.0
 10
3.0412885961
 20
4.1910666169
 30
0.0
 10
3.0397523831
 20
4.1843489431
 30
0.0
 10
3.0387178158
 20
4.1775726063
 30
0.0
 10
3.038191996
 20
4.1708077117
 30
0.0
 10
3.0381534892
 20
4.1619834207
 30
0.0
 10
3.0392742148
 20
4.1513206233
 30
0.0
 10
3.0413771923
 20
4.1430988826
 30
0.0
 10
3.0426905742
 20
4.1391866069
 30
0.0
  0
SPLINE
  5
26C
100
AcDbEntity
  8
ALL_ASSEMBLY_MEMBERS
100
AcDbSpline
 62
7
  6
CONTINUOUS
 70
0
 71
3
 72
23
 73
19
 74
0
 42
0.0000001
 43
0.0000001
 44
0.0000000001
 40
0.0
 40
0.0
 40
0.0
 40
0.0
 40
0.0624739618
 40
0.1249560519
 40
0.1874444683
 40
0.2499417625
 40
0.3124474378
 40
0.3749606017
 40
0.4374788333
 40
0.4999996647
 40
0.5625205344
 40
0.6250388488
 40
0.6875521017
 40
0.7500578662
 40
0.8125552624
 40
0.8750437633
 40
0.9375259713
 40
1.0
 40
1.0
 40
1.0
 40
1.0
 10
3.642892606
 20
4.0813716365
 30
0.0
 10
3.6439765647
 20
4.0793442
 30
0.0
 10
3.6459882426
 20
4.0752028647
 30
0.0
 10
3.6484841075
 20
4.0687638619
 30
0.0
 10
3.6504107774
 20
4.062129956
 30
0.0
 10
3.6517225269
 20
4.055345914
 30
0.0
 10
3.6523796948
 20
4.0484657398
 30
0.0
 10
3.6523517456
 20
4.04155283
 30
0.0
 10
3.6516202109
 20
4.0346775886
 30
0.0
 10
3.6501810351
 20
4.0279144051
 30
0.0
 10
3.648045816
 20
4.021337722
 30
0.0
 10
3.6452417233
 20
4.0150178121
 30
0.0
 10
3.6418094713
 20
4.009017072
 30
0.0
 10
3.637800258
 20
4.0033872391
 30
0.0
 10
3.6332722245
 20
3.9981679513
 30
0.0
 10
3.6282867206
 20
3.993386145
 30
0.0
 10
3.6229057294
 20
3.9890577306
 30
0.0
 10
3.6190928923
 20
3.9864770639
 30
0.0
 10
3.6171404362
 20
3.9852632303
 30
0.0
  0
SPLINE
  5
26D
100
AcDbEntity
  8
ALL_ASSEMBLY_MEMBERS
100
AcDbSpline
 62
7
  6
CONTINUOUS
 70
0
 71
3
 72
15
 73
11
 74
0
 42
0.0000001
 43
0.0000001
 44
0.0000000001
 40
0.0
 40
0.0
 40
0.0
 40
0.0
 40
0.108470174
 40
0.2301934133
 40
0.3622396717
 40
0.5000003445
 40
0.637760916
 40
0.769806954
 40
0.8915299864
 40
1.0
 40
1.0
 40
1.0
 40
1.0
 10
3.5927491995
 20
3.9917988425
 30
0.0
 10
3.5935090425
 20
3.9953164378
 30
0.0
 10
3.5951815448
 20
4.002768515
 30
0.0
 10
3.5979651189
 20
4.0144600612
 30
0.0
 10
3.6011213784
 20
4.0270609101
 30
0.0
 10
3.604550843
 20
4.0401409733
 30
0.0
 10
3.6081208697
 20
4.0531833655
 30
0.0
 10
3.6116878892
 20
4.0656741334
 30
0.0
 10
3.6151230111
 20
4.0771910777
 30
0.0
 10
3.6174006167
 20
4.0844810053
 30
0.0
 10
3.6185013694
 20
4.0879072487
 30
0.0
  0
SPLINE
  5
26E
100
AcDbEntity
  8
ALL_ASSEMBLY_MEMBERS
100
AcDbSpline
 62
7
  6
CONTINUOUS
 70
0
 71
3
 72
23
 73
19
 74
0
 42
0.0000001
 43
0.0000001
 44
0.0000000001
 40
0.0
 40
0.0
 40
0.0
 40
0.0
 40
0.0624739618
 40
0.1249560519
 40
0.1874444683
 40
0.2499417625
 40
0.3124474378
 40
0.3749606017
 40
0.4374788333
 40
0.4999996647
 40
0.5625205344
 40
0.6250388488
 40
0.6875521017
 40
0.7500578662
 40
0.8125552624
 40
0.8750437633
 40
0.9375259713
 40
1.0
 40
1.0
 40
1.0
 40
1.0
 10
3.6185013694
 20
4.0879072487
 30
0.0
 10
3.619585328
 20
4.0858798121
 30
0.0
 10
3.621597006
 20
4.0817384769
 30
0.0
 10
3.6240928708
 20
4.0752994741
 30
0.0
 10
3.6260195408
 20
4.0686655681
 30
0.0
 10
3.6273312903
 20
4.0618815262
 30
0.0
 10
3.6279884582
 20
4.055001352
 30
0.0
 10
3.6279605089
 20
4.0480884421
 30
0.0
 10
3.6272289743
 20
4.0412132007
 30
0.0
 10
3.6257897985
 20
4.0344500173
 30
0.0
 10
3.6236545794
 20
4.0278733342
 30
0.0
 10
3.6208504867
 20
4.0215534243
 30
0.0
 10
3.6174182346
 20
4.0155526841
 30
0.0
 10
3.6134090214
 20
4.0099228512
 30
0.0
 10
3.6088809879
 20
4.0047035634
 30
0.0
 10
3.603895484
 20
3.9999217571
 30
0.0
 10
3.5985144928
 20
3.9955933428
 30
0.0
 10
3.5947016556
 20
3.993012676
 30
0.0
 10
3.5927491995
 20
3.9917988425
 30
0.0
  0
SPLINE
  5
26F
100
AcDbEntity
  8
ALL_ASSEMBLY_MEMBERS
100
AcDbSpline
 62
7
  6
CONTINUOUS
 70
0
 71
3
 72
15
 73
11
 74
0
 42
0.0000001
 43
0.0000001
 44
0.0000000001
 40
0.0
 40
0.0
 40
0.0
 40
0.0
 40
0.1089319683
 40
0.2307305431
 40
0.3625794945
 40
0.5000003435
 40
0.6374210917
 40
0.7692698239
 40
0.8910681925
 40
1.0
 40
1.0
 40
1.0
 40
1.0
 10
3.5659420021
 20
3.9989818094
 30
0.0
 10
3.5663617031
 20
4.0025808337
 30
0.0
 10
3.5674301882
 20
4.0101835635
 30
0.0
 10
3.5695664871
 20
4.0220558517
 30
0.0
 10
3.5723153384
 20
4.0347728289
 30
0.0
 10
3.5756064759
 20
4.0478965931
 30
0.0
 10
3.5793181488
 20
4.0609076677
 30
0.0
 10
3.5832960591
 20
4.0732953013
 30
0.0
 10
3.5873821083
 20
4.0846451353
 30
0.0
 10
3.5902581336
 20
4.0917635235
 30
0.0
 10
3.591694172
 20
4.0950902156
 30
0.0
  0
SPLINE
  5
270
100
AcDbEntity
  8
ALL_ASSEMBLY_MEMBERS
100
AcDbSpline
 62
7
  6
CONTINUOUS
 70
0
 71
3
 72
23
 73
19
 74
0
 42
0.0000001
 43
0.0000001
 44
0.0000000001
 40
0.0
 40
0.0
 40
0.0
 40
0.0
 40
0.0623049202
 40
0.1246728764
 40
0.18710208
 40
0.2495926531
 40
0.3121388363
 40
0.374731457
 40
0.4373569929
 40
0.499999664
 40
0.5626423736
 40
0.6252679927
 40
0.6878607027
 40
0.7504069755
 40
0.8128976508
 40
0.8753269391
 40
0.937695013
 40
1.0
 40
1.0
 40
1.0
 40
1.0
 10
3.591694172
 20
4.0950902156
 30
0.0
 10
3.5927619593
 20
4.0930663595
 30
0.0
 10
3.5947424686
 20
4.0889316622
 30
0.0
 10
3.5971949423
 20
4.0825041269
 30
0.0
 10
3.5990834531
 20
4.0758804213
 30
0.0
 10
3.6003629017
 20
4.069105188
 30
0.0
 10
3.6009942309
 20
4.062232298
 30
0.0
 10
3.6009474486
 20
4.0553250016
 30
0.0
 10
3.6002045183
 20
4.0484535498
 30
0.0
 10
3.5987616564
 20
4.0416921861
 30
0.0
 10
3.5966305393
 20
4.0351152359
 30
0.0
 10
3.5938382103
 20
4.0287929101
 30
0.0
 10
3.5904250749
 20
4.0227876149
 30
0.0
 10
3.5864418807
 20
4.017151171
 30
0.0
 10
3.581946225
 20
4.0119233612
 30
0.0
 10
3.576998868
 20
4.0071313091
 30
0.0
 10
3.5716611885
 20
4.0027911303
 30
0.0
 10
3.5678786632
 20
4.0002006278
 30
0.0
 10
3.5659420021
 20
3.9989818094
 30
0.0
  0
SPLINE
  5
271
100
AcDbEntity
  8
ALL_ASSEMBLY_MEMBERS
100
AcDbSpline
 62
7
  6
CONTINUOUS
 70
0
 71
3
 72
23
 73
19
 74
0
 42
0.0000001
 43
0.0000001
 44
0.0000000001
 40
0.0
 40
0.0
 40
0.0
 40
0.0
 40
0.0532808614
 40
0.1098244357
 40
0.1694192598
 40
0.2317757402
 40
0.2965480891
 40
0.3632406461
 40
0.4312771908
 40
0.5000001116
 40
0.5687230082
 40
0.6367595269
 40
0.7034520585
 40
0.7682243946
 40
0.8305808286
 40
0.890175599
 40
0.9467191465
 40
1.0
 40
1.0
 40
1.0
 40
1.0
 10
3.5370125493
 20
4.0067334329
 30
0.0
 10
3.5370546116
 20
4.0085143125
 30
0.0
 10
3.537208935
 20
4.0121837713
 30
0.0
 10
3.5376349299
 20
4.0178329752
 30
0.0
 10
3.538271976
 20
4.023767589
 30
0.0
 10
3.5391244471
 20
4.0299528828
 30
0.0
 10
3.5401951593
 20
4.0363448667
 30
0.0
 10
3.5414803213
 20
4.0428908261
 30
0.0
 10
3.5429741091
 20
4.0495277919
 30
0.0
 10
3.5446625959
 20
4.0561879595
 30
0.0
 10
3.5465304074
 20
4.0628000763
 30
0.0
 10
3.5485552319
 20
4.0692947486
 30
0.0
 10
3.5507152286
 20
4.0756062945
 30
0.0
 10
3.5529839558
 20
4.0816772683
 30
0.0
 10
3.5553383399
 20
4.0874601219
 30
0.0
 10
3.5577539473
 20
4.0929181671
 30
0.0
 10
3.5602096255
 20
4.098023516
 30
0.0
 10
3.5619107065
 20
4.1012785212
 30
0.0
 10
3.5627647191
 20
4.1028418391
 30
0.0
  0
SPLINE
  5
272
100
AcDbEntity
  8
ALL_ASSEMBLY_MEMBERS
100
AcDbSpline
 62
7
  6
CONTINUOUS
 70
0
 71
3
 72
15
 73
11
 74
0
 42
0.0000001
 43
0.0000001
 44
0.0000000001
 40
0.0
 40
0.0
 40
0.0
 40
0.0
 40
0.1241443485
 40
0.2489472061
 40
0.3743073868
 40
0.4999998884
 40
0.6256924305
 40
0.7510526358
 40
0.8758556019
 40
1.0
 40
1.0
 40
1.0
 40
1.0
 10
3.5627647191
 20
4.1028418391
 30
0.0
 10
3.5648371233
 20
4.0988059664
 30
0.0
 10
3.5683715244
 20
4.090371535
 30
0.0
 10
3.5714346978
 20
4.0769663609
 30
0.0
 10
3.5719503084
 20
4.0631535011
 30
0.0
 10
3.5697309578
 20
4.0494709127
 30
0.0
 10
3.564811681
 20
4.036511766
 30
0.0
 10
3.5574587194
 20
4.0248072762
 30
0.0
 10
3.548103343
 20
4.0147296354
 30
0.0
 10
3.5408252419
 20
4.0091924001
 30
0.0
 10
3.5370125493
 20
4.0067334329
 30
0.0
  0
SPLINE
  5
273
100
AcDbEntity
  8
ALL_ASSEMBLY_MEMBERS
100
AcDbSpline
 62
7
  6
CONTINUOUS
 70
0
 71
3
 72
21
 73
17
 74
0
 42
0.0000001
 43
0.0000001
 44
0.0000000001
 40
0.0
 40
0.0
 40
0.0
 40
0.0
 40
0.0540663898
 40
0.111070841
 40
0.170872747
 40
0.2332353293
 40
0.2978184167
 40
0.3641788591
 40
0.500000339
 40
0.6358217205
 40
0.7021820606
 40
0.7667650365
 40
0.8291275078
 40
0.8889293214
 40
0.9459336709
 40
1.0
 40
1.0
 40
1.0
 40
1.0
 10
3.5062777981
 20
4.0149687847
 30
0.0
 10
3.5061640652
 20
4.0167858489
 30
0.0
 10
3.5060203878
 20
4.0205248186
 30
0.0
 10
3.5060559238
 20
4.0262803535
 30
0.0
 10
3.5063501935
 20
4.0323082593
 30
0.0
 10
3.5069138641
 20
4.0385731251
 30
0.0
 10
3.5077536361
 20
4.0450298128
 30
0.0
 10
3.5092554419
 20
4.053888268
 30
0.0
 10
3.5117961522
 20
4.0649945179
 30
0.0
 10
3.5151489592
 20
4.0758831634
 30
0.0
 10
3.5182775842
 20
4.0843057026
 30
0.0
 10
3.520778662
 20
4.0903172332
 30
0.0
 10
3.5234229385
 20
4.0960245913
 30
0.0
 10
3.5261820426
 20
4.1013920361
 30
0.0
 10
3.529029031
 20
4.1063942359
 30
0.0
 10
3.5310229413
 20
4.1095604352
 30
0.0
 10
3.5320299679
 20
4.1110771909
 30
0.0
  0
SPLINE
  5
274
100
AcDbEntity
  8
ALL_ASSEMBLY_MEMBERS
100
AcDbSpline
 62
7
  6
CONTINUOUS
 70
0
 71
3
 72
23
 73
19
 74
0
 42
0.0000001
 43
0.0000001
 44
0.0000000001
 40
0.0
 40
0.0
 40
0.0
 40
0.0
 40
0.0614730076
 40
0.1232815055
 40
0.185422333
 40
0.2478822953
 40
0.3106287011
 40
0.3736111418
 40
0.4367616344
 40
0.4999996608
 40
0.5632377267
 40
0.6263883039
 40
0.6893708353
 40
0.7521173323
 40
0.8145773982
 40
0.8767183112
 40
0.9385269263
 40
1.0
 40
1.0
 40
1.0
 40
1.0
 10
3.5320299679
 20
4.1110771909
 30
0.0
 10
3.5330176265
 20
4.1090709848
 30
0.0
 10
3.5348436484
 20
4.1049690962
 30
0.0
 10
3.5370815374
 20
4.098598398
 30
0.0
 10
3.5387813933
 20
4.0920252588
 30
0.0
 10
3.5399012088
 20
4.085293674
 30
0.0
 10
3.5404048928
 20
4.0784568326
 30
0.0
 10
3.5402651039
 20
4.0715772495
 30
0.0
 10
3.5394658995
 20
4.0647244307
 30
0.0
 10
3.5380048147
 20
4.0579719328
 30
0.0
 10
3.5358939114
 20
4.0513935492
 30
0.0
 10
3.5331596335
 20
4.0450592232
 30
0.0
 10
3.5298409008
 20
4.039031425
 30
0.0
 10
3.5259862749
 20
4.0333623775
 30
0.0
 10
3.5216506897
 20
4.0280925519
 30
0.0
 10
3.5168919962
 20
4.0232499641
 30
0.0
 10
3.5117685713
 20
4.0188517152
 30
0.0
 10
3.5081362405
 20
4.0162123821
 30
0.0
 10
3.5062777981
 20
4.0149687847
 30
0.0
  0
SPLINE
  5
275
100
AcDbEntity
  8
ALL_ASSEMBLY_MEMBERS
100
AcDbSpline
 62
7
  6
CONTINUOUS
 70
0
 71
3
 72
17
 73
13
 74
0
 42
0.0000001
 43
0.0000001
 44
0.0000000001
 40
0.0
 40
0.0
 40
0.0
 40
0.0
 40
0.11256106
 40
0.1726448111
 40
0.2350154664
 40
0.365299598
 40
0.5000003357
 40
0.6347009766
 40
0.7649848985
 40
0.8273554441
 40
0.8874391035
 40
1.0
 40
1.0
 40
1.0
 40
1.0
 10
3.4740744849
 20
4.0235976364
 30
0.0
 10
3.4735378476
 20
4.0273832955
 30
0.0
 10
3.4730541405
 20
4.0332427564
 30
0.0
 10
3.4730078997
 20
4.0412277917
 30
0.0
 10
3.4733943645
 20
4.0498076883
 30
0.0
 10
3.4747288763
 20
4.0608661407
 30
0.0
 10
3.4776290336
 20
4.0741495697
 30
0.0
 10
3.4817591403
 20
4.0871034274
 30
0.0
 10
3.4861326447
 20
4.0973475687
 30
0.0
 10
3.4900879001
 20
4.1049711962
 30
0.0
 10
3.4941204587
 20
4.1118633076
 30
0.0
 10
3.4974690871
 20
4.1166958888
 30
0.0
 10
3.4998266547
 20
4.1197060426
 30
0.0
  0
SPLINE
  5
276
100
AcDbEntity
  8
ALL_ASSEMBLY_MEMBERS
100
AcDbSpline
 62
7
  6
CONTINUOUS
 70
0
 71
3
 72
23
 73
19
 74
0
 42
0.0000001
 43
0.0000001
 44
0.0000000001
 40
0.0
 40
0.0
 40
0.0
 40
0.0
 40
0.0608247746
 40
0.1221999501
 40
0.1841195768
 40
0.2465585024
 40
0.3094618804
 40
0.3727466443
 40
0.4363025961
 40
0.4999996584
 40
0.5636967607
 40
0.6272527982
 40
0.690537654
 40
0.7534411244
 40
0.8158801547
 40
0.8777998675
 40
0.9391751598
 40
1.0
 40
1.0
 40
1.0
 40
1.0
 10
3.4998266547
 20
4.1197060426
 30
0.0
 10
3.5007510699
 20
4.1177136654
 30
0.0
 10
3.5024551136
 20
4.1136375931
 30
0.0
 10
3.5045241736
 20
4.1073117678
 30
0.0
 10
3.5060756662
 20
4.1007785551
 30
0.0
 10
3.5070700098
 20
4.0940814067
 30
0.0
 10
3.5074734193
 20
4.087272949
 30
0.0
 10
3.5072605973
 20
4.0804151089
 30
0.0
 10
3.5064172058
 20
4.0735768222
 30
0.0
 10
3.5049417879
 20
4.0668311441
 30
0.0
 10
3.5028467069
 20
4.0602515004
 30
0.0
 10
3.5001579622
 20
4.0539076658
 30
0.0
 10
3.4969133494
 20
4.0478621811
 30
0.0
 10
3.4931597555
 20
4.0421675774
 30
0.0
 10
3.4889500506
 20
4.0368648386
 30
0.0
 10
3.4843398067
 20
4.0319826465
 30
0.0
 10
3.4793850286
 20
4.0275388442
 30
0.0
 10
3.4758712424
 20
4.0248608795
 30
0.0
 10
3.4740744849
 20
4.0235976364
 30
0.0
  0
SPLINE
  5
277
100
AcDbEntity
  8
ALL_ASSEMBLY_MEMBERS
100
AcDbSpline
 62
7
  6
CONTINUOUS
 70
0
 71
3
 72
15
 73
11
 74
0
 42
0.0000001
 43
0.0000001
 44
0.0000000001
 40
0.0
 40
0.0
 40
0.0
 40
0.0
 40
0.2367281257
 40
0.3008942434
 40
0.3664578747
 40
0.5000003312
 40
0.6335426929
 40
0.6991062259
 40
0.7632722362
 40
1.0
 40
1.0
 40
1.0
 40
1.0
 10
3.440755436
 20
4.0325254487
 30
0.0
 10
3.4390594767
 20
4.0404612245
 30
0.0
 10
3.4382624087
 20
4.0508856537
 30
0.0
 10
3.4390390136
 20
4.0634218504
 30
0.0
 10
3.4401157794
 20
4.0723881425
 30
0.0
 10
3.4424481091
 20
4.0835762701
 30
0.0
 10
3.4460223192
 20
4.0944316332
 30
0.0
 10
3.4495729593
 20
4.1027350413
 30
0.0
 10
3.4551684948
 20
4.1139799885
 30
0.0
 10
3.4610709824
 20
4.1226092603
 30
0.0
 10
3.4665076059
 20
4.1286338549
 30
0.0
  0
SPLINE
  5
278
100
AcDbEntity
  8
ALL_ASSEMBLY_MEMBERS
100
AcDbSpline
 62
7
  6
CONTINUOUS
 70
0
 71
3
 72
23
 73
19
 74
0
 42
0.0000001
 43
0.0000001
 44
0.0000000001
 40
0.0
 40
0.0
 40
0.0
 40
0.0
 40
0.0600384239
 40
0.1208910807
 40
0.1825465152
 40
0.2449631887
 40
0.3080580401
 40
0.3717078218
 40
0.4357514159
 40
0.4999996554
 40
0.5642479358
 40
0.6282916169
 40
0.6919414917
 40
0.7550364372
 40
0.8174532166
 40
0.8791087381
 40
0.9399615111
 40
1.0
 40
1.0
 40
1.0
 40
1.0
 10
3.4665076059
 20
4.1286338549
 30
0.0
 10
3.4673540181
 20
4.1266584218
 30
0.0
 10
3.4689075804
 20
4.1226141298
 30
0.0
 10
3.4707691403
 20
4.1163436519
 30
0.0
 10
3.4721383654
 20
4.1098596798
 30
0.0
 10
3.4729786398
 20
4.1032049587
 30
0.0
 10
3.4732589785
 20
4.0964313986
 30
0.0
 10
3.4729565496
 20
4.0896001989
 30
0.0
 10
3.4720589414
 20
4.082779616
 30
0.0
 10
3.4705659071
 20
4.0760421335
 30
0.0
 10
3.4684901796
 20
4.0694607795
 30
0.0
 10
3.4658572397
 20
4.0631051686
 30
0.0
 10
3.4627035489
 20
4.0570379517
 30
0.0
 10
3.4590739863
 20
4.0513120348
 30
0.0
 10
3.4550189229
 20
4.0459690045
 30
0.0
 10
3.4505911478
 20
4.0410383223
 30
0.0
 10
3.4458437441
 20
4.0365387021
 30
0.0
 10
3.4424761689
 20
4.0338130192
 30
0.0
 10
3.440755436
 20
4.0325254487
 30
0.0
  0
SPLINE
  5
279
100
AcDbEntity
  8
ALL_ASSEMBLY_MEMBERS
100
AcDbSpline
 62
7
  6
CONTINUOUS
 70
0
 71
3
 72
9
 73
5
 74
0
 42
0.0000001
 43
0.0000001
 44
0.0000000001
 40
0.0
 40
0.0
 40
0.0
 40
0.0
 40
0.5000003223
 40
1.0
 40
1.0
 40
1.0
 40
1.0
 10
3.4066857019
 20
4.0416544064
 30
0.0
 10
3.4020873868
 20
4.0581730367
 30
0.0
 10
3.402713329
 20
4.0942231546
 30
0.0
 10
3.4201963147
 20
4.1257564321
 30
0.0
 10
3.4324378717
 20
4.1377628126
 30
0.0
  0
SPLINE
  5
27A
100
AcDbEntity
  8
ALL_ASSEMBLY_MEMBERS
100
AcDbSpline
 62
7
  6
CONTINUOUS
 70
0
 71
3
 72
21
 73
17
 74
0
 42
0.0000001
 43
0.0000001
 44
0.0000000001
 40
0.0
 40
0.0
 40
0.0
 40
0.0
 40
0.0591459842
 40
0.1194144034
 40
0.1807844363
 40
0.2431930924
 40
0.3065230506
 40
0.3706040916
 40
0.4999996528
 40
0.6293953427
 40
0.6934764783
 40
0.7568065323
 40
0.8192152957
 40
0.8805854166
 40
0.9408539515
 40
1.0
 40
1.0
 40
1.0
 40
1.0
 10
3.4324378717
 20
4.1377628126
 30
0.0
 10
3.4331921896
 20
4.1358072488
 30
0.0
 10
3.434568067
 20
4.1318004498
 30
0.0
 10
3.4361857945
 20
4.1255953016
 30
0.0
 10
3.4373409396
 20
4.1191693992
 30
0.0
 10
3.4380003755
 20
4.1125647426
 30
0.0
 10
3.4381362365
 20
4.1058318724
 30
0.0
 10
3.4375915993
 20
4.0967393365
 30
0.0
 10
3.4355233423
 20
4.0854317575
 30
0.0
 10
3.4316607252
 20
4.0746049709
 30
0.0
 10
3.4275861242
 20
4.0664582739
 30
0.0
 10
3.424102028
 20
4.0606953566
 30
0.0
 10
3.4202286075
 20
4.0553052642
 30
0.0
 10
3.4160152664
 20
4.0503178318
 30
0.0
 10
3.4115116928
 20
4.0457528724
 30
0.0
 10
3.408316744
 20
4.0429708168
 30
0.0
 10
3.4066857019
 20
4.0416544064
 30
0.0
  0
SPLINE
  5
27B
100
AcDbEntity
  8
ALL_ASSEMBLY_MEMBERS
100
AcDbSpline
 62
7
  6
CONTINUOUS
 70
0
 71
3
 72
19
 73
15
 74
0
 42
0.0000001
 43
0.0000001
 44
0.0000000001
 40
0.0
 40
0.0
 40
0.0
 40
0.0
 40
0.0581586389
 40
0.1177834887
 40
0.178841329
 40
0.2412407463
 40
0.369285117
 40
0.4999996985
 40
0.6307143708
 40
0.7587589274
 40
0.8211584406
 40
0.8822163605
 40
0.9418413031
 40
1.0
 40
1.0
 40
1.0
 40
1.0
 10
3.3979907274
 20
4.1469928971
 30
0.0
 10
3.3986396546
 20
4.1450598859
 30
0.0
 10
3.3998122167
 20
4.1410959854
 30
0.0
 10
3.4011525579
 20
4.1349654719
 30
0.0
 10
3.4020642944
 20
4.1286056343
 30
0.0
 10
3.4026746938
 20
4.1198026357
 30
0.0
 10
3.4022034863
 20
4.1085083571
 30
0.0
 10
3.3996358793
 20
4.0950477701
 30
0.0
 10
3.3951292026
 20
4.0821067482
 30
0.0
 10
3.3898901416
 20
4.072089997
 30
0.0
 10
3.3849600162
 20
4.0647715642
 30
0.0
 10
3.380990506
 20
4.059719643
 30
0.0
 10
3.3767644746
 20
4.0550806269
 30
0.0
 10
3.3737670521
 20
4.0522340655
 30
0.0
 10
3.3722385576
 20
4.0508844909
 30
0.0
  0
SPLINE
  5
27C
100
AcDbEntity
  8
ALL_ASSEMBLY_MEMBERS
100
AcDbSpline
 62
7
  6
CONTINUOUS
 70
0
 71
3
 72
9
 73
5
 74
0
 42
0.0000001
 43
0.0000001
 44
0.0000000001
 40
0.0
 40
0.0
 40
0.0
 40
0.0
 40
0.4999996523
 40
1.0
 40
1.0
 40
1.0
 40
1.0
 10
3.3635435831
 20
4.1562229816
 30
0.0
 10
3.368141893
 20
4.1397043699
 30
0.0
 10
3.3675160463
 20
4.1036542392
 30
0.0
 10
3.3500329894
 20
4.0721209746
 30
0.0
 10
3.3377914133
 20
4.0601145754
 30
0.0
  0
SPLINE
  5
27D
100
AcDbEntity
  8
ALL_ASSEMBLY_MEMBERS
100
AcDbSpline
 62
7
  6
CONTINUOUS
 70
0
 71
3
 72
21
 73
17
 74
0
 42
0.0000001
 43
0.0000001
 44
0.0000000001
 40
0.0
 40
0.0
 40
0.0
 40
0.0
 40
0.0591477575
 40
0.1194165793
 40
0.1807875978
 40
0.2431963346
 40
0.3065262342
 40
0.3706068753
 40
0.5000003207
 40
0.6293936774
 40
0.6934742273
 40
0.7568040267
 40
0.8192126598
 40
0.8805835901
 40
0.9408523075
 40
1.0
 40
1.0
 40
1.0
 40
1.0
 10
3.3377914133
 20
4.0601145754
 30
0.0
 10
3.3370370727
 20
4.0620701981
 30
0.0
 10
3.3356611673
 20
4.0660770703
 30
0.0
 10
3.3340434409
 20
4.0722823352
 30
0.0
 10
3.3328882855
 20
4.0787082894
 30
0.0
 10
3.3322288714
 20
4.085312985
 30
0.0
 10
3.3320930065
 20
4.092045842
 30
0.0
 10
3.3326376877
 20
4.1011382888
 30
0.0
 10
3.3347060805
 20
4.1124456598
 30
0.0
 10
3.3385684902
 20
4.1232723217
 30
0.0
 10
3.3426430077
 20
4.1314189402
 30
0.0
 10
3.3461270971
 20
4.1371818216
 30
0.0
 10
3.3500005101
 20
4.1425719389
 30
0.0
 10
3.3542138761
 20
4.1475593913
 30
0.0
 10
3.3587174946
 20
4.1521244383
 30
0.0
 10
3.3619124955
 20
4.1549065345
 30
0.0
 10
3.3635435831
 20
4.1562229816
 30
0.0
  0
SPLINE
  5
27E
100
AcDbEntity
  8
ALL_ASSEMBLY_MEMBERS
100
AcDbSpline
 62
7
  6
CONTINUOUS
 70
0
 71
3
 72
15
 73
11
 74
0
 42
0.0000001
 43
0.0000001
 44
0.0000000001
 40
0.0
 40
0.0
 40
0.0
 40
0.0
 40
0.2367248972
 40
0.3008910586
 40
0.3664550568
 40
0.499999642
 40
0.6335443647
 40
0.6991084626
 40
0.7632747258
 40
1.0
 40
1.0
 40
1.0
 40
1.0
 10
3.329473849
 20
4.1653519394
 30
0.0
 10
3.3311697851
 20
4.1574162721
 30
0.0
 10
3.331966866
 20
4.1469919561
 30
0.0
 10
3.3311902662
 20
4.1344558561
 30
0.0
 10
3.3301135245
 20
4.1254894756
 30
0.0
 10
3.3277812772
 20
4.1143011565
 30
0.0
 10
3.3242069094
 20
4.1034456583
 30
0.0
 10
3.320656202
 20
4.0951421628
 30
0.0
 10
3.315060703
 20
4.0838972617
 30
0.0
 10
3.3091582452
 20
4.0752680641
 30
0.0
 10
3.3037216792
 20
4.0692435331
 30
0.0
  0
SPLINE
  5
27F
100
AcDbEntity
  8
ALL_ASSEMBLY_MEMBERS
100
AcDbSpline
 62
7
  6
CONTINUOUS
 70
0
 71
3
 72
23
 73
19
 74
0
 42
0.0000001
 43
0.0000001
 44
0.0000000001
 40
0.0
 40
0.0
 40
0.0
 40
0.0
 40
0.0600402223
 40
0.1208932737
 40
0.1825496941
 40
0.2449664408
 40
0.3080612317
 40
0.3717106059
 40
0.4357534595
 40
0.5000003171
 40
0.5642471488
 40
0.6282899417
 40
0.6919392269
 40
0.7550339195
 40
0.817450564
 40
0.879106897
 40
0.9399598434
 40
1.0
 40
1.0
 40
1.0
 40
1.0
 10
3.3037216792
 20
4.0692435331
 30
0.0
 10
3.3028752415
 20
4.0712190256
 30
0.0
 10
3.3013216478
 20
4.075263391
 30
0.0
 10
3.2994600864
 20
4.0815339876
 30
0.0
 10
3.2980908493
 20
4.0880180111
 30
0.0
 10
3.2972505975
 20
4.0946727718
 30
0.0
 10
3.2969702551
 20
4.1014463181
 30
0.0
 10
3.2972727207
 20
4.1082774755
 30
0.0
 10
3.2981704087
 20
4.1150979577
 30
0.0
 10
3.2996634704
 20
4.1218353012
 30
0.0
 10
3.3017391161
 20
4.1284165393
 30
0.0
 10
3.3043719389
 20
4.1347720863
 30
0.0
 10
3.3075255756
 20
4.1408392646
 30
0.0
 10
3.3111551308
 20
4.1465651451
 30
0.0
 10
3.3152101864
 20
4.1519082012
 30
0.0
 10
3.3196379869
 20
4.1568389023
 30
0.0
 10
3.3243854383
 20
4.1613386108
 30
0.0
 10
3.3277530681
 20
4.164064333
 30
0.0
 10
3.329473849
 20
4.1653519394
 30
0.0
  0
SPLINE
  5
280
100
AcDbEntity
  8
ALL_ASSEMBLY_MEMBERS
100
AcDbSpline
 62
7
  6
CONTINUOUS
 70
0
 71
3
 72
17
 73
13
 74
0
 42
0.0000001
 43
0.0000001
 44
0.0000000001
 40
0.0
 40
0.0
 40
0.0
 40
0.0
 40
0.1125589463
 40
0.1726417036
 40
0.2350122349
 40
0.3652967675
 40
0.4999996373
 40
0.6347026474
 40
0.7649873846
 40
0.8273580297
 40
0.8874408794
 40
1.0
 40
1.0
 40
1.0
 40
1.0
 10
3.2961548001
 20
4.1742797516
 30
0.0
 10
3.2966914273
 20
4.1704941638
 30
0.0
 10
3.2971751378
 20
4.1646348096
 30
0.0
 10
3.2972213809
 20
4.1566498844
 30
0.0
 10
3.296834935
 20
4.1480700112
 30
0.0
 10
3.2955004117
 20
4.137011481
 30
0.0
 10
3.2926003406
 20
4.12372786
 30
0.0
 10
3.2884700702
 20
4.1107738622
 30
0.0
 10
3.284096532
 20
4.1005296171
 30
0.0
 10
3.2801412632
 20
4.0929059924
 30
0.0
 10
3.2761087482
 20
4.0860139537
 30
0.0
 10
3.2727601606
 20
4.0811814517
 30
0.0
 10
3.2704026303
 20
4.0781713454
 30
0.0
  0
SPLINE
  5
281
100
AcDbEntity
  8
ALL_ASSEMBLY_MEMBERS
100
AcDbSpline
 62
7
  6
CONTINUOUS
 70
0
 71
3
 72
23
 73
19
 74
0
 42
0.0000001
 43
0.0000001
 44
0.0000000001
 40
0.0
 40
0.0
 40
0.0
 40
0.0
 40
0.0608265938
 40
0.1222021557
 40
0.1841227675
 40
0.2465617583
 40
0.3094650724
 40
0.3727494206
 40
0.4363046249
 40
0.500000314
 40
0.5636959779
 40
0.6272511227
 40
0.6905353836
 40
0.7534386015
 40
0.8158774911
 40
0.8777980161
 40
0.9391734726
 40
1.0
 40
1.0
 40
1.0
 40
1.0
 10
3.2704026303
 20
4.0781713454
 30
0.0
 10
3.2694781874
 20
4.0801637824
 30
0.0
 10
3.2677741095
 20
4.0842399281
 30
0.0
 10
3.2657050457
 20
4.090565874
 30
0.0
 10
3.2641535397
 20
4.0970991378
 30
0.0
 10
3.2631592193
 20
4.1037963264
 30
0.0
 10
3.2627558062
 20
4.1106047694
 30
0.0
 10
3.2629686676
 20
4.1174625669
 30
0.0
 10
3.2638121452
 20
4.1243007519
 30
0.0
 10
3.2652875943
 20
4.1310462894
 30
0.0
 10
3.2673825902
 20
4.1376258174
 30
0.0
 10
3.2700712122
 20
4.1439695903
 30
0.0
 10
3.2733157687
 20
4.1500150373
 30
0.0
 10
3.2770693547
 20
4.1557096039
 30
0.0
 10
3.2812790515
 20
4.1610123694
 30
0.0
 10
3.2858893215
 20
4.1658945794
 30
0.0
 10
3.2908441496
 20
4.1703384707
 30
0.0
 10
3.2943579926
 20
4.1730164734
 30
0.0
 10
3.2961548001
 20
4.1742797516
 30
0.0
  0
SPLINE
  5
282
100
AcDbEntity
  8
ALL_ASSEMBLY_MEMBERS
100
AcDbSpline
 62
7
  6
CONTINUOUS
 70
0
 71
3
 72
21
 73
17
 74
0
 42
0.0000001
 43
0.0000001
 44
0.0000000001
 40
0.0
 40
0.0
 40
0.0
 40
0.0
 40
0.0540647483
 40
0.1110687389
 40
0.1708696502
 40
0.2332321002
 40
0.2978152245
 40
0.3641760161
 40
0.499999634
 40
0.6358233945
 40
0.7021842885
 40
0.766767518
 40
0.8291300831
 40
0.8889310879
 40
0.9459351912
 40
1.0
 40
1.0
 40
1.0
 40
1.0
 10
3.2639514869
 20
4.1829086034
 30
0.0
 10
3.2640652164
 20
4.1810915943
 30
0.0
 10
3.2642088899
 20
4.1773526956
 30
0.0
 10
3.2641733702
 20
4.1715972651
 30
0.0
 10
3.2638791024
 20
4.1655694129
 30
0.0
 10
3.2633154475
 20
4.1593045828
 30
0.0
 10
3.2624756724
 20
4.1528478869
 30
0.0
 10
3.2609738758
 20
4.143989345
 30
0.0
 10
3.2584332047
 20
4.1328829163
 30
0.0
 10
3.2550802799
 20
4.1219941265
 30
0.0
 10
3.2519516001
 20
4.1135714945
 30
0.0
 10
3.2494505163
 20
4.1075599335
 30
0.0
 10
3.2468062374
 20
4.1018525939
 30
0.0
 10
3.244047151
 20
4.0964851766
 30
0.0
 10
3.2412001925
 20
4.0914830597
 30
0.0
 10
3.2392063153
 20
4.0883169101
 30
0.0
 10
3.2381993171
 20
4.0868001971
 30
0.0
  0
SPLINE
  5
283
100
AcDbEntity
  8
ALL_ASSEMBLY_MEMBERS
100
AcDbSpline
 62
7
  6
CONTINUOUS
 70
0
 71
3
 72
23
 73
19
 74
0
 42
0.0000001
 43
0.0000001
 44
0.0000000001
 40
0.0
 40
0.0
 40
0.0
 40
0.0
 40
0.0614748439
 40
0.1232837216
 40
0.1854255336
 40
0.2478855545
 40
0.3106318938
 40
0.3736139115
 40
0.4367636508
 40
0.5000003115
 40
0.5632369473
 40
0.6263866281
 40
0.6893685603
 40
0.7521148047
 40
0.8145747255
 40
0.8767164511
 40
0.938525223
 40
1.0
 40
1.0
 40
1.0
 40
1.0
 10
3.2381993171
 20
4.0868001971
 30
0.0
 10
3.2372116289
 20
4.0888064634
 30
0.0
 10
3.2353855705
 20
4.0929084255
 30
0.0
 10
3.2331476757
 20
4.0992792457
 30
0.0
 10
3.2314478056
 20
4.1058524357
 30
0.0
 10
3.2303280136
 20
4.1125840612
 30
0.0
 10
3.2298243261
 20
4.1194208872
 30
0.0
 10
3.2299641567
 20
4.1263004274
 30
0.0
 10
3.2307634523
 20
4.1331531438
 30
0.0
 10
3.2322245713
 20
4.1399054997
 30
0.0
 10
3.2343353868
 20
4.1464837676
 30
0.0
 10
3.2370695375
 20
4.152818034
 30
0.0
 10
3.240388212
 20
4.1588457952
 30
0.0
 10
3.2442428298
 20
4.1645148049
 30
0.0
 10
3.2485784065
 20
4.169784658
 30
0.0
 10
3.2533371266
 20
4.174627263
 30
0.0
 10
3.2584606036
 20
4.1790256011
 30
0.0
 10
3.2620929928
 20
4.1816649713
 30
0.0
 10
3.2639514869
 20
4.1829086034
 30
0.0
  0
SPLINE
  5
284
100
AcDbEntity
  8
ALL_ASSEMBLY_MEMBERS
100
AcDbSpline
 62
7
  6
CONTINUOUS
 70
0
 71
3
 72
23
 73
19
 74
0
 42
0.0000001
 43
0.0000001
 44
0.0000000001
 40
0.0
 40
0.0
 40
0.0
 40
0.0
 40
0.0532808064
 40
0.1098243154
 40
0.169419167
 40
0.2317756877
 40
0.2965480058
 40
0.3632404878
 40
0.4312769853
 40
0.499999888
 40
0.568722815
 40
0.6367593388
 40
0.7034518459
 40
0.7682241765
 40
0.8305807442
 40
0.8901756502
 40
0.9467191859
 40
1.0
 40
1.0
 40
1.0
 40
1.0
 10
3.2332167357
 20
4.1911439551
 30
0.0
 10
3.2331746735
 20
4.1893630773
 30
0.0
 10
3.2330203511
 20
4.1856936225
 30
0.0
 10
3.2325943563
 20
4.1800444217
 30
0.0
 10
3.2319573093
 20
4.174109808
 30
0.0
 10
3.231104839
 20
4.1679245128
 30
0.0
 10
3.2300341281
 20
4.1615325309
 30
0.0
 10
3.2287489668
 20
4.1549865766
 30
0.0
 10
3.2272551805
 20
4.1483496153
 30
0.0
 10
3.2255666945
 20
4.1416894486
 30
0.0
 10
3.2236988831
 20
4.1350773312
 30
0.0
 10
3.2216740591
 20
4.1285826583
 30
0.0
 10
3.2195140642
 20
4.1222711128
 30
0.0
 10
3.2172453354
 20
4.1162001358
 30
0.0
 10
3.2148909474
 20
4.1104172743
 30
0.0
 10
3.2124753381
 20
4.1049592205
 30
0.0
 10
3.2100196587
 20
4.099853869
 30
0.0
 10
3.2083185779
 20
4.0965988657
 30
0.0
 10
3.2074645659
 20
4.0950355489
 30
0.0
  0
SPLINE
  5
285
100
AcDbEntity
  8
ALL_ASSEMBLY_MEMBERS
100
AcDbSpline
 62
7
  6
CONTINUOUS
 70
0
 71
3
 72
15
 73
11
 74
0
 42
0.0000001
 43
0.0000001
 44
0.0000000001
 40
0.0
 40
0.0
 40
0.0
 40
0.0
 40
0.1241444719
 40
0.248947233
 40
0.3743075217
 40
0.5000001118
 40
0.6256926617
 40
0.7510529255
 40
0.8758555789
 40
1.0
 40
1.0
 40
1.0
 40
1.0
 10
3.2074645659
 20
4.0950355489
 30
0.0
 10
3.2053921596
 20
4.0990714256
 30
0.0
 10
3.2018577608
 20
4.1075058591
 30
0.0
 10
3.1987945842
 20
4.1209110374
 30
0.0
 10
3.1982789779
 20
4.1347239012
 30
0.0
 10
3.2004983323
 20
4.1484064966
 30
0.0
 10
3.2054176161
 20
4.1613656467
 30
0.0
 10
3.2127705764
 20
4.1730701269
 30
0.0
 10
3.2221259509
 20
4.1831477573
 30
0.0
 10
3.2294040425
 20
4.1886849875
 30
0.0
 10
3.2332167357
 20
4.1911439551
 30
0.0
  0
SPLINE
  5
286
100
AcDbEntity
  8
ALL_ASSEMBLY_MEMBERS
100
AcDbSpline
 62
7
  6
CONTINUOUS
 70
0
 71
3
 72
15
 73
11
 74
0
 42
0.0000001
 43
0.0000001
 44
0.0000000001
 40
0.0
 40
0.0
 40
0.0
 40
0.0
 40
0.1089298845
 40
0.2307273164
 40
0.3625766366
 40
0.4999996294
 40
0.637422768
 40
0.7692723001
 40
0.891069944
 40
1.0
 40
1.0
 40
1.0
 40
1.0
 10
3.2042872829
 20
4.1988955787
 30
0.0
 10
3.2038675899
 20
4.1952966232
 30
0.0
 10
3.2027991245
 20
4.1876939992
 30
0.0
 10
3.2006628461
 20
4.1758218038
 30
0.0
 10
3.1979139865
 20
4.1631047823
 30
0.0
 10
3.1946228503
 20
4.1499808492
 30
0.0
 10
3.1909110918
 20
4.1369696142
 30
0.0
 10
3.1869331583
 20
4.1245819024
 30
0.0
 10
3.1828471267
 20
4.1132321211
 30
0.0
 10
3.1799711283
 20
4.106113811
 30
0.0
 10
3.178535113
 20
4.1027871724
 30
0.0
  0
SPLINE
  5
287
100
AcDbEntity
  8
ALL_ASSEMBLY_MEMBERS
100
AcDbSpline
 62
7
  6
CONTINUOUS
 70
0
 71
3
 72
23
 73
19
 74
0
 42
0.0000001
 43
0.0000001
 44
0.0000000001
 40
0.0
 40
0.0
 40
0.0
 40
0.0
 40
0.0623067787
 40
0.1246751061
 40
0.1871052935
 40
0.2495959166
 40
0.3121420298
 40
0.3747342185
 40
0.4373589934
 40
0.5000003083
 40
0.5626415987
 40
0.6252663165
 40
0.6878584215
 40
0.7504044419
 40
0.8128949661
 40
0.8753250679
 40
0.9376932889
 40
1.0
 40
1.0
 40
1.0
 40
1.0
 10
3.178535113
 20
4.1027871724
 30
0.0
 10
3.1774672937
 20
4.1048110892
 30
0.0
 10
3.1754867451
 20
4.10894586
 30
0.0
 10
3.1730342631
 20
4.1153735193
 30
0.0
 10
3.1711457367
 20
4.1219972752
 30
0.0
 10
3.1698663123
 20
4.1287725499
 30
0.0
 10
3.1692349797
 20
4.1356454234
 30
0.0
 10
3.1692818062
 20
4.1425526767
 30
0.0
 10
3.1700248345
 20
4.1494240252
 30
0.0
 10
3.1714677345
 20
4.1561852451
 30
0.0
 10
3.1735987604
 20
4.1627620798
 30
0.0
 10
3.1763909564
 20
4.1690843484
 30
0.0
 10
3.1798040314
 20
4.1750896077
 30
0.0
 10
3.1837872169
 20
4.1807260129
 30
0.0
 10
3.1882828639
 20
4.185953851
 30
0.0
 10
3.1932302479
 20
4.1907459193
 30
0.0
 10
3.1985679821
 20
4.195086188
 30
0.0
 10
3.202350568
 20
4.1976767263
 30
0.0
 10
3.2042872829
 20
4.1988955787
 30
0.0
  0
SPLINE
  5
288
100
AcDbEntity
  8
ALL_ASSEMBLY_MEMBERS
100
AcDbSpline
 62
7
  6
CONTINUOUS
 70
0
 71
3
 72
15
 73
11
 74
0
 42
0.0000001
 43
0.0000001
 44
0.0000000001
 40
0.0
 40
0.0
 40
0.0
 40
0.0
 40
0.1084680939
 40
0.230190187
 40
0.3622368102
 40
0.4999996283
 40
0.637762593
 40
0.769809429
 40
0.8915317348
 40
1.0
 40
1.0
 40
1.0
 40
1.0
 10
3.1774800855
 20
4.2060785456
 30
0.0
 10
3.1767202571
 20
4.2025610177
 30
0.0
 10
3.1750477798
 20
4.1951090446
 30
0.0
 10
3.1722642289
 20
4.1834175905
 30
0.0
 10
3.1691079588
 20
4.1708166976
 30
0.0
 10
3.1656784667
 20
4.1577364734
 30
0.0
 10
3.1621083808
 20
4.1446939138
 30
0.0
 10
3.1585413395
 20
4.1322030671
 30
0.0
 10
3.1551062331
 20
4.1206861763
 30
0.0
 10
3.1528286506
 20
4.1133963275
 30
0.0
 10
3.1517279157
 20
4.1099701393
 30
0.0
  0
SPLINE
  5
289
100
AcDbEntity
  8
ALL_ASSEMBLY_MEMBERS
100
AcDbSpline
 62
7
  6
CONTINUOUS
 70
0
 71
3
 72
23
 73
19
 74
0
 42
0.0000001
 43
0.0000001
 44
0.0000000001
 40
0.0
 40
0.0
 40
0.0
 40
0.0
 40
0.0624758248
 40
0.1249582844
 40
0.1874476845
 40
0.249945027
 40
0.3124506316
 40
0.3749633615
 40
0.4374808305
 40
0.5000003076
 40
0.5625197604
 40
0.6250371725
 40
0.6875498192
 40
0.7500553314
 40
0.8125525752
 40
0.8750418898
 40
0.937524243
 40
1.0
 40
1.0
 40
1.0
 40
1.0
 10
3.1517279157
 20
4.1099701393
 30
0.0
 10
3.1506439245
 20
4.1119976366
 30
0.0
 10
3.1486322067
 20
4.1161390455
 30
0.0
 10
3.146136333
 20
4.1225781725
 30
0.0
 10
3.1442096472
 20
4.1292121287
 30
0.0
 10
3.142897922
 20
4.1359962122
 30
0.0
 10
3.1422407507
 20
4.1428763698
 30
0.0
 10
3.1422687448
 20
4.1497892364
 30
0.0
 10
3.1430003787
 20
4.1566643744
 30
0.0
 10
3.1444395934
 20
4.1634274137
 30
0.0
 10
3.1465747206
 20
4.1700039813
 30
0.0
 10
3.1493786791
 20
4.1763238345
 30
0.0
 10
3.1528108704
 20
4.1823245389
 30
0.0
 10
3.1568200748
 20
4.187954333
 30
0.0
 10
3.1613480995
 20
4.1931736493
 30
0.0
 10
3.1663336306
 20
4.1979554716
 30
0.0
 10
3.171714677
 20
4.2022839759
 30
0.0
 10
3.1755275751
 20
4.2048646783
 30
0.0
 10
3.1774800855
 20
4.2060785456
 30
0.0
  0
SPLINE
  5
28A
100
AcDbEntity
  8
ALL_ASSEMBLY_MEMBERS
100
AcDbSpline
 62
7
  6
CONTINUOUS
 70
0
 71
3
 72
23
 73
19
 74
0
 42
0.0000001
 43
0.0000001
 44
0.0000000001
 40
0.0
 40
0.0
 40
0.0
 40
0.0
 40
0.0624758248
 40
0.1249582844
 40
0.1874476845
 40
0.249945027
 40
0.3124506316
 40
0.3749633615
 40
0.4374808305
 40
0.5000003076
 40
0.5625197604
 40
0.6250371725
 40
0.6875498192
 40
0.7500553314
 40
0.8125525752
 40
0.8750418898
 40
0.937524243
 40
1.0
 40
1.0
 40
1.0
 40
1.0
 10
3.127336679
 20
4.1165057515
 30
0.0
 10
3.1262526879
 20
4.1185332488
 30
0.0
 10
3.12424097
 20
4.1226746576
 30
0.0
 10
3.1217450963
 20
4.1291137847
 30
0.0
 10
3.1198184106
 20
4.1357477409
 30
0.0
 10
3.1185066853
 20
4.1425318244
 30
0.0
 10
3.1178495141
 20
4.149411982
 30
0.0
 10
3.1178775081
 20
4.1563248486
 30
0.0
 10
3.1186091421
 20
4.1631999866
 30
0.0
 10
3.1200483568
 20
4.1699630258
 30
0.0
 10
3.1221834839
 20
4.1765395935
 30
0.0
 10
3.1249874425
 20
4.1828594466
 30
0.0
 10
3.1284196337
 20
4.1888601511
 30
0.0
 10
3.1324288382
 20
4.1944899451
 30
0.0
 10
3.1369568629
 20
4.1997092614
 30
0.0
 10
3.1419423939
 20
4.2044910838
 30
0.0
 10
3.1473234403
 20
4.208819588
 30
0.0
 10
3.1511363385
 20
4.2114002904
 30
0.0
 10
3.1530888488
 20
4.2126141577
 30
0.0
  0
SPLINE
  5
28B
100
AcDbEntity
  8
ALL_ASSEMBLY_MEMBERS
100
AcDbSpline
 62
7
  6
CONTINUOUS
 70
0
 71
3
 72
23
 73
19
 74
0
 42
0.0000001
 43
0.0000001
 44
0.0000000001
 40
0.0
 40
0.0
 40
0.0
 40
0.0
 40
0.0623067787
 40
0.1246751061
 40
0.1871052935
 40
0.2495959166
 40
0.3121420298
 40
0.3747342185
 40
0.4373589934
 40
0.5000003083
 40
0.5626415987
 40
0.6252663165
 40
0.6878584215
 40
0.7504044419
 40
0.8128949661
 40
0.8753250679
 40
0.9376932889
 40
1.0
 40
1.0
 40
1.0
 40
1.0
 10
3.1056286386
 20
4.1223224034
 30
0.0
 10
3.1045608193
 20
4.1243463201
 30
0.0
 10
3.1025802706
 20
4.128481091
 30
0.0
 10
3.1001277887
 20
4.1349087502
 30
0.0
 10
3.0982392622
 20
4.1415325062
 30
0.0
 10
3.0969598378
 20
4.1483077809
 30
0.0
 10
3.0963285052
 20
4.1551806544
 30
0.0
 10
3.0963753318
 20
4.1620879076
 30
0.0
 10
3.0971183601
 20
4.1689592561
 30
0.0
 10
3.0985612601
 20
4.175720476
 30
0.0
 10
3.1006922859
 20
4.1822973108
 30
0.0
 10
3.1034844819
 20
4.1886195793
 30
0.0
 10
3.106897557
 20
4.1946248386
 30
0.0
 10
3.1108807425
 20
4.2002612439
 30
0.0
 10
3.1153763895
 20
4.205489082
 30
0.0
 10
3.1203237734
 20
4.2102811503
 30
0.0
 10
3.1256615077
 20
4.214621419
 30
0.0
 10
3.1294440935
 20
4.2172119573
 30
0.0
 10
3.1313808084
 20
4.2184308096
 30
0.0
  0
SPLINE
  5
28C
100
AcDbEntity
  8
ALL_ASSEMBLY_MEMBERS
100
AcDbSpline
 62
7
  6
CONTINUOUS
 70
0
 71
3
 72
15
 73
11
 74
0
 42
0.0000001
 43
0.0000001
 44
0.0000000001
 40
0.0
 40
0.0
 40
0.0
 40
0.0
 40
0.1241445548
 40
0.2489474476
 40
0.3743076884
 40
0.5000001092
 40
0.6256924892
 40
0.7510527043
 40
0.8758554924
 40
1.0
 40
1.0
 40
1.0
 40
1.0
 10
3.0868416322
 20
4.1273563666
 30
0.0
 10
3.0847692246
 20
4.131392246
 30
0.0
 10
3.0812348236
 20
4.1398266871
 30
0.0
 10
3.0781716479
 20
4.153231872
 30
0.0
 10
3.0776560465
 20
4.1670447328
 30
0.0
 10
3.0798753994
 20
4.1807273137
 30
0.0
 10
3.0847946772
 20
4.1936864505
 30
0.0
 10
3.0921476315
 20
4.2053909307
 30
0.0
 10
3.1015030087
 20
4.2154685675
 30
0.0
 10
3.1087811061
 20
4.2210058035
 30
0.0
 10
3.1125938021
 20
4.2234647728
 30
0.0
  0
SPLINE
  5
28D
100
AcDbEntity
  8
ALL_ASSEMBLY_MEMBERS
100
AcDbSpline
 62
7
  6
CONTINUOUS
 70
0
 71
3
 72
23
 73
19
 74
0
 42
0.0000001
 43
0.0000001
 44
0.0000000001
 40
0.0
 40
0.0
 40
0.0
 40
0.0
 40
0.0614748439
 40
0.1232837216
 40
0.1854255336
 40
0.2478855545
 40
0.3106318938
 40
0.3736139115
 40
0.4367636508
 40
0.5000003115
 40
0.5632369473
 40
0.6263866281
 40
0.6893685603
 40
0.7521148047
 40
0.8145747255
 40
0.8767164511
 40
0.938525223
 40
1.0
 40
1.0
 40
1.0
 40
1.0
 10
3.0711814943
 20
4.1315524879
 30
0.0
 10
3.0701938061
 20
4.1335587541
 30
0.0
 10
3.0683677477
 20
4.1376607162
 30
0.0
 10
3.0661298529
 20
4.1440315364
 30
0.0
 10
3.0644299828
 20
4.1506047264
 30
0.0
 10
3.0633101909
 20
4.157336352
 30
0.0
 10
3.0628065033
 20
4.1641731779
 30
0.0
 10
3.0629463339
 20
4.1710527181
 30
0.0
 10
3.0637456295
 20
4.1779054345
 30
0.0
 10
3.0652067485
 20
4.1846577905
 30
0.0
 10
3.067317564
 20
4.1912360584
 30
0.0
 10
3.0700517147
 20
4.1975703247
 30
0.0
 10
3.0733703892
 20
4.203598086
 30
0.0
 10
3.077225007
 20
4.2092670957
 30
0.0
 10
3.0815605837
 20
4.2145369487
 30
0.0
 10
3.0863193038
 20
4.2193795537
 30
0.0
 10
3.0914427808
 20
4.2237778919
 30
0.0
 10
3.09507517
 20
4.226417262
 30
0.0
 10
3.0969336641
 20
4.2276608941
 30
0.0
  0
SPLINE
  5
28E
100
AcDbEntity
  8
ALL_ASSEMBLY_MEMBERS
100
AcDbSpline
 62
7
  6
CONTINUOUS
 70
0
 71
3
 72
23
 73
19
 74
0
 42
0.0000001
 43
0.0000001
 44
0.0000000001
 40
0.0
 40
0.0
 40
0.0
 40
0.0
 40
0.0608265938
 40
0.1222021557
 40
0.1841227675
 40
0.2465617583
 40
0.3094650724
 40
0.3727494206
 40
0.4363046249
 40
0.500000314
 40
0.5636959779
 40
0.6272511227
 40
0.6905353836
 40
0.7534386015
 40
0.8158774911
 40
0.8777980161
 40
0.9391734726
 40
1.0
 40
1.0
 40
1.0
 40
1.0
 10
3.0588198006
 20
4.1348647937
 30
0.0
 10
3.0578953577
 20
4.1368572307
 30
0.0
 10
3.0561912798
 20
4.1409333765
 30
0.0
 10
3.054122216
 20
4.1472593223
 30
0.0
 10
3.05257071
 20
4.1537925861
 30
0.0
 10
3.0515763896
 20
4.1604897747
 30
0.0
 10
3.0511729765
 20
4.1672982177
 30
0.0
 10
3.0513858379
 20
4.1741560152
 30
0.0
 10
3.0522293155
 20
4.1809942003
 30
0.0
 10
3.0537047646
 20
4.1877397378
 30
0.0
 10
3.0557997605
 20
4.1943192657
 30
0.0
 10
3.0584883825
 20
4.2006630387
 30
0.0
 10
3.061732939
 20
4.2067084857
 30
0.0
 10
3.065486525
 20
4.2124030523
 30
0.0
 10
3.0696962218
 20
4.2177058178
 30
0.0
 10
3.0743064918
 20
4.2225880278
 30
0.0
 10
3.0792613199
 20
4.227031919
 30
0.0
 10
3.0827751629
 20
4.2297099217
 30
0.0
 10
3.0845719704
 20
4.2309732
 30
0.0
  0
SPLINE
  5
28F
100
AcDbEntity
  8
ALL_ASSEMBLY_MEMBERS
100
AcDbSpline
 62
7
  6
CONTINUOUS
 70
0
 71
3
 72
23
 73
19
 74
0
 42
0.0000001
 43
0.0000001
 44
0.0000000001
 40
0.0
 40
0.0
 40
0.0
 40
0.0
 40
0.0600402223
 40
0.1208932737
 40
0.1825496941
 40
0.2449664408
 40
0.3080612317
 40
0.3717106059
 40
0.4357534595
 40
0.5000003171
 40
0.5642471488
 40
0.6282899417
 40
0.6919392269
 40
0.7550339195
 40
0.817450564
 40
0.879106897
 40
0.9399598434
 40
1.0
 40
1.0
 40
1.0
 40
1.0
 10
3.0498919883
 20
4.1372569938
 30
0.0
 10
3.0490455507
 20
4.1392324863
 30
0.0
 10
3.047491957
 20
4.1432768516
 30
0.0
 10
3.0456303955
 20
4.1495474482
 30
0.0
 10
3.0442611585
 20
4.1560314718
 30
0.0
 10
3.0434209066
 20
4.1626862325
 30
0.0
 10
3.0431405643
 20
4.1694597787
 30
0.0
 10
3.0434430299
 20
4.1762909362
 30
0.0
 10
3.0443407179
 20
4.1831114183
 30
0.0
 10
3.0458337795
 20
4.1898487618
 30
0.0
 10
3.0479094252
 20
4.19643
 30
0.0
 10
3.050542248
 20
4.202785547
 30
0.0
 10
3.0536958847
 20
4.2088527253
 30
0.0
 10
3.0573254399
 20
4.2145786058
 30
0.0
 10
3.0613804955
 20
4.2199216619
 30
0.0
 10
3.0658082961
 20
4.224852363
 30
0.0
 10
3.0705557475
 20
4.2293520715
 30
0.0
 10
3.0739233773
 20
4.2320777936
 30
0.0
 10
3.0756441582
 20
4.2333654
 30
0.0
  0
SPLINE
  5
290
100
AcDbEntity
  8
ALL_ASSEMBLY_MEMBERS
100
AcDbSpline
 62
7
  6
CONTINUOUS
 70
0
 71
3
 72
21
 73
17
 74
0
 42
0.0000001
 43
0.0000001
 44
0.0000000001
 40
0.0
 40
0.0
 40
0.0
 40
0.0
 40
0.0591477575
 40
0.1194165793
 40
0.1807875978
 40
0.2431963346
 40
0.3065262342
 40
0.3706068753
 40
0.5000003207
 40
0.6293936774
 40
0.6934742273
 40
0.7568040267
 40
0.8192126598
 40
0.8805835901
 40
0.9408523075
 40
1.0
 40
1.0
 40
1.0
 40
1.0
 10
3.0444958726
 20
4.1387028787
 30
0.0
 10
3.043741532
 20
4.1406585014
 30
0.0
 10
3.0423656265
 20
4.1446653736
 30
0.0
 10
3.0407479001
 20
4.1508706384
 30
0.0
 10
3.0395927447
 20
4.1572965927
 30
0.0
 10
3.0389333307
 20
4.1639012883
 30
0.0
 10
3.0387974657
 20
4.1706341453
 30
0.0
 10
3.0393421469
 20
4.1797265921
 30
0.0
 10
3.0414105397
 20
4.1910339631
 30
0.0
 10
3.0452729494
 20
4.201860625
 30
0.0
 10
3.0493474669
 20
4.2100072435
 30
0.0
 10
3.0528315563
 20
4.2157701249
 30
0.0
 10
3.0567049694
 20
4.2211602422
 30
0.0
 10
3.0609183353
 20
4.2261476946
 30
0.0
 10
3.0654219538
 20
4.2307127416
 30
0.0
 10
3.0686169547
 20
4.2334948377
 30
0.0
 10
3.0702480424
 20
4.2348112849
 30
0.0
  0
SPLINE
  5
291
100
AcDbEntity
  8
ALL_ASSEMBLY_MEMBERS
100
AcDbSpline
 62
7
  6
CONTINUOUS
 70
0
 71
3
 72
21
 73
17
 74
0
 42
0.0000001
 43
0.0000001
 44
0.0000000001
 40
0.0
 40
0.0
 40
0.0
 40
0.0
 40
0.0591459842
 40
0.1194144034
 40
0.1807844363
 40
0.2431930924
 40
0.3065230506
 40
0.3706040916
 40
0.4999996528
 40
0.6293953427
 40
0.6934764783
 40
0.7568065323
 40
0.8192152957
 40
0.8805854166
 40
0.9408539515
 40
1.0
 40
1.0
 40
1.0
 40
1.0
 10
3.7257334125
 20
4.0591745094
 30
0.0
 10
3.7264877304
 20
4.0572189455
 30
0.0
 10
3.7278636077
 20
4.0532121465
 30
0.0
 10
3.7294813353
 20
4.0470069983
 30
0.0
 10
3.7306364803
 20
4.0405810959
 30
0.0
 10
3.7312959163
 20
4.0339764393
 30
0.0
 10
3.7314317772
 20
4.0272435691
 30
0.0
 10
3.7308871401
 20
4.0181510332
 30
0.0
 10
3.7288188831
 20
4.0068434542
 30
0.0
 10
3.7249562659
 20
3.9960166676
 30
0.0
 10
3.7208816649
 20
3.9878699706
 30
0.0
 10
3.7173975688
 20
3.9821070533
 30
0.0
 10
3.7135241483
 20
3.9767169609
 30
0.0
 10
3.7093108071
 20
3.9717295285
 30
0.0
 10
3.7048072336
 20
3.9671645692
 30
0.0
 10
3.7016122848
 20
3.9643825135
 30
0.0
 10
3.6999812426
 20
3.9630661031
 30
0.0
  0
SPLINE
  5
292
100
AcDbEntity
  8
ALL_ASSEMBLY_MEMBERS
100
AcDbSpline
 62
7
  6
CONTINUOUS
 70
0
 71
3
 72
23
 73
19
 74
0
 42
0.0000001
 43
0.0000001
 44
0.0000000001
 40
0.0
 40
0.0
 40
0.0
 40
0.0
 40
0.0600384239
 40
0.1208910807
 40
0.1825465152
 40
0.2449631887
 40
0.3080580401
 40
0.3717078218
 40
0.4357514159
 40
0.4999996554
 40
0.5642479358
 40
0.6282916169
 40
0.6919414917
 40
0.7550364372
 40
0.8174532166
 40
0.8791087381
 40
0.9399615111
 40
1.0
 40
1.0
 40
1.0
 40
1.0
 10
3.7203372967
 20
4.0606203942
 30
0.0
 10
3.7211837089
 20
4.0586449611
 30
0.0
 10
3.7227372712
 20
4.0546006691
 30
0.0
 10
3.7245988311
 20
4.0483301913
 30
0.0
 10
3.7259680563
 20
4.0418462191
 30
0.0
 10
3.7268083307
 20
4.035191498
 30
0.0
 10
3.7270886693
 20
4.028417938
 30
0.0
 10
3.7267862405
 20
4.0215867382
 30
0.0
 10
3.7258886322
 20
4.0147661553
 30
0.0
 10
3.724395598
 20
4.0080286729
 30
0.0
 10
3.7223198704
 20
4.0014473188
 30
0.0
 10
3.7196869305
 20
3.995091708
 30
0.0
 10
3.7165332397
 20
3.989024491
 30
0.0
 10
3.7129036771
 20
3.9832985741
 30
0.0
 10
3.7088486137
 20
3.9779555439
 30
0.0
 10
3.7044208387
 20
3.9730248616
 30
0.0
 10
3.6996734349
 20
3.9685252415
 30
0.0
 10
3.6963058597
 20
3.9657995585
 30
0.0
 10
3.6945851268
 20
3.964511988
 30
0.0
  0
SPLINE
  5
293
100
AcDbEntity
  8
ALL_ASSEMBLY_MEMBERS
100
AcDbSpline
 62
7
  6
CONTINUOUS
 70
0
 71
3
 72
23
 73
19
 74
0
 42
0.0000001
 43
0.0000001
 44
0.0000000001
 40
0.0
 40
0.0
 40
0.0
 40
0.0
 40
0.0608247746
 40
0.1221999501
 40
0.1841195768
 40
0.2465585024
 40
0.3094618804
 40
0.3727466443
 40
0.4363025961
 40
0.4999996584
 40
0.5636967607
 40
0.6272527982
 40
0.690537654
 40
0.7534411244
 40
0.8158801547
 40
0.8777998675
 40
0.9391751598
 40
1.0
 40
1.0
 40
1.0
 40
1.0
 10
3.7114094844
 20
4.0630125943
 30
0.0
 10
3.7123338995
 20
4.0610202171
 30
0.0
 10
3.7140379432
 20
4.0569441448
 30
0.0
 10
3.7161070033
 20
4.0506183195
 30
0.0
 10
3.7176584959
 20
4.0440851068
 30
0.0
 10
3.7186528395
 20
4.0373879584
 30
0.0
 10
3.719056249
 20
4.0305795006
 30
0.0
 10
3.718843427
 20
4.0237216605
 30
0.0
 10
3.7180000355
 20
4.0168833738
 30
0.0
 10
3.7165246176
 20
4.0101376957
 30
0.0
 10
3.7144295366
 20
4.003558052
 30
0.0
 10
3.7117407919
 20
3.9972142175
 30
0.0
 10
3.7084961791
 20
3.9911687328
 30
0.0
 10
3.7047425852
 20
3.985474129
 30
0.0
 10
3.7005328802
 20
3.9801713902
 30
0.0
 10
3.6959226364
 20
3.9752891982
 30
0.0
 10
3.6909678583
 20
3.9708453958
 30
0.0
 10
3.6874540721
 20
3.9681674311
 30
0.0
 10
3.6856573146
 20
3.9669041881
 30
0.0
  0
SPLINE
  5
294
100
AcDbEntity
  8
ALL_ASSEMBLY_MEMBERS
100
AcDbSpline
 62
7
  6
CONTINUOUS
 70
0
 71
3
 72
23
 73
19
 74
0
 42
0.0000001
 43
0.0000001
 44
0.0000000001
 40
0.0
 40
0.0
 40
0.0
 40
0.0
 40
0.0614730076
 40
0.1232815055
 40
0.185422333
 40
0.2478822953
 40
0.3106287011
 40
0.3736111418
 40
0.4367616344
 40
0.4999996608
 40
0.5632377267
 40
0.6263883039
 40
0.6893708353
 40
0.7521173323
 40
0.8145773982
 40
0.8767183112
 40
0.9385269263
 40
1.0
 40
1.0
 40
1.0
 40
1.0
 10
3.6990477907
 20
4.0663249002
 30
0.0
 10
3.7000354493
 20
4.0643186941
 30
0.0
 10
3.7018614712
 20
4.0602168055
 30
0.0
 10
3.7040993602
 20
4.0538461073
 30
0.0
 10
3.7057992161
 20
4.0472729681
 30
0.0
 10
3.7069190316
 20
4.0405413832
 30
0.0
 10
3.7074227156
 20
4.0337045418
 30
0.0
 10
3.7072829266
 20
4.0268249587
 30
0.0
 10
3.7064837223
 20
4.01997214
 30
0.0
 10
3.7050226375
 20
4.013219642
 30
0.0
 10
3.7029117342
 20
4.0066412585
 30
0.0
 10
3.7001774563
 20
4.0003069324
 30
0.0
 10
3.6968587236
 20
3.9942791343
 30
0.0
 10
3.6930040977
 20
3.9886100868
 30
0.0
 10
3.6886685125
 20
3.9833402611
 30
0.0
 10
3.683909819
 20
3.9784976733
 30
0.0
 10
3.6787863941
 20
3.9740994245
 30
0.0
 10
3.6751540633
 20
3.9714600914
 30
0.0
 10
3.6732956209
 20
3.9702164939
 30
0.0
  0
SPLINE
  5
295
100
AcDbEntity
  8
ALL_ASSEMBLY_MEMBERS
100
AcDbSpline
 62
7
  6
CONTINUOUS
 70
0
 71
3
 72
15
 73
11
 74
0
 42
0.0000001
 43
0.0000001
 44
0.0000000001
 40
0.0
 40
0.0
 40
0.0
 40
0.0
 40
0.1241444327
 40
0.2489474163
 40
0.3743075518
 40
0.4999998908
 40
0.6256922711
 40
0.7510524318
 40
0.875855521
 40
1.0
 40
1.0
 40
1.0
 40
1.0
 10
3.6833876528
 20
4.0705210215
 30
0.0
 10
3.6854600584
 20
4.066485146
 30
0.0
 10
3.6889944615
 20
4.058050707
 30
0.0
 10
3.6920576342
 20
4.0446455264
 30
0.0
 10
3.6925732397
 20
4.0308326696
 30
0.0
 10
3.6903538906
 20
4.017150095
 30
0.0
 10
3.6854346194
 20
4.004190961
 30
0.0
 10
3.6780816635
 20
3.9924864714
 30
0.0
 10
3.6687262845
 20
3.9824088247
 30
0.0
 10
3.661448178
 20
3.976871584
 30
0.0
 10
3.6576354829
 20
3.9744126152
 30
0.0
  0
SPLINE
  5
296
100
AcDbEntity
  8
ALL_ASSEMBLY_MEMBERS
100
AcDbSpline
 62
7
  6
CONTINUOUS
 70
0
 71
3
 72
23
 73
19
 74
0
 42
0.0000001
 43
0.0000001
 44
0.0000000001
 40
0.0
 40
0.0
 40
0.0
 40
0.0
 40
0.0623049202
 40
0.1246728764
 40
0.18710208
 40
0.2495926531
 40
0.3121388363
 40
0.374731457
 40
0.4373569929
 40
0.499999664
 40
0.5626423736
 40
0.6252679927
 40
0.6878607027
 40
0.7504069755
 40
0.8128976508
 40
0.8753269391
 40
0.937695013
 40
1.0
 40
1.0
 40
1.0
 40
1.0
 10
3.6646006464
 20
4.0755549846
 30
0.0
 10
3.6656684338
 20
4.0735311285
 30
0.0
 10
3.6676489431
 20
4.0693964313
 30
0.0
 10
3.6701014167
 20
4.0629688959
 30
0.0
 10
3.6719899276
 20
4.0563451903
 30
0.0
 10
3.6732693761
 20
4.049569957
 30
0.0
 10
3.6739007054
 20
4.0426970671
 30
0.0
 10
3.6738539231
 20
4.0357897707
 30
0.0
 10
3.6731109927
 20
4.0289183189
 30
0.0
 10
3.6716681308
 20
4.0221569552
 30
0.0
 10
3.6695370138
 20
4.015580005
 30
0.0
 10
3.6667446848
 20
4.0092576791
 30
0.0
 10
3.6633315493
 20
4.0032523839
 30
0.0
 10
3.6593483552
 20
3.99761594
 30
0.0
 10
3.6548526994
 20
3.9923881302
 30
0.0
 10
3.6499053425
 20
3.9875960782
 30
0.0
 10
3.644567663
 20
3.9832558993
 30
0.0
 10
3.6407851377
 20
3.9806653969
 30
0.0
 10
3.6388484766
 20
3.9794465784
 30
0.0
  0
SPLINE
  5
297
100
AcDbEntity
  8
ALL_ASSEMBLY_MEMBERS
100
AcDbSpline
 62
7
  6
CONTINUOUS
 70
0
 71
3
 72
19
 73
15
 74
0
 42
0.0000001
 43
0.0000001
 44
0.0000000001
 40
0.0
 40
0.0
 40
0.0
 40
0.0
 40
0.058158681
 40
0.1177834955
 40
0.1788412436
 40
0.2412405985
 40
0.3692852552
 40
0.5000003243
 40
0.6307153027
 40
0.7587597636
 40
0.8211590134
 40
0.8822166725
 40
0.9418413831
 40
1.0
 40
1.0
 40
1.0
 40
1.0
 10
3.3722385576
 20
4.0508844909
 30
0.0
 10
3.3715896299
 20
4.0528175035
 30
0.0
 10
3.3704170681
 20
4.0567814044
 30
0.0
 10
3.3690767274
 20
4.0629119148
 30
0.0
 10
3.3681649917
 20
4.0692717459
 30
0.0
 10
3.3675545905
 20
4.0780747489
 30
0.0
 10
3.3680258005
 20
4.0893690527
 30
0.0
 10
3.3705934208
 20
4.1028296759
 30
0.0
 10
3.3751001122
 20
4.1157707191
 30
0.0
 10
3.3803391853
 20
4.1257874619
 30
0.0
 10
3.3852693047
 20
4.1331058724
 30
0.0
 10
3.3892388017
 20
4.1381577703
 30
0.0
 10
3.3934648202
 20
4.1427967708
 30
0.0
 10
3.396462235
 20
4.1456433244
 30
0.0
 10
3.3979907274
 20
4.1469928971
 30
0.0
  0
SPLINE
  5
298
100
AcDbEntity
  8
ALL_ASSEMBLY_MEMBERS
100
AcDbSpline
 62
7
  6
CONTINUOUS
 70
0
 71
3
 72
52
 73
48
 74
0
 42
0.0000001
 43
0.0000001
 44
0.0000000001
 40
0.0
 40
0.0
 40
0.0
 40
0.0
 40
0.0315658113
 40
0.0473551047
 40
0.0631191175
 40
0.0788508878
 40
0.0945530349
 40
0.1102278435
 40
0.125874246
 40
0.1414890619
 40
0.1492843439
 40
0.1570702317
 40
0.1726203637
 40
0.1881614095
 40
0.2192395308
 40
0.2347816882
 40
0.2503211997
 40
0.2658710264
 40
0.281438633
 40
0.312631973
 40
0.3439102968
 40
0.3752759466
 40
0.3909916747
 40
0.4067261406
 40
0.4224760583
 40
0.4382373128
 40
0.4540033118
 40
0.4618846142
 40
0.4697681081
 40
0.4776563791
 40
0.4855482134
 40
0.4934410864
 40
0.501332761
 40
0.5171121275
 40
0.5328886449
 40
0.5486644439
 40
0.5644387167
 40
0.5959778813
 40
0.6275031594
 40
0.6590130038
 40
0.6905042881
 40
0.7219744716
 40
0.7534225582
 40
0.8162332449
 40
0.8785928067
 40
0.9399722448
 40
1.0
 40
1.0
 40
1.0
 40
1.0
 10
3.4102508638
 20
4.1698491774
 30
0.0
 10
3.4166753565
 20
4.1938257107
 30
0.0
 10
3.4281884622
 20
4.2293423432
 30
0.0
 10
3.4474890244
 20
4.2750940388
 30
0.0
 10
3.4640023409
 20
4.3084381278
 30
0.0
 10
3.4826008013
 20
4.3405885033
 30
0.0
 10
3.5033055058
 20
4.3713414172
 30
0.0
 10
3.5259724114
 20
4.4005914632
 30
0.0
 10
3.5504753256
 20
4.4282285392
 30
0.0
 10
3.572331682
 20
4.4498397335
 30
0.0
 10
3.5906058457
 20
4.4662115951
 30
0.0
 10
3.6093703532
 20
4.4819399703
 30
0.0
 10
3.6337442659
 20
4.5004316535
 30
0.0
 10
3.6744358515
 20
4.527569211
 30
0.0
 10
3.7173710213
 20
4.5511695789
 30
0.0
 10
3.761858942
 20
4.5714497521
 30
0.0
 10
3.795909869
 20
4.5850947712
 30
0.0
 10
3.8305318625
 20
4.5972680966
 30
0.0
 10
3.8773726079
 20
4.6116867932
 30
0.0
 10
3.9369758168
 20
4.6265140615
 30
0.0
 10
4.0095860179
 20
4.6398664183
 30
0.0
 10
4.0707148624
 20
4.6478306625
 30
0.0
 10
4.1198869708
 20
4.6525607211
 30
0.0
 10
4.1569014376
 20
4.6553484915
 30
0.0
 10
4.1939974483
 20
4.6574319351
 30
0.0
 10
4.2311485958
 20
4.6588678329
 30
0.0
 10
4.2621318393
 20
4.6595677575
 30
0.0
 10
4.2869256266
 20
4.65981261
 30
0.0
 10
4.3055255494
 20
4.6598861489
 30
0.0
 10
4.324133841
 20
4.6599029192
 30
0.0
 10
4.3427495062
 20
4.6598934078
 30
0.0
 10
4.361367838
 20
4.6598743816
 30
0.0
 10
4.3861886789
 20
4.6598629424
 30
0.0
 10
4.4172089649
 20
4.659869545
 30
0.0
 10
4.4544290673
 20
4.6598851407
 30
0.0
 10
4.4916451684
 20
4.6598849045
 30
0.0
 10
4.5412565039
 20
4.6598751561
 30
0.0
 10
4.6032527223
 20
4.6598742084
 30
0.0
 10
4.6776228849
 20
4.6598788419
 30
0.0
 10
4.7519553962
 20
4.6598786353
 30
0.0
 10
4.8262445828
 20
4.659878194
 30
0.0
 10
4.9004852052
 20
4.65987817
 30
0.0
 10
4.9993543933
 20
4.6598783963
 30
0.0
 10
5.1225139903
 20
4.6598783049
 30
0.0
 10
5.2692106346
 20
4.6598783456
 30
0.0
 10
5.4137188716
 20
4.6598783293
 30
0.0
 10
5.5091895646
 20
4.6598783338
 30
0.0
 10
5.5563934512
 20
4.659878334
 30
0.0
  0
SPLINE
  5
299
100
AcDbEntity
  8
ALL_ASSEMBLY_MEMBERS
100
AcDbSpline
 62
7
  6
CONTINUOUS
 70
0
 71
3
 72
40
 73
36
 74
0
 42
0.0000001
 43
0.0000001
 44
0.0000000001
 40
0.0
 40
0.0
 40
0.0
 40
0.0
 40
0.0624694866
 40
0.0937223675
 40
0.1249702304
 40
0.156209859
 40
0.1874418418
 40
0.2186740699
 40
0.2499134543
 40
0.3123940249
 40
0.3436737823
 40
0.374960115
 40
0.4062359575
 40
0.4374888803
 40
0.4531071734
 40
0.4687185869
 40
0.4843240296
 40
0.4999261258
 40
0.515534653
 40
0.5311565704
 40
0.5467914811
 40
0.5624334126
 40
0.5702540742
 40
0.5780729469
 40
0.5937054789
 40
0.6093327069
 40
0.6249566281
 40
0.6562026385
 40
0.6874549777
 40
0.7187114571
 40
0.749967682
 40
0.812475253
 40
0.8749833746
 40
0.9374917403
 40
1.0
 40
1.0
 40
1.0
 40
1.0
 10
3.7175343876
 20
4.0875128053
 30
0.0
 10
3.7228622175
 20
4.1069030365
 30
0.0
 10
3.7328289369
 20
4.135503652
 30
0.0
 10
3.7497823158
 20
4.1720060556
 30
0.0
 10
3.7642910658
 20
4.1984915902
 30
0.0
 10
3.7805287576
 20
4.2239435919
 30
0.0
 10
3.7984439944
 20
4.2482381946
 30
0.0
 10
3.8179462939
 20
4.2712795595
 30
0.0
 10
3.8459221296
 20
4.3002091941
 30
0.0
 10
3.8767179226
 20
4.326322887
 30
0.0
 10
3.9098574395
 20
4.3492094399
 30
0.0
 10
3.935816089
 20
4.3647044345
 30
0.0
 10
3.9627427016
 20
4.3784250738
 30
0.0
 10
3.9858992457
 20
4.3883075264
 30
0.0
 10
4.0047864488
 20
4.3952318767
 30
0.0
 10
4.01911781
 20
4.3999223895
 30
0.0
 10
4.0336011412
 20
4.4041017224
 30
0.0
 10
4.0482264212
 20
4.4077487983
 30
0.0
 10
4.0629649498
 20
4.4109274052
 30
0.0
 10
4.0777887411
 20
4.413733992
 30
0.0
 10
4.0926736104
 20
4.416257733
 30
0.0
 10
4.1051083223
 20
4.4182010268
 30
0.0
 10
4.1150647901
 20
4.4197053826
 30
0.0
 10
4.1250210455
 20
4.421190832
 30
0.0
 10
4.1374680376
 20
4.4230112703
 30
0.0
 10
4.1524097141
 20
4.4251350912
 30
0.0
 10
4.1723391168
 20
4.4278820898
 30
0.0
 10
4.1972737531
 20
4.431150113
 30
0.0
 10
4.2272338034
 20
4.4347874089
 30
0.0
 10
4.257229421
 20
4.4381483656
 30
0.0
 10
4.2972622464
 20
4.4422691666
 30
0.0
 10
4.3473692409
 20
4.4467480107
 30
0.0
 10
4.4075843954
 20
4.4510287
 30
0.0
 10
4.4678672136
 20
4.4542194715
 30
0.0
 10
4.5080882197
 20
4.4556188735
 30
0.0
 10
4.5282029173
 20
4.4561364588
 30
0.0
  0
SPLINE
  5
29A
100
AcDbEntity
  8
ALL_ASSEMBLY_MEMBERS
100
AcDbSpline
 62
7
  6
CONTINUOUS
 70
0
 71
3
 72
51
 73
47
 74
0
 42
0.0000001
 43
0.0000001
 44
0.0000000001
 40
0.0
 40
0.0
 40
0.0
 40
0.0
 40
0.0981714915
 40
0.1470124168
 40
0.1955059379
 40
0.2909741322
 40
0.3836668102
 40
0.4726695722
 40
0.557080463
 40
0.5973014418
 40
0.6360633966
 40
0.6732725864
 40
0.7088380474
 40
0.7426694415
 40
0.7746861558
 40
0.8048151209
 40
0.8329835817
 40
0.8591248547
 40
0.8831822393
 40
0.9050999123
 40
0.9248257086
 40
0.942321267
 40
0.9575514527
 40
0.9643060922
 40
0.9704823316
 40
0.9760779401
 40
0.9810907394
 40
0.9855185528
 40
0.9893592075
 40
0.9926105388
 40
0.994014639
 40
0.9952709541
 40
0.9963794757
 40
0.9973401945
 40
0.9981531002
 40
0.9988181815
 40
0.9990952842
 40
0.999335426
 40
0.9995386053
 40
0.9997048203
 40
0.9998340691
 40
0.99992635
 40
0.9999586268
 40
0.9999816609
 40
0.999995452
 40
1.0
 40
1.0
 40
1.0
 40
1.0
 10
5.9778899622
 20
4.6598783337
 30
0.0
 10
5.9779333515
 20
4.6784773297
 30
0.0
 10
5.9780278321
 20
4.7063293663
 30
0.0
 10
5.9781582289
 20
4.7433686463
 30
0.0
 10
5.9782693666
 20
4.7798958387
 30
0.0
 10
5.9783739688
 20
4.8247309969
 30
0.0
 10
5.9784937951
 20
4.8772408025
 30
0.0
 10
5.9786089053
 20
4.927655754
 30
0.0
 10
5.9786892505
 20
4.9681297586
 30
0.0
 10
5.9787113052
 20
4.9990854797
 30
0.0
 10
5.9786980256
 20
5.0210986204
 30
0.0
 10
5.978666569
 20
5.0422297277
 30
0.0
 10
5.9786297966
 20
5.0624267065
 30
0.0
 10
5.97860382
 20
5.0816399633
 30
0.0
 10
5.9785861896
 20
5.0998232585
 30
0.0
 10
5.9785622616
 20
5.1169336782
 30
0.0
 10
5.9785179014
 20
5.1329309313
 30
0.0
 10
5.9784465646
 20
5.1477777836
 30
0.0
 10
5.9783642998
 20
5.1614403117
 30
0.0
 10
5.9782838935
 20
5.1738873853
 30
0.0
 10
5.978219276
 20
5.1850913643
 30
0.0
 10
5.9781665047
 20
5.1950284131
 30
0.0
 10
5.9781275443
 20
5.2025080544
 30
0.0
 10
5.9780977949
 20
5.2078432165
 30
0.0
 10
5.9780767703
 20
5.2113530831
 30
0.0
 10
5.9780559567
 20
5.2145329448
 30
0.0
 10
5.9780351325
 20
5.2173815513
 30
0.0
 10
5.9780140908
 20
5.219897662
 30
0.0
 10
5.9779926471
 20
5.2220800372
 30
0.0
 10
5.9779734358
 20
5.2236895479
 30
0.0
 10
5.9779573545
 20
5.2248094408
 30
0.0
 10
5.9779460181
 20
5.2255233939
 30
0.0
 10
5.9779350536
 20
5.2261533404
 30
0.0
 10
5.9779247169
 20
5.2266992796
 30
0.0
 10
5.9779152607
 20
5.2271612047
 30
0.0
 10
5.977907945
 20
5.2274936403
 30
0.0
 10
5.9779027338
 20
5.227717567
 30
0.0
 10
5.977899456
 20
5.2278540382
 30
0.0
 10
5.9778965684
 20
5.2279694145
 30
0.0
 10
5.9778941833
 20
5.2280640402
 30
0.0
 10
5.9778921183
 20
5.2281369958
 30
0.0
 10
5.9778910247
 20
5.2281860536
 30
0.0
 10
5.9778899154
 20
5.2282126731
 30
0.0
 10
5.9778900388
 20
5.2282279431
 30
0.0
 10
5.9778889026
 20
5.2282319329
 30
0.0
 10
5.9778897082
 20
5.2282393626
 30
0.0
 10
5.977889291
 20
5.2282386088
 30
0.0
  0
SPLINE
  5
29B
100
AcDbEntity
  8
ALL_ASSEMBLY_MEMBERS
100
AcDbSpline
 62
7
  6
CONTINUOUS
 70
0
 71
3
 72
54
 73
50
 74
0
 42
0.0000001
 43
0.0000001
 44
0.0000000001
 40
0.0
 40
0.0
 40
0.0
 40
0.0
 40
0.0980161836
 40
0.1467568966
 40
0.1951351645
 40
0.290336859
 40
0.3827372252
 40
0.471456335
 40
0.5556289068
 40
0.5957570194
 40
0.6344481087
 40
0.6716109447
 40
0.7071568259
 40
0.7409976756
 40
0.7730529512
 40
0.8032475331
 40
0.8315064249
 40
0.8577604734
 40
0.881949749
 40
0.9040151616
 40
0.9239008992
 40
0.9415623414
 40
0.9495457514
 40
0.9569572374
 40
0.9637915643
 40
0.9700446375
 40
0.9757134242
 40
0.980794931
 40
0.9852861642
 40
0.9891841312
 40
0.9909097054
 40
0.9924858454
 40
0.9939123003
 40
0.9951889749
 40
0.9963157838
 40
0.9972926415
 40
0.9981194615
 40
0.9987961574
 40
0.9990781815
 40
0.9993226419
 40
0.9995295277
 40
0.999698828
 40
0.9998305322
 40
0.9998822826
 40
0.9999246301
 40
0.9999575739
 40
0.9999811134
 40
0.9999952498
 40
1.0
 40
1.0
 40
1.0
 40
1.0
 10
6.0349660856
 20
4.6602426991
 30
0.0
 10
6.0348667729
 20
4.679384938
 30
0.0
 10
6.0347280351
 20
4.7080461286
 30
0.0
 10
6.0345301799
 20
4.7461553861
 30
0.0
 10
6.03431258
 20
4.7837148601
 30
0.0
 10
6.0340171748
 20
4.8298007183
 30
0.0
 10
6.0337241447
 20
4.8837652821
 30
0.0
 10
6.0335281975
 20
4.935576307
 30
0.0
 10
6.0334503909
 20
4.9771788784
 30
0.0
 10
6.0334156693
 20
5.0090110455
 30
0.0
 10
6.0333956258
 20
5.0316622535
 30
0.0
 10
6.0333915938
 20
5.0534185651
 30
0.0
 10
6.0334149185
 20
5.0742276242
 30
0.0
 10
6.0334807941
 20
5.09403909
 30
0.0
 10
6.0335829743
 20
5.1128052737
 30
0.0
 10
6.0337022663
 20
5.1304811722
 30
0.0
 10
6.0338200088
 20
5.1470240767
 30
0.0
 10
6.0339260093
 20
5.1623942027
 30
0.0
 10
6.0340320758
 20
5.1765547155
 30
0.0
 10
6.0341467911
 20
5.1894713975
 30
0.0
 10
6.0342795756
 20
5.2011129528
 30
0.0
 10
6.0344007869
 20
5.2100042272
 30
0.0
 10
6.0344978159
 20
5.2164593798
 30
0.0
 10
6.0345663639
 20
5.2208001917
 30
0.0
 10
6.0346318953
 20
5.2248030745
 30
0.0
 10
6.0346933915
 20
5.2284656293
 30
0.0
 10
6.034750096
 20
5.2317858916
 30
0.0
 10
6.0348012132
 20
5.2347621128
 30
0.0
 10
6.0348459589
 20
5.2373925525
 30
0.0
 10
6.034878503
 20
5.2393676935
 30
0.0
 10
6.0349004377
 20
5.2407736156
 30
0.0
 10
6.0349140923
 20
5.2416969231
 30
0.0
 10
6.0349256366
 20
5.242532582
 30
0.0
 10
6.0349352893
 20
5.2432805043
 30
0.0
 10
6.0349432368
 20
5.243940635
 30
0.0
 10
6.0349496725
 20
5.2445129208
 30
0.0
 10
6.0349547878
 20
5.2449973095
 30
0.0
 10
6.034958291
 20
5.2453460059
 30
0.0
 10
6.0349606153
 20
5.2455809762
 30
0.0
 10
6.034962044
 20
5.2457241924
 30
0.0
 10
6.034963275
 20
5.2458454079
 30
0.0
 10
6.0349643725
 20
5.245944565
 30
0.0
 10
6.0349651507
 20
5.2460135164
 30
0.0
 10
6.0349658491
 20
5.2460575142
 30
0.0
 10
6.0349660903
 20
5.2460825251
 30
0.0
 10
6.0349668776
 20
5.2461012989
 30
0.0
 10
6.0349662894
 20
5.2461162732
 30
0.0
 10
6.0349682333
 20
5.2461224695
 30
0.0
 10
6.0349667717
 20
5.2461283179
 30
0.0
 10
6.0349676993
 20
5.2461283338
 30
0.0
  0
SPLINE
  5
29C
100
AcDbEntity
  8
ALL_ASSEMBLY_MEMBERS
100
AcDbSpline
 62
7
  6
CONTINUOUS
 70
0
 71
3
 72
52
 73
48
 74
0
 42
0.0000001
 43
0.0000001
 44
0.0000000001
 40
0.0
 40
0.0
 40
0.0
 40
0.0
 40
0.0000046699
 40
0.0000187785
 40
0.0000423241
 40
0.000075305
 40
0.0001177192
 40
0.0001695648
 40
0.0003015421
 40
0.0004712216
 40
0.0006785877
 40
0.0009236251
 40
0.0012063182
 40
0.0018846106
 40
0.0027133424
 40
0.0036923919
 40
0.0048216383
 40
0.006100961
 40
0.0075302404
 40
0.0091093575
 40
0.010838194
 40
0.0147444152
 40
0.0192463763
 40
0.0243406772
 40
0.0300238996
 40
0.0362926217
 40
0.0431434204
 40
0.0505728625
 40
0.0585766912
 40
0.076284692
 40
0.0962210976
 40
0.1183392142
 40
0.1425849131
 40
0.1688952027
 40
0.1972065562
 40
0.2274510555
 40
0.293430196
 40
0.3661901564
 40
0.4048905852
 40
0.4450151685
 40
0.5291452019
 40
0.6177789558
 40
0.7100612791
 40
0.8051219002
 40
0.8534270575
 40
0.9020981305
 40
1.0
 40
1.0
 40
1.0
 40
1.0
 10
5.9778891605
 20
4.0915183333
 30
0.0
 10
5.9778899101
 20
4.0915178633
 30
0.0
 10
5.9778882811
 20
4.0915247303
 30
0.0
 10
5.9778901161
 20
4.0915295359
 30
0.0
 10
5.9778894143
 20
4.0915447502
 30
0.0
 10
5.9778901658
 20
4.0915626803
 30
0.0
 10
5.9778904069
 20
4.0915870977
 30
0.0
 10
5.9778911764
 20
4.0916298035
 30
0.0
 10
5.9778921483
 20
4.0916968663
 30
0.0
 10
5.9778935618
 20
4.0917932495
 30
0.0
 10
5.9778951625
 20
4.0919111099
 30
0.0
 10
5.9778969656
 20
4.0920503597
 30
0.0
 10
5.9778997591
 20
4.0922788302
 30
0.0
 10
5.9779035459
 20
4.0926178761
 30
0.0
 10
5.9779081978
 20
4.0930888493
 30
0.0
 10
5.9779129865
 20
4.093645259
 30
0.0
 10
5.9779177025
 20
4.0942870383
 30
0.0
 10
5.977922136
 20
4.095014119
 30
0.0
 10
5.9779260783
 20
4.0958264333
 30
0.0
 10
5.9779293169
 20
4.0967239133
 30
0.0
 10
5.9779325698
 20
4.0980906609
 30
0.0
 10
5.9779332993
 20
4.1000111568
 30
0.0
 10
5.9779298128
 20
4.1025692485
 30
0.0
 10
5.9779229571
 20
4.1054639933
 30
0.0
 10
5.9779135371
 20
4.1086934515
 30
0.0
 10
5.9779024275
 20
4.1122556808
 30
0.0
 10
5.9778904777
 20
4.1161487365
 30
0.0
 10
5.9778786048
 20
4.1203705161
 30
0.0
 10
5.9778632218
 20
4.1266492292
 30
0.0
 10
5.9778464019
 20
4.1352974339
 30
0.0
 10
5.9778310249
 20
4.1466196468
 30
0.0
 10
5.9778217154
 20
4.1591804565
 30
0.0
 10
5.9778154715
 20
4.1729488227
 30
0.0
 10
5.9778037125
 20
4.1878905173
 30
0.0
 10
5.9777779668
 20
4.2039686922
 30
0.0
 10
5.9777185236
 20
4.2275622135
 30
0.0
 10
5.9776437073
 20
4.25957669
 30
0.0
 10
5.9776519523
 20
4.2931932599
 30
0.0
 10
5.9776553081
 20
4.3219115697
 30
0.0
 10
5.9776396408
 20
4.3527839811
 30
0.0
 10
5.9775985249
 20
4.3931164204
 30
0.0
 10
5.9775966887
 20
4.4433303592
 30
0.0
 10
5.9776471429
 20
4.4956151084
 30
0.0
 10
5.9777194235
 20
4.5402594212
 30
0.0
 10
5.9777679252
 20
4.5766414544
 30
0.0
 10
5.9778065128
 20
4.6135617814
 30
0.0
 10
5.9778444555
 20
4.6413305319
 30
0.0
 10
5.9778899348
 20
4.6598783335
 30
0.0
  0
SPLINE
  5
29D
100
AcDbEntity
  8
ALL_ASSEMBLY_MEMBERS
100
AcDbSpline
 62
7
  6
CONTINUOUS
 70
0
 71
3
 72
54
 73
50
 74
0
 42
0.0000001
 43
0.0000001
 44
0.0000000001
 40
0.0
 40
0.0
 40
0.0
 40
0.0
 40
0.0000048161
 40
0.0000190231
 40
0.0000426479
 40
0.0000756924
 40
0.0001181559
 40
0.0001700368
 40
0.0003020433
 40
0.0004716959
 40
0.0006789778
 40
0.0009238718
 40
0.0012063607
 40
0.0018840545
 40
0.0027119213
 40
0.0036898236
 40
0.0048176245
 40
0.0060951874
 40
0.0075223764
 40
0.0090990562
 40
0.0108250921
 40
0.0147245594
 40
0.0192181846
 40
0.0243025565
 40
0.0299742486
 40
0.0362298325
 40
0.0430658794
 40
0.0504789512
 40
0.0584648317
 40
0.076132852
 40
0.0960249923
 40
0.1180959319
 40
0.1422929258
 40
0.1685546837
 40
0.196819428
 40
0.2270207744
 40
0.2590830815
 40
0.2929295939
 40
0.3656494759
 40
0.4043445973
 40
0.4444753781
 40
0.528650148
 40
0.6173647886
 40
0.7097546163
 40
0.757051066
 40
0.8049356285
 40
0.8532988504
 40
0.9020225423
 40
1.0
 40
1.0
 40
1.0
 40
1.0
 10
6.0349678134
 20
4.0736283338
 30
0.0
 10
6.0349668751
 20
4.0736284139
 30
0.0
 10
6.0349682785
 20
4.073634153
 30
0.0
 10
6.034966525
 20
4.0736405529
 30
0.0
 10
6.0349672908
 20
4.0736555123
 30
0.0
 10
6.0349668718
 20
4.0736744108
 30
0.0
 10
6.034967091
 20
4.0736995084
 30
0.0
 10
6.034967257
 20
4.0737436786
 30
0.0
 10
6.0349678653
 20
4.073812866
 30
0.0
 10
6.0349688117
 20
4.0739123534
 30
0.0
 10
6.0349701107
 20
4.0740339476
 30
0.0
 10
6.0349716984
 20
4.0741775912
 30
0.0
 10
6.0349743526
 20
4.0744132172
 30
0.0
 10
6.034978286
 20
4.0747628276
 30
0.0
 10
6.0349835417
 20
4.0752484135
 30
0.0
 10
6.0349893817
 20
4.0758220111
 30
0.0
 10
6.0349956007
 20
4.0764835425
 30
0.0
 10
6.0350019932
 20
4.0772329289
 30
0.0
 10
6.0350083537
 20
4.0780700918
 30
0.0
 10
6.0350144725
 20
4.0789949526
 30
0.0
 10
6.0350223789
 20
4.0804032384
 30
0.0
 10
6.0350301396
 20
4.0823819089
 30
0.0
 10
6.035036722
 20
4.0850172712
 30
0.0
 10
6.0350419603
 20
4.0879991759
 30
0.0
 10
6.0350467385
 20
4.0913256134
 30
0.0
 10
6.0350520117
 20
4.0949945713
 30
0.0
 10
6.0350587042
 20
4.0990040351
 30
0.0
 10
6.0350678269
 20
4.1033518356
 30
0.0
 10
6.0350846781
 20
4.1098176971
 30
0.0
 10
6.0351136332
 20
4.1187236789
 30
0.0
 10
6.0351588659
 20
4.1303837984
 30
0.0
 10
6.0352163461
 20
4.1433205468
 30
0.0
 10
6.0352815795
 20
4.1575027811
 30
0.0
 10
6.0353445603
 20
4.1728961687
 30
0.0
 10
6.0353952249
 20
4.1894636953
 30
0.0
 10
6.0354291237
 20
4.2071654984
 30
0.0
 10
6.03546041
 20
4.2259587589
 30
0.0
 10
6.0355157785
 20
4.2530660251
 30
0.0
 10
6.0356092337
 20
4.2814701699
 30
0.0
 10
6.0356795859
 20
4.3111032041
 30
0.0
 10
6.0357164399
 20
4.3429761817
 30
0.0
 10
6.0357047327
 20
4.3846299493
 30
0.0
 10
6.0356712674
 20
4.4365023769
 30
0.0
 10
6.0356224819
 20
4.4811636452
 30
0.0
 10
6.03555832
 20
4.5178410081
 30
0.0
 10
6.0354891243
 20
4.5459094244
 30
0.0
 10
6.035391403
 20
4.5742568415
 30
0.0
 10
6.0352180541
 20
4.6123991477
 30
0.0
 10
6.0350632359
 20
4.6410845298
 30
0.0
 10
6.0349660856
 20
4.6602426991
 30
0.0
  0
ENDSEC
  0
SECTION
  2
OBJECTS
  0
DICTIONARY
  5
C
100
AcDbDictionary
280
0
281
1
  3
ACAD_GROUP
350
D
  3
ACAD_MLINESTYLE
350
17
  3
ACAD_LAYOUT
350
1A
  3
ACAD_PLOTSETTINGS
350
19
  3
ACAD_PLOTSTYLENAME
350
E
  0
DICTIONARY
  5
D
102
{ACAD_REACTORS
330
C
102
}
100
AcDbDictionary
280
0
281
1
  0
ACDBDICTIONARYWDFLT
  5
E
102
{ACAD_REACTORS
330
C
102
}
100
AcDbDictionary
281
1
  3
Normal
350
F
100
AcDbDictionaryWithDefault
340
F
  0
DICTIONARY
  5
17
102
{ACAD_REACTORS
330
C
102
}
100
AcDbDictionary
280
0
281
1
  3
Standard
350
18
  0
DICTIONARY
  5
19
102
{ACAD_REACTORS
330
C
102
}
100
AcDbDictionary
281
1
  0
DICTIONARY
  5
1A
102
{ACAD_REACTORS
330
C
102
}
100
AcDbDictionary
281
1
  3
Model
350
29E
  3
Layout1
350
29F
  0
ACDBPLACEHOLDER
  5
F
102
{ACAD_REACTORS
330
E
102
}
  0
MLINESTYLE
  5
18
102
{ACAD_REACTORS
330
17
102
}
100
AcDbMlineStyle
  2
STANDARD
 70
0
  3

 62
256
 51
90.0
 52
90.0
 71
2
 49
0.5
 62
256
  6
BYLAYER
 49
-0.5
 62
256
  6
BYLAYER
  0
LAYOUT
  5
29E
102
{ACAD_REACTORS
330
1A
102
}
100
AcDbPlotSettings
  1

  2
none_device
  4
ANSI_A_(11.00_x_8.50_Inches)
  6

 40
0.0
 41
0.0
 42
0.0
 43
0.0
 44
279.4
 45
215.9
 46
0.0
 47
0.0
 48
0.0
 49
0.0
140
0.0
141
0.0
142
1.0
143
1.0
 70
1024
 72
0
 73
0
 74
0
  7

 75
0
147
1.0
148
0.0
149
0.0
100
AcDbLayout
  1
Model
 70
0
 71
0
 10
0.0
 20
0.0
 11
11.0
 21
8.5
 12
0.0
 22
0.0
 32
0.0
 14
0.0
 24
0.0
 34
0.0
 15
0.0
 25
0.0
 35
0.0
146
0.0
 13
0.0
 23
0.0
 33
0.0
 16
1.0
 26
0.0
 36
0.0
 17
0.0
 27
1.0
 37
0.0
 76
0
330
217
345
0
346
0
  0
LAYOUT
  5
29F
102
{ACAD_REACTORS
330
1A
102
}
100
AcDbPlotSettings
  1

  2
none_device
  4
ANSI_A_(11.00_x_8.50_Inches)
  6

 40
0.0
 41
0.0
 42
0.0
 43
0.0
 44
279.4
 45
215.9
 46
0.0
 47
0.0
 48
0.0
 49
0.0
140
0.0
141
0.0
142
1.0
143
1.0
 70
0
 72
0
 73
0
 74
0
  7

 75
0
147
1.0
148
0.0
149
0.0
100
AcDbLayout
  1
Layout1
 70
0
 71
1
 10
0.0
 20
0.0
 11
11.0
 21
8.5
 12
0.0
 22
0.0
 32
0.0
 14
0.0
 24
0.0
 34
0.0
 15
0.0
 25
0.0
 35
0.0
146
0.0
 13
0.0
 23
0.0
 33
0.0
 16
1.0
 26
0.0
 36
0.0
 17
0.0
 27
1.0
 37
0.0
 76
0
330
218
345
0
346
0
  0
ENDSEC
  0
EOF
