999
DXF file: 20-146_Front.dxf
999
Pro/ENGINEER 2023134 by Parametric Technology Corporation
  0
SECTION
  2
HEADER
  9
$ACADVER
  1
AC1032
  9
$DWGCODEPAGE
  3
ANSI_1252
  9
$EXTMAX
 10
11.0
 20
8.5
 30
0.0
  9
$EXTMIN
 10
0.0
 20
0.0
 30
0.0
  9
$LIMMIN
 10
0.0
 20
0.0
  9
$LIMMAX
 10
11.0
 20
8.5
  9
$VIEWCTR
 10
5.5
 20
4.25
  9
$VIEWSIZE
 40
8.5
  9
$CLAYER
  8
0
  9
$LTSCALE
 40
0.605
  9
$CELTYPE
  6
BYLAYER
  9
$DIMSCALE
 40
1.0
  9
$DIMASZ
 40
0.1
  9
$DIMEXO
 40
0.0625
  9
$DIMDLI
 40
0.418
  9
$DIMEXE
 40
0.125
  9
$DIMCEN
 40
0.099
  9
$DIMLFAC
 40
1.0
  9
$DIMBLK
  1
_FILLED
  9
$DIMALT
 70
1
  9
$DIMALTD
 70
2
  9
$DIMALTTD
 70
2
  9
$DIMALTF
 40
25.4
  9
$DIMTXT
 40
0.08
  9
$DIMTOL
 70
1
  9
$DIMLIM
 70
0
  9
$DIMTFAC
 40
1.0
  9
$DIMTP
 40
0.001
  9
$DIMTM
 40
0.001
  9
$DIMGAP
 40
0.09
  9
$DIMDSEP
 70
46
  9
$AUNITS
 70
0
  9
$PDMODE
 70
3
  9
$PDSIZE
 40
0.3125
  9
$HANDSEED
  5
397
  9
$TILEMODE
 70
1
  9
$MEASUREMENT
 70
0
  9
$INSUNITS
 70
1
  0
ENDSEC
  0
SECTION
  2
CLASSES
  0
CLASS
  1
ACDBDICTIONARYWDFLT
  2
AcDbDictionaryWithDefault
  3
AutoCAD 2000
 90
0
 91
1
280
0
281
0
  0
CLASS
  1
ACDBPLACEHOLDER
  2
AcDbPlaceHolder
  3
AutoCAD 2000
 90
0
 91
1
280
0
281
0
  0
CLASS
  1
LAYOUT
  2
AcDbLayout
  3
AutoCAD 2000
 90
0
 91
0
280
0
281
0
  0
ENDSEC
  0
SECTION
  2
TABLES
  0
TABLE
  2
VPORT
  5
8
100
AcDbSymbolTable
 70
2
  0
VPORT
  5
1F4
100
AcDbSymbolTableRecord
100
AcDbViewportTableRecord
  2
*ACTIVE
 70
0
 10
0.0
 20
0.0
 11
1.0
 21
1.0
 12
5.5
 22
4.25
 13
0.0
 23
0.0
 14
1.0
 24
1.0
 15
0.0
 25
0.0
 16
0.0
 26
0.0
 36
1.0
 17
0.0
 27
0.0
 37
0.0
 40
8.5
 41
1.2941176471
 42
50.0
 43
0.0
 44
0.0
 50
0.0
 51
0.0
 71
0
 72
100
 73
1
 74
1
 75
0
 76
0
 77
0
 78
0
  0
ENDTAB
  0
TABLE
  2
LTYPE
  5
5
100
AcDbSymbolTable
 70
6
  0
LTYPE
  5
14
100
AcDbSymbolTableRecord
100
AcDbLinetypeTableRecord
  2
BYBLOCK
 70
0
  3

 72
65
 73
0
 40
0.0
  0
LTYPE
  5
15
100
AcDbSymbolTableRecord
100
AcDbLinetypeTableRecord
  2
BYLAYER
 70
0
  3

 72
65
 73
0
 40
0.0
  0
LTYPE
  5
16
100
AcDbSymbolTableRecord
100
AcDbLinetypeTableRecord
  2
CONTINUOUS
 70
64
  3
Solid line
 72
65
 73
0
 40
0.0
  0
LTYPE
  5
1F5
100
AcDbSymbolTableRecord
100
AcDbLinetypeTableRecord
  2
CENTER
 70
64
  3
____ _ ____ _ ____ _ ____ _ ____ _ ____ _ ____
 72
65
 73
4
 40
0.6
 49
0.375
 74
0
 49
-0.075
 74
0
 49
0.075
 74
0
 49
-0.075
 74
0
  0
LTYPE
  5
1F6
100
AcDbSymbolTableRecord
100
AcDbLinetypeTableRecord
  2
HIDDEN
 70
64
  3
- - - - - - - - - - - - - - - - - - - -
 72
65
 73
2
 40
0.2
 49
0.1
 74
0
 49
-0.1
 74
0
  0
LTYPE
  5
1F7
100
AcDbSymbolTableRecord
100
AcDbLinetypeTableRecord
  2
PHANTOM
 70
64
  3
_____ _ _ _____ _ _ _____ _ _ _____
 72
65
 73
6
 40
0.8
 49
0.45
 74
0
 49
-0.05
 74
0
 49
0.1
 74
0
 49
-0.05
 74
0
 49
0.1
 74
0
 49
-0.05
 74
0
  0
LTYPE
  5
1F8
100
AcDbSymbolTableRecord
100
AcDbLinetypeTableRecord
  2
DOT
 70
64
  3
. . . . . . . . . . . . . . . . . . . .
 72
65
 73
2
 40
0.2
 49
0.1
 74
0
 49
-0.1
 74
0
  0
LTYPE
  5
1F9
100
AcDbSymbolTableRecord
100
AcDbLinetypeTableRecord
  2
DASHED
 70
64
  3
- - - - - - - - - - - - - - - - - - - -
 72
65
 73
2
 40
0.2
 49
0.1
 74
0
 49
-0.1
 74
0
  0
ENDTAB
  0
TABLE
  2
LAYER
  5
2
100
AcDbSymbolTable
 70
36
  0
LAYER
  5
10
100
AcDbSymbolTableRecord
100
AcDbLayerTableRecord
  2
0
 70
0
 62
7
  6
CONTINUOUS
370
-3
390
F
  0
LAYER
  5
1FA
100
AcDbSymbolTableRecord
100
AcDbLayerTableRecord
  2
DEFAULT_1
 70
0
 62
7
  6
CENTER
370
-3
390
F
  0
LAYER
  5
1FB
100
AcDbSymbolTableRecord
100
AcDbLayerTableRecord
  2
DEFAULT_2
 70
0
 62
8
  6
HIDDEN
370
-3
390
F
  0
LAYER
  5
1FC
100
AcDbSymbolTableRecord
100
AcDbLayerTableRecord
  2
DEFAULT_3
 70
0
 62
7
  6
PHANTOM
370
-3
390
F
  0
LAYER
  5
1FD
100
AcDbSymbolTableRecord
100
AcDbLayerTableRecord
  2
DEFAULT_COORDINATE_SYSTEM
 70
0
 62
7
  6
CONTINUOUS
370
-3
390
F
  0
LAYER
  5
1FE
100
AcDbSymbolTableRecord
100
AcDbLayerTableRecord
  2
DEFAULT_DATUM_AXES
 70
0
 62
7
  6
CONTINUOUS
370
-3
390
F
  0
LAYER
  5
1FF
100
AcDbSymbolTableRecord
100
AcDbLayerTableRecord
  2
DEFAULT_DATUM_CURVES
 70
0
 62
7
  6
CONTINUOUS
370
-3
390
F
  0
LAYER
  5
200
100
AcDbSymbolTableRecord
100
AcDbLayerTableRecord
  2
DEFAULT_DATUM_PLANES
 70
0
 62
7
  6
CONTINUOUS
370
-3
390
F
  0
ENDTAB
  0
TABLE
  2
STYLE
  5
3
100
AcDbSymbolTable
 70
1
  0
STYLE
  5
11
100
AcDbSymbolTableRecord
100
AcDbTextStyleTableRecord
  2
STANDARD
 70
0
 40
0.0
 41
0.8
 50
0.0
 71
0
 42
0.2
  3
txt
  4

  0
STYLE
  5
201
100
AcDbSymbolTableRecord
100
AcDbTextStyleTableRecord
  2
TEXTSTYLE_1
 70
0
 40
0.0
 41
0.8
 50
0.0
 71
0
 42
0.2
  3
gdt
  4

  0
ENDTAB
  0
TABLE
  2
VIEW
  5
6
100
AcDbSymbolTable
 70
0
  0
ENDTAB
  0
TABLE
  2
UCS
  5
7
100
AcDbSymbolTable
 70
0
  0
ENDTAB
  0
TABLE
  2
APPID
  5
9
100
AcDbSymbolTable
 70
1
  0
APPID
  5
202
100
AcDbSymbolTableRecord
100
AcDbRegAppTableRecord
  2
ACAD
 70
0
  0
ENDTAB
  0
TABLE
  2
BLOCK_RECORD
  5
1
100
AcDbSymbolTable
 70
0
  0
BLOCK_RECORD
  5
203
100
AcDbSymbolTableRecord
100
AcDbBlockTableRecord
  2
*Model_Space
  0
BLOCK_RECORD
  5
204
100
AcDbSymbolTableRecord
100
AcDbBlockTableRecord
  2
*Paper_Space
  0
BLOCK_RECORD
  5
205
100
AcDbSymbolTableRecord
100
AcDbBlockTableRecord
  2
_FILLED
  0
ENDTAB
  0
TABLE
  2
DIMSTYLE
  5
A
100
AcDbSymbolTable
 70
1
100
AcDbDimStyleTable
 71
0
  0
DIMSTYLE
105
206
100
AcDbSymbolTableRecord
100
AcDbDimStyleTableRecord
  2
STANDARD
 70
0
  3

  4

 40
1.0
 41
0.1
 42
0.0625
 43
0.38
 44
0.125
 45
0.0
 46
0.0
 47
0.001
 48
0.001
140
0.08
141
0.09
142
0.0
143
25.4
144
1.0
145
0.0
146
1.0
147
0.09
 71
1
 72
0
 73
1
 74
1
 75
0
 76
0
 77
0
 78
4
 79
1
170
1
171
2
172
0
173
0
174
0
175
0
176
0
177
0
178
0
270
2
179
3
271
3
272
3
273
2
274
2
275
0
280
0
281
0
282
0
283
1
284
4
285
0
286
0
287
3
288
0
340
11
278
46
341
205
342
205
343
205
344
205
  0
ENDTAB
  0
ENDSEC
  0
SECTION
  2
BLOCKS
  0
BLOCK
  5
20
100
AcDbEntity
  8
0
100
AcDbBlockBegin
  2
*Model_Space
 70
0
 10
0.0
 20
0.0
 30
0.0
  3
*Model_Space
  1

  0
ENDBLK
  5
21
100
AcDbEntity
  8
0
100
AcDbBlockEnd
  0
BLOCK
  5
1C
100
AcDbEntity
  8
0
100
AcDbBlockBegin
  2
*Paper_Space
 70
0
 10
0.0
 20
0.0
 30
0.0
  3
*Paper_Space
  1

  0
ENDBLK
  5
1D
100
AcDbEntity
  8
0
100
AcDbBlockEnd
  0
BLOCK
  5
207
100
AcDbEntity
  8
0
100
AcDbBlockBegin
  2
_FILLED
 70
64
 10
0.0
 20
0.0
  3
_FILLED
  1

  0
SOLID
  5
208
100
AcDbEntity
  8
0
  6
BYBLOCK
 62
0
100
AcDbTrace
 10
0.0
 20
0.0
 11
-1.0
 21
0.2
 12
-1.0
 22
-0.2
 13
-1.0
 23
-0.2
  0
ENDBLK
  5
209
100
AcDbEntity
  8
0
  6
BYBLOCK
 62
0
100
AcDbBlockEnd
  0
ENDSEC
  0
SECTION
  2
ENTITIES
  0
MTEXT
  5
20A
100
AcDbEntity
  8
0
100
AcDbMText
 62
2
  6
CONTINUOUS
  7
STANDARD
 71
2
 72
1
 10
5.5517041552
 20
0.7954370911
 30
0.0
 11
1.0
 21
0.0
 31
0.0
 73
2
 44
0.9
  1
SCALE 1.000
 40
0.08
 41
0.704
  0
LINE
  5
20B
100
AcDbEntity
  8
0
100
AcDbLine
 62
7
  6
CONTINUOUS
 10
0.0
 20
0.0
 11
0.0
 21
8.5
  0
LINE
  5
20C
100
AcDbEntity
  8
0
100
AcDbLine
 62
7
  6
CONTINUOUS
 10
0.0
 20
0.0
 11
11.0
 21
0.0
  0
LINE
  5
20D
100
AcDbEntity
  8
0
100
AcDbLine
 62
7
  6
CONTINUOUS
 10
0.0
 20
8.5
 11
11.0
 21
8.5
  0
LINE
  5
20E
100
AcDbEntity
  8
0
100
AcDbLine
 62
7
  6
CONTINUOUS
 10
11.0
 20
0.0
 11
11.0
 21
8.5
  0
LINE
  5
20F
100
AcDbEntity
  8
0
100
AcDbLine
 62
7
  6
CONTINUOUS
 10
7.1061649039
 20
1.4533182725
 11
7.0671649039
 21
1.4533182725
  0
LINE
  5
210
100
AcDbEntity
  8
0
100
AcDbLine
 62
7
  6
CONTINUOUS
 10
6.3561649039
 20
1.4533182725
 11
6.3171649039
 21
1.4533182725
  0
LINE
  5
211
100
AcDbEntity
  8
0
100
AcDbLine
 62
7
  6
CONTINUOUS
 10
7.1866649039
 20
1.5338182725
 11
7.1061649039
 21
1.5338182725
  0
LINE
  5
212
100
AcDbEntity
  8
0
100
AcDbLine
 62
7
  6
CONTINUOUS
 10
7.0671649039
 20
1.5338182725
 11
6.9866649039
 21
1.5338182725
  0
LINE
  5
213
100
AcDbEntity
  8
0
100
AcDbLine
 62
7
  6
CONTINUOUS
 10
6.4366649039
 20
1.5338182725
 11
6.3561649039
 21
1.5338182725
  0
LINE
  5
214
100
AcDbEntity
  8
0
100
AcDbLine
 62
7
  6
CONTINUOUS
 10
6.3171649039
 20
1.5338182725
 11
6.2366649039
 21
1.5338182725
  0
LINE
  5
215
100
AcDbEntity
  8
0
100
AcDbLine
 62
7
  6
CONTINUOUS
 10
6.2366649039
 20
1.5728182725
 11
6.3171649039
 21
1.5728182725
  0
LINE
  5
216
100
AcDbEntity
  8
0
100
AcDbLine
 62
7
  6
CONTINUOUS
 10
6.3561649039
 20
1.5728182725
 11
6.4366649039
 21
1.5728182725
  0
LINE
  5
217
100
AcDbEntity
  8
0
100
AcDbLine
 62
7
  6
CONTINUOUS
 10
6.9866649039
 20
1.5728182725
 11
7.0671649039
 21
1.5728182725
  0
LINE
  5
218
100
AcDbEntity
  8
0
100
AcDbLine
 62
7
  6
CONTINUOUS
 10
7.1061649039
 20
1.5728182725
 11
7.1866649039
 21
1.5728182725
  0
LINE
  5
219
100
AcDbEntity
  8
0
100
AcDbLine
 62
7
  6
CONTINUOUS
 10
4.6463649767
 20
6.9407270096
 11
4.6221431331
 21
6.9231288103
  0
LINE
  5
21A
100
AcDbEntity
  8
0
100
AcDbLine
 62
7
  6
CONTINUOUS
 10
4.4723704532
 20
6.8143125889
 11
4.4481486097
 21
6.7967143893
  0
LINE
  5
21B
100
AcDbEntity
  8
0
100
AcDbLine
 62
7
  6
CONTINUOUS
 10
4.6895695246
 20
6.9197244895
 11
4.6610950398
 21
6.9104725685
  0
LINE
  5
21C
100
AcDbEntity
  8
0
100
AcDbLine
 62
7
  6
CONTINUOUS
 10
4.485026695
 20
6.8532644955
 11
4.4565522101
 21
6.8440125744
  0
LINE
  5
21D
100
AcDbEntity
  8
0
100
AcDbLine
 62
7
  6
CONTINUOUS
 10
4.5137602832
 20
6.6679442297
 11
4.542234768
 21
6.6771961507
  0
LINE
  5
21E
100
AcDbEntity
  8
0
100
AcDbLine
 62
7
  6
CONTINUOUS
 10
4.7183031128
 20
6.7344042237
 11
4.7467775977
 21
6.7436561448
  0
LINE
  5
21F
100
AcDbEntity
  8
0
100
AcDbLine
 62
7
  6
CONTINUOUS
 10
6.3171649039
 20
1.6533182725
 11
6.3561649039
 21
1.6533182725
  0
LINE
  5
220
100
AcDbEntity
  8
0
100
AcDbLine
 62
7
  6
CONTINUOUS
 10
7.0671649039
 20
1.6533182725
 11
7.1061649039
 21
1.6533182725
  0
LINE
  5
221
100
AcDbEntity
  8
0
100
AcDbLine
 62
7
  6
CONTINUOUS
 10
4.5569648311
 20
6.6469417096
 11
4.5811866747
 21
6.6645399089
  0
LINE
  5
222
100
AcDbEntity
  8
0
100
AcDbLine
 62
7
  6
CONTINUOUS
 10
4.7309593546
 20
6.7733561304
 11
4.7551811981
 21
6.7909543299
  0
LINE
  5
223
100
AcDbEntity
  8
0
100
AcDbLine
 62
7
  6
CONTINUOUS
 10
4.5987848742
 20
6.9473506538
 11
4.5811866747
 21
6.9231288103
  0
LINE
  5
224
100
AcDbEntity
  8
0
100
AcDbLine
 62
7
  6
CONTINUOUS
 10
4.4723704532
 20
6.7733561304
 11
4.4547722539
 21
6.7491342868
  0
LINE
  5
225
100
AcDbEntity
  8
0
100
AcDbLine
 62
7
  6
CONTINUOUS
 10
4.6045449336
 20
6.6403180654
 11
4.6221431331
 21
6.6645399089
  0
LINE
  5
226
100
AcDbEntity
  8
0
100
AcDbLine
 62
7
  6
CONTINUOUS
 10
4.7309593546
 20
6.8143125889
 11
4.7485575539
 21
6.8385344324
  0
LINE
  5
227
100
AcDbEntity
  8
0
100
AcDbLine
 62
7
  6
CONTINUOUS
 10
6.3112637637
 20
2.4874894064
 11
6.3612637637
 21
2.4874894064
  0
LINE
  5
228
100
AcDbEntity
  8
0
100
AcDbLine
 62
7
  6
CONTINUOUS
 10
7.0612637637
 20
2.4874894064
 11
7.1112637637
 21
2.4874894064
  0
LINE
  5
229
100
AcDbEntity
  8
0
100
AcDbLine
 62
7
  6
CONTINUOUS
 10
6.2612637637
 20
2.5374894064
 11
6.3112637637
 21
2.5374894064
  0
LINE
  5
22A
100
AcDbEntity
  8
0
100
AcDbLine
 62
7
  6
CONTINUOUS
 10
6.3612637637
 20
2.5374894064
 11
6.4112637637
 21
2.5374894064
  0
LINE
  5
22B
100
AcDbEntity
  8
0
100
AcDbLine
 62
7
  6
CONTINUOUS
 10
7.0112637637
 20
2.5374894064
 11
7.0612637637
 21
2.5374894064
  0
LINE
  5
22C
100
AcDbEntity
  8
0
100
AcDbLine
 62
7
  6
CONTINUOUS
 10
7.1112637637
 20
2.5374894064
 11
7.1612637637
 21
2.5374894064
  0
LINE
  5
22D
100
AcDbEntity
  8
0
100
AcDbLine
 62
7
  6
CONTINUOUS
 10
4.5514866891
 20
6.9389470534
 11
4.542234768
 21
6.9104725685
  0
LINE
  5
22E
100
AcDbEntity
  8
0
100
AcDbLine
 62
7
  6
CONTINUOUS
 10
4.485026695
 20
6.7344042237
 11
4.475774774
 21
6.7059297389
  0
LINE
  5
22F
100
AcDbEntity
  8
0
100
AcDbLine
 62
7
  6
CONTINUOUS
 10
7.1612637637
 20
2.5874894064
 11
7.1112637637
 21
2.5874894064
  0
LINE
  5
230
100
AcDbEntity
  8
0
100
AcDbLine
 62
7
  6
CONTINUOUS
 10
7.0612637637
 20
2.5874894064
 11
7.0112637637
 21
2.5874894064
  0
LINE
  5
231
100
AcDbEntity
  8
0
100
AcDbLine
 62
7
  6
CONTINUOUS
 10
6.4112637637
 20
2.5874894064
 11
6.3612637637
 21
2.5874894064
  0
LINE
  5
232
100
AcDbEntity
  8
0
100
AcDbLine
 62
7
  6
CONTINUOUS
 10
6.3112637637
 20
2.5874894064
 11
6.2612637637
 21
2.5874894064
  0
LINE
  5
233
100
AcDbEntity
  8
0
100
AcDbLine
 62
7
  6
CONTINUOUS
 10
7.1112637637
 20
2.6374894064
 11
7.0612637637
 21
2.6374894064
  0
LINE
  5
234
100
AcDbEntity
  8
0
100
AcDbLine
 62
7
  6
CONTINUOUS
 10
6.3612637637
 20
2.6374894064
 11
6.3112637637
 21
2.6374894064
  0
LINE
  5
235
100
AcDbEntity
  8
0
100
AcDbLine
 62
7
  6
CONTINUOUS
 10
4.1095389196
 20
6.5930855599
 11
4.1095389196
 21
6.9945831594
  0
LINE
  5
236
100
AcDbEntity
  8
0
100
AcDbLine
 62
7
  6
CONTINUOUS
 10
4.6518431187
 20
6.6487216658
 11
4.6610950398
 21
6.6771961507
  0
LINE
  5
237
100
AcDbEntity
  8
0
100
AcDbLine
 62
7
  6
CONTINUOUS
 10
4.7183031128
 20
6.8532644955
 11
4.7275550338
 21
6.8817389804
  0
LINE
  5
238
100
AcDbEntity
  8
0
100
AcDbLine
 62
7
  6
CONTINUOUS
 10
4.3726343383
 20
4.1420843596
 11
4.3726343383
 21
4.1320843596
  0
LINE
  5
239
100
AcDbEntity
  8
0
100
AcDbLine
 62
7
  6
CONTINUOUS
 10
4.380875487
 20
4.1420843596
 11
4.380875487
 21
4.1320843596
  0
LINE
  5
23A
100
AcDbEntity
  8
0
100
AcDbLine
 62
7
  6
CONTINUOUS
 10
4.4349746884
 20
3.9412519266
 11
4.4337660412
 21
3.9643142879
  0
LINE
  5
23B
100
AcDbEntity
  8
0
100
AcDbLine
 62
7
  6
CONTINUOUS
 10
4.400241582
 20
4.6039990758
 11
4.3990329349
 21
4.6270614371
  0
LINE
  5
23C
100
AcDbEntity
  8
0
100
AcDbLine
 62
7
  6
CONTINUOUS
 10
4.5091002972
 20
6.9163388115
 11
4.5091002972
 21
6.8863989663
  0
LINE
  5
23D
100
AcDbEntity
  8
0
100
AcDbLine
 62
7
  6
CONTINUOUS
 10
4.5091002972
 20
6.701269753
 11
4.5091002972
 21
6.6713299077
  0
LINE
  5
23E
100
AcDbEntity
  8
0
100
AcDbLine
 62
7
  6
CONTINUOUS
 10
4.6016649039
 20
6.2813903623
 11
4.6016649039
 21
6.2943382966
  0
LINE
  5
23F
100
AcDbEntity
  8
0
100
AcDbLine
 62
7
  6
CONTINUOUS
 10
4.3990329349
 20
3.9606072822
 11
4.400241582
 21
3.9836696434
  0
LINE
  5
240
100
AcDbEntity
  8
0
100
AcDbLine
 62
7
  6
CONTINUOUS
 10
4.4337660412
 20
4.6233544314
 11
4.4349746884
 21
4.6464167926
  0
LINE
  5
241
100
AcDbEntity
  8
0
100
AcDbLine
 62
7
  6
CONTINUOUS
 10
4.3653112597
 20
3.9836135433
 11
4.3689239589
 21
4.0064232285
  0
LINE
  5
242
100
AcDbEntity
  8
0
100
AcDbLine
 62
7
  6
CONTINUOUS
 10
4.4691300355
 20
4.639099496
 11
4.4727427347
 21
4.6619091812
  0
LINE
  5
243
100
AcDbEntity
  8
0
100
AcDbLine
 62
7
  6
CONTINUOUS
 10
4.5282517726
 20
4.4229018693
 11
4.5246077522
 21
4.39989443
  0
LINE
  5
244
100
AcDbEntity
  8
0
100
AcDbLine
 62
7
  6
CONTINUOUS
 10
4.4956048335
 20
4.2167772079
 11
4.4919608131
 21
4.1937697686
  0
LINE
  5
245
100
AcDbEntity
  8
0
100
AcDbLine
 62
7
  6
CONTINUOUS
 10
4.3341791245
 20
4.0100186486
 11
4.3401562943
 21
4.03232575
  0
LINE
  5
246
100
AcDbEntity
  8
0
100
AcDbLine
 62
7
  6
CONTINUOUS
 10
4.5059461095
 20
4.6510617636
 11
4.5119232793
 21
4.673368865
  0
LINE
  5
247
100
AcDbEntity
  8
0
100
AcDbLine
 62
7
  6
CONTINUOUS
 10
4.3059776195
 20
4.0395332982
 11
4.3142537728
 21
4.0610934146
  0
LINE
  5
248
100
AcDbEntity
  8
0
100
AcDbLine
 62
7
  6
CONTINUOUS
 10
4.5438108986
 20
4.659110173
 11
4.5520870519
 21
4.6806702894
  0
LINE
  5
249
100
AcDbEntity
  8
0
100
AcDbLine
 62
7
  6
CONTINUOUS
 10
4.2810157262
 20
4.0718341235
 11
4.2915001877
 21
4.0924110378
  0
LINE
  5
24A
100
AcDbEntity
  8
0
100
AcDbLine
 62
7
  6
CONTINUOUS
 10
4.5823095484
 20
4.6631565441
 11
4.5927940099
 21
4.6837334584
  0
LINE
  5
24B
100
AcDbEntity
  8
0
100
AcDbLine
 62
7
  6
CONTINUOUS
 10
4.2595669324
 20
4.1065672298
 11
4.2721448322
 21
4.1259354969
  0
LINE
  5
24C
100
AcDbEntity
  8
0
100
AcDbLine
 62
7
  6
CONTINUOUS
 10
4.6210202594
 20
4.6631565441
 11
4.6335981592
 21
4.6825248113
  0
LINE
  5
24D
100
AcDbEntity
  8
0
100
AcDbLine
 62
7
  6
CONTINUOUS
 10
4.6740524411
 20
3.910611129
 11
4.6595189092
 21
3.9285585462
  0
LINE
  5
24E
100
AcDbEntity
  8
0
100
AcDbLine
 62
7
  6
CONTINUOUS
 10
4.2563997675
 20
4.426369228
 11
4.2418662356
 21
4.4443166452
  0
LINE
  5
24F
100
AcDbEntity
  8
0
100
AcDbLine
 62
7
  6
CONTINUOUS
 10
4.6335981592
 20
3.905143908
 11
4.6210202594
 21
3.9245121751
  0
LINE
  5
250
100
AcDbEntity
  8
0
100
AcDbLine
 62
7
  6
CONTINUOUS
 10
4.2721448322
 20
4.4617332223
 11
4.2595669324
 21
4.4811014894
  0
LINE
  5
251
100
AcDbEntity
  8
0
100
AcDbLine
 62
7
  6
CONTINUOUS
 10
4.5927940099
 20
3.9039352608
 11
4.5823095484
 21
3.9245121751
  0
LINE
  5
252
100
AcDbEntity
  8
0
100
AcDbLine
 62
7
  6
CONTINUOUS
 10
4.2915001877
 20
4.4952576815
 11
4.2810157262
 21
4.5158345957
  0
LINE
  5
253
100
AcDbEntity
  8
0
100
AcDbLine
 62
7
  6
CONTINUOUS
 10
4.4664084543
 20
4.3551010125
 11
4.4769838134
 21
4.3343457017
  0
LINE
  5
254
100
AcDbEntity
  8
0
100
AcDbLine
 62
7
  6
CONTINUOUS
 10
4.5611535618
 20
4.1691532691
 11
4.5717289209
 21
4.1483979583
  0
LINE
  5
255
100
AcDbEntity
  8
0
100
AcDbLine
 62
7
  6
CONTINUOUS
 10
4.5520870519
 20
3.9069984298
 11
4.5438108986
 21
3.9285585462
  0
LINE
  5
256
100
AcDbEntity
  8
0
100
AcDbLine
 62
7
  6
CONTINUOUS
 10
4.3142537728
 20
4.5265753046
 11
4.3059776195
 21
4.548135421
  0
LINE
  5
257
100
AcDbEntity
  8
0
100
AcDbLine
 62
7
  6
CONTINUOUS
 10
4.5119232793
 20
3.9142998542
 11
4.5059461095
 21
3.9366069556
  0
LINE
  5
258
100
AcDbEntity
  8
0
100
AcDbLine
 62
7
  6
CONTINUOUS
 10
4.3401562943
 20
4.5553429692
 11
4.3341791245
 21
4.5776500706
  0
LINE
  5
259
100
AcDbEntity
  8
0
100
AcDbLine
 62
7
  6
CONTINUOUS
 10
4.4727427347
 20
3.925759538
 11
4.4691300355
 21
3.9485692232
  0
LINE
  5
25A
100
AcDbEntity
  8
0
100
AcDbLine
 62
7
  6
CONTINUOUS
 10
4.3689239589
 20
4.5812454908
 11
4.3653112597
 21
4.6040551759
  0
LINE
  5
25B
100
AcDbEntity
  8
0
100
AcDbLine
 62
7
  6
CONTINUOUS
 10
4.4919608131
 20
4.3938989506
 11
4.4956048335
 21
4.3708915113
  0
LINE
  5
25C
100
AcDbEntity
  8
0
100
AcDbLine
 62
7
  6
CONTINUOUS
 10
4.5246077522
 20
4.1877742892
 11
4.5282517726
 21
4.1647668499
  0
LINE
  5
25D
100
AcDbEntity
  8
0
100
AcDbLine
 62
7
  6
CONTINUOUS
 10
4.7683551194
 20
4.6464167926
 11
4.7695637666
 21
4.6233544314
  0
LINE
  5
25E
100
AcDbEntity
  8
0
100
AcDbLine
 62
7
  6
CONTINUOUS
 10
4.8030882258
 20
3.9836696434
 11
4.8042968729
 21
3.9606072822
  0
LINE
  5
25F
100
AcDbEntity
  8
0
100
AcDbLine
 62
7
  6
CONTINUOUS
 10
4.6942295106
 20
6.6713299077
 11
4.6942295106
 21
6.701269753
  0
LINE
  5
260
100
AcDbEntity
  8
0
100
AcDbLine
 62
7
  6
CONTINUOUS
 10
4.6942295106
 20
6.8863989663
 11
4.6942295106
 21
6.9163388115
  0
LINE
  5
261
100
AcDbEntity
  8
0
100
AcDbLine
 62
7
  6
CONTINUOUS
 10
4.8224543208
 20
4.1420843596
 11
4.8224543208
 21
4.1320843596
  0
LINE
  5
262
100
AcDbEntity
  8
0
100
AcDbLine
 62
7
  6
CONTINUOUS
 10
4.8306954695
 20
4.1420843596
 11
4.8306954695
 21
4.1320843596
  0
LINE
  5
263
100
AcDbEntity
  8
0
100
AcDbLine
 62
7
  6
CONTINUOUS
 10
4.8042968729
 20
4.6270614371
 11
4.8030882258
 21
4.6039990758
  0
LINE
  5
264
100
AcDbEntity
  8
0
100
AcDbLine
 62
7
  6
CONTINUOUS
 10
4.7695637666
 20
3.9643142879
 11
4.7683551194
 21
3.9412519266
  0
LINE
  5
265
100
AcDbEntity
  8
0
100
AcDbLine
 62
7
  6
CONTINUOUS
 10
4.6750780352
 20
4.1647668499
 11
4.6787220556
 21
4.1877742892
  0
LINE
  5
266
100
AcDbEntity
  8
0
100
AcDbLine
 62
7
  6
CONTINUOUS
 10
4.7077249743
 20
4.3708915113
 11
4.7113689947
 21
4.3938989506
  0
LINE
  5
267
100
AcDbEntity
  8
0
100
AcDbLine
 62
7
  6
CONTINUOUS
 10
4.8380185481
 20
4.6040551759
 11
4.8344058489
 21
4.5812454908
  0
LINE
  5
268
100
AcDbEntity
  8
0
100
AcDbLine
 62
7
  6
CONTINUOUS
 10
4.7341997723
 20
3.9485692232
 11
4.7305870731
 21
3.925759538
  0
LINE
  5
269
100
AcDbEntity
  8
0
100
AcDbLine
 62
7
  6
CONTINUOUS
 10
4.8691506833
 20
4.5776500706
 11
4.8631735135
 21
4.5553429692
  0
LINE
  5
26A
100
AcDbEntity
  8
0
100
AcDbLine
 62
7
  6
CONTINUOUS
 10
4.6973836983
 20
3.9366069556
 11
4.6914065285
 21
3.9142998542
  0
LINE
  5
26B
100
AcDbEntity
  8
0
100
AcDbLine
 62
7
  6
CONTINUOUS
 10
4.701578097
 20
4.4962705627
 11
4.6971522635
 21
4.4873032891
  0
LINE
  5
26C
100
AcDbEntity
  8
0
100
AcDbLine
 62
7
  6
CONTINUOUS
 10
4.5717289209
 20
4.4392707609
 11
4.5611535618
 21
4.4185154501
  0
LINE
  5
26D
100
AcDbEntity
  8
0
100
AcDbLine
 62
7
  6
CONTINUOUS
 10
4.4769838134
 20
4.2533230176
 11
4.4664084543
 21
4.2325677067
  0
LINE
  5
26E
100
AcDbEntity
  8
0
100
AcDbLine
 62
7
  6
CONTINUOUS
 10
4.6316008869
 20
4.1483979583
 11
4.642176246
 21
4.1691532691
  0
LINE
  5
26F
100
AcDbEntity
  8
0
100
AcDbLine
 62
7
  6
CONTINUOUS
 10
4.7263459944
 20
4.3343457017
 11
4.7369213535
 21
4.3551010125
  0
LINE
  5
270
100
AcDbEntity
  8
0
100
AcDbLine
 62
7
  6
CONTINUOUS
 10
4.3936566011
 20
4.149233046
 11
4.4270318684
 21
4.2035644766
  0
LINE
  5
271
100
AcDbEntity
  8
0
100
AcDbLine
 62
7
  6
CONTINUOUS
 10
4.4021773437
 20
4.143998837
 11
4.4325086689
 21
4.1933750494
  0
LINE
  5
272
100
AcDbEntity
  8
0
100
AcDbLine
 62
7
  6
CONTINUOUS
 10
4.2418662356
 20
4.143352074
 11
4.2563997675
 21
4.1612994912
  0
LINE
  5
273
100
AcDbEntity
  8
0
100
AcDbLine
 62
7
  6
CONTINUOUS
 10
4.6595189092
 20
4.659110173
 11
4.6740524411
 21
4.6770575902
  0
LINE
  5
274
100
AcDbEntity
  8
0
100
AcDbLine
 62
7
  6
CONTINUOUS
 10
4.2281075683
 20
4.1817856336
 11
4.2444374999
 21
4.1981155652
  0
LINE
  5
275
100
AcDbEntity
  8
0
100
AcDbLine
 62
7
  6
CONTINUOUS
 10
4.6973836983
 20
4.6510617636
 11
4.7137136299
 21
4.6673916952
  0
LINE
  5
276
100
AcDbEntity
  8
0
100
AcDbLine
 62
7
  6
CONTINUOUS
 10
4.6181364118
 20
4.4414033243
 11
4.6016649039
 21
4.4249318163
  0
LINE
  5
277
100
AcDbEntity
  8
0
100
AcDbLine
 62
7
  6
CONTINUOUS
 10
4.4705674472
 20
4.2938343596
 11
4.4540959392
 21
4.2773628517
  0
LINE
  5
278
100
AcDbEntity
  8
0
100
AcDbLine
 62
7
  6
CONTINUOUS
 10
4.2184416733
 20
4.2214468225
 11
4.2363890905
 21
4.2359803543
  0
LINE
  5
279
100
AcDbEntity
  8
0
100
AcDbLine
 62
7
  6
CONTINUOUS
 10
4.7341997723
 20
4.639099496
 11
4.7521471895
 21
4.6536330279
  0
LINE
  5
27A
100
AcDbEntity
  8
0
100
AcDbLine
 62
7
  6
CONTINUOUS
 10
4.9368525379
 20
3.7033343596
 11
4.2664772699
 21
3.7033343596
  0
LINE
  5
27B
100
AcDbEntity
  8
0
100
AcDbLine
 62
7
  6
CONTINUOUS
 10
4.82366514
 20
3.9731851819
 11
4.8030882258
 21
3.9836696434
  0
LINE
  5
27C
100
AcDbEntity
  8
0
100
AcDbLine
 62
7
  6
CONTINUOUS
 10
4.2323427194
 20
4.2744790041
 11
4.2117658051
 21
4.2849634656
  0
LINE
  5
27D
100
AcDbEntity
  8
0
100
AcDbLine
 62
7
  6
CONTINUOUS
 10
4.3936566011
 20
4.149233046
 11
4.4021773437
 21
4.143998837
  0
LINE
  5
27E
100
AcDbEntity
  8
0
100
AcDbLine
 62
7
  6
CONTINUOUS
 10
4.7889320337
 20
3.9517363881
 11
4.7695637666
 21
3.9643142879
  0
LINE
  5
27F
100
AcDbEntity
  8
0
100
AcDbLine
 62
7
  6
CONTINUOUS
 10
4.2323427194
 20
4.3131897151
 11
4.2129744522
 21
4.3257676149
  0
LINE
  5
280
100
AcDbEntity
  8
0
100
AcDbLine
 62
7
  6
CONTINUOUS
 10
4.7521471895
 20
3.9340356913
 11
4.7341997723
 21
3.9485692232
  0
LINE
  5
281
100
AcDbEntity
  8
0
100
AcDbLine
 62
7
  6
CONTINUOUS
 10
4.2363890905
 20
4.3516883649
 11
4.2184416733
 21
4.3662218968
  0
LINE
  5
282
100
AcDbEntity
  8
0
100
AcDbLine
 62
7
  6
CONTINUOUS
 10
4.7137136299
 20
3.920277024
 11
4.6973836983
 21
3.9366069556
  0
LINE
  5
283
100
AcDbEntity
  8
0
100
AcDbLine
 62
7
  6
CONTINUOUS
 10
4.2444374999
 20
4.389553154
 11
4.2281075683
 21
4.4058830856
  0
LINE
  5
284
100
AcDbEntity
  8
0
100
AcDbLine
 62
7
  6
CONTINUOUS
 10
4.4540959392
 20
4.3103058675
 11
4.4705674472
 21
4.2938343596
  0
LINE
  5
285
100
AcDbEntity
  8
0
100
AcDbLine
 62
7
  6
CONTINUOUS
 10
4.6016649039
 20
4.1627369029
 11
4.6181364118
 21
4.1462653949
  0
LINE
  5
286
100
AcDbEntity
  8
0
100
AcDbLine
 62
7
  6
CONTINUOUS
 10
4.7708211389
 20
4.1933750494
 11
4.8011524641
 21
4.143998837
  0
LINE
  5
287
100
AcDbEntity
  8
0
100
AcDbLine
 62
7
  6
CONTINUOUS
 10
4.7762979394
 20
4.2035644766
 11
4.8096732068
 21
4.149233046
  0
LINE
  5
288
100
AcDbEntity
  8
0
100
AcDbLine
 62
7
  6
CONTINUOUS
 10
4.7369213535
 20
4.2325677067
 11
4.7263459944
 21
4.2533230176
  0
LINE
  5
289
100
AcDbEntity
  8
0
100
AcDbLine
 62
7
  6
CONTINUOUS
 10
4.642176246
 20
4.4185154501
 11
4.6316008869
 21
4.4392707609
  0
LINE
  5
28A
100
AcDbEntity
  8
0
100
AcDbLine
 62
7
  6
CONTINUOUS
 10
4.5017517108
 20
4.4962705627
 11
4.5061775443
 21
4.4873032891
  0
LINE
  5
28B
100
AcDbEntity
  8
0
100
AcDbLine
 62
7
  6
CONTINUOUS
 10
4.6512427559
 20
4.6806702894
 11
4.6595189092
 21
4.659110173
  0
LINE
  5
28C
100
AcDbEntity
  8
0
100
AcDbLine
 62
7
  6
CONTINUOUS
 10
4.889076035
 20
4.0610934146
 11
4.8973521883
 21
4.0395332982
  0
LINE
  5
28D
100
AcDbEntity
  8
0
100
AcDbLine
 62
7
  6
CONTINUOUS
 10
4.6914065285
 20
4.673368865
 11
4.6973836983
 21
4.6510617636
  0
LINE
  5
28E
100
AcDbEntity
  8
0
100
AcDbLine
 62
7
  6
CONTINUOUS
 10
4.8631735135
 20
4.03232575
 11
4.8691506833
 21
4.0100186486
  0
LINE
  5
28F
100
AcDbEntity
  8
0
100
AcDbLine
 62
7
  6
CONTINUOUS
 10
4.7113689947
 20
4.1937697686
 11
4.7077249743
 21
4.2167772079
  0
LINE
  5
290
100
AcDbEntity
  8
0
100
AcDbLine
 62
7
  6
CONTINUOUS
 10
4.6787220556
 20
4.39989443
 11
4.6750780352
 21
4.4229018693
  0
LINE
  5
291
100
AcDbEntity
  8
0
100
AcDbLine
 62
7
  6
CONTINUOUS
 10
4.7305870731
 20
4.6619091812
 11
4.7341997723
 21
4.639099496
  0
LINE
  5
292
100
AcDbEntity
  8
0
100
AcDbLine
 62
7
  6
CONTINUOUS
 10
4.8344058489
 20
4.0064232285
 11
4.8380185481
 21
3.9836135433
  0
LINE
  5
293
100
AcDbEntity
  8
0
100
AcDbLine
 62
7
  6
CONTINUOUS
 10
4.8973521883
 20
4.548135421
 11
4.889076035
 21
4.5265753046
  0
LINE
  5
294
100
AcDbEntity
  8
0
100
AcDbLine
 62
7
  6
CONTINUOUS
 10
4.6595189092
 20
3.9285585462
 11
4.6512427559
 21
3.9069984298
  0
LINE
  5
295
100
AcDbEntity
  8
0
100
AcDbLine
 62
7
  6
CONTINUOUS
 10
4.9223140816
 20
4.5158345957
 11
4.9118296201
 21
4.4952576815
  0
LINE
  5
296
100
AcDbEntity
  8
0
100
AcDbLine
 62
7
  6
CONTINUOUS
 10
4.6210202594
 20
3.9245121751
 11
4.6105357979
 21
3.9039352608
  0
LINE
  5
297
100
AcDbEntity
  8
0
100
AcDbLine
 62
7
  6
CONTINUOUS
 10
4.9437628754
 20
4.4811014894
 11
4.9311849756
 21
4.4617332223
  0
LINE
  5
298
100
AcDbEntity
  8
0
100
AcDbLine
 62
7
  6
CONTINUOUS
 10
4.5823095484
 20
3.9245121751
 11
4.5697316486
 21
3.905143908
  0
LINE
  5
299
100
AcDbEntity
  8
0
100
AcDbLine
 62
7
  6
CONTINUOUS
 10
4.9614635722
 20
4.4443166452
 11
4.9469300403
 21
4.426369228
  0
LINE
  5
29A
100
AcDbEntity
  8
0
100
AcDbLine
 62
7
  6
CONTINUOUS
 10
4.5438108986
 20
3.9285585462
 11
4.5292773667
 21
3.910611129
  0
LINE
  5
29B
100
AcDbEntity
  8
0
100
AcDbLine
 62
7
  6
CONTINUOUS
 10
4.585193396
 20
4.1462653949
 11
4.6016649039
 21
4.1627369029
  0
LINE
  5
29C
100
AcDbEntity
  8
0
100
AcDbLine
 62
7
  6
CONTINUOUS
 10
4.7327623606
 20
4.2938343596
 11
4.7492338686
 21
4.3103058675
  0
LINE
  5
29D
100
AcDbEntity
  8
0
100
AcDbLine
 62
7
  6
CONTINUOUS
 10
4.2129744522
 20
4.2619011043
 11
4.2323427194
 21
4.2744790041
  0
LINE
  5
29E
100
AcDbEntity
  8
0
100
AcDbLine
 62
7
  6
CONTINUOUS
 10
4.7695637666
 20
4.6233544314
 11
4.7889320337
 21
4.6359323311
  0
LINE
  5
29F
100
AcDbEntity
  8
0
100
AcDbLine
 62
7
  6
CONTINUOUS
 10
4.2117658051
 20
4.3027052537
 11
4.2323427194
 21
4.3131897151
  0
LINE
  5
2A0
100
AcDbEntity
  8
0
100
AcDbLine
 62
7
  6
CONTINUOUS
 10
4.8030882258
 20
4.6039990758
 11
4.82366514
 21
4.6144835373
  0
LINE
  5
2A1
100
AcDbEntity
  8
0
100
AcDbLine
 62
7
  6
CONTINUOUS
 10
4.6629315568
 20
4.4290908092
 11
4.642176246
 21
4.4185154501
  0
LINE
  5
2A2
100
AcDbEntity
  8
0
100
AcDbLine
 62
7
  6
CONTINUOUS
 10
4.4769838134
 20
4.3343457017
 11
4.4562285026
 21
4.3237703426
  0
LINE
  5
2A3
100
AcDbEntity
  8
0
100
AcDbLine
 62
7
  6
CONTINUOUS
 10
4.2148289741
 20
4.3434122116
 11
4.2363890905
 21
4.3516883649
  0
LINE
  5
2A4
100
AcDbEntity
  8
0
100
AcDbLine
 62
7
  6
CONTINUOUS
 10
4.8344058489
 20
4.5812454908
 11
4.8559659653
 21
4.589521644
  0
LINE
  5
2A5
100
AcDbEntity
  8
0
100
AcDbLine
 62
7
  6
CONTINUOUS
 10
4.8854806149
 20
4.0263485802
 11
4.8631735135
 21
4.03232575
  0
LINE
  5
2A6
100
AcDbEntity
  8
0
100
AcDbLine
 62
7
  6
CONTINUOUS
 10
4.2444374999
 20
4.1981155652
 11
4.2221303985
 21
4.204092735
  0
LINE
  5
2A7
100
AcDbEntity
  8
0
100
AcDbLine
 62
7
  6
CONTINUOUS
 10
4.8559659653
 20
3.9981470752
 11
4.8344058489
 21
4.0064232285
  0
LINE
  5
2A8
100
AcDbEntity
  8
0
100
AcDbLine
 62
7
  6
CONTINUOUS
 10
4.2363890905
 20
4.2359803543
 11
4.2148289741
 21
4.2442565076
  0
LINE
  5
2A9
100
AcDbEntity
  8
0
100
AcDbLine
 62
7
  6
CONTINUOUS
 10
4.4562285026
 20
4.2638983766
 11
4.4769838134
 21
4.2533230176
  0
LINE
  5
2AA
100
AcDbEntity
  8
0
100
AcDbLine
 62
7
  6
CONTINUOUS
 10
4.642176246
 20
4.1691532691
 11
4.6629315568
 21
4.15857791
  0
LINE
  5
2AB
100
AcDbEntity
  8
0
100
AcDbLine
 62
7
  6
CONTINUOUS
 10
4.8435744142
 20
4.1493945752
 11
4.8521603773
 21
4.1442680522
  0
LINE
  5
2AC
100
AcDbEntity
  8
0
100
AcDbLine
 62
7
  6
CONTINUOUS
 10
4.4511826183
 20
4.6536330279
 11
4.4691300355
 21
4.639099496
  0
LINE
  5
2AD
100
AcDbEntity
  8
0
100
AcDbLine
 62
7
  6
CONTINUOUS
 10
4.9669407173
 20
4.2359803543
 11
4.9848881345
 21
4.2214468225
  0
LINE
  5
2AE
100
AcDbEntity
  8
0
100
AcDbLine
 62
7
  6
CONTINUOUS
 10
4.7492338686
 20
4.2773628517
 11
4.7327623606
 21
4.2938343596
  0
LINE
  5
2AF
100
AcDbEntity
  8
0
100
AcDbLine
 62
7
  6
CONTINUOUS
 10
4.6016649039
 20
4.4249318163
 11
4.585193396
 21
4.4414033243
  0
LINE
  5
2B0
100
AcDbEntity
  8
0
100
AcDbLine
 62
7
  6
CONTINUOUS
 10
4.4896161779
 20
4.6673916952
 11
4.5059461095
 21
4.6510617636
  0
LINE
  5
2B1
100
AcDbEntity
  8
0
100
AcDbLine
 62
7
  6
CONTINUOUS
 10
4.9588923079
 20
4.1981155652
 11
4.9752222395
 21
4.1817856336
  0
LINE
  5
2B2
100
AcDbEntity
  8
0
100
AcDbLine
 62
7
  6
CONTINUOUS
 10
4.5292773667
 20
4.6770575902
 11
4.5438108986
 21
4.659110173
  0
LINE
  5
2B3
100
AcDbEntity
  8
0
100
AcDbLine
 62
7
  6
CONTINUOUS
 10
4.9469300403
 20
4.1612994912
 11
4.9614635722
 21
4.143352074
  0
LINE
  5
2B4
100
AcDbEntity
  8
0
100
AcDbLine
 62
7
  6
CONTINUOUS
 10
4.5697316486
 20
4.6825248113
 11
4.5823095484
 21
4.6631565441
  0
LINE
  5
2B5
100
AcDbEntity
  8
0
100
AcDbLine
 62
7
  6
CONTINUOUS
 10
4.9311849756
 20
4.1259354969
 11
4.9437628754
 21
4.1065672298
  0
LINE
  5
2B6
100
AcDbEntity
  8
0
100
AcDbLine
 62
7
  6
CONTINUOUS
 10
4.6105357979
 20
4.6837334584
 11
4.6210202594
 21
4.6631565441
  0
LINE
  5
2B7
100
AcDbEntity
  8
0
100
AcDbLine
 62
7
  6
CONTINUOUS
 10
4.9118296201
 20
4.0924110378
 11
4.9223140816
 21
4.0718341235
  0
LINE
  5
2B8
100
AcDbEntity
  8
0
100
AcDbLine
 62
7
  6
CONTINUOUS
 10
5.0937908882
 20
6.5930855599
 11
5.0937908882
 21
6.9945831594
  0
LINE
  5
2B9
100
AcDbEntity
  8
0
100
AcDbLine
 62
7
  6
CONTINUOUS
 10
4.9752222395
 20
4.4058830856
 11
4.9588923079
 21
4.389553154
  0
LINE
  5
2BA
100
AcDbEntity
  8
0
100
AcDbLine
 62
7
  6
CONTINUOUS
 10
4.5059461095
 20
3.9366069556
 11
4.4896161779
 21
3.920277024
  0
LINE
  5
2BB
100
AcDbEntity
  8
0
100
AcDbLine
 62
7
  6
CONTINUOUS
 10
4.9848881345
 20
4.3662218968
 11
4.9669407173
 21
4.3516883649
  0
LINE
  5
2BC
100
AcDbEntity
  8
0
100
AcDbLine
 62
7
  6
CONTINUOUS
 10
4.4691300355
 20
3.9485692232
 11
4.4511826183
 21
3.9340356913
  0
LINE
  5
2BD
100
AcDbEntity
  8
0
100
AcDbLine
 62
7
  6
CONTINUOUS
 10
4.9903553556
 20
4.3257676149
 11
4.9709870884
 21
4.3131897151
  0
LINE
  5
2BE
100
AcDbEntity
  8
0
100
AcDbLine
 62
7
  6
CONTINUOUS
 10
4.4337660412
 20
3.9643142879
 11
4.4143977741
 21
3.9517363881
  0
LINE
  5
2BF
100
AcDbEntity
  8
0
100
AcDbLine
 62
7
  6
CONTINUOUS
 10
4.3597553936
 20
4.1493945752
 11
4.3511694305
 21
4.1442680522
  0
LINE
  5
2C0
100
AcDbEntity
  8
0
100
AcDbLine
 62
7
  6
CONTINUOUS
 10
4.540398251
 20
4.15857791
 11
4.5611535618
 21
4.1691532691
  0
LINE
  5
2C1
100
AcDbEntity
  8
0
100
AcDbLine
 62
7
  6
CONTINUOUS
 10
4.7263459944
 20
4.2533230176
 11
4.7471013052
 21
4.2638983766
  0
LINE
  5
2C2
100
AcDbEntity
  8
0
100
AcDbLine
 62
7
  6
CONTINUOUS
 10
4.9542473369
 20
4.1271441441
 11
4.9311849756
 21
4.1259354969
  0
LINE
  5
2C3
100
AcDbEntity
  8
0
100
AcDbLine
 62
7
  6
CONTINUOUS
 10
4.2915001877
 20
4.0924110378
 11
4.2684378265
 21
4.0912023906
  0
LINE
  5
2C4
100
AcDbEntity
  8
0
100
AcDbLine
 62
7
  6
CONTINUOUS
 10
4.3726343383
 20
4.1320843596
 11
4.380875487
 21
4.1320843596
  0
LINE
  5
2C5
100
AcDbEntity
  8
0
100
AcDbLine
 62
7
  6
CONTINUOUS
 10
4.8224543208
 20
4.1320843596
 11
4.8306954695
 21
4.1320843596
  0
LINE
  5
2C6
100
AcDbEntity
  8
0
100
AcDbLine
 62
7
  6
CONTINUOUS
 10
4.3726343383
 20
4.1420843596
 11
4.380875487
 21
4.1420843596
  0
LINE
  5
2C7
100
AcDbEntity
  8
0
100
AcDbLine
 62
7
  6
CONTINUOUS
 10
4.8224543208
 20
4.1420843596
 11
4.8306954695
 21
4.1420843596
  0
LINE
  5
2C8
100
AcDbEntity
  8
0
100
AcDbLine
 62
7
  6
CONTINUOUS
 10
4.9348919813
 20
4.0912023906
 11
4.9118296201
 21
4.0924110378
  0
LINE
  5
2C9
100
AcDbEntity
  8
0
100
AcDbLine
 62
7
  6
CONTINUOUS
 10
4.2721448322
 20
4.1259354969
 11
4.2490824709
 21
4.1271441441
  0
LINE
  5
2CA
100
AcDbEntity
  8
0
100
AcDbLine
 62
7
  6
CONTINUOUS
 10
4.9118857202
 20
4.0574807154
 11
4.889076035
 21
4.0610934146
  0
LINE
  5
2CB
100
AcDbEntity
  8
0
100
AcDbLine
 62
7
  6
CONTINUOUS
 10
4.2563997675
 20
4.1612994912
 11
4.2335900823
 21
4.1649121904
  0
LINE
  5
2CC
100
AcDbEntity
  8
0
100
AcDbLine
 62
7
  6
CONTINUOUS
 10
4.4725973942
 20
4.2204212283
 11
4.4956048335
 21
4.2167772079
  0
LINE
  5
2CD
100
AcDbEntity
  8
0
100
AcDbLine
 62
7
  6
CONTINUOUS
 10
4.6787220556
 20
4.1877742892
 11
4.7017294949
 21
4.1841302688
  0
LINE
  5
2CE
100
AcDbEntity
  8
0
100
AcDbLine
 62
7
  6
CONTINUOUS
 10
4.3473638425
 20
4.589521644
 11
4.3689239589
 21
4.5812454908
  0
LINE
  5
2CF
100
AcDbEntity
  8
0
100
AcDbLine
 62
7
  6
CONTINUOUS
 10
4.9669407173
 20
4.3516883649
 11
4.9885008337
 21
4.3434122116
  0
LINE
  5
2D0
100
AcDbEntity
  8
0
100
AcDbLine
 62
7
  6
CONTINUOUS
 10
4.7471013052
 20
4.3237703426
 11
4.7263459944
 21
4.3343457017
  0
LINE
  5
2D1
100
AcDbEntity
  8
0
100
AcDbLine
 62
7
  6
CONTINUOUS
 10
4.5611535618
 20
4.4185154501
 11
4.540398251
 21
4.4290908092
  0
LINE
  5
2D2
100
AcDbEntity
  8
0
100
AcDbLine
 62
7
  6
CONTINUOUS
 10
4.3796646678
 20
4.6144835373
 11
4.400241582
 21
4.6039990758
  0
LINE
  5
2D3
100
AcDbEntity
  8
0
100
AcDbLine
 62
7
  6
CONTINUOUS
 10
4.9709870884
 20
4.3131897151
 11
4.9915640027
 21
4.3027052537
  0
LINE
  5
2D4
100
AcDbEntity
  8
0
100
AcDbLine
 62
7
  6
CONTINUOUS
 10
4.4143977741
 20
4.6359323311
 11
4.4337660412
 21
4.6233544314
  0
LINE
  5
2D5
100
AcDbEntity
  8
0
100
AcDbLine
 62
7
  6
CONTINUOUS
 10
4.9709870884
 20
4.2744790041
 11
4.9903553556
 21
4.2619011043
  0
LINE
  5
2D6
100
AcDbEntity
  8
0
100
AcDbLine
 62
7
  6
CONTINUOUS
 10
4.475774774
 20
6.8817389804
 11
4.485026695
 21
6.8532644955
  0
LINE
  5
2D7
100
AcDbEntity
  8
0
100
AcDbLine
 62
7
  6
CONTINUOUS
 10
4.542234768
 20
6.6771961507
 11
4.5514866891
 21
6.6487216658
  0
LINE
  5
2D8
100
AcDbEntity
  8
0
100
AcDbLine
 62
7
  6
CONTINUOUS
 10
4.8096732068
 20
4.149233046
 11
4.8011524641
 21
4.143998837
  0
LINE
  5
2D9
100
AcDbEntity
  8
0
100
AcDbLine
 62
7
  6
CONTINUOUS
 10
4.9915640027
 20
4.2849634656
 11
4.9709870884
 21
4.2744790041
  0
LINE
  5
2DA
100
AcDbEntity
  8
0
100
AcDbLine
 62
7
  6
CONTINUOUS
 10
4.400241582
 20
3.9836696434
 11
4.3796646678
 21
3.9731851819
  0
LINE
  5
2DB
100
AcDbEntity
  8
0
100
AcDbLine
 62
7
  6
CONTINUOUS
 10
4.9885008337
 20
4.2442565076
 11
4.9669407173
 21
4.2359803543
  0
LINE
  5
2DC
100
AcDbEntity
  8
0
100
AcDbLine
 62
7
  6
CONTINUOUS
 10
4.3689239589
 20
4.0064232285
 11
4.3473638425
 21
3.9981470752
  0
LINE
  5
2DD
100
AcDbEntity
  8
0
100
AcDbLine
 62
7
  6
CONTINUOUS
 10
4.9811994093
 20
4.204092735
 11
4.9588923079
 21
4.1981155652
  0
LINE
  5
2DE
100
AcDbEntity
  8
0
100
AcDbLine
 62
7
  6
CONTINUOUS
 10
4.3401562943
 20
4.03232575
 11
4.3178491929
 21
4.0263485802
  0
LINE
  5
2DF
100
AcDbEntity
  8
0
100
AcDbLine
 62
7
  6
CONTINUOUS
 10
4.9697397255
 20
4.1649121904
 11
4.9469300403
 21
4.1612994912
  0
LINE
  5
2E0
100
AcDbEntity
  8
0
100
AcDbLine
 62
7
  6
CONTINUOUS
 10
4.3142537728
 20
4.0610934146
 11
4.2914440876
 21
4.0574807154
  0
LINE
  5
2E1
100
AcDbEntity
  8
0
100
AcDbLine
 62
7
  6
CONTINUOUS
 10
4.5016003129
 20
4.1841302688
 11
4.5246077522
 21
4.1877742892
  0
LINE
  5
2E2
100
AcDbEntity
  8
0
100
AcDbLine
 62
7
  6
CONTINUOUS
 10
4.7077249743
 20
4.2167772079
 11
4.7307324136
 21
4.2204212283
  0
LINE
  5
2E3
100
AcDbEntity
  8
0
100
AcDbLine
 62
7
  6
CONTINUOUS
 10
4.3778621722
 20
4.3234215156
 11
4.3877759145
 21
4.3221108996
  0
LINE
  5
2E4
100
AcDbEntity
  8
0
100
AcDbLine
 62
7
  6
CONTINUOUS
 10
4.7307324136
 20
4.3672474909
 11
4.7077249743
 21
4.3708915113
  0
LINE
  5
2E5
100
AcDbEntity
  8
0
100
AcDbLine
 62
7
  6
CONTINUOUS
 10
4.5246077522
 20
4.39989443
 11
4.5016003129
 21
4.4035384504
  0
LINE
  5
2E6
100
AcDbEntity
  8
0
100
AcDbLine
 62
7
  6
CONTINUOUS
 10
4.2914440876
 20
4.5301880038
 11
4.3142537728
 21
4.5265753046
  0
LINE
  5
2E7
100
AcDbEntity
  8
0
100
AcDbLine
 62
7
  6
CONTINUOUS
 10
4.9469300403
 20
4.426369228
 11
4.9697397255
 21
4.4227565288
  0
LINE
  5
2E8
100
AcDbEntity
  8
0
100
AcDbLine
 62
7
  6
CONTINUOUS
 10
4.3178491929
 20
4.561320139
 11
4.3401562943
 21
4.5553429692
  0
LINE
  5
2E9
100
AcDbEntity
  8
0
100
AcDbLine
 62
7
  6
CONTINUOUS
 10
4.9588923079
 20
4.389553154
 11
4.9811994093
 21
4.3835759842
  0
LINE
  5
2EA
100
AcDbEntity
  8
0
100
AcDbLine
 62
7
  6
CONTINUOUS
 10
4.7275550338
 20
6.7059297389
 11
4.7183031128
 21
6.7344042237
  0
LINE
  5
2EB
100
AcDbEntity
  8
0
100
AcDbLine
 62
7
  6
CONTINUOUS
 10
4.6610950398
 20
6.9104725685
 11
4.6518431187
 21
6.9389470534
  0
LINE
  5
2EC
100
AcDbEntity
  8
0
100
AcDbLine
 62
7
  6
CONTINUOUS
 10
4.7017294949
 20
4.4035384504
 11
4.6787220556
 21
4.39989443
  0
LINE
  5
2ED
100
AcDbEntity
  8
0
100
AcDbLine
 62
7
  6
CONTINUOUS
 10
4.4956048335
 20
4.3708915113
 11
4.4725973942
 21
4.3672474909
  0
LINE
  5
2EE
100
AcDbEntity
  8
0
100
AcDbLine
 62
7
  6
CONTINUOUS
 10
4.8254676356
 20
4.3234215156
 11
4.8155538933
 21
4.3221108996
  0
LINE
  5
2EF
100
AcDbEntity
  8
0
100
AcDbLine
 62
7
  6
CONTINUOUS
 10
4.2490824709
 20
4.4605245751
 11
4.2721448322
 21
4.4617332223
  0
LINE
  5
2F0
100
AcDbEntity
  8
0
100
AcDbLine
 62
7
  6
CONTINUOUS
 10
4.9118296201
 20
4.4952576815
 11
4.9348919813
 21
4.4964663286
  0
LINE
  5
2F1
100
AcDbEntity
  8
0
100
AcDbLine
 62
7
  6
CONTINUOUS
 10
4.2684378265
 20
4.4964663286
 11
4.2915001877
 21
4.4952576815
  0
LINE
  5
2F2
100
AcDbEntity
  8
0
100
AcDbLine
 62
7
  6
CONTINUOUS
 10
4.9311849756
 20
4.4617332223
 11
4.9542473369
 21
4.4605245751
  0
LINE
  5
2F3
100
AcDbEntity
  8
0
100
AcDbLine
 62
7
  6
CONTINUOUS
 10
4.2221303985
 20
4.3835759842
 11
4.2444374999
 21
4.389553154
  0
LINE
  5
2F4
100
AcDbEntity
  8
0
100
AcDbLine
 62
7
  6
CONTINUOUS
 10
4.8631735135
 20
4.5553429692
 11
4.8854806149
 21
4.561320139
  0
LINE
  5
2F5
100
AcDbEntity
  8
0
100
AcDbLine
 62
7
  6
CONTINUOUS
 10
4.2335900823
 20
4.4227565288
 11
4.2563997675
 21
4.426369228
  0
LINE
  5
2F6
100
AcDbEntity
  8
0
100
AcDbLine
 62
7
  6
CONTINUOUS
 10
4.889076035
 20
4.5265753046
 11
4.9118857202
 21
4.5301880038
  0
LINE
  5
2F7
100
AcDbEntity
  8
0
100
AcDbLine
 62
7
  6
CONTINUOUS
 10
4.2664772699
 20
4.8843343596
 11
4.9368525379
 21
4.8843343596
  0
LINE
  5
2F8
100
AcDbEntity
  8
0
100
AcDbLine
 62
7
  6
CONTINUOUS
 10
4.4547722539
 20
6.8385344324
 11
4.4723704532
 21
6.8143125889
  0
LINE
  5
2F9
100
AcDbEntity
  8
0
100
AcDbLine
 62
7
  6
CONTINUOUS
 10
4.5811866747
 20
6.6645399089
 11
4.5987848742
 21
6.6403180654
  0
LINE
  5
2FA
100
AcDbEntity
  8
0
100
AcDbLine
 62
7
  6
CONTINUOUS
 10
6.2366649039
 20
1.5338182725
 11
6.2366649039
 21
1.5728182725
  0
LINE
  5
2FB
100
AcDbEntity
  8
0
100
AcDbLine
 62
7
  6
CONTINUOUS
 10
6.2612637637
 20
2.5874894064
 11
6.2612637637
 21
2.5374894064
  0
LINE
  5
2FC
100
AcDbEntity
  8
0
100
AcDbLine
 62
7
  6
CONTINUOUS
 10
6.3112637637
 20
2.6374894064
 11
6.3112637637
 21
2.5874894064
  0
LINE
  5
2FD
100
AcDbEntity
  8
0
100
AcDbLine
 62
7
  6
CONTINUOUS
 10
6.3112637637
 20
2.5374894064
 11
6.3112637637
 21
2.4874894064
  0
LINE
  5
2FE
100
AcDbEntity
  8
0
100
AcDbLine
 62
7
  6
CONTINUOUS
 10
6.3171649039
 20
1.4533182725
 11
6.3171649039
 21
1.5338182725
  0
LINE
  5
2FF
100
AcDbEntity
  8
0
100
AcDbLine
 62
7
  6
CONTINUOUS
 10
6.3171649039
 20
1.5728182725
 11
6.3171649039
 21
1.6533182725
  0
LINE
  5
300
100
AcDbEntity
  8
0
100
AcDbLine
 62
7
  6
CONTINUOUS
 10
6.3561649039
 20
1.6533182725
 11
6.3561649039
 21
1.5728182725
  0
LINE
  5
301
100
AcDbEntity
  8
0
100
AcDbLine
 62
7
  6
CONTINUOUS
 10
6.3561649039
 20
1.5338182725
 11
6.3561649039
 21
1.4533182725
  0
LINE
  5
302
100
AcDbEntity
  8
0
100
AcDbLine
 62
7
  6
CONTINUOUS
 10
6.3612637637
 20
2.4874894064
 11
6.3612637637
 21
2.5374894064
  0
LINE
  5
303
100
AcDbEntity
  8
0
100
AcDbLine
 62
7
  6
CONTINUOUS
 10
6.3612637637
 20
2.5874894064
 11
6.3612637637
 21
2.6374894064
  0
LINE
  5
304
100
AcDbEntity
  8
0
100
AcDbLine
 62
7
  6
CONTINUOUS
 10
6.4112637637
 20
2.5374894064
 11
6.4112637637
 21
2.5874894064
  0
LINE
  5
305
100
AcDbEntity
  8
0
100
AcDbLine
 62
7
  6
CONTINUOUS
 10
6.4366649039
 20
1.5728182725
 11
6.4366649039
 21
1.5338182725
  0
LINE
  5
306
100
AcDbEntity
  8
0
100
AcDbLine
 62
7
  6
CONTINUOUS
 10
4.7485575539
 20
6.7491342868
 11
4.7309593546
 21
6.7733561304
  0
LINE
  5
307
100
AcDbEntity
  8
0
100
AcDbLine
 62
7
  6
CONTINUOUS
 10
4.6221431331
 20
6.9231288103
 11
4.6045449336
 21
6.9473506538
  0
LINE
  5
308
100
AcDbEntity
  8
0
100
AcDbLine
 62
7
  6
CONTINUOUS
 10
4.4481486097
 20
6.7909543299
 11
4.4723704532
 21
6.7733561304
  0
LINE
  5
309
100
AcDbEntity
  8
0
100
AcDbLine
 62
7
  6
CONTINUOUS
 10
4.6221431331
 20
6.6645399089
 11
4.6463649767
 21
6.6469417096
  0
LINE
  5
30A
100
AcDbEntity
  8
0
100
AcDbLine
 62
7
  6
CONTINUOUS
 10
6.9866649039
 20
1.5338182725
 11
6.9866649039
 21
1.5728182725
  0
LINE
  5
30B
100
AcDbEntity
  8
0
100
AcDbLine
 62
7
  6
CONTINUOUS
 10
7.0112637637
 20
2.5874894064
 11
7.0112637637
 21
2.5374894064
  0
LINE
  5
30C
100
AcDbEntity
  8
0
100
AcDbLine
 62
7
  6
CONTINUOUS
 10
7.0612637637
 20
2.6374894064
 11
7.0612637637
 21
2.5874894064
  0
LINE
  5
30D
100
AcDbEntity
  8
0
100
AcDbLine
 62
7
  6
CONTINUOUS
 10
7.0612637637
 20
2.5374894064
 11
7.0612637637
 21
2.4874894064
  0
LINE
  5
30E
100
AcDbEntity
  8
0
100
AcDbLine
 62
7
  6
CONTINUOUS
 10
7.0671649039
 20
1.4533182725
 11
7.0671649039
 21
1.5338182725
  0
LINE
  5
30F
100
AcDbEntity
  8
0
100
AcDbLine
 62
7
  6
CONTINUOUS
 10
7.0671649039
 20
1.5728182725
 11
7.0671649039
 21
1.6533182725
  0
LINE
  5
310
100
AcDbEntity
  8
0
100
AcDbLine
 62
7
  6
CONTINUOUS
 10
7.1061649039
 20
1.6533182725
 11
7.1061649039
 21
1.5728182725
  0
LINE
  5
311
100
AcDbEntity
  8
0
100
AcDbLine
 62
7
  6
CONTINUOUS
 10
7.1061649039
 20
1.5338182725
 11
7.1061649039
 21
1.4533182725
  0
LINE
  5
312
100
AcDbEntity
  8
0
100
AcDbLine
 62
7
  6
CONTINUOUS
 10
7.1112637637
 20
2.4874894064
 11
7.1112637637
 21
2.5374894064
  0
LINE
  5
313
100
AcDbEntity
  8
0
100
AcDbLine
 62
7
  6
CONTINUOUS
 10
7.1112637637
 20
2.5874894064
 11
7.1112637637
 21
2.6374894064
  0
LINE
  5
314
100
AcDbEntity
  8
0
100
AcDbLine
 62
7
  6
CONTINUOUS
 10
4.7551811981
 20
6.7967143893
 11
4.7309593546
 21
6.8143125889
  0
LINE
  5
315
100
AcDbEntity
  8
0
100
AcDbLine
 62
7
  6
CONTINUOUS
 10
4.5811866747
 20
6.9231288103
 11
4.5569648311
 21
6.9407270096
  0
LINE
  5
316
100
AcDbEntity
  8
0
100
AcDbLine
 62
7
  6
CONTINUOUS
 10
7.1612637637
 20
2.5374894064
 11
7.1612637637
 21
2.5874894064
  0
LINE
  5
317
100
AcDbEntity
  8
0
100
AcDbLine
 62
7
  6
CONTINUOUS
 10
7.1866649039
 20
1.5728182725
 11
7.1866649039
 21
1.5338182725
  0
LINE
  5
318
100
AcDbEntity
  8
0
100
AcDbLine
 62
7
  6
CONTINUOUS
 10
4.4565522101
 20
6.7436561448
 11
4.485026695
 21
6.7344042237
  0
LINE
  5
319
100
AcDbEntity
  8
0
100
AcDbLine
 62
7
  6
CONTINUOUS
 10
4.6610950398
 20
6.6771961507
 11
4.6895695246
 21
6.6679442297
  0
LINE
  5
31A
100
AcDbEntity
  8
0
100
AcDbLine
 62
7
  6
CONTINUOUS
 10
4.7467775977
 20
6.8440125744
 11
4.7183031128
 21
6.8532644955
  0
LINE
  5
31B
100
AcDbEntity
  8
0
100
AcDbLine
 62
7
  6
CONTINUOUS
 10
4.542234768
 20
6.9104725685
 11
4.5137602832
 21
6.9197244895
  0
LINE
  5
31C
100
AcDbEntity
  8
0
100
AcDbLine
 62
7
  6
CONTINUOUS
 10
4.479160452
 20
6.701269753
 11
4.5091002972
 21
6.701269753
  0
LINE
  5
31D
100
AcDbEntity
  8
0
100
AcDbLine
 62
7
  6
CONTINUOUS
 10
4.6942295106
 20
6.701269753
 11
4.7241693558
 21
6.701269753
  0
LINE
  5
31E
100
AcDbEntity
  8
0
100
AcDbLine
 62
7
  6
CONTINUOUS
 10
4.7241693558
 20
6.8863989663
 11
4.6942295106
 21
6.8863989663
  0
LINE
  5
31F
100
AcDbEntity
  8
0
100
AcDbLine
 62
7
  6
CONTINUOUS
 10
4.5091002972
 20
6.8863989663
 11
4.479160452
 21
6.8863989663
  0
ARC
  5
320
100
AcDbEntity
  8
0
100
AcDbCircle
 62
7
  6
CONTINUOUS
 10
4.8306954695
 20
4.1570843596
 40
0.025
100
AcDbArc
 50
270.0
 51
329.1593400914
  0
ARC
  5
321
100
AcDbEntity
  8
0
100
AcDbCircle
 62
7
  6
CONTINUOUS
 10
4.8224543208
 20
4.1570843596
 40
0.025
100
AcDbArc
 50
211.562
 51
270.0
  0
ARC
  5
322
100
AcDbEntity
  8
0
100
AcDbCircle
 62
7
  6
CONTINUOUS
 10
4.380875487
 20
4.1570843596
 40
0.025
100
AcDbArc
 50
270.0
 51
328.438
  0
ARC
  5
323
100
AcDbEntity
  8
0
100
AcDbCircle
 62
7
  6
CONTINUOUS
 10
4.3726343383
 20
4.1570843596
 40
0.025
100
AcDbArc
 50
210.8406599086
 51
270.0
  0
ARC
  5
324
100
AcDbEntity
  8
0
100
AcDbCircle
 62
7
  6
CONTINUOUS
 10
4.3726343383
 20
4.1570843596
 40
0.015
100
AcDbArc
 50
210.8406599086
 51
270.0
  0
ARC
  5
325
100
AcDbEntity
  8
0
100
AcDbCircle
 62
7
  6
CONTINUOUS
 10
4.8306954695
 20
4.1570843596
 40
0.015
100
AcDbArc
 50
270.0
 51
329.1593400914
  0
ARC
  5
326
100
AcDbEntity
  8
0
100
AcDbCircle
 62
7
  6
CONTINUOUS
 10
4.8224543208
 20
4.1570843596
 40
0.015
100
AcDbArc
 50
211.562
 51
270.0
  0
ARC
  5
327
100
AcDbEntity
  8
0
100
AcDbCircle
 62
7
  6
CONTINUOUS
 10
4.380875487
 20
4.1570843596
 40
0.015
100
AcDbArc
 50
270.0
 51
328.438
  0
ARC
  5
328
100
AcDbEntity
  8
0
100
AcDbCircle
 62
7
  6
CONTINUOUS
 10
4.5172421283
 20
4.4648851049
 40
0.035
100
AcDbArc
 50
30.8138011779
 51
116.2688260909
  0
ARC
  5
329
100
AcDbEntity
  8
0
100
AcDbCircle
 62
7
  6
CONTINUOUS
 10
4.4125602702
 20
4.3188343596
 40
0.035
100
AcDbArc
 50
172.4690576458
 51
257.9850974148
  0
ARC
  5
32A
100
AcDbEntity
  8
0
100
AcDbCircle
 62
7
  6
CONTINUOUS
 10
4.5172421283
 20
4.4648851049
 40
0.025
100
AcDbArc
 50
36.4156255045
 51
116.2688260909
  0
ARC
  5
32B
100
AcDbEntity
  8
0
100
AcDbCircle
 62
7
  6
CONTINUOUS
 10
4.4125602702
 20
4.3188343596
 40
0.025
100
AcDbArc
 50
172.4690576458
 51
252.0779836025
  0
ARC
  5
32C
100
AcDbEntity
  8
0
100
AcDbCircle
 62
7
  6
CONTINUOUS
 10
4.5882606178
 20
6.7996749536
 40
0.5005167167
100
AcDbArc
 50
241.589801144
 51
251.2940903508
  0
CIRCLE
  5
32D
100
AcDbEntity
  8
0
100
AcDbCircle
 62
7
  6
CONTINUOUS
 10
4.6016649039
 20
4.2938343596
 40
0.8267716535
  0
ARC
  5
32E
100
AcDbEntity
  8
0
100
AcDbCircle
 62
7
  6
CONTINUOUS
 10
4.6016649039
 20
4.2938343596
 40
0.679
100
AcDbArc
 50
299.5806996754
 51
60.4193003246
  0
ARC
  5
32F
100
AcDbEntity
  8
0
100
AcDbCircle
 62
7
  6
CONTINUOUS
 10
4.6016649039
 20
4.2938343596
 40
0.679
100
AcDbArc
 50
119.5806996754
 51
240.4193003246
  0
CIRCLE
  5
330
100
AcDbEntity
  8
0
100
AcDbCircle
 62
7
  6
CONTINUOUS
 10
4.6016649039
 20
4.2938343596
 40
0.45
  0
CIRCLE
  5
331
100
AcDbEntity
  8
0
100
AcDbCircle
 62
7
  6
CONTINUOUS
 10
4.6016649039
 20
4.2938343596
 40
0.4181496063
  0
CIRCLE
  5
332
100
AcDbEntity
  8
0
100
AcDbCircle
 62
7
  6
CONTINUOUS
 10
4.6016649039
 20
4.2938343596
 40
0.39
  0
CIRCLE
  5
333
100
AcDbEntity
  8
0
100
AcDbCircle
 62
7
  6
CONTINUOUS
 10
4.6016649039
 20
4.2938343596
 40
0.325
  0
ARC
  5
334
100
AcDbEntity
  8
0
100
AcDbCircle
 62
7
  6
CONTINUOUS
 10
4.6016649039
 20
4.2938343596
 40
0.29175
100
AcDbArc
 50
329.1593400914
 51
210.8406599086
  0
ARC
  5
335
100
AcDbEntity
  8
0
100
AcDbCircle
 62
7
  6
CONTINUOUS
 10
4.6016649039
 20
4.2938343596
 40
0.28175
100
AcDbArc
 50
329.1593400914
 51
210.8406599086
  0
ARC
  5
336
100
AcDbEntity
  8
0
100
AcDbCircle
 62
7
  6
CONTINUOUS
 10
4.6016649039
 20
4.2938343596
 40
0.22575
100
AcDbArc
 50
7.5309423542
 51
63.7311739091
  0
ARC
  5
337
100
AcDbEntity
  8
0
100
AcDbCircle
 62
7
  6
CONTINUOUS
 10
4.6016649039
 20
4.2938343596
 40
0.22575
100
AcDbArc
 50
116.2688260909
 51
172.4690576458
  0
ARC
  5
338
100
AcDbEntity
  8
0
100
AcDbCircle
 62
7
  6
CONTINUOUS
 10
4.6016649039
 20
4.2938343596
 40
0.21575
100
AcDbArc
 50
7.5309423542
 51
63.7311739091
  0
ARC
  5
339
100
AcDbEntity
  8
0
100
AcDbCircle
 62
7
  6
CONTINUOUS
 10
4.6016649039
 20
4.2938343596
 40
0.21575
100
AcDbArc
 50
116.2688260909
 51
172.4690576458
  0
ARC
  5
33A
100
AcDbEntity
  8
0
100
AcDbCircle
 62
7
  6
CONTINUOUS
 10
4.6016649039
 20
4.2938343596
 40
0.2
100
AcDbArc
 50
211.1636483013
 51
328.8363516987
  0
ARC
  5
33B
100
AcDbEntity
  8
0
100
AcDbCircle
 62
7
  6
CONTINUOUS
 10
4.6016649039
 20
4.2938343596
 40
0.2
100
AcDbArc
 50
0.7109312502
 51
70.5526906954
  0
ARC
  5
33C
100
AcDbEntity
  8
0
100
AcDbCircle
 62
7
  6
CONTINUOUS
 10
4.6016649039
 20
4.2938343596
 40
0.2
100
AcDbArc
 50
109.4473093232
 51
179.2890687682
  0
CIRCLE
  5
33D
100
AcDbEntity
  8
0
100
AcDbCircle
 62
7
  6
CONTINUOUS
 10
4.6016649039
 20
4.2938343596
 40
0.1968503937
  0
CIRCLE
  5
33E
100
AcDbEntity
  8
0
100
AcDbCircle
 62
7
  6
CONTINUOUS
 10
4.6016649039
 20
4.2938343596
 40
0.1768503937
  0
ARC
  5
33F
100
AcDbEntity
  8
0
100
AcDbCircle
 62
7
  6
CONTINUOUS
 10
4.6016649039
 20
4.2938343596
 40
0.1484853862
100
AcDbArc
 50
276.3689380965
 51
281.6310619035
  0
ARC
  5
340
100
AcDbEntity
  8
0
100
AcDbCircle
 62
7
  6
CONTINUOUS
 10
4.6016649039
 20
4.2938343596
 40
0.1484853862
100
AcDbArc
 50
96.3689380965
 51
101.6310619035
  0
ARC
  5
341
100
AcDbEntity
  8
0
100
AcDbCircle
 62
7
  6
CONTINUOUS
 10
4.6016649039
 20
4.2938343596
 40
0.1484853862
100
AcDbArc
 50
258.3689380965
 51
263.6310619035
  0
ARC
  5
342
100
AcDbEntity
  8
0
100
AcDbCircle
 62
7
  6
CONTINUOUS
 10
4.6016649039
 20
4.2938343596
 40
0.1484853862
100
AcDbArc
 50
240.3689380965
 51
245.6310619035
  0
ARC
  5
343
100
AcDbEntity
  8
0
100
AcDbCircle
 62
7
  6
CONTINUOUS
 10
4.6016649039
 20
4.2938343596
 40
0.1484853862
100
AcDbArc
 50
222.3689380965
 51
227.6310619035
  0
ARC
  5
344
100
AcDbEntity
  8
0
100
AcDbCircle
 62
7
  6
CONTINUOUS
 10
4.6016649039
 20
4.2938343596
 40
0.1484853862
100
AcDbArc
 50
204.3689380965
 51
209.6310619035
  0
ARC
  5
345
100
AcDbEntity
  8
0
100
AcDbCircle
 62
7
  6
CONTINUOUS
 10
4.6016649039
 20
4.2938343596
 40
0.1484853862
100
AcDbArc
 50
186.3689380965
 51
191.6310619035
  0
ARC
  5
346
100
AcDbEntity
  8
0
100
AcDbCircle
 62
7
  6
CONTINUOUS
 10
4.6016649039
 20
4.2938343596
 40
0.1484853862
100
AcDbArc
 50
168.3689380965
 51
173.6310619035
  0
ARC
  5
347
100
AcDbEntity
  8
0
100
AcDbCircle
 62
7
  6
CONTINUOUS
 10
4.6016649039
 20
4.2938343596
 40
0.1484853862
100
AcDbArc
 50
150.3689380965
 51
155.6310619035
  0
ARC
  5
348
100
AcDbEntity
  8
0
100
AcDbCircle
 62
7
  6
CONTINUOUS
 10
4.6016649039
 20
4.2938343596
 40
0.1484853862
100
AcDbArc
 50
132.3689380965
 51
137.6310619035
  0
ARC
  5
349
100
AcDbEntity
  8
0
100
AcDbCircle
 62
7
  6
CONTINUOUS
 10
4.6016649039
 20
4.2938343596
 40
0.1484853862
100
AcDbArc
 50
114.3689380965
 51
119.6310619035
  0
ARC
  5
34A
100
AcDbEntity
  8
0
100
AcDbCircle
 62
7
  6
CONTINUOUS
 10
4.6016649039
 20
4.2938343596
 40
0.1484853862
100
AcDbArc
 50
78.3689380965
 51
83.6310619035
  0
ARC
  5
34B
100
AcDbEntity
  8
0
100
AcDbCircle
 62
7
  6
CONTINUOUS
 10
4.6016649039
 20
4.2938343596
 40
0.1484853862
100
AcDbArc
 50
60.3689380965
 51
65.6310619035
  0
ARC
  5
34C
100
AcDbEntity
  8
0
100
AcDbCircle
 62
7
  6
CONTINUOUS
 10
4.6016649039
 20
4.2938343596
 40
0.1484853862
100
AcDbArc
 50
42.3689380965
 51
47.6310619035
  0
ARC
  5
34D
100
AcDbEntity
  8
0
100
AcDbCircle
 62
7
  6
CONTINUOUS
 10
4.6016649039
 20
4.2938343596
 40
0.1484853862
100
AcDbArc
 50
24.3689380965
 51
29.6310619035
  0
ARC
  5
34E
100
AcDbEntity
  8
0
100
AcDbCircle
 62
7
  6
CONTINUOUS
 10
4.6016649039
 20
4.2938343596
 40
0.1484853862
100
AcDbArc
 50
6.3689380965
 51
11.6310619035
  0
ARC
  5
34F
100
AcDbEntity
  8
0
100
AcDbCircle
 62
7
  6
CONTINUOUS
 10
4.6016649039
 20
4.2938343596
 40
0.1484853862
100
AcDbArc
 50
348.3689380965
 51
353.6310619035
  0
ARC
  5
350
100
AcDbEntity
  8
0
100
AcDbCircle
 62
7
  6
CONTINUOUS
 10
4.6016649039
 20
4.2938343596
 40
0.1484853862
100
AcDbArc
 50
330.3689380965
 51
335.6310619035
  0
ARC
  5
351
100
AcDbEntity
  8
0
100
AcDbCircle
 62
7
  6
CONTINUOUS
 10
4.6016649039
 20
4.2938343596
 40
0.1484853862
100
AcDbArc
 50
312.3689380965
 51
317.6310619035
  0
ARC
  5
352
100
AcDbEntity
  8
0
100
AcDbCircle
 62
7
  6
CONTINUOUS
 10
4.6016649039
 20
4.2938343596
 40
0.1484853862
100
AcDbArc
 50
294.3689380965
 51
299.6310619035
  0
CIRCLE
  5
353
100
AcDbEntity
  8
0
100
AcDbCircle
 62
7
  6
CONTINUOUS
 10
4.6016649039
 20
4.2938343596
 40
0.13
  0
ARC
  5
354
100
AcDbEntity
  8
0
100
AcDbCircle
 62
7
  6
CONTINUOUS
 10
4.6860876795
 20
4.4648851049
 40
0.035
100
AcDbArc
 50
63.7311739091
 51
149.1860031561
  0
ARC
  5
355
100
AcDbEntity
  8
0
100
AcDbCircle
 62
7
  6
CONTINUOUS
 10
4.6860876795
 20
4.4648851049
 40
0.025
100
AcDbArc
 50
63.7311739091
 51
143.5843745298
  0
ARC
  5
356
100
AcDbEntity
  8
0
100
AcDbCircle
 62
7
  6
CONTINUOUS
 10
4.7907695376
 20
4.3188343596
 40
0.035
100
AcDbArc
 50
282.0146863711
 51
7.5309423542
  0
ARC
  5
357
100
AcDbEntity
  8
0
100
AcDbCircle
 62
7
  6
CONTINUOUS
 10
4.7907695376
 20
4.3188343596
 40
0.025
100
AcDbArc
 50
287.9220163044
 51
7.5309423542
  0
ARC
  5
358
100
AcDbEntity
  8
0
100
AcDbCircle
 62
7
  6
CONTINUOUS
 10
4.6016649039
 20
6.7938343596
 40
0.531496063
100
AcDbArc
 50
284.5617450198
 51
337.8083934337
  0
ARC
  5
359
100
AcDbEntity
  8
0
100
AcDbCircle
 62
7
  6
CONTINUOUS
 10
4.6016649039
 20
6.7938343596
 40
0.531496063
100
AcDbArc
 50
337.9040698023
 51
283.566106398
  0
ARC
  5
35A
100
AcDbEntity
  8
0
100
AcDbCircle
 62
7
  6
CONTINUOUS
 10
4.6016649039
 20
6.7938343596
 40
0.5019685039
100
AcDbArc
 50
11.364876981
 51
168.635123019
  0
ARC
  5
35B
100
AcDbEntity
  8
0
100
AcDbCircle
 62
7
  6
CONTINUOUS
 10
4.6016649039
 20
6.7938343596
 40
0.5019685039
100
AcDbArc
 50
191.364876981
 51
239.9266565994
  0
ARC
  5
35C
100
AcDbEntity
  8
0
100
AcDbCircle
 62
7
  6
CONTINUOUS
 10
4.6016649039
 20
6.7938343596
 40
0.5019685039
100
AcDbArc
 50
270.0
 51
348.635123019
  0
ARC
  5
35D
100
AcDbEntity
  8
0
100
AcDbCircle
 62
7
  6
CONTINUOUS
 10
4.6016656154
 20
6.7938383186
 40
0.499500022
100
AcDbArc
 50
249.622723126
 51
269.9999183834
  0
CIRCLE
  5
35E
100
AcDbEntity
  8
0
100
AcDbCircle
 62
7
  6
CONTINUOUS
 10
4.6016649039
 20
6.7938343596
 40
0.4330708661
  0
CIRCLE
  5
35F
100
AcDbEntity
  8
0
100
AcDbCircle
 62
7
  6
CONTINUOUS
 10
4.6016649039
 20
6.7938343596
 40
0.2736220472
  0
CIRCLE
  5
360
100
AcDbEntity
  8
0
100
AcDbCircle
 62
7
  6
CONTINUOUS
 10
4.6016649039
 20
6.7938343596
 40
0.2696850394
  0
CIRCLE
  5
361
100
AcDbEntity
  8
0
100
AcDbCircle
 62
7
  6
CONTINUOUS
 10
4.6016649039
 20
6.7938343596
 40
0.1964566929
  0
CIRCLE
  5
362
100
AcDbEntity
  8
0
100
AcDbCircle
 62
7
  6
CONTINUOUS
 10
4.6016649039
 20
6.7938343596
 40
0.192519685
  0
ARC
  5
363
100
AcDbEntity
  8
0
100
AcDbCircle
 62
7
  6
CONTINUOUS
 10
4.6016649039
 20
6.7938343596
 40
0.1535433071
100
AcDbArc
 50
106.9252333949
 51
109.0747666109
  0
ARC
  5
364
100
AcDbEntity
  8
0
100
AcDbCircle
 62
7
  6
CONTINUOUS
 10
4.6016649039
 20
6.7938343596
 40
0.1535433071
100
AcDbArc
 50
142.9252333538
 51
145.0747666271
  0
ARC
  5
365
100
AcDbEntity
  8
0
100
AcDbCircle
 62
7
  6
CONTINUOUS
 10
4.6016649039
 20
6.7938343596
 40
0.1535433071
100
AcDbArc
 50
178.92523337
 51
181.0747666432
  0
ARC
  5
366
100
AcDbEntity
  8
0
100
AcDbCircle
 62
7
  6
CONTINUOUS
 10
4.6016649039
 20
6.7938343596
 40
0.1535433071
100
AcDbArc
 50
214.9252333861
 51
217.0747666594
  0
ARC
  5
367
100
AcDbEntity
  8
0
100
AcDbCircle
 62
7
  6
CONTINUOUS
 10
4.6016649039
 20
6.7938343596
 40
0.1535433071
100
AcDbArc
 50
250.925233345
 51
253.0747666183
  0
ARC
  5
368
100
AcDbEntity
  8
0
100
AcDbCircle
 62
7
  6
CONTINUOUS
 10
4.6016649039
 20
6.7938343596
 40
0.1535433071
100
AcDbArc
 50
286.9252333714
 51
289.0747666447
  0
ARC
  5
369
100
AcDbEntity
  8
0
100
AcDbCircle
 62
7
  6
CONTINUOUS
 10
4.6016649039
 20
6.7938343596
 40
0.1535433071
100
AcDbArc
 50
322.9252333876
 51
325.0747666036
  0
ARC
  5
36A
100
AcDbEntity
  8
0
100
AcDbCircle
 62
7
  6
CONTINUOUS
 10
4.6016649039
 20
6.7938343596
 40
0.1535433071
100
AcDbArc
 50
358.9252333465
 51
1.0747666197
  0
ARC
  5
36B
100
AcDbEntity
  8
0
100
AcDbCircle
 62
7
  6
CONTINUOUS
 10
4.6016649039
 20
6.7938343596
 40
0.1535433071
100
AcDbArc
 50
34.9252333626
 51
37.0747666359
  0
ARC
  5
36C
100
AcDbEntity
  8
0
100
AcDbCircle
 62
7
  6
CONTINUOUS
 10
4.6016649039
 20
6.7938343596
 40
0.1535433071
100
AcDbArc
 50
88.9252333582
 51
91.0747666315
  0
ARC
  5
36D
100
AcDbEntity
  8
0
100
AcDbCircle
 62
7
  6
CONTINUOUS
 10
4.6016649039
 20
6.7938343596
 40
0.1535433071
100
AcDbArc
 50
160.9252333905
 51
163.0747666065
  0
ARC
  5
36E
100
AcDbEntity
  8
0
100
AcDbCircle
 62
7
  6
CONTINUOUS
 10
4.6016649039
 20
6.7938343596
 40
0.1535433071
100
AcDbArc
 50
196.9252333494
 51
199.0747666227
  0
ARC
  5
36F
100
AcDbEntity
  8
0
100
AcDbCircle
 62
7
  6
CONTINUOUS
 10
4.6016649039
 20
6.7938343596
 40
0.1535433071
100
AcDbArc
 50
232.9252333656
 51
235.0747666388
  0
ARC
  5
370
100
AcDbEntity
  8
0
100
AcDbCircle
 62
7
  6
CONTINUOUS
 10
4.6016649039
 20
6.7938343596
 40
0.1535433071
100
AcDbArc
 50
268.9252333817
 51
271.074766608
  0
ARC
  5
371
100
AcDbEntity
  8
0
100
AcDbCircle
 62
7
  6
CONTINUOUS
 10
4.6016649039
 20
6.7938343596
 40
0.1535433071
100
AcDbArc
 50
304.9252333509
 51
307.0747666242
  0
ARC
  5
372
100
AcDbEntity
  8
0
100
AcDbCircle
 62
7
  6
CONTINUOUS
 10
4.6016649039
 20
6.7938343596
 40
0.1535433071
100
AcDbArc
 50
340.925233367
 51
343.0747666403
  0
ARC
  5
373
100
AcDbEntity
  8
0
100
AcDbCircle
 62
7
  6
CONTINUOUS
 10
4.6016649039
 20
6.7938343596
 40
0.1535433071
100
AcDbArc
 50
16.9252333832
 51
19.0747666565
  0
ARC
  5
374
100
AcDbEntity
  8
0
100
AcDbCircle
 62
7
  6
CONTINUOUS
 10
4.6016649039
 20
6.7938343596
 40
0.1535433071
100
AcDbArc
 50
52.9252333421
 51
55.0747666153
  0
ARC
  5
375
100
AcDbEntity
  8
0
100
AcDbCircle
 62
7
  6
CONTINUOUS
 10
4.6016649039
 20
6.7938343596
 40
0.1535433071
100
AcDbArc
 50
124.9252333744
 51
127.0747666477
  0
ARC
  5
376
100
AcDbEntity
  8
0
100
AcDbCircle
 62
7
  6
CONTINUOUS
 10
4.6016649039
 20
6.7938343596
 40
0.1535433071
100
AcDbArc
 50
70.9252333788
 51
73.0747666521
  0
ARC
  5
377
100
AcDbEntity
  8
0
100
AcDbCircle
 62
7
  6
CONTINUOUS
 10
4.6016649039
 20
6.7938343596
 40
0.1338582677
100
AcDbArc
 50
100.2500789089
 51
115.7499211575
  0
ARC
  5
378
100
AcDbEntity
  8
0
100
AcDbCircle
 62
7
  6
CONTINUOUS
 10
4.6016649039
 20
6.7938343596
 40
0.1338582677
100
AcDbArc
 50
82.2500788401
 51
97.7499211599
  0
ARC
  5
379
100
AcDbEntity
  8
0
100
AcDbCircle
 62
7
  6
CONTINUOUS
 10
4.6016649039
 20
6.7938343596
 40
0.1338582677
100
AcDbArc
 50
64.2500788425
 51
79.7499210911
  0
ARC
  5
37A
100
AcDbEntity
  8
0
100
AcDbCircle
 62
7
  6
CONTINUOUS
 10
4.6016649039
 20
6.7938343596
 40
0.1338582677
100
AcDbArc
 50
46.2500788519
 51
61.7499210992
  0
ARC
  5
37B
100
AcDbEntity
  8
0
100
AcDbCircle
 62
7
  6
CONTINUOUS
 10
4.6016649039
 20
6.7938343596
 40
0.1338582677
100
AcDbArc
 50
28.2500789008
 51
43.7499211481
  0
ARC
  5
37C
100
AcDbEntity
  8
0
100
AcDbCircle
 62
7
  6
CONTINUOUS
 10
4.6016649039
 20
6.7938343596
 40
0.1338582677
100
AcDbArc
 50
10.2500789089
 51
25.7499211575
  0
ARC
  5
37D
100
AcDbEntity
  8
0
100
AcDbCircle
 62
7
  6
CONTINUOUS
 10
4.6016649039
 20
6.7938343596
 40
0.1338582677
100
AcDbArc
 50
352.2500788401
 51
7.7499211599
  0
ARC
  5
37E
100
AcDbEntity
  8
0
100
AcDbCircle
 62
7
  6
CONTINUOUS
 10
4.6016649039
 20
6.7938343596
 40
0.1338582677
100
AcDbArc
 50
334.2500788425
 51
349.7499210911
  0
ARC
  5
37F
100
AcDbEntity
  8
0
100
AcDbCircle
 62
7
  6
CONTINUOUS
 10
4.6016649039
 20
6.7938343596
 40
0.1338582677
100
AcDbArc
 50
316.2500788519
 51
331.7499210992
  0
ARC
  5
380
100
AcDbEntity
  8
0
100
AcDbCircle
 62
7
  6
CONTINUOUS
 10
4.6016649039
 20
6.7938343596
 40
0.1338582677
100
AcDbArc
 50
298.2500789008
 51
313.7499211481
  0
ARC
  5
381
100
AcDbEntity
  8
0
100
AcDbCircle
 62
7
  6
CONTINUOUS
 10
4.6016649039
 20
6.7938343596
 40
0.1338582677
100
AcDbArc
 50
280.2500789089
 51
295.7499211575
  0
ARC
  5
382
100
AcDbEntity
  8
0
100
AcDbCircle
 62
7
  6
CONTINUOUS
 10
4.6016649039
 20
6.7938343596
 40
0.1338582677
100
AcDbArc
 50
262.2500788401
 51
277.7499211599
  0
ARC
  5
383
100
AcDbEntity
  8
0
100
AcDbCircle
 62
7
  6
CONTINUOUS
 10
4.6016649039
 20
6.7938343596
 40
0.1338582677
100
AcDbArc
 50
244.2500788425
 51
259.7499210911
  0
ARC
  5
384
100
AcDbEntity
  8
0
100
AcDbCircle
 62
7
  6
CONTINUOUS
 10
4.6016649039
 20
6.7938343596
 40
0.1338582677
100
AcDbArc
 50
226.2500788519
 51
241.7499210992
  0
ARC
  5
385
100
AcDbEntity
  8
0
100
AcDbCircle
 62
7
  6
CONTINUOUS
 10
4.6016649039
 20
6.7938343596
 40
0.1338582677
100
AcDbArc
 50
208.2500789008
 51
223.7499211481
  0
ARC
  5
386
100
AcDbEntity
  8
0
100
AcDbCircle
 62
7
  6
CONTINUOUS
 10
4.6016649039
 20
6.7938343596
 40
0.1338582677
100
AcDbArc
 50
190.2500789089
 51
205.7499211575
  0
ARC
  5
387
100
AcDbEntity
  8
0
100
AcDbCircle
 62
7
  6
CONTINUOUS
 10
4.6016649039
 20
6.7938343596
 40
0.1338582677
100
AcDbArc
 50
172.2500788401
 51
187.7499211599
  0
ARC
  5
388
100
AcDbEntity
  8
0
100
AcDbCircle
 62
7
  6
CONTINUOUS
 10
4.6016649039
 20
6.7938343596
 40
0.1338582677
100
AcDbArc
 50
154.2500788425
 51
169.7499210911
  0
ARC
  5
389
100
AcDbEntity
  8
0
100
AcDbCircle
 62
7
  6
CONTINUOUS
 10
4.6016649039
 20
6.7938343596
 40
0.1338582677
100
AcDbArc
 50
136.2500788519
 51
151.7499210992
  0
ARC
  5
38A
100
AcDbEntity
  8
0
100
AcDbCircle
 62
7
  6
CONTINUOUS
 10
4.6016649039
 20
6.7938343596
 40
0.1338582677
100
AcDbArc
 50
118.2500789008
 51
133.7499211481
  0
CIRCLE
  5
38B
100
AcDbEntity
  8
0
100
AcDbCircle
 62
7
  6
CONTINUOUS
 10
7.0866649039
 20
1.5533182725
 40
0.15625
  0
CIRCLE
  5
38C
100
AcDbEntity
  8
0
100
AcDbCircle
 62
7
  6
CONTINUOUS
 10
6.3366649039
 20
1.5533182725
 40
0.15625
  0
CIRCLE
  5
38D
100
AcDbEntity
  8
0
100
AcDbCircle
 62
7
  6
CONTINUOUS
 10
6.3366649039
 20
2.5624894064
 40
0.1425
  0
CIRCLE
  5
38E
100
AcDbEntity
  8
0
100
AcDbCircle
 62
7
  6
CONTINUOUS
 10
7.0866649039
 20
2.5624894064
 40
0.1425
  0
SPLINE
  5
38F
100
AcDbEntity
  8
0
100
AcDbSpline
 62
7
  6
CONTINUOUS
 70
0
 71
3
 72
65
 73
61
 74
0
 42
0.0000001
 43
0.0000001
 44
0.0000000001
 40
0.0
 40
0.0
 40
0.0
 40
0.0
 40
0.0156245178
 40
0.0312512123
 40
0.0468768865
 40
0.0625021442
 40
0.0781276976
 40
0.0937533196
 40
0.109378867
 40
0.1250044037
 40
0.1406299641
 40
0.1562555216
 40
0.171881079
 40
0.1875066344
 40
0.2031321947
 40
0.2187577529
 40
0.2343833138
 40
0.2500088742
 40
0.2656344361
 40
0.2812599989
 40
0.2968855616
 40
0.3125111267
 40
0.3281366904
 40
0.3437622577
 40
0.3593878225
 40
0.3750133917
 40
0.3906389581
 40
0.4062645289
 40
0.4375094868
 40
0.4687544581
 40
0.4999994426
 40
0.5312444401
 40
0.546870017
 40
0.5624955928
 40
0.5781211718
 40
0.5937467486
 40
0.6093723295
 40
0.6249979077
 40
0.6406234903
 40
0.65624907
 40
0.6718746541
 40
0.6875002356
 40
0.7031258208
 40
0.7187514044
 40
0.7343769906
 40
0.7500025763
 40
0.7656281632
 40
0.781253751
 40
0.7968793391
 40
0.8125049293
 40
0.8281305171
 40
0.8437561083
 40
0.8593817024
 40
0.875007298
 40
0.9062524314
 40
0.937497655
 40
0.9531229512
 40
0.9687487187
 40
0.9843754521
 40
1.0
 40
1.0
 40
1.0
 40
1.0
 10
4.1095389196
 20
6.9235731755
 30
0.0
 10
4.1112092955
 20
6.9301905567
 30
0.0
 10
4.1148171697
 20
6.9433605094
 30
0.0
 10
4.1210181162
 20
6.9628808021
 30
0.0
 10
4.1279991698
 20
6.9821365992
 30
0.0
 10
4.1357479209
 20
7.0010958487
 30
0.0
 10
4.1442518463
 20
7.0197286009
 30
0.0
 10
4.1534968279
 20
7.0380051223
 30
0.0
 10
4.1634677908
 20
7.0558959153
 30
0.0
 10
4.1741482886
 20
7.0733723603
 30
0.0
 10
4.185520807
 20
7.0904065925
 30
0.0
 10
4.1975669211
 20
7.1069713289
 30
0.0
 10
4.2102668036
 20
7.1230403092
 30
0.0
 10
4.2236000614
 20
7.1385877587
 30
0.0
 10
4.2375447562
 20
7.1535892354
 30
0.0
 10
4.2520786272
 20
7.1680206352
 30
0.0
 10
4.2671778338
 20
7.1818594387
 30
0.0
 10
4.2828183224
 20
7.1950834146
 30
0.0
 10
4.2989745811
 20
7.2076720419
 30
0.0
 10
4.3156208645
 20
7.2196051632
 30
0.0
 10
4.3327302073
 20
7.230864308
 30
0.0
 10
4.3502753093
 20
7.2414315795
 30
0.0
 10
4.3682279494
 20
7.2512906077
 30
0.0
 10
4.3865594422
 20
7.2604259089
 30
0.0
 10
4.4052405123
 20
7.2688232759
 30
0.0
 10
4.4242411998
 20
7.2764697317
 30
0.0
 10
4.4435316954
 20
7.2833533799
 30
0.0
 10
4.4695930748
 20
7.29149943
 30
0.0
 10
4.5027483105
 20
7.2997272273
 30
0.0
 10
4.5431871474
 20
7.3064065325
 30
0.0
 10
4.5840285359
 20
7.3098547491
 30
0.0
 10
4.6181888481
 20
7.3100189671
 30
0.0
 10
4.645452813
 20
7.3085261622
 30
0.0
 10
4.6658435806
 20
7.306596694
 30
0.0
 10
4.6861415241
 20
7.3038606198
 30
0.0
 10
4.706315242
 20
7.30032266
 30
0.0
 10
4.7263330277
 20
7.2959886976
 30
0.0
 10
4.7461635746
 20
7.2908657593
 30
0.0
 10
4.7657759388
 20
7.2849623664
 30
0.0
 10
4.7851394432
 20
7.2782878277
 30
0.0
 10
4.8042240191
 20
7.2708532077
 30
0.0
 10
4.8229998206
 20
7.262670068
 30
0.0
 10
4.841437837
 20
7.2537518906
 30
0.0
 10
4.8595092413
 20
7.2441124624
 30
0.0
 10
4.877186244
 20
7.2337675297
 30
0.0
 10
4.8944412349
 20
7.2227330725
 30
0.0
 10
4.9112477833
 20
7.2110269323
 30
0.0
 10
4.9275796985
 20
7.198667231
 30
0.0
 10
4.9434120283
 20
7.1856737363
 30
0.0
 10
4.9587201947
 20
7.1720666331
 30
0.0
 10
4.9734808476
 20
7.1578674422
 30
0.0
 10
4.9876711575
 20
7.1430983617
 30
0.0
 10
5.0012696588
 20
7.1277822461
 30
0.0
 10
5.0185814333
 20
7.1066668559
 30
0.0
 10
5.0386445766
 20
7.0790203811
 30
0.0
 10
5.0564749468
 20
7.0498841153
 30
0.0
 10
5.0693325015
 20
7.0257960114
 30
0.0
 10
5.0782612798
 20
7.0073623605
 30
0.0
 10
5.0864596382
 20
6.9885934957
 30
0.0
 10
5.0914311586
 20
6.9758756511
 30
0.0
 10
5.0937908882
 20
6.9694716098
 30
0.0
  0
SPLINE
  5
390
100
AcDbEntity
  8
0
100
AcDbSpline
 62
7
  6
CONTINUOUS
 70
0
 71
3
 72
27
 73
23
 74
0
 42
0.0000001
 43
0.0000001
 44
0.0000000001
 40
0.0
 40
0.0
 40
0.0
 40
0.0
 40
0.062497165
 40
0.0937516703
 40
0.125004317
 40
0.1875017526
 40
0.2500002615
 40
0.2812529572
 40
0.3125056137
 40
0.3750038543
 40
0.4375020707
 40
0.5000002725
 40
0.5624984631
 40
0.6249966425
 40
0.6874948282
 40
0.7187474813
 40
0.7500001635
 40
0.8124985731
 40
0.8749959015
 40
0.9062485033
 40
0.9375029676
 40
1.0
 40
1.0
 40
1.0
 40
1.0
 10
4.726336396
 20
6.277167074
 30
0.0
 10
4.7367172721
 20
6.2797827718
 30
0.0
 10
4.7521762679
 20
6.284178925
 30
0.0
 10
4.7724875992
 20
6.2909642135
 30
0.0
 10
4.7925850956
 20
6.2983609586
 30
0.0
 10
4.8172729996
 20
6.3087418906
 30
0.0
 10
4.8412875659
 20
6.3205978248
 30
0.0
 10
4.8600395701
 20
6.3309406182
 30
0.0
 10
4.8784696317
 20
6.3418465422
 30
0.0
 10
4.9008749247
 20
6.3565194018
 30
0.0
 10
4.9266420122
 20
6.3757227879
 30
0.0
 10
4.9511972355
 20
6.3964541516
 30
0.0
 10
4.9744488316
 20
6.4186377703
 30
0.0
 10
4.9963098864
 20
6.4421921844
 30
0.0
 10
5.0133023294
 20
6.4628936828
 30
0.0
 10
5.0261200987
 20
6.4800491978
 30
0.0
 10
5.0384101634
 20
6.4975867442
 30
0.0
 10
5.0527628634
 20
6.5201980381
 30
0.0
 10
5.065712163
 20
6.543641216
 30
0.0
 10
5.0751991884
 20
6.5628406492
 30
0.0
 10
5.0840961705
 20
6.5823197127
 30
0.0
 10
5.0900980858
 20
6.5972291213
 30
0.0
 10
5.0937908882
 20
6.6072773643
 30
0.0
  0
SPLINE
  5
391
100
AcDbEntity
  8
0
100
AcDbSpline
 62
7
  6
CONTINUOUS
 70
0
 71
3
 72
23
 73
19
 74
0
 42
0.0000001
 43
0.0000001
 44
0.0000000001
 40
0.0
 40
0.0
 40
0.0
 40
0.0
 40
0.0624974103
 40
0.1250008962
 40
0.1875003363
 40
0.2499998928
 40
0.3125001688
 40
0.3750001895
 40
0.4375001383
 40
0.5000001551
 40
0.5625001816
 40
0.6250001156
 40
0.6875000945
 40
0.7500003495
 40
0.8124999008
 40
0.8749992274
 40
0.9375026144
 40
1.0
 40
1.0
 40
1.0
 40
1.0
 10
5.0937908882
 20
6.5988623747
 30
0.0
 10
5.0964139837
 20
6.6060569114
 30
0.0
 10
5.1013485428
 20
6.6205626161
 30
0.0
 10
5.107797565
 20
6.6426205029
 30
0.0
 10
5.1132806734
 20
6.6649388695
 30
0.0
 10
5.1177861049
 20
6.6874744414
 30
0.0
 10
5.1213045248
 20
6.7101851716
 30
0.0
 10
5.1238276593
 20
6.7330279624
 30
0.0
 10
5.1253496308
 20
6.7559592113
 30
0.0
 10
5.1258663828
 20
6.7789351227
 30
0.0
 10
5.1253754584
 20
6.8019116163
 30
0.0
 10
5.1238768215
 20
6.8248444505
 30
0.0
 10
5.1213720068
 20
6.8476893383
 30
0.0
 10
5.1178645087
 20
6.870401877
 30
0.0
 10
5.1133602353
 20
6.8929378272
 30
0.0
 10
5.1078663031
 20
6.9152537121
 30
0.0
 10
5.1013923948
 20
6.9373045067
 30
0.0
 10
5.0964305597
 20
6.9518011154
 30
0.0
 10
5.0937908882
 20
6.9589895837
 30
0.0
  0
SPLINE
  5
392
100
AcDbEntity
  8
0
100
AcDbSpline
 62
7
  6
CONTINUOUS
 70
0
 71
3
 72
23
 73
19
 74
0
 42
0.0000001
 43
0.0000001
 44
0.0000000001
 40
0.0
 40
0.0
 40
0.0
 40
0.0
 40
0.0624978608
 40
0.125001023
 40
0.1875000588
 40
0.2500000527
 40
0.3125002604
 40
0.3750001989
 40
0.4375002282
 40
0.5000002327
 40
0.5625002255
 40
0.6250002337
 40
0.6875001398
 40
0.7500002873
 40
0.8125002327
 40
0.8749991815
 40
0.9375022194
 40
1.0
 40
1.0
 40
1.0
 40
1.0
 10
4.1095389196
 20
6.6749003192
 30
0.0
 10
4.1116212943
 20
6.6666657476
 30
0.0
 10
4.1162017714
 20
6.6502977894
 30
0.0
 10
4.1242987018
 20
6.6261253386
 30
0.0
 10
4.1336034989
 20
6.602390597
 30
0.0
 10
4.1440924102
 20
6.5791554777
 30
0.0
 10
4.1557396633
 20
6.556478643
 30
0.0
 10
4.1685161529
 20
6.5344182969
 30
0.0
 10
4.1823899713
 20
6.5130310548
 30
0.0
 10
4.197326298
 20
6.4923718211
 30
0.0
 10
4.2132874606
 20
6.4724937041
 30
0.0
 10
4.2302332783
 20
6.4534480338
 30
0.0
 10
4.2481209145
 20
6.435283998
 30
0.0
 10
4.2669049774
 20
6.4180485834
 30
0.0
 10
4.2865376251
 20
6.4017866301
 30
0.0
 10
4.3069694884
 20
6.3865399577
 30
0.0
 10
4.3281473426
 20
6.3723494189
 30
0.0
 10
4.3427290729
 20
6.3636162777
 30
0.0
 10
4.3501243829
 20
6.3594385203
 30
0.0
  0
SPLINE
  5
393
100
AcDbEntity
  8
0
100
AcDbSpline
 62
7
  6
CONTINUOUS
 70
0
 71
3
 72
27
 73
23
 74
0
 42
0.0000001
 43
0.0000001
 44
0.0000000001
 40
0.0
 40
0.0
 40
0.0
 40
0.0
 40
0.0624954658
 40
0.0937490634
 40
0.1250009091
 40
0.1874971088
 40
0.2499945703
 40
0.2812467926
 40
0.312499044
 40
0.3749967404
 40
0.4374946722
 40
0.4999928243
 40
0.5624912143
 40
0.6249898578
 40
0.6874887168
 40
0.718741611
 40
0.7499946088
 40
0.8124941682
 40
0.8749928819
 40
0.9062460999
 40
0.9375011524
 40
1.0
 40
1.0
 40
1.0
 40
1.0
 10
4.6016649039
 20
6.2813903623
 30
0.0
 10
4.5912863913
 20
6.2809861551
 30
0.0
 10
4.5756937667
 20
6.2808537706
 30
0.0
 10
4.5549313447
 20
6.2816231621
 30
0.0
 10
4.5342010097
 20
6.2830217595
 30
0.0
 10
4.5083822547
 20
6.2859463995
 30
0.0
 10
4.4827872425
 20
6.2904251447
 30
0.0
 10
4.4625036952
 20
6.2949280142
 30
0.0
 10
4.442364882
 20
6.3000393319
 30
0.0
 10
4.4174928724
 20
6.3075610613
 30
0.0
 10
4.3882442231
 20
6.3183602311
 30
0.0
 10
4.3596936917
 20
6.3308904652
 30
0.0
 10
4.331942192
 20
6.345102985
 30
0.0
 10
4.3050869625
 20
6.3609430949
 30
0.0
 10
4.2835299004
 20
6.3754512848
 30
0.0
 10
4.2668257151
 20
6.3878077296
 30
0.0
 10
4.2504946966
 20
6.4006536134
 30
0.0
 10
4.2308048995
 20
6.4176090909
 30
0.0
 10
4.2121505458
 20
6.43569734
 30
0.0
 10
4.1978872954
 20
6.4508066859
 30
0.0
 10
4.1840753703
 20
6.4663288859
 30
0.0
 10
4.1742333968
 20
6.4784235979
 30
0.0
 10
4.1679166629
 20
6.4866690484
 30
0.0
  0
SPLINE
  5
394
100
AcDbEntity
  8
0
100
AcDbSpline
 62
7
  6
CONTINUOUS
 70
0
 71
3
 72
15
 73
11
 74
0
 42
0.0000001
 43
0.0000001
 44
0.0000000001
 40
0.0
 40
0.0
 40
0.0
 40
0.0
 40
0.1249997852
 40
0.2499995621
 40
0.3749994781
 40
0.4999994366
 40
0.6249994814
 40
0.7499995672
 40
0.8749997898
 40
1.0
 40
1.0
 40
1.0
 40
1.0
 10
4.1095389196
 20
6.9161918409
 30
0.0
 10
4.1064255255
 20
6.9050504098
 30
0.0
 10
4.1009600313
 20
6.8825467216
 30
0.0
 10
4.0950874897
 20
6.8483163597
 30
0.0
 10
4.0915612675
 20
6.8137637958
 30
0.0
 10
4.0903937241
 20
6.7790518892
 30
0.0
 10
4.0915854658
 20
6.7443408896
 30
0.0
 10
4.0951266225
 20
6.7097901117
 30
0.0
 10
4.1009958685
 20
6.6755595725
 30
0.0
 10
4.1064412803
 20
6.653051536
 30
0.0
 10
4.1095389196
 20
6.6419056736
 30
0.0
  0
ENDSEC
  0
SECTION
  2
OBJECTS
  0
DICTIONARY
  5
C
100
AcDbDictionary
280
0
281
1
  3
ACAD_GROUP
350
D
  3
ACAD_MLINESTYLE
350
17
  3
ACAD_LAYOUT
350
1A
  3
ACAD_PLOTSETTINGS
350
19
  3
ACAD_PLOTSTYLENAME
350
E
  0
DICTIONARY
  5
D
102
{ACAD_REACTORS
330
C
102
}
100
AcDbDictionary
280
0
281
1
  0
ACDBDICTIONARYWDFLT
  5
E
102
{ACAD_REACTORS
330
C
102
}
100
AcDbDictionary
281
1
  3
Normal
350
F
100
AcDbDictionaryWithDefault
340
F
  0
DICTIONARY
  5
17
102
{ACAD_REACTORS
330
C
102
}
100
AcDbDictionary
280
0
281
1
  3
Standard
350
18
  0
DICTIONARY
  5
19
102
{ACAD_REACTORS
330
C
102
}
100
AcDbDictionary
281
1
  0
DICTIONARY
  5
1A
102
{ACAD_REACTORS
330
C
102
}
100
AcDbDictionary
281
1
  3
Model
350
395
  3
Layout1
350
396
  0
ACDBPLACEHOLDER
  5
F
102
{ACAD_REACTORS
330
E
102
}
  0
MLINESTYLE
  5
18
102
{ACAD_REACTORS
330
17
102
}
100
AcDbMlineStyle
  2
STANDARD
 70
0
  3

 62
256
 51
90.0
 52
90.0
 71
2
 49
0.5
 62
256
  6
BYLAYER
 49
-0.5
 62
256
  6
BYLAYER
  0
LAYOUT
  5
395
102
{ACAD_REACTORS
330
1A
102
}
100
AcDbPlotSettings
  1

  2
none_device
  4
ANSI_A_(11.00_x_8.50_Inches)
  6

 40
0.0
 41
0.0
 42
0.0
 43
0.0
 44
279.4
 45
215.9
 46
0.0
 47
0.0
 48
0.0
 49
0.0
140
0.0
141
0.0
142
1.0
143
1.0
 70
1024
 72
0
 73
0
 74
0
  7

 75
0
147
1.0
148
0.0
149
0.0
100
AcDbLayout
  1
Model
 70
0
 71
0
 10
0.0
 20
0.0
 11
11.0
 21
8.5
 12
0.0
 22
0.0
 32
0.0
 14
0.0
 24
0.0
 34
0.0
 15
0.0
 25
0.0
 35
0.0
146
0.0
 13
0.0
 23
0.0
 33
0.0
 16
1.0
 26
0.0
 36
0.0
 17
0.0
 27
1.0
 37
0.0
 76
0
330
203
345
0
346
0
  0
LAYOUT
  5
396
102
{ACAD_REACTORS
330
1A
102
}
100
AcDbPlotSettings
  1

  2
none_device
  4
ANSI_A_(11.00_x_8.50_Inches)
  6

 40
0.0
 41
0.0
 42
0.0
 43
0.0
 44
279.4
 45
215.9
 46
0.0
 47
0.0
 48
0.0
 49
0.0
140
0.0
141
0.0
142
1.0
143
1.0
 70
0
 72
0
 73
0
 74
0
  7

 75
0
147
1.0
148
0.0
149
0.0
100
AcDbLayout
  1
Layout1
 70
0
 71
1
 10
0.0
 20
0.0
 11
11.0
 21
8.5
 12
0.0
 22
0.0
 32
0.0
 14
0.0
 24
0.0
 34
0.0
 15
0.0
 25
0.0
 35
0.0
146
0.0
 13
0.0
 23
0.0
 33
0.0
 16
1.0
 26
0.0
 36
0.0
 17
0.0
 27
1.0
 37
0.0
 76
0
330
204
345
0
346
0
  0
ENDSEC
  0
EOF
