999
DXF file: 20-258_right.dxf
999
Pro/ENGINEER 2018400 by Parametric Technology Corporation
  0
SECTION
  2
HEADER
  9
$ACADVER
  1
AC1027
  9
$DWGCODEPAGE
  3
ANSI_1252
  9
$EXTMAX
 10
11.0
 20
8.5
 30
0.0
  9
$EXTMIN
 10
0.0
 20
0.0
 30
0.0
  9
$LIMMIN
 10
0.0
 20
0.0
  9
$LIMMAX
 10
11.0
 20
8.5
  9
$VIEWCTR
 10
5.5
 20
4.25
  9
$VIEWSIZE
 40
8.5
  9
$CLAYER
  8
0
  9
$LTSCALE
 40
0.605
  9
$CELTYPE
  6
BYLAYER
  9
$DIMSCALE
 40
1.0
  9
$DIMASZ
 40
0.1
  9
$DIMEXO
 40
0.0625
  9
$DIMDLI
 40
0.418
  9
$DIMEXE
 40
0.125
  9
$DIMCEN
 40
0.099
  9
$DIMLFAC
 40
1.0
  9
$DIMBLK
  1
_FILLED
  9
$DIMALT
 70
1
  9
$DIMALTD
 70
2
  9
$DIMALTTD
 70
2
  9
$DIMALTF
 40
25.4
  9
$DIMTXT
 40
0.08
  9
$DIMTOL
 70
1
  9
$DIMLIM
 70
0
  9
$DIMTFAC
 40
1.0
  9
$DIMTP
 40
0.001
  9
$DIMTM
 40
0.001
  9
$DIMGAP
 40
0.09
  9
$DIMDSEP
 70
46
  9
$AUNITS
 70
0
  9
$PDMODE
 70
3
  9
$PDSIZE
 40
0.3125
  9
$HANDSEED
  5
226
  9
$TILEMODE
 70
1
  9
$MEASUREMENT
 70
0
  9
$INSUNITS
 70
1
  0
ENDSEC
  0
SECTION
  2
CLASSES
  0
CLASS
  1
ACDBDICTIONARYWDFLT
  2
AcDbDictionaryWithDefault
  3
AutoCAD 2000
 90
0
 91
1
280
0
281
0
  0
CLASS
  1
ACDBPLACEHOLDER
  2
AcDbPlaceHolder
  3
AutoCAD 2000
 90
0
 91
1
280
0
281
0
  0
CLASS
  1
LAYOUT
  2
AcDbLayout
  3
AutoCAD 2000
 90
0
 91
0
280
0
281
0
  0
ENDSEC
  0
SECTION
  2
TABLES
  0
TABLE
  2
VPORT
  5
8
100
AcDbSymbolTable
 70
2
  0
VPORT
  5
1F4
100
AcDbSymbolTableRecord
100
AcDbViewportTableRecord
  2
*ACTIVE
 70
0
 10
0.0
 20
0.0
 11
1.0
 21
1.0
 12
5.5
 22
4.25
 13
0.0
 23
0.0
 14
1.0
 24
1.0
 15
0.0
 25
0.0
 16
0.0
 26
0.0
 36
1.0
 17
0.0
 27
0.0
 37
0.0
 40
8.5
 41
1.2941176471
 42
50.0
 43
0.0
 44
0.0
 50
0.0
 51
0.0
 71
0
 72
100
 73
1
 74
1
 75
0
 76
0
 77
0
 78
0
  0
ENDTAB
  0
TABLE
  2
LTYPE
  5
5
100
AcDbSymbolTable
 70
6
  0
LTYPE
  5
14
100
AcDbSymbolTableRecord
100
AcDbLinetypeTableRecord
  2
BYBLOCK
 70
0
  3

 72
65
 73
0
 40
0.0
  0
LTYPE
  5
15
100
AcDbSymbolTableRecord
100
AcDbLinetypeTableRecord
  2
BYLAYER
 70
0
  3

 72
65
 73
0
 40
0.0
  0
LTYPE
  5
16
100
AcDbSymbolTableRecord
100
AcDbLinetypeTableRecord
  2
CONTINUOUS
 70
64
  3
Solid line
 72
65
 73
0
 40
0.0
  0
LTYPE
  5
1F5
100
AcDbSymbolTableRecord
100
AcDbLinetypeTableRecord
  2
CENTER
 70
64
  3
____ _ ____ _ ____ _ ____ _ ____ _ ____ _ ____
 72
65
 73
4
 40
0.6
 49
0.375
 74
0
 49
-0.075
 74
0
 49
0.075
 74
0
 49
-0.075
 74
0
  0
LTYPE
  5
1F6
100
AcDbSymbolTableRecord
100
AcDbLinetypeTableRecord
  2
HIDDEN
 70
64
  3
- - - - - - - - - - - - - - - - - - - -
 72
65
 73
2
 40
0.2
 49
0.1
 74
0
 49
-0.1
 74
0
  0
LTYPE
  5
1F7
100
AcDbSymbolTableRecord
100
AcDbLinetypeTableRecord
  2
PHANTOM
 70
64
  3
_____ _ _ _____ _ _ _____ _ _ _____
 72
65
 73
6
 40
0.8
 49
0.45
 74
0
 49
-0.05
 74
0
 49
0.1
 74
0
 49
-0.05
 74
0
 49
0.1
 74
0
 49
-0.05
 74
0
  0
LTYPE
  5
1F8
100
AcDbSymbolTableRecord
100
AcDbLinetypeTableRecord
  2
DOT
 70
64
  3
. . . . . . . . . . . . . . . . . . . .
 72
65
 73
2
 40
0.2
 49
0.1
 74
0
 49
-0.1
 74
0
  0
LTYPE
  5
1F9
100
AcDbSymbolTableRecord
100
AcDbLinetypeTableRecord
  2
DASHED
 70
64
  3
- - - - - - - - - - - - - - - - - - - -
 72
65
 73
2
 40
0.2
 49
0.1
 74
0
 49
-0.1
 74
0
  0
ENDTAB
  0
TABLE
  2
LAYER
  5
2
100
AcDbSymbolTable
 70
36
  0
LAYER
  5
10
100
AcDbSymbolTableRecord
100
AcDbLayerTableRecord
  2
0
 70
0
 62
7
  6
CONTINUOUS
370
-3
390
F
  0
LAYER
  5
1FA
100
AcDbSymbolTableRecord
100
AcDbLayerTableRecord
  2
DEFAULT_1
 70
0
 62
7
  6
CENTER
370
-3
390
F
  0
LAYER
  5
1FB
100
AcDbSymbolTableRecord
100
AcDbLayerTableRecord
  2
DEFAULT_2
 70
0
 62
8
  6
HIDDEN
370
-3
390
F
  0
LAYER
  5
1FC
100
AcDbSymbolTableRecord
100
AcDbLayerTableRecord
  2
DEFAULT_3
 70
0
 62
7
  6
PHANTOM
370
-3
390
F
  0
LAYER
  5
1FD
100
AcDbSymbolTableRecord
100
AcDbLayerTableRecord
  2
ALL_FEATURES
 70
0
 62
7
  6
CONTINUOUS
370
-3
390
F
  0
LAYER
  5
1FE
100
AcDbSymbolTableRecord
100
AcDbLayerTableRecord
  2
AXES_FEATURES
 70
0
 62
7
  6
CONTINUOUS
370
-3
390
F
  0
LAYER
  5
1FF
100
AcDbSymbolTableRecord
100
AcDbLayerTableRecord
  2
CUT_FEATURES
 70
0
 62
7
  6
CONTINUOUS
370
-3
390
F
  0
LAYER
  5
200
100
AcDbSymbolTableRecord
100
AcDbLayerTableRecord
  2
DATUM_CURVES
 70
0
 62
7
  6
CONTINUOUS
370
-3
390
F
  0
LAYER
  5
201
100
AcDbSymbolTableRecord
100
AcDbLayerTableRecord
  2
DATUM_PLANES
 70
0
 62
7
  6
CONTINUOUS
370
-3
390
F
  0
LAYER
  5
202
100
AcDbSymbolTableRecord
100
AcDbLayerTableRecord
  2
DATUM_POINTS
 70
0
 62
7
  6
CONTINUOUS
370
-3
390
F
  0
LAYER
  5
203
100
AcDbSymbolTableRecord
100
AcDbLayerTableRecord
  2
DEFAULT_COORDINATE_SYSTEM
 70
0
 62
7
  6
CONTINUOUS
370
-3
390
F
  0
LAYER
  5
204
100
AcDbSymbolTableRecord
100
AcDbLayerTableRecord
  2
DEFAULT_DATUM_AXES
 70
0
 62
7
  6
CONTINUOUS
370
-3
390
F
  0
LAYER
  5
205
100
AcDbSymbolTableRecord
100
AcDbLayerTableRecord
  2
DEFAULT_DATUM_PLANES
 70
0
 62
7
  6
CONTINUOUS
370
-3
390
F
  0
LAYER
  5
206
100
AcDbSymbolTableRecord
100
AcDbLayerTableRecord
  2
DIMENSIONS
 70
0
 62
7
  6
CONTINUOUS
370
-3
390
F
  0
LAYER
  5
207
100
AcDbSymbolTableRecord
100
AcDbLayerTableRecord
  2
PART_REFERENCE_DIMENSIONS
 70
0
 62
7
  6
CONTINUOUS
370
-3
390
F
  0
LAYER
  5
208
100
AcDbSymbolTableRecord
100
AcDbLayerTableRecord
  2
POINTS
 70
0
 62
7
  6
CONTINUOUS
370
-3
390
F
  0
LAYER
  5
209
100
AcDbSymbolTableRecord
100
AcDbLayerTableRecord
  2
PROTRUSION_FEATURES
 70
0
 62
7
  6
CONTINUOUS
370
-3
390
F
  0
LAYER
  5
20A
100
AcDbSymbolTableRecord
100
AcDbLayerTableRecord
  2
QUILTS
 70
0
 62
7
  6
CONTINUOUS
370
-3
390
F
  0
LAYER
  5
20B
100
AcDbSymbolTableRecord
100
AcDbLayerTableRecord
  2
REFERENCE_DIMENSIONS
 70
0
 62
7
  6
CONTINUOUS
370
-3
390
F
  0
LAYER
  5
20C
100
AcDbSymbolTableRecord
100
AcDbLayerTableRecord
  2
ROUND_FEATURES
 70
0
 62
7
  6
CONTINUOUS
370
-3
390
F
  0
ENDTAB
  0
TABLE
  2
STYLE
  5
3
100
AcDbSymbolTable
 70
1
  0
STYLE
  5
11
100
AcDbSymbolTableRecord
100
AcDbTextStyleTableRecord
  2
STANDARD
 70
0
 40
0.0
 41
0.8
 50
0.0
 71
0
 42
0.2
  3
txt
  4

  0
STYLE
  5
20D
100
AcDbSymbolTableRecord
100
AcDbTextStyleTableRecord
  2
TEXTSTYLE_1
 70
0
 40
0.0
 41
0.8
 50
0.0
 71
0
 42
0.2
  3
gdt
  4

  0
ENDTAB
  0
TABLE
  2
VIEW
  5
6
100
AcDbSymbolTable
 70
0
  0
ENDTAB
  0
TABLE
  2
UCS
  5
7
100
AcDbSymbolTable
 70
0
  0
ENDTAB
  0
TABLE
  2
APPID
  5
9
100
AcDbSymbolTable
 70
1
  0
APPID
  5
20E
100
AcDbSymbolTableRecord
100
AcDbRegAppTableRecord
  2
ACAD
 70
0
  0
ENDTAB
  0
TABLE
  2
BLOCK_RECORD
  5
1
100
AcDbSymbolTable
 70
0
  0
BLOCK_RECORD
  5
20F
100
AcDbSymbolTableRecord
100
AcDbBlockTableRecord
  2
*Model_Space
  0
BLOCK_RECORD
  5
210
100
AcDbSymbolTableRecord
100
AcDbBlockTableRecord
  2
*Paper_Space
  0
BLOCK_RECORD
  5
211
100
AcDbSymbolTableRecord
100
AcDbBlockTableRecord
  2
_FILLED
  0
ENDTAB
  0
TABLE
  2
DIMSTYLE
  5
A
100
AcDbSymbolTable
 70
1
100
AcDbDimStyleTable
 71
0
  0
DIMSTYLE
105
212
100
AcDbSymbolTableRecord
100
AcDbDimStyleTableRecord
  2
STANDARD
 70
0
  3

  4

 40
1.0
 41
0.1
 42
0.0625
 43
0.38
 44
0.125
 45
0.0
 46
0.0
 47
0.001
 48
0.001
140
0.08
141
0.09
142
0.0
143
25.4
144
1.0
145
0.0
146
1.0
147
0.09
 71
1.0
 72
0.0
 73
1
 74
1
 75
0
 76
0
 77
0
 78
4
 79
1
170
1
171
2
172
0
173
0
174
0
175
0
176
0
177
0
178
0
270
2
179
3
271
3
272
3
273
2
274
2
275
0
280
0
281
0
282
0
283
1
284
4
285
0
286
0
287
3
288
0
340
11
278
46
341
211
342
211
343
211
344
211
  0
ENDTAB
  0
ENDSEC
  0
SECTION
  2
BLOCKS
  0
BLOCK
  5
20
100
AcDbEntity
  8
0
100
AcDbBlockBegin
  2
*Model_Space
 70
0
 10
0.0
 20
0.0
 30
0.0
  3
*Model_Space
  1

  0
ENDBLK
  5
21
100
AcDbEntity
  8
0
100
AcDbBlockEnd
  0
BLOCK
  5
1C
100
AcDbEntity
  8
0
100
AcDbBlockBegin
  2
*Paper_Space
 70
0
 10
0.0
 20
0.0
 30
0.0
  3
*Paper_Space
  1

  0
ENDBLK
  5
1D
100
AcDbEntity
  8
0
100
AcDbBlockEnd
  0
BLOCK
  5
213
100
AcDbEntity
  8
0
100
AcDbBlockBegin
  2
_FILLED
 70
64
 10
0.0
 20
0.0
  3
_FILLED
  1

  0
SOLID
  5
214
100
AcDbEntity
  8
0
  6
BYBLOCK
 62
0
100
AcDbTrace
 10
0.0
 20
0.0
 11
-1.0
 21
0.2
 12
-1.0
 22
-0.2
 13
-1.0
 23
-0.2
  0
ENDBLK
  5
215
100
AcDbEntity
  8
0
  6
BYBLOCK
 62
0
100
AcDbBlockEnd
  0
ENDSEC
  0
SECTION
  2
ENTITIES
  0
MTEXT
  5
216
100
AcDbEntity
  8
0
100
AcDbMText
 62
2
  6
CONTINUOUS
  7
STANDARD
 71
3
 72
1
 10
6.6486267469
 20
2.3909707007
 30
0.0
 11
1.0
 21
0.0
 31
0.0
 73
2
 44
0.9
  1
SCALE  .500
 40
0.08
 41
0.704
  0
LINE
  5
217
100
AcDbEntity
  8
0
100
AcDbLine
 62
7
  6
CONTINUOUS
 10
0.0
 20
0.0
 11
0.0
 21
8.5
  0
LINE
  5
218
100
AcDbEntity
  8
0
100
AcDbLine
 62
7
  6
CONTINUOUS
 10
0.0
 20
0.0
 11
11.0
 21
0.0
  0
LINE
  5
219
100
AcDbEntity
  8
0
100
AcDbLine
 62
7
  6
CONTINUOUS
 10
0.0
 20
8.5
 11
11.0
 21
8.5
  0
LINE
  5
21A
100
AcDbEntity
  8
0
100
AcDbLine
 62
7
  6
CONTINUOUS
 10
11.0
 20
0.0
 11
11.0
 21
8.5
  0
LWPOLYLINE
  5
21B
100
AcDbEntity
  8
ALL_FEATURES
100
AcDbPolyline
 62
7
  6
CONTINUOUS
 90
58
 70
0
 10
3.5584989377
 20
4.403074936
 10
3.5975261944
 20
4.4516083687
 10
3.6457213721
 20
4.5068780834
 10
3.6959020478
 20
4.5596382793
 10
3.7477885672
 20
4.6096717849
 10
3.8013743762
 20
4.6570383721
 10
3.8569807556
 20
4.7020107172
 10
3.914545241
 20
4.744468926
 10
3.9739662506
 20
4.7842632344
 10
4.0355901209
 20
4.8215096647
 10
4.0993289071
 20
4.8560941852
 10
4.1650674414
 20
4.8879849933
 10
4.2331527867
 20
4.9173442245
 10
4.3034852657
 20
4.9440845542
 10
4.3759301735
 20
4.9681115141
 10
4.4508111029
 20
4.9894584396
 10
4.5282499092
 20
5.0080379923
 10
4.6078572796
 20
5.0236240963
 10
4.6892089514
 20
5.0360221314
 10
4.7723844938
 20
5.0451400278
 10
4.857063337
 20
5.0508369661
 10
4.9421928046
 20
5.0530017452
 10
5.0275588475
 20
5.0516452764
 10
5.1130786824
 20
5.0467553766
 10
5.197899562
 20
5.0383592483
 10
5.281748984
 20
5.0265075495
 10
5.3646548045
 20
5.0112159125
 10
5.4462329586
 20
4.9925790444
 10
5.5263246918
 20
4.9706753668
 10
5.6048421791
 20
4.9455699186
 10
5.6814767511
 20
4.9174010193
 10
5.7560397558
 20
4.8862769225
 10
5.8283402726
 20
4.8523107964
 10
5.8980906849
 20
4.815676619
 10
5.9651927781
 20
4.7764658277
 10
6.0294647694
 20
4.7348261859
 10
6.0906599064
 20
4.6911152128
 10
6.1489355957
 20
4.6456069437
 10
6.2044707268
 20
4.5985485821
 10
6.2572295631
 20
4.5503640374
 10
6.3072790289
 20
4.5013999386
 10
6.35488074
 20
4.4517909274
 10
6.4002850372
 20
4.4016302211
 10
6.4436021093
 20
4.3511259415
 10
6.4849718114
 20
4.3004303487
 10
6.5246473313
 20
4.2495064927
 10
6.5625176937
 20
4.1985203104
 10
6.5984330498
 20
4.1474969854
 10
6.6324674236
 20
4.0961287057
 10
6.6644820088
 20
4.0443893199
 10
6.6942530644
 20
3.9924062318
 10
6.7217035992
 20
3.9400717939
 10
6.7466788555
 20
3.8874068478
 10
6.7690123118
 20
3.8344687921
 10
6.7885985347
 20
3.7811936652
 10
6.8053020458
 20
3.7275813581
 10
6.8189661117
 20
3.6736973414
 10
6.8281444099
 20
3.6273915081
  0
LINE
  5
21C
100
AcDbEntity
  8
ALL_FEATURES
100
AcDbLine
 62
7
  6
CONTINUOUS
 10
3.3281444099
 20
4.5523915081
 11
3.5584989377
 21
4.403074936
  0
LINE
  5
21D
100
AcDbEntity
  8
ALL_FEATURES
100
AcDbLine
 62
7
  6
CONTINUOUS
 10
7.0031444099
 20
3.6273915081
 11
6.8281444099
 21
3.6273915081
  0
LINE
  5
21E
100
AcDbEntity
  8
ALL_FEATURES
100
AcDbLine
 62
7
  6
CONTINUOUS
 10
7.0031444099
 20
3.6779017653
 11
6.8697607091
 21
3.6779017653
  0
LWPOLYLINE
  5
21F
100
AcDbEntity
  8
ALL_FEATURES
100
AcDbPolyline
 62
7
  6
CONTINUOUS
 90
51
 70
0
 10
7.0031444099
 20
4.7273915081
 10
6.963079545
 20
4.7736481115
 10
6.9157970613
 20
4.8230641145
 10
6.8658728368
 20
4.8704124703
 10
6.8134551532
 20
4.9158384977
 10
6.7584889255
 20
4.9596227871
 10
6.7012040129
 20
5.0017866886
 10
6.6418193113
 20
5.0423753306
 10
6.580226399
 20
5.0816449281
 10
6.5166789019
 20
5.1196040844
 10
6.4514150044
 20
5.1562690665
 10
6.3841032153
 20
5.1917911438
 10
6.3146163321
 20
5.2260975814
 10
6.2429815746
 20
5.2590346591
 10
6.1689868031
 20
5.2905532778
 10
6.092556263
 20
5.3205296364
 10
6.0136459826
 20
5.3488242297
 10
5.9320926415
 20
5.3753185643
 10
5.847756594
 20
5.3997760461
 10
5.7608716494
 20
5.4217941466
 10
5.671916388
 20
5.4409235731
 10
5.5807858239
 20
5.456845816
 10
5.4878076083
 20
5.4691389616
 10
5.3941294337
 20
5.4774984211
 10
5.2999031004
 20
5.4822059034
 10
5.2051130663
 20
5.4836194218
 10
5.1106275902
 20
5.4821213591
 10
5.0167264775
 20
5.4781485257
 10
4.9232871434
 20
5.4720106234
 10
4.8306991609
 20
5.4633995691
 10
4.7392310789
 20
5.4517802768
 10
4.6491292531
 20
5.4366381144
 10
4.5607817873
 20
5.4175184493
 10
4.4744092504
 20
5.3939829326
 10
4.3901402556
 20
5.3659674685
 10
4.3081115077
 20
5.3340036625
 10
4.2284576905
 20
5.2986833356
 10
4.1509801568
 20
5.2604323771
 10
4.0753139859
 20
5.2195243195
 10
4.0014636171
 20
5.176375316
 10
3.9294329121
 20
5.1312968617
 10
3.8590042897
 20
5.0840795856
 10
3.7903299321
 20
5.0346352882
 10
3.7236526407
 20
4.9829406474
 10
3.6589609551
 20
4.9287626176
 10
3.5964224844
 20
4.8719782798
 10
3.5363082308
 20
4.8125515136
 10
3.4787916075
 20
4.7503490872
 10
3.4240891766
 20
4.6852655084
 10
3.3724530918
 20
4.6172303662
 10
3.3281444099
 20
4.5523915081
  0
LINE
  5
220
100
AcDbEntity
  8
ALL_FEATURES
100
AcDbLine
 62
7
  6
CONTINUOUS
 10
7.0031444099
 20
3.6273915081
 11
7.0031444099
 21
4.7273915081
  0
SPLINE
  5
221
100
AcDbEntity
  8
ALL_FEATURES
100
AcDbSpline
 62
7
  6
CONTINUOUS
 70
0
 71
3
 72
36
 73
32
 74
0
 42
0.0000001
 43
0.0000001
 44
0.0000000001
 40
0.0
 40
0.0
 40
0.0
 40
0.0
 40
0.0000624386
 40
0.0002497231
 40
0.000561822
 40
0.0009987036
 40
0.0015603366
 40
0.0022466893
 40
0.0039934279
 40
0.0062386672
 40
0.0089821553
 40
0.0122236399
 40
0.015962869
 40
0.0201995905
 40
0.0249335524
 40
0.0358921894
 40
0.0488367642
 40
0.0637652506
 40
0.0806743342
 40
0.0995582216
 40
0.12041084
 40
0.1432261198
 40
0.1947203982
 40
0.2539925664
 40
0.3209899104
 40
0.3956428786
 40
0.4778778552
 40
0.5676213534
 40
0.6647975559
 40
0.7693162684
 40
1.0
 40
1.0
 40
1.0
 40
1.0
 10
6.8281444101
 20
3.6273915082
 30
0.0
 10
6.8281437051
 20
3.6273926737
 30
0.0
 10
6.8281510713
 20
3.6273965366
 30
0.0
 10
6.8281552502
 20
3.6274061976
 30
0.0
 10
6.8281705401
 20
3.6274216459
 30
0.0
 10
6.8281880331
 20
3.6274435781
 30
0.0
 10
6.8282120891
 20
3.6274716515
 30
0.0
 10
6.8282540245
 20
3.6275216167
 30
0.0
 10
6.8283199123
 20
3.6275996483
 30
0.0
 10
6.8284145448
 20
3.6277120201
 30
0.0
 10
6.8285302393
 20
3.6278493383
 30
0.0
 10
6.828666887
 20
3.6280116029
 30
0.0
 10
6.8288245031
 20
3.6281988043
 30
0.0
 10
6.8290030594
 20
3.6284109362
 30
0.0
 10
6.8292829962
 20
3.6287435984
 30
0.0
 10
6.8296851494
 20
3.6292216952
 30
0.0
 10
6.8302302952
 20
3.6298701321
 30
0.0
 10
6.8308587863
 20
3.6306180941
 30
0.0
 10
6.8315703876
 20
3.6314654612
 30
0.0
 10
6.8323647221
 20
3.6324121176
 30
0.0
 10
6.8332413894
 20
3.6334578881
 30
0.0
 10
6.8345742632
 20
3.6350495501
 30
0.0
 10
6.8364432885
 20
3.6372854549
 30
0.0
 10
6.8389267964
 20
3.6402639694
 30
0.0
 10
6.8417293798
 20
3.6436342416
 30
0.0
 10
6.8448463866
 20
3.6473945703
 30
0.0
 10
6.8482729017
 20
3.651542873
 30
0.0
 10
6.8520038975
 20
3.6560769721
 30
0.0
 10
6.8560341348
 20
3.6609943854
 30
0.0
 10
6.8619979413
 20
3.6683025124
 30
0.0
 10
6.8666016102
 20
3.6739842828
 30
0.0
 10
6.8697607091
 20
3.6779017653
 30
0.0
  0
SPLINE
  5
222
100
AcDbEntity
  8
ALL_FEATURES
100
AcDbSpline
 62
7
  6
CONTINUOUS
 70
0
 71
3
 72
50
 73
46
 74
0
 42
0.0000001
 43
0.0000001
 44
0.0000000001
 40
0.0
 40
0.0
 40
0.0
 40
0.0
 40
0.0312469712
 40
0.0624939991
 40
0.0937424855
 40
0.1093693187
 40
0.1249957482
 40
0.1406219528
 40
0.1562476645
 40
0.1718734242
 40
0.1874992335
 40
0.2031247322
 40
0.2187505811
 40
0.2343765475
 40
0.2500026709
 40
0.2656288766
 40
0.2812552603
 40
0.3125037059
 40
0.3437519966
 40
0.3750003762
 40
0.4062488474
 40
0.4374974671
 40
0.4687461353
 40
0.4999947936
 40
0.5312434906
 40
0.562492195
 40
0.5937409153
 40
0.6093672014
 40
0.6249934416
 40
0.6562421375
 40
0.6874908051
 40
0.7187394555
 40
0.7499880544
 40
0.7812365592
 40
0.8124849656
 40
0.8281121174
 40
0.8437395825
 40
0.8593668266
 40
0.8749941647
 40
0.8906216055
 40
0.9062488028
 40
0.9218759867
 40
0.9375031175
 40
0.9687514157
 40
1.0
 40
1.0
 40
1.0
 40
1.0
 10
6.8697607091
 20
3.6779017653
 30
0.0
 10
6.8604754781
 20
3.7207292028
 30
0.0
 10
6.8363248154
 20
3.8052485045
 30
0.0
 10
6.7863189452
 20
3.9270582774
 30
0.0
 10
6.735468146
 20
4.0242625082
 30
0.0
 10
6.690496003
 20
4.0995168819
 30
0.0
 10
6.6548601728
 20
4.1547828576
 30
0.0
 10
6.6175576983
 20
4.2089310678
 30
0.0
 10
6.5788057343
 20
4.2620487699
 30
0.0
 10
6.5387740975
 20
4.3142059
 30
0.0
 10
6.4976268809
 20
4.3654867475
 30
0.0
 10
6.4553016817
 20
4.4158014734
 30
0.0
 10
6.4117255303
 20
4.4650382483
 30
0.0
 10
6.3668493215
 20
4.5130956376
 30
0.0
 10
6.3206277866
 20
4.5598624033
 30
0.0
 10
6.2730172967
 20
4.6052182668
 30
0.0
 10
6.2076519191
 20
4.6636375064
 30
0.0
 10
6.1223267944
 20
4.7325221146
 30
0.0
 10
6.0141283818
 20
4.8074341613
 30
0.0
 10
5.9004466263
 20
4.873729312
 30
0.0
 10
5.7822576997
 20
4.9315703452
 30
0.0
 10
5.660329141
 20
4.9810265711
 30
0.0
 10
5.5353582239
 20
5.0221743385
 30
0.0
 10
5.4079569755
 20
5.0550216088
 30
0.0
 10
5.278700287
 20
5.0795601164
 30
0.0
 10
5.1481499599
 20
5.0958278002
 30
0.0
 10
5.0387150768
 20
5.102551976
 30
0.0
 10
4.9510579815
 20
5.1038739771
 30
0.0
 10
4.8634019085
 20
5.1024793907
 30
0.0
 10
4.753974946
 20
5.0955823251
 30
0.0
 10
4.6234700608
 20
5.0789157133
 30
0.0
 10
4.4943346744
 20
5.0537150308
 30
0.0
 10
4.3671837985
 20
5.0198701432
 30
0.0
 10
4.2427191786
 20
4.9771745017
 30
0.0
 10
4.1418846354
 20
4.9340191751
 30
0.0
 10
4.0634337557
 20
4.8948694576
 30
0.0
 10
4.0058114171
 20
4.86316542
 30
0.0
 10
3.9495366336
 20
4.8291263997
 30
0.0
 10
3.8947262389
 20
4.7927764668
 30
0.0
 10
3.8414350324
 20
4.7542355493
 30
0.0
 10
3.7897213865
 20
4.7136037901
 30
0.0
 10
3.7396436292
 20
4.6709722945
 30
0.0
 10
3.6751365413
 20
4.6115934477
 30
0.0
 10
3.5988389781
 20
4.5328067294
 30
0.0
 10
3.5427205759
 20
4.4653555783
 30
0.0
 10
3.5159699251
 20
4.4306423836
 30
0.0
  0
SPLINE
  5
223
100
AcDbEntity
  8
ALL_FEATURES
100
AcDbSpline
 62
7
  6
CONTINUOUS
 70
0
 71
3
 72
69
 73
65
 74
0
 42
0.0000001
 43
0.0000001
 44
0.0000000001
 40
0.0
 40
0.0
 40
0.0
 40
0.0
 40
0.0312479831
 40
0.0624964439
 40
0.0937442653
 40
0.1093706208
 40
0.1249964508
 40
0.1406217581
 40
0.1562467297
 40
0.1640595131
 40
0.1718722169
 40
0.1874969838
 40
0.2031215903
 40
0.2187463705
 40
0.2499938646
 40
0.26561864
 40
0.2812433779
 40
0.2968682088
 40
0.3124931967
 40
0.3281180532
 40
0.3437430307
 40
0.3593681517
 40
0.3749936043
 40
0.3906190675
 40
0.398431904
 40
0.4062448205
 40
0.4218704844
 40
0.4374958431
 40
0.4531208975
 40
0.4687461638
 40
0.4999935323
 40
0.5156175292
 40
0.5312419172
 40
0.5390543451
 40
0.5468666928
 40
0.5624908106
 40
0.5781154951
 40
0.5937405366
 40
0.6093665354
 40
0.6249927495
 40
0.6328060486
 40
0.6406198685
 40
0.6484340498
 40
0.6562481913
 40
0.6640620496
 40
0.6718755739
 40
0.6796891121
 40
0.6875029499
 40
0.7031301789
 40
0.7187562088
 40
0.7343818601
 40
0.7500069184
 40
0.7656323634
 40
0.7812573662
 40
0.7968821508
 40
0.812507269
 40
0.8281322438
 40
0.8437574583
 40
0.8593828907
 40
0.8750085333
 40
0.9062562738
 40
0.9375039312
 40
0.9687520995
 40
1.0
 40
1.0
 40
1.0
 40
1.0
 10
7.0031444099
 20
4.6451974174
 30
0.0
 10
6.9775066001
 20
4.6801340565
 30
0.0
 10
6.9220246085
 20
4.746997545
 30
0.0
 10
6.8290584258
 20
4.838122637
 30
0.0
 10
6.7453344849
 20
4.9070738798
 30
0.0
 10
6.6755458265
 20
4.9584934698
 30
0.0
 10
6.6219631892
 20
4.9953256971
 30
0.0
 10
6.5673152267
 20
5.0305479771
 30
0.0
 10
6.5210032792
 20
5.0586642832
 30
0.0
 10
6.4835523038
 20
5.0804738423
 30
0.0
 10
6.4458535614
 20
5.101851771
 30
0.0
 10
6.3982765817
 20
5.1277643436
 30
0.0
 10
6.3404806312
 20
5.1575303902
 30
0.0
 10
6.2625194261
 20
5.1954085958
 30
0.0
 10
6.1832444497
 20
5.2305347514
 30
0.0
 10
6.1028083436
 20
5.2628269365
 30
0.0
 10
6.0419244225
 20
5.2856218532
 30
0.0
 10
5.980521086
 20
5.3069772663
 30
0.0
 10
5.9186331833
 20
5.3268863119
 30
0.0
 10
5.8562804781
 20
5.3452904263
 30
0.0
 10
5.7934836588
 20
5.362119531
 30
0.0
 10
5.7302685327
 20
5.3773077795
 30
0.0
 10
5.6666674331
 20
5.3907931895
 30
0.0
 10
5.6133703519
 20
5.4005419652
 30
0.0
 10
5.570575429
 20
5.4073957295
 30
0.0
 10
5.5276814239
 20
5.4136011129
 30
0.0
 10
5.4738958813
 20
5.4201457964
 30
0.0
 10
5.4091506762
 20
5.4260773438
 30
0.0
 10
5.3442626946
 20
5.4301429024
 30
0.0
 10
5.2576416898
 20
5.4333040683
 30
0.0
 10
5.1709391814
 20
5.4333770461
 30
0.0
 10
5.0843038239
 20
5.430885202
 30
0.0
 10
5.0301899836
 20
5.428374308
 30
0.0
 10
4.9869261021
 20
5.4258702237
 30
0.0
 10
4.943683962
 20
5.4230192476
 30
0.0
 10
4.8896808596
 20
5.4187298623
 30
0.0
 10
4.8249987111
 20
5.4122122786
 30
0.0
 10
4.7604920466
 20
5.4041035149
 30
0.0
 10
4.6962342511
 20
5.3941894097
 30
0.0
 10
4.642972261
 20
5.3842177709
 30
0.0
 10
4.6006024693
 20
5.3750796414
 30
0.0
 10
4.5689616597
 20
5.3676111592
 30
0.0
 10
4.5374737868
 20
5.3595174779
 30
0.0
 10
4.5061549196
 20
5.3507921695
 30
0.0
 10
4.4750215662
 20
5.3414292225
 30
0.0
 10
4.4440915516
 20
5.331417704
 30
0.0
 10
4.413373221
 20
5.3207747273
 30
0.0
 10
4.3727013751
 20
5.305786068
 30
0.0
 10
4.3223997844
 20
5.2856273555
 30
0.0
 10
4.2629092562
 20
5.259381952
 30
0.0
 10
4.2042977269
 20
5.2312372466
 30
0.0
 10
4.1465570932
 20
5.2013520096
 30
0.0
 10
4.0896556132
 20
5.1699038929
 30
0.0
 10
4.033543585
 20
5.1370702899
 30
0.0
 10
3.9782409636
 20
5.1028921047
 30
0.0
 10
3.9237638873
 20
5.067412773
 30
0.0
 10
3.8701861537
 20
5.030586567
 30
0.0
 10
3.8176080928
 20
4.992344697
 30
0.0
 10
3.7661219823
 20
4.9526408302
 30
0.0
 10
3.6990633458
 20
4.8977133706
 30
0.0
 10
3.6184538502
 20
4.8252111841
 30
0.0
 10
3.5278298613
 20
4.7318503694
 30
0.0
 10
3.4443283575
 20
4.6320525649
 30
0.0
 10
3.3940998832
 20
4.5612807006
 30
0.0
 10
3.3705291756
 20
4.5249175619
 30
0.0
  0
ENDSEC
  0
SECTION
  2
OBJECTS
  0
DICTIONARY
  5
C
100
AcDbDictionary
280
0
281
1
  3
ACAD_GROUP
350
D
  3
ACAD_MLINESTYLE
350
17
  3
ACAD_LAYOUT
350
1A
  3
ACAD_PLOTSETTINGS
350
19
  3
ACAD_PLOTSTYLENAME
350
E
  0
DICTIONARY
  5
D
102
{ACAD_REACTORS
330
C
102
}
100
AcDbDictionary
280
0
281
1
  0
ACDBDICTIONARYWDFLT
  5
E
102
{ACAD_REACTORS
330
C
102
}
100
AcDbDictionary
281
1
  3
Normal
350
F
100
AcDbDictionaryWithDefault
340
F
  0
DICTIONARY
  5
17
102
{ACAD_REACTORS
330
C
102
}
100
AcDbDictionary
280
0
281
1
  3
Standard
350
18
  0
DICTIONARY
  5
19
102
{ACAD_REACTORS
330
C
102
}
100
AcDbDictionary
281
1
  0
DICTIONARY
  5
1A
102
{ACAD_REACTORS
330
C
102
}
100
AcDbDictionary
281
1
  3
Model
350
224
  3
Layout1
350
225
  0
ACDBPLACEHOLDER
  5
F
102
{ACAD_REACTORS
330
E
102
}
  0
MLINESTYLE
  5
18
102
{ACAD_REACTORS
330
17
102
}
100
AcDbMlineStyle
  2
STANDARD
 70
0
  3

 62
256
 51
90.0
 52
90.0
 71
2
 49
0.5
 62
256
  6
BYLAYER
 49
-0.5
 62
256
  6
BYLAYER
  0
LAYOUT
  5
224
102
{ACAD_REACTORS
330
1A
102
}
100
AcDbPlotSettings
  1

  2
none_device
  4
ANSI_A_(11.00_x_8.50_Inches)
  6

 40
0.0
 41
0.0
 42
0.0
 43
0.0
 44
279.4
 45
215.9
 46
0.0
 47
0.0
 48
0.0
 49
0.0
140
0.0
141
0.0
142
1.0
143
1.0
 70
1024
 72
0
 73
0
 74
0
  7

 75
0
147
1.0
148
0.0
149
0.0
100
AcDbLayout
  1
Model
 70
0
 71
0
 10
0.0
 20
0.0
 11
11.0
 21
8.5
 12
0.0
 22
0.0
 32
0.0
 14
0.0
 24
0.0
 34
0.0
 15
0.0
 25
0.0
 35
0.0
146
0.0
 13
0.0
 23
0.0
 33
0.0
 16
1.0
 26
0.0
 36
0.0
 17
0.0
 27
1.0
 37
0.0
 76
0
330
20F
345
0
346
0
  0
LAYOUT
  5
225
102
{ACAD_REACTORS
330
1A
102
}
100
AcDbPlotSettings
  1

  2
none_device
  4
ANSI_A_(11.00_x_8.50_Inches)
  6

 40
0.0
 41
0.0
 42
0.0
 43
0.0
 44
279.4
 45
215.9
 46
0.0
 47
0.0
 48
0.0
 49
0.0
140
0.0
141
0.0
142
1.0
143
1.0
 70
0
 72
0
 73
0
 74
0
  7

 75
0
147
1.0
148
0.0
149
0.0
100
AcDbLayout
  1
Layout1
 70
0
 71
1
 10
0.0
 20
0.0
 11
11.0
 21
8.5
 12
0.0
 22
0.0
 32
0.0
 14
0.0
 24
0.0
 34
0.0
 15
0.0
 25
0.0
 35
0.0
146
0.0
 13
0.0
 23
0.0
 33
0.0
 16
1.0
 26
0.0
 36
0.0
 17
0.0
 27
1.0
 37
0.0
 76
0
330
210
345
0
346
0
  0
ENDSEC
  0
EOF
