999
DXF file: 20-275_FRONT.dxf
999
Pro/ENGINEER 2018400 by Parametric Technology Corporation
  0
SECTION
  2
HEADER
  9
$ACADVER
  1
AC1027
  9
$DWGCODEPAGE
  3
ANSI_1252
  9
$EXTMAX
 10
11.0
 20
8.5
 30
0.0
  9
$EXTMIN
 10
0.0
 20
0.0
 30
0.0
  9
$LIMMIN
 10
0.0
 20
0.0
  9
$LIMMAX
 10
11.0
 20
8.5
  9
$VIEWCTR
 10
5.5
 20
4.25
  9
$VIEWSIZE
 40
8.5
  9
$CLAYER
  8
0
  9
$LTSCALE
 40
0.605
  9
$CELTYPE
  6
BYLAYER
  9
$DIMSCALE
 40
1.0
  9
$DIMASZ
 40
0.1
  9
$DIMEXO
 40
0.0625
  9
$DIMDLI
 40
0.418
  9
$DIMEXE
 40
0.125
  9
$DIMCEN
 40
0.099
  9
$DIMLFAC
 40
1.0
  9
$DIMBLK
  1
_FILLED
  9
$DIMALT
 70
1
  9
$DIMALTD
 70
2
  9
$DIMALTTD
 70
2
  9
$DIMALTF
 40
25.4
  9
$DIMTXT
 40
0.08
  9
$DIMTOL
 70
1
  9
$DIMLIM
 70
0
  9
$DIMTFAC
 40
1.0
  9
$DIMTP
 40
0.001
  9
$DIMTM
 40
0.001
  9
$DIMGAP
 40
0.09
  9
$DIMDSEP
 70
46
  9
$AUNITS
 70
0
  9
$PDMODE
 70
3
  9
$PDSIZE
 40
0.3125
  9
$HANDSEED
  5
285
  9
$TILEMODE
 70
1
  9
$MEASUREMENT
 70
0
  9
$INSUNITS
 70
1
  0
ENDSEC
  0
SECTION
  2
CLASSES
  0
CLASS
  1
ACDBDICTIONARYWDFLT
  2
AcDbDictionaryWithDefault
  3
AutoCAD 2000
 90
0
 91
1
280
0
281
0
  0
CLASS
  1
ACDBPLACEHOLDER
  2
AcDbPlaceHolder
  3
AutoCAD 2000
 90
0
 91
1
280
0
281
0
  0
CLASS
  1
LAYOUT
  2
AcDbLayout
  3
AutoCAD 2000
 90
0
 91
0
280
0
281
0
  0
ENDSEC
  0
SECTION
  2
TABLES
  0
TABLE
  2
VPORT
  5
8
100
AcDbSymbolTable
 70
2
  0
VPORT
  5
1F4
100
AcDbSymbolTableRecord
100
AcDbViewportTableRecord
  2
*ACTIVE
 70
0
 10
0.0
 20
0.0
 11
1.0
 21
1.0
 12
5.5
 22
4.25
 13
0.0
 23
0.0
 14
1.0
 24
1.0
 15
0.0
 25
0.0
 16
0.0
 26
0.0
 36
1.0
 17
0.0
 27
0.0
 37
0.0
 40
8.5
 41
1.2941176471
 42
50.0
 43
0.0
 44
0.0
 50
0.0
 51
0.0
 71
0
 72
100
 73
1
 74
1
 75
0
 76
0
 77
0
 78
0
  0
ENDTAB
  0
TABLE
  2
LTYPE
  5
5
100
AcDbSymbolTable
 70
6
  0
LTYPE
  5
14
100
AcDbSymbolTableRecord
100
AcDbLinetypeTableRecord
  2
BYBLOCK
 70
0
  3

 72
65
 73
0
 40
0.0
  0
LTYPE
  5
15
100
AcDbSymbolTableRecord
100
AcDbLinetypeTableRecord
  2
BYLAYER
 70
0
  3

 72
65
 73
0
 40
0.0
  0
LTYPE
  5
16
100
AcDbSymbolTableRecord
100
AcDbLinetypeTableRecord
  2
CONTINUOUS
 70
64
  3
Solid line
 72
65
 73
0
 40
0.0
  0
LTYPE
  5
1F5
100
AcDbSymbolTableRecord
100
AcDbLinetypeTableRecord
  2
CENTER
 70
64
  3
____ _ ____ _ ____ _ ____ _ ____ _ ____ _ ____
 72
65
 73
4
 40
0.6
 49
0.375
 74
0
 49
-0.075
 74
0
 49
0.075
 74
0
 49
-0.075
 74
0
  0
LTYPE
  5
1F6
100
AcDbSymbolTableRecord
100
AcDbLinetypeTableRecord
  2
HIDDEN
 70
64
  3
- - - - - - - - - - - - - - - - - - - -
 72
65
 73
2
 40
0.2
 49
0.1
 74
0
 49
-0.1
 74
0
  0
LTYPE
  5
1F7
100
AcDbSymbolTableRecord
100
AcDbLinetypeTableRecord
  2
PHANTOM
 70
64
  3
_____ _ _ _____ _ _ _____ _ _ _____
 72
65
 73
6
 40
0.8
 49
0.45
 74
0
 49
-0.05
 74
0
 49
0.1
 74
0
 49
-0.05
 74
0
 49
0.1
 74
0
 49
-0.05
 74
0
  0
LTYPE
  5
1F8
100
AcDbSymbolTableRecord
100
AcDbLinetypeTableRecord
  2
DOT
 70
64
  3
. . . . . . . . . . . . . . . . . . . .
 72
65
 73
2
 40
0.2
 49
0.1
 74
0
 49
-0.1
 74
0
  0
LTYPE
  5
1F9
100
AcDbSymbolTableRecord
100
AcDbLinetypeTableRecord
  2
DASHED
 70
64
  3
- - - - - - - - - - - - - - - - - - - -
 72
65
 73
2
 40
0.2
 49
0.1
 74
0
 49
-0.1
 74
0
  0
ENDTAB
  0
TABLE
  2
LAYER
  5
2
100
AcDbSymbolTable
 70
36
  0
LAYER
  5
10
100
AcDbSymbolTableRecord
100
AcDbLayerTableRecord
  2
0
 70
0
 62
7
  6
CONTINUOUS
370
-3
390
F
  0
LAYER
  5
1FA
100
AcDbSymbolTableRecord
100
AcDbLayerTableRecord
  2
DEFAULT_1
 70
0
 62
7
  6
CENTER
370
-3
390
F
  0
LAYER
  5
1FB
100
AcDbSymbolTableRecord
100
AcDbLayerTableRecord
  2
DEFAULT_2
 70
0
 62
8
  6
HIDDEN
370
-3
390
F
  0
LAYER
  5
1FC
100
AcDbSymbolTableRecord
100
AcDbLayerTableRecord
  2
DEFAULT_3
 70
0
 62
7
  6
PHANTOM
370
-3
390
F
  0
LAYER
  5
1FD
100
AcDbSymbolTableRecord
100
AcDbLayerTableRecord
  2
ALL_FEATURES
 70
0
 62
7
  6
CONTINUOUS
370
-3
390
F
  0
LAYER
  5
1FE
100
AcDbSymbolTableRecord
100
AcDbLayerTableRecord
  2
AXES_FEATURES
 70
0
 62
7
  6
CONTINUOUS
370
-3
390
F
  0
LAYER
  5
1FF
100
AcDbSymbolTableRecord
100
AcDbLayerTableRecord
  2
CHAMFER_FEATURES
 70
0
 62
7
  6
CONTINUOUS
370
-3
390
F
  0
LAYER
  5
200
100
AcDbSymbolTableRecord
100
AcDbLayerTableRecord
  2
CUT_FEATURES
 70
0
 62
7
  6
CONTINUOUS
370
-3
390
F
  0
LAYER
  5
201
100
AcDbSymbolTableRecord
100
AcDbLayerTableRecord
  2
DEFAULT_COORDINATE_SYSTEM
 70
0
 62
7
  6
CONTINUOUS
370
-3
390
F
  0
LAYER
  5
202
100
AcDbSymbolTableRecord
100
AcDbLayerTableRecord
  2
DEFAULT_DATUM_AXES
 70
0
 62
7
  6
CONTINUOUS
370
-3
390
F
  0
LAYER
  5
203
100
AcDbSymbolTableRecord
100
AcDbLayerTableRecord
  2
DEFAULT_DATUM_CURVES
 70
0
 62
7
  6
CONTINUOUS
370
-3
390
F
  0
LAYER
  5
204
100
AcDbSymbolTableRecord
100
AcDbLayerTableRecord
  2
DEFAULT_DATUM_PLANES
 70
0
 62
7
  6
CONTINUOUS
370
-3
390
F
  0
LAYER
  5
205
100
AcDbSymbolTableRecord
100
AcDbLayerTableRecord
  2
DEFAULT_SURFACES
 70
0
 62
7
  6
CONTINUOUS
370
-3
390
F
  0
LAYER
  5
206
100
AcDbSymbolTableRecord
100
AcDbLayerTableRecord
  2
DIMENSIONS
 70
0
 62
7
  6
CONTINUOUS
370
-3
390
F
  0
LAYER
  5
207
100
AcDbSymbolTableRecord
100
AcDbLayerTableRecord
  2
PROTRUSION_FEATURES
 70
0
 62
7
  6
CONTINUOUS
370
-3
390
F
  0
LAYER
  5
208
100
AcDbSymbolTableRecord
100
AcDbLayerTableRecord
  2
QUILTS
 70
0
 62
7
  6
CONTINUOUS
370
-3
390
F
  0
LAYER
  5
209
100
AcDbSymbolTableRecord
100
AcDbLayerTableRecord
  2
ROUND_FEATURES
 70
0
 62
7
  6
CONTINUOUS
370
-3
390
F
  0
LAYER
  5
20A
100
AcDbSymbolTableRecord
100
AcDbLayerTableRecord
  2
XSEC_DATUMS
 70
0
 62
7
  6
CONTINUOUS
370
-3
390
F
  0
ENDTAB
  0
TABLE
  2
STYLE
  5
3
100
AcDbSymbolTable
 70
1
  0
STYLE
  5
11
100
AcDbSymbolTableRecord
100
AcDbTextStyleTableRecord
  2
STANDARD
 70
0
 40
0.0
 41
0.8
 50
0.0
 71
0
 42
0.2
  3
txt
  4

  0
STYLE
  5
20B
100
AcDbSymbolTableRecord
100
AcDbTextStyleTableRecord
  2
TEXTSTYLE_1
 70
0
 40
0.0
 41
0.8
 50
0.0
 71
0
 42
0.2
  3
gdt
  4

  0
ENDTAB
  0
TABLE
  2
VIEW
  5
6
100
AcDbSymbolTable
 70
0
  0
ENDTAB
  0
TABLE
  2
UCS
  5
7
100
AcDbSymbolTable
 70
0
  0
ENDTAB
  0
TABLE
  2
APPID
  5
9
100
AcDbSymbolTable
 70
1
  0
APPID
  5
20C
100
AcDbSymbolTableRecord
100
AcDbRegAppTableRecord
  2
ACAD
 70
0
  0
ENDTAB
  0
TABLE
  2
BLOCK_RECORD
  5
1
100
AcDbSymbolTable
 70
0
  0
BLOCK_RECORD
  5
20D
100
AcDbSymbolTableRecord
100
AcDbBlockTableRecord
  2
*Model_Space
  0
BLOCK_RECORD
  5
20E
100
AcDbSymbolTableRecord
100
AcDbBlockTableRecord
  2
*Paper_Space
  0
BLOCK_RECORD
  5
20F
100
AcDbSymbolTableRecord
100
AcDbBlockTableRecord
  2
_FILLED
  0
ENDTAB
  0
TABLE
  2
DIMSTYLE
  5
A
100
AcDbSymbolTable
 70
1
100
AcDbDimStyleTable
 71
0
  0
DIMSTYLE
105
210
100
AcDbSymbolTableRecord
100
AcDbDimStyleTableRecord
  2
STANDARD
 70
0
  3

  4

 40
1.0
 41
0.1
 42
0.0625
 43
0.38
 44
0.125
 45
0.0
 46
0.0
 47
0.001
 48
0.001
140
0.08
141
0.09
142
0.0
143
25.4
144
1.0
145
0.0
146
1.0
147
0.09
 71
1.0
 72
0.0
 73
1
 74
1
 75
0
 76
0
 77
0
 78
4
 79
1
170
1
171
2
172
0
173
0
174
0
175
0
176
0
177
0
178
0
270
2
179
3
271
3
272
3
273
2
274
2
275
0
280
0
281
0
282
0
283
1
284
4
285
0
286
0
287
3
288
0
340
11
278
46
341
20F
342
20F
343
20F
344
20F
  0
ENDTAB
  0
ENDSEC
  0
SECTION
  2
BLOCKS
  0
BLOCK
  5
20
100
AcDbEntity
  8
0
100
AcDbBlockBegin
  2
*Model_Space
 70
0
 10
0.0
 20
0.0
 30
0.0
  3
*Model_Space
  1

  0
ENDBLK
  5
21
100
AcDbEntity
  8
0
100
AcDbBlockEnd
  0
BLOCK
  5
1C
100
AcDbEntity
  8
0
100
AcDbBlockBegin
  2
*Paper_Space
 70
0
 10
0.0
 20
0.0
 30
0.0
  3
*Paper_Space
  1

  0
ENDBLK
  5
1D
100
AcDbEntity
  8
0
100
AcDbBlockEnd
  0
BLOCK
  5
211
100
AcDbEntity
  8
0
100
AcDbBlockBegin
  2
_FILLED
 70
64
 10
0.0
 20
0.0
  3
_FILLED
  1

  0
SOLID
  5
212
100
AcDbEntity
  8
0
  6
BYBLOCK
 62
0
100
AcDbTrace
 10
0.0
 20
0.0
 11
-1.0
 21
0.2
 12
-1.0
 22
-0.2
 13
-1.0
 23
-0.2
  0
ENDBLK
  5
213
100
AcDbEntity
  8
0
  6
BYBLOCK
 62
0
100
AcDbBlockEnd
  0
ENDSEC
  0
SECTION
  2
ENTITIES
  0
LINE
  5
214
100
AcDbEntity
  8
0
100
AcDbLine
 62
7
  6
CONTINUOUS
 10
0.0
 20
0.0
 11
0.0
 21
8.5
  0
LINE
  5
215
100
AcDbEntity
  8
0
100
AcDbLine
 62
7
  6
CONTINUOUS
 10
0.0
 20
0.0
 11
11.0
 21
0.0
  0
LINE
  5
216
100
AcDbEntity
  8
0
100
AcDbLine
 62
7
  6
CONTINUOUS
 10
0.0
 20
8.5
 11
11.0
 21
8.5
  0
LINE
  5
217
100
AcDbEntity
  8
0
100
AcDbLine
 62
7
  6
CONTINUOUS
 10
11.0
 20
0.0
 11
11.0
 21
8.5
  0
LINE
  5
218
100
AcDbEntity
  8
ALL_FEATURES
100
AcDbLine
 62
7
  6
CONTINUOUS
 10
5.1158043242
 20
2.6739919229
 11
5.119312476
 21
2.6737315657
  0
LINE
  5
219
100
AcDbEntity
  8
ALL_FEATURES
100
AcDbLine
 62
7
  6
CONTINUOUS
 10
4.0229716913
 20
2.7779800608
 11
4.0264658664
 21
2.7782393808
  0
LINE
  5
21A
100
AcDbEntity
  8
ALL_FEATURES
100
AcDbLine
 62
7
  6
CONTINUOUS
 10
4.030867206
 20
2.7472975724
 11
4.02562458
 21
2.7469181721
  0
LINE
  5
21B
100
AcDbEntity
  8
ALL_FEATURES
100
AcDbLine
 62
7
  6
CONTINUOUS
 10
4.0123601366
 20
2.9022276153
 11
4.0088659614
 21
2.9019682954
  0
LINE
  5
21C
100
AcDbEntity
  8
0
100
AcDbLine
 62
7
  6
CONTINUOUS
 10
4.1380611289
 20
5.1841658491
 11
4.1436501796
 21
5.1913538381
  0
LINE
  5
21D
100
AcDbEntity
  8
0
100
AcDbLine
 62
7
  6
CONTINUOUS
 10
4.1922473151
 20
5.2538538381
 11
4.2256490667
 21
5.2968112973
  0
LINE
  5
21E
100
AcDbEntity
  8
ALL_FEATURES
100
AcDbLine
 62
7
  6
CONTINUOUS
 10
4.0044646219
 20
2.9329101037
 11
4.0097072479
 21
2.933289504
  0
LINE
  5
21F
100
AcDbEntity
  8
ALL_FEATURES
100
AcDbLine
 62
7
  6
CONTINUOUS
 10
4.6178804828
 20
5.0351038381
 11
4.6055092123
 21
5.0277426221
  0
LINE
  5
220
100
AcDbEntity
  8
ALL_FEATURES
100
AcDbLine
 62
7
  6
CONTINUOUS
 10
4.6104006316
 20
5.0338565299
 11
4.6046319115
 21
5.030467695
  0
LINE
  5
221
100
AcDbEntity
  8
ALL_FEATURES
100
AcDbLine
 62
7
  6
CONTINUOUS
 10
4.7156609363
 20
5.0787719541
 11
4.7196817312
 21
5.0811038381
  0
LINE
  5
222
100
AcDbEntity
  8
ALL_FEATURES
100
AcDbLine
 62
7
  6
CONTINUOUS
 10
4.616644454
 20
5.0704039759
 11
4.6038456491
 21
5.0629858441
  0
LINE
  5
223
100
AcDbEntity
  8
ALL_FEATURES
100
AcDbLine
 62
7
  6
CONTINUOUS
 10
4.616644454
 20
5.052546833
 11
4.6038456491
 21
5.0451287013
  0
LWPOLYLINE
  5
224
100
AcDbEntity
  8
ALL_FEATURES
100
AcDbPolyline
 62
7
  6
CONTINUOUS
 90
3
 70
0
 10
4.7156609363
 20
5.0609148113
 10
4.7257012909
 20
5.0667351923
 10
4.7284597415
 20
5.0683329432
  0
LWPOLYLINE
  5
225
100
AcDbEntity
  8
ALL_FEATURES
100
AcDbPolyline
 62
7
  6
CONTINUOUS
 90
3
 70
0
 10
4.7156609363
 20
5.0430576684
 10
4.7257012909
 20
5.0488780495
 10
4.7284597415
 20
5.0504758004
  0
LINE
  5
226
100
AcDbEntity
  8
ALL_FEATURES
100
AcDbLine
 62
7
  6
CONTINUOUS
 10
4.6034026952
 20
3.3966038381
 11
4.7289026952
 21
3.3966038381
  0
LINE
  5
227
100
AcDbEntity
  8
ALL_FEATURES
100
AcDbLine
 62
7
  6
CONTINUOUS
 10
4.3824026952
 20
3.5006038381
 11
4.5699026952
 21
3.5006038381
  0
LINE
  5
228
100
AcDbEntity
  8
0
100
AcDbLine
 62
7
  6
CONTINUOUS
 10
4.1349026952
 20
5.0901038381
 11
4.1349026952
 21
5.1749583899
  0
LINE
  5
229
100
AcDbEntity
  8
ALL_FEATURES
100
AcDbLine
 62
7
  6
CONTINUOUS
 10
4.3824026952
 20
3.5006038381
 11
4.3824026952
 21
5.0811038381
  0
LINE
  5
22A
100
AcDbEntity
  8
ALL_FEATURES
100
AcDbLine
 62
7
  6
CONTINUOUS
 10
4.4450607651
 20
5.3151038381
 11
4.4450607651
 21
5.3026038381
  0
LINE
  5
22B
100
AcDbEntity
  8
ALL_FEATURES
100
AcDbLine
 62
7
  6
CONTINUOUS
 10
4.5075607651
 20
5.3151038381
 11
4.5075607651
 21
5.3026038381
  0
LINE
  5
22C
100
AcDbEntity
  8
ALL_FEATURES
100
AcDbLine
 62
7
  6
CONTINUOUS
 10
4.5699026952
 20
3.5006038381
 11
4.5699026952
 21
5.0811038381
  0
LINE
  5
22D
100
AcDbEntity
  8
ALL_FEATURES
100
AcDbLine
 62
7
  6
CONTINUOUS
 10
4.6212776952
 20
4.9861038381
 11
4.6200326441
 21
5.0087411306
  0
LINE
  5
22E
100
AcDbEntity
  8
ALL_FEATURES
100
AcDbLine
 62
7
  6
CONTINUOUS
 10
4.6034026952
 20
3.3966038381
 11
4.6034026952
 21
4.9861038381
  0
LINE
  5
22F
100
AcDbEntity
  8
ALL_FEATURES
100
AcDbLine
 62
7
  6
CONTINUOUS
 10
4.6036526952
 20
5.0111038381
 11
4.6036526952
 21
5.0293220083
  0
LINE
  5
230
100
AcDbEntity
  8
ALL_FEATURES
100
AcDbLine
 62
7
  6
CONTINUOUS
 10
4.6036526952
 20
5.0394967789
 11
4.6036526952
 21
5.0449053205
  0
LINE
  5
231
100
AcDbEntity
  8
ALL_FEATURES
100
AcDbLine
 62
7
  6
CONTINUOUS
 10
4.6036526952
 20
5.0596277524
 11
4.6036526952
 21
5.0627624634
  0
LINE
  5
232
100
AcDbEntity
  8
ALL_FEATURES
100
AcDbLine
 62
7
  6
CONTINUOUS
 10
4.6036526952
 20
5.0774848953
 11
4.6036526952
 21
5.0806196063
  0
LINE
  5
233
100
AcDbEntity
  8
ALL_FEATURES
100
AcDbLine
 62
7
  6
CONTINUOUS
 10
4.6349026952
 20
5.3026038381
 11
4.6349026952
 21
5.3151038381
  0
LINE
  5
234
100
AcDbEntity
  8
ALL_FEATURES
100
AcDbLine
 62
7
  6
CONTINUOUS
 10
4.7110276952
 20
4.9861038381
 11
4.7122727463
 21
5.0087411306
  0
LINE
  5
235
100
AcDbEntity
  8
ALL_FEATURES
100
AcDbLine
 62
7
  6
CONTINUOUS
 10
4.6974026952
 20
5.3026038381
 11
4.6974026952
 21
5.3151038381
  0
LINE
  5
236
100
AcDbEntity
  8
ALL_FEATURES
100
AcDbLine
 62
7
  6
CONTINUOUS
 10
4.7286526952
 20
5.0111038381
 11
4.7286526952
 21
5.0359767491
  0
LINE
  5
237
100
AcDbEntity
  8
ALL_FEATURES
100
AcDbLine
 62
7
  6
CONTINUOUS
 10
4.7286526952
 20
5.050699181
 11
4.7286526952
 21
5.053833892
  0
LINE
  5
238
100
AcDbEntity
  8
ALL_FEATURES
100
AcDbLine
 62
7
  6
CONTINUOUS
 10
4.7286526952
 20
5.0685563238
 11
4.7286526952
 21
5.0716910348
  0
LINE
  5
239
100
AcDbEntity
  8
ALL_FEATURES
100
AcDbLine
 62
7
  6
CONTINUOUS
 10
4.7289026952
 20
3.3966038381
 11
4.7289026952
 21
4.9861038381
  0
LINE
  5
23A
100
AcDbEntity
  8
0
100
AcDbLine
 62
7
  6
CONTINUOUS
 10
5.1974026952
 20
5.0901038381
 11
5.1974026952
 21
5.1749583899
  0
LINE
  5
23B
100
AcDbEntity
  8
ALL_FEATURES
100
AcDbLine
 62
7
  6
CONTINUOUS
 10
4.6034115988
 20
4.9861038381
 11
4.7288937916
 21
4.9861038381
  0
LINE
  5
23C
100
AcDbEntity
  8
ALL_FEATURES
100
AcDbLine
 62
7
  6
CONTINUOUS
 10
4.6038456489
 20
5.0594043718
 11
4.6161612905
 21
5.0522665357
  0
LINE
  5
23D
100
AcDbEntity
  8
ALL_FEATURES
100
AcDbLine
 62
7
  6
CONTINUOUS
 10
4.6038456489
 20
5.0772615147
 11
4.6161612905
 21
5.0701236786
  0
LINE
  5
23E
100
AcDbEntity
  8
ALL_FEATURES
100
AcDbLine
 62
7
  6
CONTINUOUS
 10
4.7284597413
 20
5.0362001298
 11
4.7161441
 21
5.0433379643
  0
LINE
  5
23F
100
AcDbEntity
  8
ALL_FEATURES
100
AcDbLine
 62
7
  6
CONTINUOUS
 10
4.7284597413
 20
5.0540572727
 11
4.7161441
 21
5.0611951072
  0
LINE
  5
240
100
AcDbEntity
  8
ALL_FEATURES
100
AcDbLine
 62
7
  6
CONTINUOUS
 10
4.6055092123
 20
5.042465054
 11
4.6178804828
 21
5.0351038381
  0
LINE
  5
241
100
AcDbEntity
  8
ALL_FEATURES
100
AcDbLine
 62
7
  6
CONTINUOUS
 10
4.6069191858
 20
5.035551985
 11
4.6100412677
 21
5.0336451129
  0
LINE
  5
242
100
AcDbEntity
  8
ALL_FEATURES
100
AcDbLine
 62
7
  6
CONTINUOUS
 10
4.6200326441
 20
5.0087411304
 11
4.7122727463
 21
5.0087411304
  0
LINE
  5
243
100
AcDbEntity
  8
ALL_FEATURES
100
AcDbLine
 62
7
  6
CONTINUOUS
 10
4.6036537941
 20
5.0111038381
 11
4.7286515964
 21
5.0111038381
  0
LINE
  5
244
100
AcDbEntity
  8
0
100
AcDbLine
 62
7
  6
CONTINUOUS
 10
5.1104026952
 20
5.0811038381
 11
4.2219026952
 21
5.0811038381
  0
LINE
  5
245
100
AcDbEntity
  8
ALL_FEATURES
100
AcDbLine
 62
7
  6
CONTINUOUS
 10
5.1974026952
 20
5.0901038381
 11
4.1349026952
 21
5.0901038381
  0
LINE
  5
246
100
AcDbEntity
  8
ALL_FEATURES
100
AcDbLine
 62
7
  6
CONTINUOUS
 10
4.7284597413
 20
5.0719144155
 11
4.7161441
 21
5.07905225
  0
LINE
  5
247
100
AcDbEntity
  8
0
100
AcDbLine
 62
7
  6
CONTINUOUS
 10
4.1349026952
 20
5.1749583899
 11
5.1974026952
 21
5.1749583899
  0
LINE
  5
248
100
AcDbEntity
  8
0
100
AcDbLine
 62
7
  6
CONTINUOUS
 10
4.1380611289
 20
5.1841658491
 11
5.1942442616
 21
5.1841658491
  0
LINE
  5
249
100
AcDbEntity
  8
0
100
AcDbLine
 62
7
  6
CONTINUOUS
 10
4.2256490667
 20
5.2968112973
 11
5.1066563238
 21
5.2968112973
  0
LINE
  5
24A
100
AcDbEntity
  8
0
100
AcDbLine
 62
7
  6
CONTINUOUS
 10
4.237490633
 20
5.3026038381
 11
5.0948147574
 21
5.3026038381
  0
LINE
  5
24B
100
AcDbEntity
  8
0
100
AcDbLine
 62
7
  6
CONTINUOUS
 10
5.1942442616
 20
5.1841658491
 11
5.1066563238
 21
5.2968112973
  0
LINE
  5
24C
100
AcDbEntity
  8
ALL_FEATURES
100
AcDbLine
 62
7
  6
CONTINUOUS
 10
4.5075607651
 20
5.3151038381
 11
4.4450607651
 21
5.3151038381
  0
LINE
  5
24D
100
AcDbEntity
  8
ALL_FEATURES
100
AcDbLine
 62
7
  6
CONTINUOUS
 10
4.6349026952
 20
5.3151038381
 11
4.6974026952
 21
5.3151038381
  0
ARC
  5
24E
100
AcDbEntity
  8
0
100
AcDbCircle
 62
7
  6
CONTINUOUS
 10
5.1104026952
 20
5.1068538381
 40
0.02575
100
AcDbArc
 50
270.0
 51
319.4015915452
  0
ARC
  5
24F
100
AcDbEntity
  8
0
100
AcDbCircle
 62
7
  6
CONTINUOUS
 10
4.2219026952
 20
5.1068538381
 40
0.02575
100
AcDbArc
 50
220.5984084548
 51
270.0
  0
ARC
  5
250
100
AcDbEntity
  8
0
100
AcDbCircle
 62
7
  6
CONTINUOUS
 10
4.1499026952
 20
5.1749583899
 40
0.015
100
AcDbArc
 50
142.1329999997
 51
180.0
  0
ARC
  5
251
100
AcDbEntity
  8
0
100
AcDbCircle
 62
7
  6
CONTINUOUS
 10
5.1824026952
 20
5.1749583899
 40
0.015
100
AcDbArc
 50
0.0
 51
37.8670000003
  0
ARC
  5
252
100
AcDbEntity
  8
0
100
AcDbCircle
 62
7
  6
CONTINUOUS
 10
4.237490633
 20
5.2876038381
 40
0.015
100
AcDbArc
 50
90.0
 51
142.1329999999
  0
ARC
  5
253
100
AcDbEntity
  8
0
100
AcDbCircle
 62
7
  6
CONTINUOUS
 10
5.0948147574
 20
5.2876038381
 40
0.015
100
AcDbArc
 50
37.8670000001
 51
90.0
  0
ARC
  5
254
100
AcDbEntity
  8
ALL_FEATURES
100
AcDbCircle
 62
7
  6
CONTINUOUS
 10
4.6175364168
 20
5.0086038381
 40
0.0025
100
AcDbArc
 50
3.1480960996
 51
90.0
  0
ARC
  5
255
100
AcDbEntity
  8
ALL_FEATURES
100
AcDbCircle
 62
7
  6
CONTINUOUS
 10
4.7147689736
 20
5.0086038381
 40
0.0025
100
AcDbArc
 50
90.0
 51
176.8519039004
  0
SPLINE
  5
256
100
AcDbEntity
  8
ALL_FEATURES
100
AcDbSpline
 62
7
  6
CONTINUOUS
 70
0
 71
3
 72
15
 73
11
 74
0
 42
0.0000001
 43
0.0000001
 44
0.0000000001
 40
0.0
 40
0.0
 40
0.0
 40
0.0
 40
0.1699593674
 40
0.3246939118
 40
0.4648455416
 40
0.5914096273
 40
0.7058303799
 40
0.8101256908
 40
0.9070257479
 40
1.0
 40
1.0
 40
1.0
 40
1.0
 10
4.6069191679
 20
5.035551987
 30
0.0
 10
4.6066611823
 20
5.0357091523
 30
0.0
 10
4.6061757682
 20
5.0360219999
 30
0.0
 10
4.6055109853
 20
5.0365137555
 30
0.0
 10
4.6049451179
 20
5.0370060643
 30
0.0
 10
4.6044789043
 20
5.0374993764
 30
0.0
 10
4.6041130805
 20
5.0379943813
 30
0.0
 10
4.6038489232
 20
5.038492144
 30
0.0
 10
4.6036887682
 20
5.0389930696
 30
0.0
 10
4.6036526905
 20
5.0393315236
 30
0.0
 10
4.6036526899
 20
5.0394967776
 30
0.0
  0
LINE
  5
257
100
AcDbEntity
  8
ALL_FEATURES
100
AcDbLine
 62
7
  6
CONTINUOUS
 10
4.7284595787
 20
5.0362001301
 11
4.7286526945
 21
5.0359767492
  0
LINE
  5
258
100
AcDbEntity
  8
ALL_FEATURES
100
AcDbLine
 62
7
  6
CONTINUOUS
 10
4.7284595822
 20
5.054057273
 11
4.7286526947
 21
5.053833892
  0
LINE
  5
259
100
AcDbEntity
  8
ALL_FEATURES
100
AcDbLine
 62
7
  6
CONTINUOUS
 10
4.728459586
 20
5.0719144158
 11
4.7286526949
 21
5.0716910349
  0
LINE
  5
25A
100
AcDbEntity
  8
ALL_FEATURES
100
AcDbLine
 62
7
  6
CONTINUOUS
 10
4.6038458101
 20
5.0451287016
 11
4.6036526959
 21
5.0449053206
  0
LINE
  5
25B
100
AcDbEntity
  8
ALL_FEATURES
100
AcDbLine
 62
7
  6
CONTINUOUS
 10
4.6038458063
 20
5.0629858444
 11
4.6036526956
 21
5.0627624634
  0
LINE
  5
25C
100
AcDbEntity
  8
ALL_FEATURES
100
AcDbLine
 62
7
  6
CONTINUOUS
 10
4.6038458028
 20
5.0808429873
 11
4.6036526955
 21
5.0806196063
  0
LINE
  5
25D
100
AcDbEntity
  8
ALL_FEATURES
100
AcDbLine
 62
7
  6
CONTINUOUS
 10
4.7284595895
 20
5.0504758001
 11
4.7286526945
 21
5.050699181
  0
LINE
  5
25E
100
AcDbEntity
  8
ALL_FEATURES
100
AcDbLine
 62
7
  6
CONTINUOUS
 10
4.728459589
 20
5.068332943
 11
4.7286526947
 21
5.0685563239
  0
LINE
  5
25F
100
AcDbEntity
  8
ALL_FEATURES
100
AcDbLine
 62
7
  6
CONTINUOUS
 10
4.6038458012
 20
5.0594043716
 11
4.6036526959
 21
5.0596277524
  0
LINE
  5
260
100
AcDbEntity
  8
ALL_FEATURES
100
AcDbLine
 62
7
  6
CONTINUOUS
 10
4.6038458017
 20
5.0772615144
 11
4.6036526956
 21
5.0774848953
  0
SPLINE
  5
261
100
AcDbEntity
  8
ALL_FEATURES
100
AcDbSpline
 62
7
  6
CONTINUOUS
 70
0
 71
3
 72
15
 73
11
 74
0
 42
0.0000001
 43
0.0000001
 44
0.0000000001
 40
0.0
 40
0.0
 40
0.0
 40
0.0
 40
0.0916878412
 40
0.1874412331
 40
0.2908494315
 40
0.4047775995
 40
0.5313481103
 40
0.6720754277
 40
0.8280366623
 40
1.0
 40
1.0
 40
1.0
 40
1.0
 10
4.6036526869
 20
5.029322009
 30
0.0
 10
4.6036526873
 20
5.0293700166
 30
0.0
 10
4.6036634649
 20
5.0294684548
 30
0.0
 10
4.6037112523
 20
5.0296140239
 30
0.0
 10
4.6037900749
 20
5.0297586376
 30
0.0
 10
4.6038994194
 20
5.0299023943
 30
0.0
 10
4.604039003
 20
5.0300456363
 30
0.0
 10
4.6042087095
 20
5.0301886068
 30
0.0
 10
4.6044084805
 20
5.030331451
 30
0.0
 10
4.6045544152
 20
5.0304221341
 30
0.0
 10
4.6046320771
 20
5.0304676948
 30
0.0
  0
SPLINE
  5
262
100
AcDbEntity
  8
ALL_FEATURES
100
AcDbSpline
 62
7
  6
CONTINUOUS
 70
0
 71
3
 72
18
 73
14
 74
0
 42
0.0000001
 43
0.0000001
 44
0.0000000001
 40
0.0
 40
0.0
 40
0.0
 40
0.0
 40
0.2026181878
 40
0.3833302546
 40
0.5417338257
 40
0.6776877757
 40
0.7912252271
 40
0.8396265008
 40
0.8824935718
 40
0.9198753442
 40
0.951839443
 40
0.9784880379
 40
1.0
 40
1.0
 40
1.0
 40
1.0
 10
4.6178804828
 20
5.0351038381
 30
0.0
 10
4.617369519
 20
5.0350513651
 30
0.0
 10
4.6164032287
 20
5.0349481572
 30
0.0
 10
4.6150392979
 20
5.034787467
 30
0.0
 10
4.6138452924
 20
5.0346296282
 30
0.0
 10
4.612822867
 20
5.0344746334
 30
0.0
 10
4.6120792676
 20
5.0343419771
 30
0.0
 10
4.6115711844
 20
5.0342349262
 30
0.0
 10
4.6112538131
 20
5.034159623
 30
0.0
 10
4.610979246
 20
5.0340850077
 30
0.0
 10
4.6107472604
 20
5.0340111083
 30
0.0
 10
4.6105576442
 20
5.0339379625
 30
0.0
 10
4.6104476691
 20
5.0338841903
 30
0.0
 10
4.6104006717
 20
5.0338565275
 30
0.0
  0
SPLINE
  5
263
100
AcDbEntity
  8
ALL_FEATURES
100
AcDbSpline
 62
7
  6
CONTINUOUS
 70
0
 71
3
 72
17
 73
13
 74
0
 42
0.0000001
 43
0.0000001
 44
0.0000000001
 40
0.0
 40
0.0
 40
0.0
 40
0.0
 40
0.0316067275
 40
0.067672613
 40
0.1081453878
 40
0.1529686649
 40
0.2554018566
 40
0.3743570333
 40
0.5091528808
 40
0.658998689
 40
0.8230056246
 40
1.0
 40
1.0
 40
1.0
 40
1.0
 10
4.6055092123
 20
5.042465054
 30
0.0
 10
4.605722045
 20
5.0425050591
 30
0.0
 10
4.6061790298
 20
5.0425838605
 30
0.0
 10
4.6069117274
 20
5.0426945667
 30
0.0
 10
4.6077358611
 20
5.0428054985
 30
0.0
 10
4.6090127711
 20
5.0429605691
 30
0.0
 10
4.6108269032
 20
5.0431511107
 30
0.0
 10
4.6132574278
 20
5.0433717118
 30
0.0
 10
4.6160139413
 20
5.0435927917
 30
0.0
 10
4.6190799755
 20
5.0438143451
 30
0.0
 10
4.6224358101
 20
5.0440360985
 30
0.0
 10
4.6247678883
 20
5.0441789075
 30
0.0
 10
4.6259784696
 20
5.0442507683
 30
0.0
  0
SPLINE
  5
264
100
AcDbEntity
  8
ALL_FEATURES
100
AcDbSpline
 62
7
  6
CONTINUOUS
 70
0
 71
3
 72
41
 73
37
 74
0
 42
0.0000001
 43
0.0000001
 44
0.0000000001
 40
0.0
 40
0.0
 40
0.0
 40
0.0
 40
0.001366288
 40
0.0029500797
 40
0.0047564797
 40
0.0067883869
 40
0.0115342066
 40
0.0171935948
 40
0.0237657033
 40
0.0312444239
 40
0.0396173055
 40
0.048870242
 40
0.0699553411
 40
0.0943499697
 40
0.1218731907
 40
0.152321288
 40
0.1854624384
 40
0.2210488895
 40
0.2588077208
 40
0.2984551131
 40
0.3821913165
 40
0.4697128551
 40
0.5583581333
 40
0.645430889
 40
0.728283384
 40
0.8043980545
 40
0.8391969347
 40
0.8714668878
 40
0.9009625247
 40
0.9274634421
 40
0.950769637
 40
0.9707184285
 40
0.979387166
 40
0.9871653582
 40
0.9940401112
 40
1.0
 40
1.0
 40
1.0
 40
1.0
 10
4.7156609052
 20
5.0430576688
 30
0.0
 10
4.7156222293
 20
5.0430352199
 30
0.0
 10
4.7155362576
 20
5.0429909779
 30
0.0
 10
4.7153932176
 20
5.0429293402
 30
0.0
 10
4.715226761
 20
5.0428676164
 30
0.0
 10
4.7149595314
 20
5.0427806744
 30
0.0
 10
4.7145664274
 20
5.0426741058
 30
0.0
 10
4.714024386
 20
5.042551373
 30
0.0
 10
4.7133910259
 20
5.0424283271
 30
0.0
 10
4.7126674755
 20
5.0423050384
 30
0.0
 10
4.7118550968
 20
5.0421815426
 30
0.0
 10
4.7105998388
 20
5.0420090869
 30
0.0
 10
4.7088208854
 20
5.0417970846
 30
0.0
 10
4.7064440815
 20
5.0415514969
 30
0.0
 10
4.7037594423
 20
5.0413053376
 30
0.0
 10
4.7007874982
 20
5.0410587632
 30
0.0
 10
4.6975508433
 20
5.040811862
 30
0.0
 10
4.6940742792
 20
5.0405647797
 30
0.0
 10
4.6903842757
 20
5.0403174979
 30
0.0
 10
4.6851207573
 20
5.0399815386
 30
0.0
 10
4.6782302271
 20
5.0395670719
 30
0.0
 10
4.6697376424
 20
5.0390776262
 30
0.0
 10
4.6611356838
 20
5.0385880177
 30
0.0
 10
4.6526867732
 20
5.0380986863
 30
0.0
 10
4.6446486644
 20
5.0376100459
 30
0.0
 10
4.6383203534
 20
5.0371926697
 30
0.0
 10
4.6336462326
 20
5.0368530605
 30
0.0
 10
4.6304952876
 20
5.036606261
 30
0.0
 10
4.6276168119
 20
5.0363597704
 30
0.0
 10
4.6250328371
 20
5.0361138498
 30
0.0
 10
4.6227628681
 20
5.0358684988
 30
0.0
 10
4.6210765297
 20
5.0356563193
 30
0.0
 10
4.6198978821
 20
5.0354832937
 30
0.0
 10
4.6191445562
 20
5.0353598647
 30
0.0
 10
4.6184811697
 20
5.0352367451
 30
0.0
 10
4.61807033
 20
5.035148668
 30
0.0
 10
4.6178804828
 20
5.0351038381
 30
0.0
  0
SPLINE
  5
265
100
AcDbEntity
  8
ALL_FEATURES
100
AcDbSpline
 62
7
  6
CONTINUOUS
 70
0
 71
3
 72
15
 73
11
 74
0
 42
0.0000001
 43
0.0000001
 44
0.0000000001
 40
0.0
 40
0.0
 40
0.0
 40
0.0
 40
0.1028719098
 40
0.2082455617
 40
0.3184482779
 40
0.4355017855
 40
0.5610382109
 40
0.6963427699
 40
0.8424099263
 40
1.0
 40
1.0
 40
1.0
 40
1.0
 10
4.6036526899
 20
5.0394967776
 30
0.0
 10
4.6036526895
 20
5.0396208313
 30
0.0
 10
4.6036726798
 20
5.0398723819
 30
0.0
 10
4.6037620694
 20
5.040247255
 30
0.0
 10
4.6039105086
 20
5.0406212584
 30
0.0
 10
4.6041173763
 20
5.0409941714
 30
0.0
 10
4.6043819284
 20
5.0413662162
 30
0.0
 10
4.6047036423
 20
5.0417375751
 30
0.0
 10
4.6050820786
 20
5.0421083918
 30
0.0
 10
4.6053610647
 20
5.042346029
 30
0.0
 10
4.6055092123
 20
5.042465054
 30
0.0
  0
SPLINE
  5
266
100
AcDbEntity
  8
ALL_FEATURES
100
AcDbSpline
 62
7
  6
CONTINUOUS
 70
0
 71
3
 72
28
 73
24
 74
0
 42
0.0000001
 43
0.0000001
 44
0.0000000001
 40
0.0
 40
0.0
 40
0.0
 40
0.0
 40
0.0017342278
 40
0.0036152378
 40
0.0057594066
 40
0.0082460619
 40
0.0111260459
 40
0.0144318209
 40
0.0223954564
 40
0.032241762
 40
0.0440194289
 40
0.0577539726
 40
0.0734539976
 40
0.1107398423
 40
0.1558302138
 40
0.2086421579
 40
0.2690336292
 40
0.3368258237
 40
0.4118344
 40
0.4938509123
 40
0.5826401206
 40
0.779543859
 40
1.0
 40
1.0
 40
1.0
 40
1.0
 10
4.6036526959
 20
5.0596277524
 30
0.0
 10
4.6036526979
 20
5.0596408153
 30
0.0
 10
4.6036570023
 20
5.0596681845
 30
0.0
 10
4.6036756034
 20
5.0597078543
 30
0.0
 10
4.6037057681
 20
5.0597469028
 30
0.0
 10
4.6037472792
 20
5.0597856015
 30
0.0
 10
4.6038001391
 20
5.0598241791
 30
0.0
 10
4.6038916591
 20
5.0598790074
 30
0.0
 10
4.60403642
 20
5.0599458124
 30
0.0
 10
4.6042459465
 20
5.0600221138
 30
0.0
 10
4.6045011695
 20
5.0600986601
 30
0.0
 10
4.6048020176
 20
5.0601754231
 30
0.0
 10
4.6052927133
 20
5.0602842983
 30
0.0
 10
4.6060196421
 20
5.0604171577
 30
0.0
 10
4.6070264978
 20
5.0605698825
 30
0.0
 10
4.6082090243
 20
5.0607230761
 30
0.0
 10
4.6095637125
 20
5.060876704
 30
0.0
 10
4.6110865096
 20
5.0610306223
 30
0.0
 10
4.6127729185
 20
5.0611847187
 30
0.0
 10
4.6146180708
 20
5.0613389536
 30
0.0
 10
4.6173795988
 20
5.0615522133
 30
0.0
 10
4.6211830892
 20
5.0618152531
 30
0.0
 10
4.6243208232
 20
5.0620095123
 30
0.0
 10
4.6259784696
 20
5.0621079111
 30
0.0
  0
SPLINE
  5
267
100
AcDbEntity
  8
ALL_FEATURES
100
AcDbSpline
 62
7
  6
CONTINUOUS
 70
0
 71
3
 72
28
 73
24
 74
0
 42
0.0000001
 43
0.0000001
 44
0.0000000001
 40
0.0
 40
0.0
 40
0.0
 40
0.0
 40
0.0017342101
 40
0.0036151899
 40
0.0057593216
 40
0.0082459368
 40
0.0111258803
 40
0.0144316159
 40
0.0223951792
 40
0.0322414238
 40
0.0440190426
 40
0.0577535446
 40
0.0734535158
 40
0.1107392414
 40
0.1558295301
 40
0.2086414552
 40
0.2690329042
 40
0.3368250952
 40
0.4118337113
 40
0.4938502848
 40
0.5826395861
 40
0.7795436148
 40
1.0
 40
1.0
 40
1.0
 40
1.0
 10
4.6036526956
 20
5.0774848953
 30
0.0
 10
4.6036526973
 20
5.0774979581
 30
0.0
 10
4.6036570008
 20
5.077525327
 30
0.0
 10
4.6036756007
 20
5.0775649966
 30
0.0
 10
4.6037057645
 20
5.077604045
 30
0.0
 10
4.6037472745
 20
5.0776427434
 30
0.0
 10
4.6038001336
 20
5.0776813207
 30
0.0
 10
4.6038916525
 20
5.0777361487
 30
0.0
 10
4.6040364121
 20
5.0778029534
 30
0.0
 10
4.6042459373
 20
5.0778792543
 30
0.0
 10
4.6045011593
 20
5.0779558002
 30
0.0
 10
4.6048020063
 20
5.0780325631
 30
0.0
 10
4.6052927004
 20
5.0781414382
 30
0.0
 10
4.6060196273
 20
5.0782742979
 30
0.0
 10
4.6070264814
 20
5.0784270231
 30
0.0
 10
4.608209007
 20
5.0785802168
 30
0.0
 10
4.609563695
 20
5.078733845
 30
0.0
 10
4.6110864923
 20
5.0788877636
 30
0.0
 10
4.612772902
 20
5.0790418601
 30
0.0
 10
4.6146180559
 20
5.0791960952
 30
0.0
 10
4.6173795875
 20
5.0794093554
 30
0.0
 10
4.6211830829
 20
5.0796723956
 30
0.0
 10
4.6243208212
 20
5.079866655
 30
0.0
 10
4.6259784696
 20
5.079965054
 30
0.0
  0
LINE
  5
268
100
AcDbEntity
  8
ALL_FEATURES
100
AcDbLine
 62
7
  6
CONTINUOUS
 10
4.6259784696
 20
5.079965054
 11
4.6478356952
 21
5.0811038429
  0
SPLINE
  5
269
100
AcDbEntity
  8
ALL_FEATURES
100
AcDbSpline
 62
7
  6
CONTINUOUS
 70
0
 71
3
 72
34
 73
30
 74
0
 42
0.0000001
 43
0.0000001
 44
0.0000000001
 40
0.0
 40
0.0
 40
0.0
 40
0.0
 40
0.0673550723
 40
0.1407778051
 40
0.2188642865
 40
0.3001798928
 40
0.3832001281
 40
0.4663783082
 40
0.5481601732
 40
0.6270171672
 40
0.7014762758
 40
0.7701480858
 40
0.8019097507
 40
0.8317560919
 40
0.8595491439
 40
0.8851570875
 40
0.9084654133
 40
0.9293641197
 40
0.9477592283
 40
0.9635716503
 40
0.9704863421
 40
0.9767313243
 40
0.9823019586
 40
0.9871943856
 40
0.9914060435
 40
0.9949372193
 40
0.9977953857
 40
0.9989776033
 40
1.0
 40
1.0
 40
1.0
 40
1.0
 10
4.6259784696
 20
5.0621079111
 30
0.0
 10
4.6282810269
 20
5.0622445923
 30
0.0
 10
4.6330945665
 20
5.0625134509
 30
0.0
 10
4.6405798366
 20
5.0628979231
 30
0.0
 10
4.6485437572
 20
5.0632828783
 30
0.0
 10
4.6568366969
 20
5.0636681503
 30
0.0
 10
4.6653041801
 20
5.0640535708
 30
0.0
 10
4.6737876459
 20
5.0644390123
 30
0.0
 10
4.6821283964
 20
5.0648243434
 30
0.0
 10
4.6901702463
 20
5.0652093879
 30
0.0
 10
4.6977626183
 20
5.0655939841
 30
0.0
 10
4.7037429632
 20
5.0659217661
 30
0.0
 10
4.7081965795
 20
5.0661870543
 30
0.0
 10
4.7112520441
 20
5.0663807191
 30
0.0
 10
4.7140963313
 20
5.0665742247
 30
0.0
 10
4.7167161745
 20
5.0667675961
 30
0.0
 10
4.7190992395
 20
5.0669606972
 30
0.0
 10
4.7212344417
 20
5.0671534621
 30
0.0
 10
4.7231118051
 20
5.0673458172
 30
0.0
 10
4.7245103291
 20
5.0675119807
 30
0.0
 10
4.725493273
 20
5.0676471406
 30
0.0
 10
4.7261274017
 20
5.0677438238
 30
0.0
 10
4.7266914192
 20
5.0678403495
 30
0.0
 10
4.727184697
 20
5.067936681
 30
0.0
 10
4.7276067233
 20
5.0680326961
 30
0.0
 10
4.7279570296
 20
5.0681283868
 30
0.0
 10
4.7282028271
 20
5.0682120337
 30
0.0
 10
4.7283620747
 20
5.0682807993
 30
0.0
 10
4.7284292894
 20
5.0683153986
 30
0.0
 10
4.728459589
 20
5.068332943
 30
0.0
  0
SPLINE
  5
26A
100
AcDbEntity
  8
ALL_FEATURES
100
AcDbSpline
 62
7
  6
CONTINUOUS
 70
0
 71
3
 72
47
 73
43
 74
0
 42
0.0000001
 43
0.0000001
 44
0.0000000001
 40
0.0
 40
0.0
 40
0.0
 40
0.0
 40
0.0014244445
 40
0.0030868162
 40
0.004992654
 40
0.0071451023
 40
0.0121955686
 40
0.0182442256
 40
0.0252893116
 40
0.0333212708
 40
0.0423250764
 40
0.0522844801
 40
0.0749965349
 40
0.1012728874
 40
0.1309016683
 40
0.1636339325
 40
0.1991990992
 40
0.2372966808
 40
0.2776086226
 40
0.3197941901
 40
0.4083550159
 40
0.5000001901
 40
0.5916453559
 40
0.6802061569
 40
0.7223915469
 40
0.7627036267
 40
0.8008011268
 40
0.8363663239
 40
0.8690986278
 40
0.8987273098
 40
0.925003841
 40
0.9477156545
 40
0.9576762972
 40
0.9666791913
 40
0.974709982
 40
0.9817558479
 40
0.9878058688
 40
0.9928554462
 40
0.9950071817
 40
0.996912523
 40
0.9985748943
 40
1.0
 40
1.0
 40
1.0
 40
1.0
 10
4.7156609172
 20
5.0609148116
 30
0.0
 10
4.7156200576
 20
5.0608910967
 30
0.0
 10
4.7155287627
 20
5.0608444348
 30
0.0
 10
4.7153762923
 20
5.0607796373
 30
0.0
 10
4.7151979303
 20
5.0607147337
 30
0.0
 10
4.7149099818
 20
5.0606231499
 30
0.0
 10
4.7144847768
 20
5.0605110142
 30
0.0
 10
4.7138969093
 20
5.0603819647
 30
0.0
 10
4.713208216
 20
5.0602525858
 30
0.0
 10
4.7124201014
 20
5.0601229109
 30
0.0
 10
4.7115342189
 20
5.0599930071
 30
0.0
 10
4.7101639482
 20
5.0598115527
 30
0.0
 10
4.708221509
 20
5.0595886096
 30
0.0
 10
4.7056268681
 20
5.0593302874
 30
0.0
 10
4.7026984987
 20
5.0590714284
 30
0.0
 10
4.6994610343
 20
5.0588120466
 30
0.0
 10
4.6959418944
 20
5.0585523892
 30
0.0
 10
4.6921707546
 20
5.0582924746
 30
0.0
 10
4.6881795648
 20
5.058032408
 30
0.0
 10
4.6825172233
 20
5.0576797603
 30
0.0
 10
4.675154211
 20
5.0572450414
 30
0.0
 10
4.6661526943
 20
5.0567308226
 30
0.0
 10
4.6571511785
 20
5.0562166033
 30
0.0
 10
4.6497881731
 20
5.0557818862
 30
0.0
 10
4.6441258339
 20
5.0554292357
 30
0.0
 10
4.640134648
 20
5.0551691715
 30
0.0
 10
4.6363635054
 20
5.0549092554
 30
0.0
 10
4.6328443659
 20
5.054649598
 30
0.0
 10
4.6296069021
 20
5.0543902185
 30
0.0
 10
4.6266785296
 20
5.054131353
 30
0.0
 10
4.6240838922
 20
5.0538730458
 30
0.0
 10
4.622141418
 20
5.0536500693
 30
0.0
 10
4.6207711391
 20
5.0534686554
 30
0.0
 10
4.6198852864
 20
5.0533387385
 30
0.0
 10
4.6190972191
 20
5.0532090418
 30
0.0
 10
4.6184084927
 20
5.0530796675
 30
0.0
 10
4.6178205729
 20
5.0529506609
 30
0.0
 10
4.6173953804
 20
5.0528385044
 30
0.0
 10
4.6171075085
 20
5.0527469093
 30
0.0
 10
4.6169291913
 20
5.0526820001
 30
0.0
 10
4.616776719
 20
5.0526171944
 30
0.0
 10
4.616685395
 20
5.0525705435
 30
0.0
 10
4.6166445072
 20
5.0525468335
 30
0.0
  0
SPLINE
  5
26B
100
AcDbEntity
  8
ALL_FEATURES
100
AcDbSpline
 62
7
  6
CONTINUOUS
 70
0
 71
3
 72
34
 73
30
 74
0
 42
0.0000001
 43
0.0000001
 44
0.0000000001
 40
0.0
 40
0.0
 40
0.0
 40
0.0
 40
0.0673551356
 40
0.1407781997
 40
0.2188648396
 40
0.3001803721
 40
0.3832005765
 40
0.4663787461
 40
0.5481606015
 40
0.627017561
 40
0.7014766526
 40
0.7701484938
 40
0.8019100862
 40
0.8317562835
 40
0.8595491691
 40
0.885157014
 40
0.9084652866
 40
0.9293639372
 40
0.9477590736
 40
0.9635715059
 40
0.9704861986
 40
0.9767312084
 40
0.9823018799
 40
0.9871943369
 40
0.9914060012
 40
0.9949371762
 40
0.9977953618
 40
0.9989775916
 40
1.0
 40
1.0
 40
1.0
 40
1.0
 10
4.6259784696
 20
5.0442507683
 30
0.0
 10
4.6282810291
 20
5.0443874495
 30
0.0
 10
4.6330945822
 20
5.0446563089
 30
0.0
 10
4.6405798712
 20
5.0450407819
 30
0.0
 10
4.6485438061
 20
5.0454257378
 30
0.0
 10
4.6568367477
 20
5.0458110097
 30
0.0
 10
4.665304227
 20
5.0461964301
 30
0.0
 10
4.673787691
 20
5.0465818715
 30
0.0
 10
4.6821284396
 20
5.0469672026
 30
0.0
 10
4.6901702874
 20
5.0473522471
 30
0.0
 10
4.6977626588
 20
5.0477368433
 30
0.0
 10
4.7037430017
 20
5.0480646255
 30
0.0
 10
4.7081966117
 20
5.0483299134
 30
0.0
 10
4.7112520632
 20
5.0485235774
 30
0.0
 10
4.7140963364
 20
5.0487170823
 30
0.0
 10
4.7167161688
 20
5.0489104529
 30
0.0
 10
4.7190992268
 20
5.049103553
 30
0.0
 10
4.7212344261
 20
5.0492963181
 30
0.0
 10
4.723111789
 20
5.0494886723
 30
0.0
 10
4.7245103144
 20
5.0496548358
 30
0.0
 10
4.7254932595
 20
5.0497899962
 30
0.0
 10
4.7261273905
 20
5.0498866794
 30
0.0
 10
4.7266914113
 20
5.0499832051
 30
0.0
 10
4.7271846916
 20
5.0500795366
 30
0.0
 10
4.7276067191
 20
5.050175552
 30
0.0
 10
4.7279570262
 20
5.0502712436
 30
0.0
 10
4.7282028247
 20
5.0503548905
 30
0.0
 10
4.7283620738
 20
5.0504236562
 30
0.0
 10
4.7284292893
 20
5.0504582557
 30
0.0
 10
4.7284595895
 20
5.0504758001
 30
0.0
  0
SPLINE
  5
26C
100
AcDbEntity
  8
ALL_FEATURES
100
AcDbSpline
 62
7
  6
CONTINUOUS
 70
0
 71
3
 72
47
 73
43
 74
0
 42
0.0000001
 43
0.0000001
 44
0.0000000001
 40
0.0
 40
0.0
 40
0.0
 40
0.0
 40
0.0014245809
 40
0.0030870325
 40
0.0049928628
 40
0.0071452466
 40
0.0121955437
 40
0.0182442061
 40
0.025289522
 40
0.0333214173
 40
0.042325057
 40
0.0522844551
 40
0.0749966751
 40
0.1012728588
 40
0.1309017953
 40
0.1636339018
 40
0.1991992066
 40
0.2372966493
 40
0.2776087046
 40
0.3197941593
 40
0.4083549871
 40
0.5000001646
 40
0.5916453348
 40
0.6802061409
 40
0.7223914514
 40
0.7627036163
 40
0.8008009946
 40
0.8363663191
 40
0.8690984621
 40
0.8987273104
 40
0.9250036461
 40
0.9477156595
 40
0.9576760758
 40
0.966678973
 40
0.9747099286
 40
0.9817558553
 40
0.9878056416
 40
0.9928552129
 40
0.995007027
 40
0.9969124552
 40
0.9985748884
 40
1.0
 40
1.0
 40
1.0
 40
1.0
 10
4.7156609269
 20
5.0787719543
 30
0.0
 10
4.7156200624
 20
5.0787482389
 30
0.0
 10
4.7155287581
 20
5.0787015797
 30
0.0
 10
4.7153762805
 20
5.0786367816
 30
0.0
 10
4.7151979185
 20
5.0785718773
 30
0.0
 10
4.7149099785
 20
5.0784802927
 30
0.0
 10
4.7144847819
 20
5.0783681544
 30
0.0
 10
4.7138969119
 20
5.0782391052
 30
0.0
 10
4.7132082116
 20
5.0781097321
 30
0.0
 10
4.7124200975
 20
5.0779800539
 30
0.0
 10
4.7115342228
 20
5.0778501486
 30
0.0
 10
4.710163952
 20
5.0776686948
 30
0.0
 10
4.7082215122
 20
5.0774457549
 30
0.0
 10
4.7056268662
 20
5.0771874277
 30
0.0
 10
4.7026985015
 20
5.0769285734
 30
0.0
 10
4.6994610322
 20
5.0766691874
 30
0.0
 10
4.6959418966
 20
5.0764095337
 30
0.0
 10
4.6921707525
 20
5.0761496159
 30
0.0
 10
4.6881795662
 20
5.0758895519
 30
0.0
 10
4.6825172236
 20
5.075536902
 30
0.0
 10
4.6751542132
 20
5.0751021845
 30
0.0
 10
4.6661526943
 20
5.0745879654
 30
0.0
 10
4.6571511762
 20
5.0740737459
 30
0.0
 10
4.6497881715
 20
5.0736390298
 30
0.0
 10
4.6441258309
 20
5.0732863776
 30
0.0
 10
4.6401346478
 20
5.0730263155
 30
0.0
 10
4.6363635016
 20
5.0727663966
 30
0.0
 10
4.6328443663
 20
5.0725067427
 30
0.0
 10
4.6296068978
 20
5.0722473588
 30
0.0
 10
4.6266785304
 20
5.0719884991
 30
0.0
 10
4.6240838876
 20
5.0717301843
 30
0.0
 10
4.6221414192
 20
5.0715072168
 30
0.0
 10
4.6207711416
 20
5.0713257964
 30
0.0
 10
4.6198852907
 20
5.0711958799
 30
0.0
 10
4.6190972153
 20
5.0710661849
 30
0.0
 10
4.6184084883
 20
5.0709368145
 30
0.0
 10
4.6178205759
 20
5.070807801
 30
0.0
 10
4.6173953889
 20
5.070695645
 30
0.0
 10
4.6171075108
 20
5.0706040518
 30
0.0
 10
4.6169291853
 20
5.0705391432
 30
0.0
 10
4.6167767071
 20
5.0704743382
 30
0.0
 10
4.6166853806
 20
5.070427687
 30
0.0
 10
4.616644493
 20
5.0704039763
 30
0.0
  0
SPLINE
  5
26D
100
AcDbEntity
  8
ALL_FEATURES
100
AcDbSpline
 62
7
  6
CONTINUOUS
 70
0
 71
3
 72
39
 73
35
 74
0
 42
0.0000001
 43
0.0000001
 44
0.0000000001
 40
0.0
 40
0.0
 40
0.0
 40
0.0
 40
0.0004981392
 40
0.0010646908
 40
0.0017475945
 40
0.0025745888
 40
0.003561156
 40
0.0047162282
 40
0.0060452123
 40
0.0075515274
 40
0.0111039793
 40
0.0153839432
 40
0.020392383
 40
0.0261265693
 40
0.0325822396
 40
0.039754231
 40
0.0476360565
 40
0.0562179744
 40
0.0754390344
 40
0.0973291889
 40
0.1217813128
 40
0.1486728382
 40
0.1778738205
 40
0.2092352511
 40
0.2778104566
 40
0.3530309089
 40
0.4333929235
 40
0.5172869217
 40
0.6030303163
 40
0.6889029491
 40
0.7731884991
 40
0.8541931204
 40
0.9303149192
 40
1.0
 40
1.0
 40
1.0
 40
1.0
 10
4.7286526945
 20
5.0359767492
 30
0.0
 10
4.7286526974
 20
5.0359596391
 30
0.0
 10
4.7286449547
 20
5.0359228348
 30
0.0
 10
4.7286128182
 20
5.0358711961
 30
0.0
 10
4.7285617527
 20
5.0358207991
 30
0.0
 10
4.7284917774
 20
5.0357708281
 30
0.0
 10
4.7284027002
 20
5.0357209172
 30
0.0
 10
4.7282943612
 20
5.0356709707
 30
0.0
 10
4.7281666875
 20
5.0356209558
 30
0.0
 10
4.7279589245
 20
5.0355502541
 30
0.0
 10
4.7276498185
 20
5.0354637629
 30
0.0
 10
4.727220019
 20
5.035364379
 30
0.0
 10
4.7267136672
 20
5.0352646952
 30
0.0
 10
4.726131413
 20
5.0351647585
 30
0.0
 10
4.7254739168
 20
5.0350646578
 30
0.0
 10
4.7247419158
 20
5.0349644389
 30
0.0
 10
4.7239362782
 20
5.0348641417
 30
0.0
 10
4.7227184833
 20
5.034725002
 30
0.0
 10
4.7210202218
 20
5.0345532177
 30
0.0
 10
4.7187770834
 20
5.034353583
 30
0.0
 10
4.7162695812
 20
5.0341536162
 30
0.0
 10
4.7135102744
 20
5.0339533558
 30
0.0
 10
4.710513087
 20
5.0337529404
 30
0.0
 10
4.7060860342
 20
5.0334772245
 30
0.0
 10
4.7000793097
 20
5.0331372412
 30
0.0
 10
4.6923902134
 20
5.0327393811
 30
0.0
 10
4.6841743228
 20
5.0323409431
 30
0.0
 10
4.6755966084
 20
5.031942121
 30
0.0
 10
4.6668294251
 20
5.0315431352
 30
0.0
 10
4.6580487792
 20
5.0311441439
 30
0.0
 10
4.6494310632
 20
5.0307453009
 30
0.0
 10
4.6411486183
 20
5.0303468012
 30
0.0
 10
4.6333682556
 20
5.0299488393
 30
0.0
 10
4.6283678065
 20
5.0296701688
 30
0.0
 10
4.6259784696
 20
5.0295283364
 30
0.0
  0
SPLINE
  5
26E
100
AcDbEntity
  8
ALL_FEATURES
100
AcDbSpline
 62
7
  6
CONTINUOUS
 70
0
 71
3
 72
39
 73
35
 74
0
 42
0.0000001
 43
0.0000001
 44
0.0000000001
 40
0.0
 40
0.0
 40
0.0
 40
0.0
 40
0.0004981382
 40
0.0010646879
 40
0.001747585
 40
0.0025745679
 40
0.0035611203
 40
0.0047161761
 40
0.0060451441
 40
0.0075514458
 40
0.0111038875
 40
0.0153838409
 40
0.0203922437
 40
0.0261263848
 40
0.0325820205
 40
0.0397540065
 40
0.0476358293
 40
0.0562177247
 40
0.0754387514
 40
0.0973289602
 40
0.1217811343
 40
0.1486727754
 40
0.1778739257
 40
0.2092354879
 40
0.2778107225
 40
0.3530311663
 40
0.4333932319
 40
0.5172872572
 40
0.6030306767
 40
0.6889033521
 40
0.773188998
 40
0.8541935088
 40
0.9303149744
 40
1.0
 40
1.0
 40
1.0
 40
1.0
 10
4.7286526947
 20
5.053833892
 30
0.0
 10
4.7286526971
 20
5.053816782
 30
0.0
 10
4.7286449535
 20
5.0537799781
 30
0.0
 10
4.7286128173
 20
5.0537283397
 30
0.0
 10
4.7285617525
 20
5.0536779429
 30
0.0
 10
4.7284917786
 20
5.0536279721
 30
0.0
 10
4.7284027029
 20
5.0535780614
 30
0.0
 10
4.7282943656
 20
5.053528115
 30
0.0
 10
4.7281666936
 20
5.0534781003
 30
0.0
 10
4.727958932
 20
5.0534073987
 30
0.0
 10
4.727649827
 20
5.0533209079
 30
0.0
 10
4.7272200295
 20
5.0532215246
 30
0.0
 10
4.726713681
 20
5.0531218406
 30
0.0
 10
4.7261314308
 20
5.053021904
 30
0.0
 10
4.7254739376
 20
5.0529218032
 30
0.0
 10
4.724741938
 20
5.0528215847
 30
0.0
 10
4.7239363015
 20
5.0527212877
 30
0.0
 10
4.7227185086
 20
5.0525821476
 30
0.0
 10
4.7210202473
 20
5.0524103627
 30
0.0
 10
4.7187771064
 20
5.0522107281
 30
0.0
 10
4.7162695967
 20
5.0520107602
 30
0.0
 10
4.7135102785
 20
5.0518104989
 30
0.0
 10
4.7105130769
 20
5.0516100827
 30
0.0
 10
4.7060860129
 20
5.051334366
 30
0.0
 10
4.7000792831
 20
5.0509943826
 30
0.0
 10
4.6923901845
 20
5.0505965226
 30
0.0
 10
4.6841742915
 20
5.0501980845
 30
0.0
 10
4.6755965737
 20
5.0497992623
 30
0.0
 10
4.6668293871
 20
5.0494002763
 30
0.0
 10
4.6580487357
 20
5.0490012848
 30
0.0
 10
4.6494310187
 20
5.0486024416
 30
0.0
 10
4.6411485859
 20
5.0482039425
 30
0.0
 10
4.6333682403
 20
5.0478059813
 30
0.0
 10
4.6283678046
 20
5.0475273116
 30
0.0
 10
4.6259784696
 20
5.0473854793
 30
0.0
  0
LINE
  5
26F
100
AcDbEntity
  8
ALL_FEATURES
100
AcDbLine
 62
7
  6
CONTINUOUS
 10
4.6045576897
 20
5.0811038403
 11
4.6038458028
 21
5.0808429873
  0
SPLINE
  5
270
100
AcDbEntity
  8
ALL_FEATURES
100
AcDbSpline
 62
7
  6
CONTINUOUS
 70
0
 71
3
 72
15
 73
11
 74
0
 42
0.0000001
 43
0.0000001
 44
0.0000000001
 40
0.0
 40
0.0
 40
0.0
 40
0.0
 40
0.1867120905
 40
0.3534391212
 40
0.5007049347
 40
0.6293473626
 40
0.7407139276
 40
0.8369931409
 40
0.921707353
 40
1.0
 40
1.0
 40
1.0
 40
1.0
 10
4.6055092123
 20
5.0277426221
 30
0.0
 10
4.60536335
 20
5.0278049771
 30
0.0
 10
4.6050896222
 20
5.0279287751
 30
0.0
 10
4.6047119361
 20
5.0281250848
 30
0.0
 10
4.6043907502
 20
5.0283214359
 30
0.0
 10
4.6041261661
 20
5.0285180015
 30
0.0
 10
4.6039181993
 20
5.0287152188
 30
0.0
 10
4.6037671169
 20
5.0289142368
 30
0.0
 10
4.6036741283
 20
5.0291163099
 30
0.0
 10
4.6036526863
 20
5.0292554912
 30
0.0
 10
4.6036526869
 20
5.029322009
 30
0.0
  0
SPLINE
  5
271
100
AcDbEntity
  8
ALL_FEATURES
100
AcDbSpline
 62
7
  6
CONTINUOUS
 70
0
 71
3
 72
39
 73
35
 74
0
 42
0.0000001
 43
0.0000001
 44
0.0000000001
 40
0.0
 40
0.0
 40
0.0
 40
0.0
 40
0.0004981371
 40
0.0010646847
 40
0.001747575
 40
0.0025745463
 40
0.0035610836
 40
0.0047161225
 40
0.0060450741
 40
0.007551362
 40
0.0111037923
 40
0.0153837321
 40
0.0203920951
 40
0.0261261886
 40
0.032581788
 40
0.0397537677
 40
0.0476355857
 40
0.056217456
 40
0.0754384415
 40
0.0973286898
 40
0.1217808969
 40
0.1486726615
 40
0.1778740151
 40
0.2092357439
 40
0.2778110112
 40
0.3530314245
 40
0.4333935263
 40
0.5172875612
 40
0.6030309884
 40
0.6889036741
 40
0.7731894811
 40
0.8541939414
 40
0.9303150384
 40
1.0
 40
1.0
 40
1.0
 40
1.0
 10
4.7286526949
 20
5.0716910349
 30
0.0
 10
4.7286526968
 20
5.0716739248
 30
0.0
 10
4.7286449524
 20
5.0716371214
 30
0.0
 10
4.7286128163
 20
5.0715854834
 30
0.0
 10
4.7285617524
 20
5.0715350868
 30
0.0
 10
4.7284917797
 20
5.0714851162
 30
0.0
 10
4.7284027056
 20
5.0714352056
 30
0.0
 10
4.7282943701
 20
5.0713852594
 30
0.0
 10
4.7281666998
 20
5.0713352449
 30
0.0
 10
4.7279589397
 20
5.0712645433
 30
0.0
 10
4.7276498359
 20
5.0711780531
 30
0.0
 10
4.7272200406
 20
5.0710786702
 30
0.0
 10
4.7267136956
 20
5.0709789862
 30
0.0
 10
4.7261314497
 20
5.0708790497
 30
0.0
 10
4.7254739597
 20
5.0707789489
 30
0.0
 10
4.7247419617
 20
5.0706787307
 30
0.0
 10
4.7239363264
 20
5.0705784338
 30
0.0
 10
4.722718536
 20
5.0704392935
 30
0.0
 10
4.7210202757
 20
5.0702675079
 30
0.0
 10
4.7187771337
 20
5.0700678735
 30
0.0
 10
4.7162696174
 20
5.0698679044
 30
0.0
 10
4.7135102868
 20
5.0696676423
 30
0.0
 10
4.7105130684
 20
5.0694672252
 30
0.0
 10
4.7060859906
 20
5.0691915075
 30
0.0
 10
4.7000792551
 20
5.0688515239
 30
0.0
 10
4.6923901552
 20
5.068453664
 30
0.0
 10
4.6841742617
 20
5.0680552259
 30
0.0
 10
4.6755965421
 20
5.0676564037
 30
0.0
 10
4.6668293547
 20
5.0672574177
 30
0.0
 10
4.6580486972
 20
5.0668584259
 30
0.0
 10
4.6494309761
 20
5.0664595824
 30
0.0
 10
4.6411485522
 20
5.0660610838
 30
0.0
 10
4.6333682233
 20
5.0656631232
 30
0.0
 10
4.6283678024
 20
5.0653844543
 30
0.0
 10
4.6259784696
 20
5.0652426221
 30
0.0
  0
SPLINE
  5
272
100
AcDbEntity
  8
ALL_FEATURES
100
AcDbSpline
 62
7
  6
CONTINUOUS
 70
0
 71
3
 72
23
 73
19
 74
0
 42
0.0000001
 43
0.0000001
 44
0.0000000001
 40
0.0
 40
0.0
 40
0.0
 40
0.0
 40
0.2043018793
 40
0.3890542582
 40
0.5522154342
 40
0.6252221936
 40
0.6922770297
 40
0.7532304323
 40
0.807942766
 40
0.8562782442
 40
0.8981305597
 40
0.9334362693
 40
0.9486206331
 40
0.9621550405
 40
0.9740413211
 40
0.9842914646
 40
0.9929297903
 40
1.0
 40
1.0
 40
1.0
 40
1.0
 10
4.6259784696
 20
5.0652426221
 30
0.0
 10
4.6244631982
 20
5.0651526747
 30
0.0
 10
4.6215780374
 20
5.0649746874
 30
0.0
 10
4.6174846093
 20
5.0646956701
 30
0.0
 10
4.6143663691
 20
5.0644557509
 30
0.0
 10
4.6121218545
 20
5.0642612453
 30
0.0
 10
4.6106349269
 20
5.0641209114
 30
0.0
 10
4.6092845662
 20
5.0639807335
 30
0.0
 10
4.6080740886
 20
5.0638407701
 30
0.0
 10
4.607006537
 20
5.0637011103
 30
0.0
 10
4.6060845377
 20
5.0635617844
 30
0.0
 10
4.6054090075
 20
5.0634409863
 30
0.0
 10
4.6049435824
 20
5.0633424883
 30
0.0
 10
4.6046500847
 20
5.0632724719
 30
0.0
 10
4.6043943799
 20
5.0632025774
 30
0.0
 10
4.6041765094
 20
5.0631328362
 30
0.0
 10
4.6039964909
 20
5.0630633106
 30
0.0
 10
4.6038912655
 20
5.0630121685
 30
0.0
 10
4.6038458063
 20
5.0629858444
 30
0.0
  0
SPLINE
  5
273
100
AcDbEntity
  8
ALL_FEATURES
100
AcDbSpline
 62
7
  6
CONTINUOUS
 70
0
 71
3
 72
17
 73
13
 74
0
 42
0.0000001
 43
0.0000001
 44
0.0000000001
 40
0.0
 40
0.0
 40
0.0
 40
0.0
 40
0.1769943754
 40
0.341001311
 40
0.4908471192
 40
0.6256429667
 40
0.7445981434
 40
0.8470313351
 40
0.8918546122
 40
0.932327387
 40
0.9683932725
 40
1.0
 40
1.0
 40
1.0
 40
1.0
 10
4.6259784696
 20
5.0295283364
 30
0.0
 10
4.6247678883
 20
5.0294564756
 30
0.0
 10
4.6224358101
 20
5.0293136667
 30
0.0
 10
4.6190799755
 20
5.0290919133
 30
0.0
 10
4.6160139413
 20
5.0288703599
 30
0.0
 10
4.6132574278
 20
5.0286492799
 30
0.0
 10
4.6108269032
 20
5.0284286789
 30
0.0
 10
4.6090127711
 20
5.0282381373
 30
0.0
 10
4.6077358611
 20
5.0280830666
 30
0.0
 10
4.6069117274
 20
5.0279721348
 30
0.0
 10
4.6061790298
 20
5.0278614286
 30
0.0
 10
4.605722045
 20
5.0277826272
 30
0.0
 10
4.6055092123
 20
5.0277426221
 30
0.0
  0
SPLINE
  5
274
100
AcDbEntity
  8
ALL_FEATURES
100
AcDbSpline
 62
7
  6
CONTINUOUS
 70
0
 71
3
 72
23
 73
19
 74
0
 42
0.0000001
 43
0.0000001
 44
0.0000000001
 40
0.0
 40
0.0
 40
0.0
 40
0.0
 40
0.2043017941
 40
0.3890540093
 40
0.5522150933
 40
0.6252218304
 40
0.6922766607
 40
0.753230083
 40
0.8079424383
 40
0.8562779253
 40
0.8981302975
 40
0.9334360894
 40
0.948620489
 40
0.9621549212
 40
0.9740412185
 40
0.9842913875
 40
0.9929297477
 40
1.0
 40
1.0
 40
1.0
 40
1.0
 10
4.6259784696
 20
5.0473854793
 30
0.0
 10
4.624463199
 20
5.0472955319
 30
0.0
 10
4.6215780406
 20
5.0471175448
 30
0.0
 10
4.6174846156
 20
5.0468385276
 30
0.0
 10
4.614366378
 20
5.0465986088
 30
0.0
 10
4.6121218646
 20
5.0464041033
 30
0.0
 10
4.6106349373
 20
5.0462637695
 30
0.0
 10
4.6092845766
 20
5.0461235917
 30
0.0
 10
4.6080740988
 20
5.0459836285
 30
0.0
 10
4.6070065466
 20
5.0458439688
 30
0.0
 10
4.6060845464
 20
5.0457046432
 30
0.0
 10
4.6054090149
 20
5.0455838452
 30
0.0
 10
4.6049435888
 20
5.0454853472
 30
0.0
 10
4.6046500906
 20
5.0454153307
 30
0.0
 10
4.6043943854
 20
5.0453454359
 30
0.0
 10
4.6041765145
 20
5.0452756943
 30
0.0
 10
4.6039964953
 20
5.0452061682
 30
0.0
 10
4.6038912695
 20
5.0451550258
 30
0.0
 10
4.6038458101
 20
5.0451287016
 30
0.0
  0
SPLINE
  5
275
100
AcDbEntity
  8
ALL_FEATURES
100
AcDbSpline
 62
7
  6
CONTINUOUS
 70
0
 71
3
 72
33
 73
29
 74
0
 42
0.0000001
 43
0.0000001
 44
0.0000000001
 40
0.0
 40
0.0
 40
0.0
 40
0.0
 40
0.0291185099
 40
0.0582547254
 40
0.0874252086
 40
0.1166477716
 40
0.1459402158
 40
0.1753184626
 40
0.2048005488
 40
0.2344039935
 40
0.264143804
 40
0.294036605
 40
0.3240969776
 40
0.3543367911
 40
0.4153841554
 40
0.4462299411
 40
0.4772934033
 40
0.5085788397
 40
0.5400877279
 40
0.6037541335
 40
0.6682735387
 40
0.7008392586
 40
0.733588332
 40
0.7995582064
 40
0.8660566032
 40
0.899466524
 40
0.93295216
 40
1.0
 40
1.0
 40
1.0
 40
1.0
 10
4.5712251969
 20
5.4688538176
 30
0.0
 10
4.5690851043
 20
5.4688536223
 30
0.0
 10
4.5648024826
 20
5.4687217698
 30
0.0
 10
4.558400403
 20
5.4681319497
 30
0.0
 10
4.5520383909
 20
5.4671517489
 30
0.0
 10
4.5457364468
 20
5.4657851359
 30
0.0
 10
4.5395130153
 20
5.4640394158
 30
0.0
 10
4.5333864087
 20
5.4619205867
 30
0.0
 10
4.5273735378
 20
5.4594375396
 30
0.0
 10
4.5214899149
 20
5.456600583
 30
0.0
 10
4.5157507951
 20
5.4534190697
 30
0.0
 10
4.5101696313
 20
5.4499048878
 30
0.0
 10
4.5047586127
 20
5.4460698556
 30
0.0
 10
4.4977666707
 20
5.4405280268
 30
0.0
 10
4.4911794129
 20
5.4344025474
 30
0.0
 10
4.4850402333
 20
5.4277676387
 30
0.0
 10
4.4806386155
 20
5.4225159771
 30
0.0
 10
4.4764647044
 20
5.4170205686
 30
0.0
 10
4.4711955788
 20
5.4093606158
 30
0.0
 10
4.4652190952
 20
5.3992393762
 30
0.0
 10
4.460126802
 20
5.3885613315
 30
0.0
 10
4.4565748659
 20
5.3797021388
 30
0.0
 10
4.4533626681
 20
5.3706009794
 30
0.0
 10
4.4500355559
 20
5.3589078776
 30
0.0
 10
4.4476523076
 20
5.3469377968
 30
0.0
 10
4.4463109435
 20
5.3372237424
 30
0.0
 10
4.4453498277
 20
5.3274246549
 30
0.0
 10
4.4450607651
 20
5.3200315829
 30
0.0
 10
4.4450607651
 20
5.3151038381
 30
0.0
  0
SPLINE
  5
276
100
AcDbEntity
  8
ALL_FEATURES
100
AcDbSpline
 62
7
  6
CONTINUOUS
 70
0
 71
3
 72
31
 73
27
 74
0
 42
0.0000001
 43
0.0000001
 44
0.0000000001
 40
0.0
 40
0.0
 40
0.0
 40
0.0
 40
0.0772910636
 40
0.1158256583
 40
0.1541851113
 40
0.2301539517
 40
0.3048089811
 40
0.3415200325
 40
0.3777457801
 40
0.4134379958
 40
0.4485496457
 40
0.5168388574
 40
0.5499536886
 40
0.5823272326
 40
0.6139321816
 40
0.6447442774
 40
0.7038982108
 40
0.759765769
 40
0.8124477846
 40
0.8622264359
 40
0.8861837614
 40
0.9096195933
 40
0.9326138194
 40
0.9552649691
 40
0.9776885544
 40
1.0
 40
1.0
 40
1.0
 40
1.0
 10
4.6349026952
 20
5.3151038381
 30
0.0
 10
4.6349026952
 20
5.3182554744
 30
0.0
 10
4.6347261765
 20
5.3229808901
 30
0.0
 10
4.6341400583
 20
5.3292416572
 30
0.0
 10
4.6333249476
 20
5.3354226527
 30
0.0
 10
4.6318856134
 20
5.3430010881
 30
0.0
 10
4.6298827057
 20
5.3503813443
 30
0.0
 10
4.6279619279
 20
5.3560862911
 30
0.0
 10
4.62637909
 20
5.3602246468
 30
0.0
 10
4.6246532565
 20
5.3642346376
 30
0.0
 10
4.6221943375
 20
5.369346896
 30
0.0
 10
4.6194621673
 20
5.3742067116
 30
0.0
 10
4.6164719987
 20
5.3787708886
 30
0.0
 10
4.6141507523
 20
5.3819799539
 30
0.0
 10
4.611739021
 20
5.3850024185
 30
0.0
 10
4.6084622159
 20
5.388724216
 30
0.0
 10
4.6042054582
 20
5.3928924746
 30
0.0
 10
4.5988343487
 20
5.397146287
 30
0.0
 10
4.5933478584
 20
5.4005747816
 30
0.0
 10
4.5886761706
 20
5.4027854132
 30
0.0
 10
4.5849510173
 20
5.4041419404
 30
0.0
 10
4.5821966614
 20
5.4049556889
 30
0.0
 10
4.5794488572
 20
5.4055839133
 30
0.0
 10
4.5767073615
 20
5.4060298221
 30
0.0
 10
4.5739706336
 20
5.4062953428
 30
0.0
 10
4.5721459579
 20
5.4063538519
 30
0.0
 10
4.5712361818
 20
5.4063538598
 30
0.0
  0
SPLINE
  5
277
100
AcDbEntity
  8
ALL_FEATURES
100
AcDbSpline
 62
7
  6
CONTINUOUS
 70
0
 71
3
 72
34
 73
30
 74
0
 42
0.0000001
 43
0.0000001
 44
0.0000000001
 40
0.0
 40
0.0
 40
0.0
 40
0.0
 40
0.0223120296
 40
0.0447363201
 40
0.0673861521
 40
0.0903760004
 40
0.1138101979
 40
0.137767725
 40
0.1623257089
 40
0.1875618278
 40
0.2402405945
 40
0.2677705839
 40
0.2961221342
 40
0.3552712065
 40
0.3860803737
 40
0.4176829786
 40
0.4500539908
 40
0.4831662376
 40
0.5169837258
 40
0.5514673904
 40
0.5865768221
 40
0.6222669911
 40
0.6584907986
 40
0.6952000355
 40
0.7698520245
 40
0.8458182395
 40
0.8841765569
 40
0.9227102505
 40
1.0
 40
1.0
 40
1.0
 40
1.0
 10
4.5712361818
 20
5.4063538598
 30
0.0
 10
4.570326262
 20
5.4063538676
 30
0.0
 10
4.5685012953
 20
5.4062955762
 30
0.0
 10
4.5657641369
 20
5.4060308143
 30
0.0
 10
4.5630223385
 20
5.4055857244
 30
0.0
 10
4.56027439
 20
5.4049577035
 30
0.0
 10
4.5575198681
 20
5.4041442447
 30
0.0
 10
4.5547608825
 20
5.4031400585
 30
0.0
 10
4.552000742
 20
5.4019402828
 30
0.0
 10
4.5482727179
 20
5.4000475789
 30
0.0
 10
4.5446162844
 20
5.3977632777
 30
0.0
 10
4.5410655423
 20
5.3951161655
 30
0.0
 10
4.5374606249
 20
5.3921111819
 30
0.0
 10
4.5340056498
 20
5.3887288885
 30
0.0
 10
4.5307284816
 20
5.3850073287
 30
0.0
 10
4.5283164368
 20
5.3819847976
 30
0.0
 10
4.5259948423
 20
5.3787758229
 30
0.0
 10
4.5237745763
 20
5.3753873929
 30
0.0
 10
4.5216645645
 20
5.3718287661
 30
0.0
 10
4.5196739889
 20
5.3681093608
 30
0.0
 10
4.5178121479
 20
5.3642389822
 30
0.0
 10
4.5160860866
 20
5.3602288575
 30
0.0
 10
4.5145029355
 20
5.3560902182
 30
0.0
 10
4.5125817761
 20
5.3503848649
 30
0.0
 10
4.5105784976
 20
5.3430039741
 30
0.0
 10
4.5091388548
 20
5.3354248456
 30
0.0
 10
4.5083235733
 20
5.329243235
 30
0.0
 10
4.5077373225
 20
5.322981785
 30
0.0
 10
4.5075607651
 20
5.3182558362
 30
0.0
 10
4.5075607651
 20
5.3151038381
 30
0.0
  0
SPLINE
  5
278
100
AcDbEntity
  8
ALL_FEATURES
100
AcDbSpline
 62
7
  6
CONTINUOUS
 70
0
 71
3
 72
29
 73
25
 74
0
 42
0.0000001
 43
0.0000001
 44
0.0000000001
 40
0.0
 40
0.0
 40
0.0
 40
0.0
 40
0.0670541088
 40
0.133942377
 40
0.2004460465
 40
0.2664209
 40
0.3317256976
 40
0.3962491735
 40
0.4599192748
 40
0.5226996611
 40
0.5845936033
 40
0.6152303459
 40
0.6456640276
 40
0.6759056338
 40
0.7059674985
 40
0.7358616114
 40
0.765603353
 40
0.8246676259
 40
0.8540483047
 40
0.8833427084
 40
0.9125672598
 40
0.9417403795
 40
0.9708790224
 40
1.0
 40
1.0
 40
1.0
 40
1.0
 10
4.6974026952
 20
5.3151038381
 30
0.0
 10
4.6974026952
 20
5.3200320009
 30
0.0
 10
4.697017824
 20
5.3298804681
 30
0.0
 10
4.6952917922
 20
5.3445254264
 30
0.0
 10
4.692426978
 20
5.3589112635
 30
0.0
 10
4.6884444762
 20
5.3729079235
 30
0.0
 10
4.6833713784
 20
5.3863927277
 30
0.0
 10
4.6772413948
 20
5.39924468
 30
0.0
 10
4.6700949282
 20
5.4113470221
 30
0.0
 10
4.66198034
 20
5.4225859455
 30
0.0
 10
4.654428783
 20
5.4311725385
 30
0.0
 10
4.6479628175
 20
5.4374910415
 30
0.0
 10
4.642926654
 20
5.4419313737
 30
0.0
 10
4.6376976354
 20
5.4460751993
 30
0.0
 10
4.6322863378
 20
5.4499098967
 30
0.0
 10
4.6267044496
 20
5.4534240655
 30
0.0
 10
4.6190711533
 20
5.4576545644
 30
0.0
 10
4.6111224423
 20
5.4612141599
 30
0.0
 10
4.602940254
 20
5.4640423769
 30
0.0
 10
4.5967161294
 20
5.4657879624
 30
0.0
 10
4.590413668
 20
5.4671539984
 30
0.0
 10
4.5840510256
 20
5.4681332083
 30
0.0
 10
4.5776484275
 20
5.4687227122
 30
0.0
 10
4.5733654523
 20
5.468854013
 30
0.0
 10
4.5712251969
 20
5.4688538176
 30
0.0
  0
SPLINE
  5
279
100
AcDbEntity
  8
0
100
AcDbSpline
 62
7
  6
CONTINUOUS
 70
0
 71
3
 72
11
 73
7
 74
0
 42
0.0000001
 43
0.0000001
 44
0.0000000001
 40
0.0
 40
0.0
 40
0.0
 40
0.0
 40
0.1653497113
 40
0.4979592572
 40
0.830183283
 40
1.0
 40
1.0
 40
1.0
 40
1.0
 10
4.1922473151
 20
5.2538538381
 30
0.0
 10
4.1897165178
 20
5.2502977775
 30
0.0
 10
4.1820079558
 20
5.2396506555
 30
0.0
 10
4.168754404
 20
5.2221950479
 30
0.0
 10
4.1549827794
 20
5.204995494
 30
0.0
 10
4.1465278414
 20
5.1947906387
 30
0.0
 10
4.1436501796
 20
5.1913538381
 30
0.0
  0
SPLINE
  5
27A
100
AcDbEntity
  8
ALL_FEATURES
100
AcDbSpline
 62
7
  6
CONTINUOUS
 70
0
 71
3
 72
36
 73
32
 74
0
 42
0.0000001
 43
0.0000001
 44
0.0000000001
 40
0.0
 40
0.0
 40
0.0
 40
0.0
 40
0.0239390468
 40
0.0485373632
 40
0.074012336
 40
0.1005456071
 40
0.1282815535
 40
0.1573133424
 40
0.1876846251
 40
0.2193705579
 40
0.2863501573
 40
0.3214677366
 40
0.3574563714
 40
0.3941482967
 40
0.4313538574
 40
0.5064684944
 40
0.544002981
 40
0.5812352611
 40
0.6179658733
 40
0.6540099253
 40
0.7233097446
 40
0.7563279706
 40
0.7881007871
 40
0.8185601129
 40
0.8476901917
 40
0.8755132759
 40
0.9021060262
 40
0.9276217811
 40
0.9522684854
 40
0.9763035156
 40
1.0
 40
1.0
 40
1.0
 40
1.0
 10
5.119312476
 20
2.6737315657
 30
0.0
 10
5.1205812091
 20
2.6737315657
 30
0.0
 10
5.1231572144
 20
2.6739292881
 30
0.0
 10
5.1269963
 20
2.6747908465
 30
0.0
 10
5.1308126737
 20
2.676210673
 30
0.0
 10
5.1345642289
 20
2.6781791479
 30
0.0
 10
5.1382192079
 20
2.6806711641
 30
0.0
 10
5.1417471445
 20
2.6836633787
 30
0.0
 10
5.1451160712
 20
2.6871308461
 30
0.0
 10
5.1494394578
 20
2.6924384725
 30
0.0
 10
5.153225131
 20
2.6984721151
 30
0.0
 10
5.1564530266
 20
2.7050438219
 30
0.0
 10
5.1586263273
 20
2.7103323522
 30
0.0
 10
5.1604898023
 20
2.7158541352
 30
0.0
 10
5.1625501293
 20
2.7234819434
 30
0.0
 10
5.1639206813
 20
2.7313282039
 30
0.0
 10
5.1645828146
 20
2.7392475825
 30
0.0
 10
5.1647195718
 20
2.7451590215
 30
0.0
 10
5.1644914907
 20
2.7509889747
 30
0.0
 10
5.1637191814
 20
2.7584822446
 30
0.0
 10
5.1622495776
 20
2.7656964589
 30
0.0
 10
5.1600482938
 20
2.772459824
 30
0.0
 10
5.1581033756
 20
2.7771249093
 30
0.0
 10
5.155851558
 20
2.7814190653
 30
0.0
 10
5.1533163082
 20
2.785305584
 30
0.0
 10
5.1505194443
 20
2.7887496391
 30
0.0
 10
5.147481418
 20
2.7917165866
 30
0.0
 10
5.1442304271
 20
2.7941806929
 30
0.0
 10
5.1407927264
 20
2.7961171743
 30
0.0
 10
5.1372004136
 20
2.7975000382
 30
0.0
 10
5.1347194612
 20
2.7980492141
 30
0.0
 10
5.1334762005
 20
2.7982267847
 30
0.0
  0
SPLINE
  5
27B
100
AcDbEntity
  8
ALL_FEATURES
100
AcDbSpline
 62
7
  6
CONTINUOUS
 70
0
 71
3
 72
27
 73
23
 74
0
 42
0.0000001
 43
0.0000001
 44
0.0000000001
 40
0.0
 40
0.0
 40
0.0
 40
0.0
 40
0.0257668201
 40
0.051739766
 40
0.0779466382
 40
0.1044153124
 40
0.1582621118
 40
0.2135949578
 40
0.2418927665
 40
0.2706266439
 40
0.3294290437
 40
0.3595242351
 40
0.3900782757
 40
0.4210858848
 40
0.4525385643
 40
0.5167196979
 40
0.5825123821
 40
0.7181556178
 40
0.7876849282
 40
0.8580053206
 40
0.9288821308
 40
1.0
 40
1.0
 40
1.0
 40
1.0
 10
5.1334764373
 20
2.7982284759
 30
0.0
 10
5.1268143883
 20
2.7991761235
 30
0.0
 10
5.1134903159
 20
2.8014773386
 30
0.0
 10
5.0936578707
 20
2.8061124403
 30
0.0
 10
5.0739499527
 20
2.8119394811
 30
0.0
 10
5.0477560781
 20
2.8213456744
 30
0.0
 10
5.015482613
 20
2.8361418461
 30
0.0
 10
4.9846023982
 20
2.8545944406
 30
0.0
 10
4.9606400464
 20
2.8715515785
 30
0.0
 10
4.9368564552
 20
2.8902622631
 30
0.0
 10
4.9141617362
 20
2.9110513656
 30
0.0
 10
4.8926866249
 20
2.9336888679
 30
0.0
 10
4.8770252762
 20
2.9518026005
 30
0.0
 10
4.8619739406
 20
2.9708789803
 30
0.0
 10
4.8426404341
 20
2.9977230212
 30
0.0
 10
4.8202406646
 20
3.0335040425
 30
0.0
 10
4.788340467
 20
3.09516621
 30
0.0
 10
4.7634127435
 20
3.1617472712
 30
0.0
 10
4.7457011873
 20
3.2315233849
 30
0.0
 10
4.7360359354
 20
3.2857528613
 30
0.0
 10
4.7302047502
 20
3.340935242
 30
0.0
 10
4.7289026952
 20
3.3780311145
 30
0.0
 10
4.7289026952
 20
3.3966038381
 30
0.0
  0
SPLINE
  5
27C
100
AcDbEntity
  8
ALL_FEATURES
100
AcDbSpline
 62
7
  6
CONTINUOUS
 70
0
 71
3
 72
30
 73
26
 74
0
 42
0.0000001
 43
0.0000001
 44
0.0000000001
 40
0.0
 40
0.0
 40
0.0
 40
0.0
 40
0.0279921867
 40
0.0560773538
 40
0.0842765159
 40
0.1126110823
 40
0.1411046959
 40
0.1697790704
 40
0.2277288276
 40
0.257058132
 40
0.2866363327
 40
0.3164756888
 40
0.3465856979
 40
0.376973703
 40
0.4076446142
 40
0.4698271334
 40
0.5013513424
 40
0.5331536106
 40
0.5975478268
 40
0.6629405786
 40
0.729217596
 40
0.7962345476
 40
0.8638241821
 40
0.9318217107
 40
1.0
 40
1.0
 40
1.0
 40
1.0
 10
5.1158025158
 20
2.6739792002
 30
0.0
 10
5.1069071844
 20
2.6752445226
 30
0.0
 10
5.0891562468
 20
2.6782963143
 30
0.0
 10
5.0627889053
 20
2.6844008784
 30
0.0
 10
5.0367037533
 20
2.6920214247
 30
0.0
 10
5.010964909
 20
2.7011383077
 30
0.0
 10
4.9856275492
 20
2.7117219386
 30
0.0
 10
4.9523449204
 20
2.7278038246
 30
0.0
 10
4.9201752219
 20
2.7466835326
 30
0.0
 10
4.8893709371
 20
2.7681044225
 30
0.0
 10
4.8668231953
 20
2.7855333008
 30
0.0
 10
4.844972048
 20
2.8042134558
 30
0.0
 10
4.82385855
 20
2.8241041658
 30
0.0
 10
4.80352138
 20
2.845160937
 30
0.0
 10
4.7773725124
 20
2.8748579232
 30
0.0
 10
4.7530491101
 20
2.9065933186
 30
0.0
 10
4.7306464632
 20
2.9400863503
 30
0.0
 10
4.7093101554
 20
2.9751048892
 30
0.0
 10
4.6851072492
 20
3.0210487372
 30
0.0
 10
4.6602831091
 20
3.0789463424
 30
0.0
 10
4.6397251899
 20
3.1393815491
 30
0.0
 10
4.6235808224
 20
3.2018676678
 30
0.0
 10
4.6119641314
 20
3.2659123173
 30
0.0
 10
4.6049634369
 20
3.3309946218
 30
0.0
 10
4.6034026952
 20
3.3747201123
 30
0.0
 10
4.6034026952
 20
3.3966038381
 30
0.0
  0
SPLINE
  5
27D
100
AcDbEntity
  8
ALL_FEATURES
100
AcDbSpline
 62
7
  6
CONTINUOUS
 70
0
 71
3
 72
35
 73
31
 74
0
 42
0.0000001
 43
0.0000001
 44
0.0000000001
 40
0.0
 40
0.0
 40
0.0
 40
0.0
 40
0.0239564281
 40
0.0485575566
 40
0.0740248884
 40
0.100550812
 40
0.1282860416
 40
0.1573277311
 40
0.1877025253
 40
0.2193900858
 40
0.2523306411
 40
0.2864231994
 40
0.3215437013
 40
0.3575376469
 40
0.4314044822
 40
0.5065263012
 40
0.5440634522
 40
0.5812984638
 40
0.6180328951
 40
0.6540795789
 40
0.6892619537
 40
0.7234285812
 40
0.7881674655
 40
0.8476935333
 40
0.8755194216
 40
0.9021201685
 40
0.9276341158
 40
0.9522730062
 40
0.9762997493
 40
1.0
 40
1.0
 40
1.0
 40
1.0
 10
4.02562458
 20
2.7469181721
 30
0.0
 10
4.0237278001
 20
2.7469181721
 30
0.0
 10
4.0198778234
 20
2.7472128114
 30
0.0
 10
4.0141410636
 20
2.7484989606
 30
0.0
 10
4.0084417519
 20
2.7506230904
 30
0.0
 10
4.0028384523
 20
2.7535632188
 30
0.0
 10
3.997377333
 20
2.7572853612
 30
0.0
 10
3.99210765
 20
2.7617580989
 30
0.0
 10
3.9870716633
 20
2.7669364217
 30
0.0
 10
3.982315584
 20
2.77277549
 30
0.0
 10
3.977882678
 20
2.7792228203
 30
0.0
 10
3.9738088728
 20
2.7862183116
 30
0.0
 10
3.9701344121
 20
2.7937015053
 30
0.0
 10
3.9657703152
 20
2.8043263377
 30
0.0
 10
3.9615261525
 20
2.8183863746
 30
0.0
 10
3.9589781856
 20
2.832970979
 30
0.0
 10
3.9579888346
 20
2.8448037181
 30
0.0
 10
3.9577856668
 20
2.8536357899
 30
0.0
 10
3.9581259033
 20
2.8623454952
 30
0.0
 10
3.9590022237
 20
2.8708545504
 30
0.0
 10
3.9604112125
 20
2.879086705
 30
0.0
 10
3.9629343584
 20
2.8894062479
 30
0.0
 10
3.9672482735
 20
2.9012420469
 30
0.0
 10
3.973302452
 20
2.9117460104
 30
0.0
 10
3.9790046533
 20
2.918759456
 30
0.0
 10
3.98354232
 20
2.9231941362
 30
0.0
 10
3.9884002419
 20
2.9268737336
 30
0.0
 10
3.9935345191
 20
2.9297659029
 30
0.0
 10
3.9988993074
 20
2.9318342142
 30
0.0
 10
4.002605778
 20
2.9326532031
 30
0.0
 10
4.0044634997
 20
2.9329179867
 30
0.0
  0
SPLINE
  5
27E
100
AcDbEntity
  8
ALL_FEATURES
100
AcDbSpline
 62
7
  6
CONTINUOUS
 70
0
 71
3
 72
36
 73
32
 74
0
 42
0.0000001
 43
0.0000001
 44
0.0000000001
 40
0.0
 40
0.0
 40
0.0
 40
0.0
 40
0.0236964844
 40
0.0477315146
 40
0.0723782189
 40
0.0978939738
 40
0.1244867241
 40
0.1523098083
 40
0.1814398871
 40
0.2118992129
 40
0.2436720294
 40
0.2766902554
 40
0.3459900747
 40
0.3820341267
 40
0.4187647389
 40
0.455997019
 40
0.4935315056
 40
0.5686461426
 40
0.6058517033
 40
0.6425436286
 40
0.6785322634
 40
0.7136498427
 40
0.7806294421
 40
0.8123153749
 40
0.8426866576
 40
0.8717184465
 40
0.8994543929
 40
0.925987664
 40
0.9514626368
 40
0.9760609532
 40
1.0
 40
1.0
 40
1.0
 40
1.0
 10
4.0264674319
 20
2.7782283932
 30
0.0
 10
4.0277057393
 20
2.7784052564
 30
0.0
 10
4.0301768075
 20
2.7789522443
 30
0.0
 10
4.0337548082
 20
2.7803295988
 30
0.0
 10
4.037178813
 20
2.7822583651
 30
0.0
 10
4.0404168517
 20
2.7847126543
 30
0.0
 10
4.0434427742
 20
2.7876677812
 30
0.0
 10
4.0462284953
 20
2.791098115
 30
0.0
 10
4.0487536445
 20
2.7949691495
 30
0.0
 10
4.0509964907
 20
2.7992461974
 30
0.0
 10
4.0529336602
 20
2.8038926967
 30
0.0
 10
4.0551261739
 20
2.8106291161
 30
0.0
 10
4.0565899227
 20
2.8178145886
 30
0.0
 10
4.0573591552
 20
2.8252780048
 30
0.0
 10
4.0575863276
 20
2.831084731
 30
0.0
 10
4.0574501152
 20
2.8369726185
 30
0.0
 10
4.0567906199
 20
2.8448604458
 30
0.0
 10
4.0554255282
 20
2.8526754462
 30
0.0
 10
4.0533734097
 20
2.8602728648
 30
0.0
 10
4.0515173589
 20
2.8657726487
 30
0.0
 10
4.0493527168
 20
2.8710401091
 30
0.0
 10
4.0461376814
 20
2.8775856339
 30
0.0
 10
4.0423670905
 20
2.883595238
 30
0.0
 10
4.0380609286
 20
2.8888817185
 30
0.0
 10
4.0347054239
 20
2.8923353712
 30
0.0
 10
4.0311915427
 20
2.8953156647
 30
0.0
 10
4.0275511255
 20
2.8977977526
 30
0.0
 10
4.0238145167
 20
2.8997583849
 30
0.0
 10
4.0200133477
 20
2.9011725547
 30
0.0
 10
4.0161895572
 20
2.9020306807
 30
0.0
 10
4.0136238149
 20
2.9022276153
 30
0.0
 10
4.0123601366
 20
2.9022276153
 30
0.0
  0
SPLINE
  5
27F
100
AcDbEntity
  8
ALL_FEATURES
100
AcDbSpline
 62
7
  6
CONTINUOUS
 70
0
 71
3
 72
28
 73
24
 74
0
 42
0.0000001
 43
0.0000001
 44
0.0000000001
 40
0.0
 40
0.0
 40
0.0
 40
0.0
 40
0.0249366795
 40
0.0501214118
 40
0.0755859151
 40
0.1013621694
 40
0.1539899959
 40
0.2083598424
 40
0.2362805899
 40
0.2647069247
 40
0.3231021444
 40
0.383592075
 40
0.4146215687
 40
0.4461539898
 40
0.5106549695
 40
0.5769572626
 40
0.6107322187
 40
0.644882895
 40
0.7141832455
 40
0.7846173656
 40
0.8559183297
 40
0.9278263759
 40
1.0
 40
1.0
 40
1.0
 40
1.0
 10
4.0044632833
 20
2.932919532
 30
0.0
 10
4.0105467223
 20
2.9337848749
 30
0.0
 10
4.0227251505
 20
2.935889963
 30
0.0
 10
4.0408697301
 20
2.9401378157
 30
0.0
 10
4.0589362839
 20
2.945491538
 30
0.0
 10
4.0830289548
 20
2.9541647485
 30
0.0
 10
4.11281896
 20
2.9678664872
 30
0.0
 10
4.1413872648
 20
2.9849978193
 30
0.0
 10
4.1636404733
 20
3.0007977983
 30
0.0
 10
4.1858421593
 20
3.0183224172
 30
0.0
 10
4.2126096946
 20
3.0429309879
 30
0.0
 10
4.2373657107
 20
3.0704224242
 30
0.0
 10
4.2561107851
 20
3.0942658322
 30
0.0
 10
4.2743715354
 20
3.1197100034
 30
0.0
 10
4.2955676758
 20
3.1536932782
 30
0.0
 10
4.3141689188
 20
3.1897807865
 30
0.0
 10
4.3275745413
 20
3.2200253212
 30
0.0
 10
4.3400774092
 20
3.251450839
 30
0.0
 10
4.3536242895
 20
3.2921463091
 30
0.0
 10
4.3663868814
 20
3.3426031811
 30
0.0
 10
4.3755988031
 20
3.3944813757
 30
0.0
 10
4.3811606693
 20
3.4473036136
 30
0.0
 10
4.3824026952
 20
3.4828194507
 30
0.0
 10
4.3824026952
 20
3.5006038381
 30
0.0
  0
SPLINE
  5
280
100
AcDbEntity
  8
ALL_FEATURES
100
AcDbSpline
 62
7
  6
CONTINUOUS
 70
0
 71
3
 72
26
 73
22
 74
0
 42
0.0000001
 43
0.0000001
 44
0.0000000001
 40
0.0
 40
0.0
 40
0.0
 40
0.0
 40
0.0283535349
 40
0.0567837884
 40
0.0853108296
 40
0.11395459
 40
0.1427357524
 40
0.1716727997
 40
0.2300652534
 40
0.2892795751
 40
0.3494164714
 40
0.4105450475
 40
0.4727007505
 40
0.535883226
 40
0.6000561812
 40
0.6651492417
 40
0.73106151
 40
0.7976619986
 40
0.864796975
 40
0.9323143751
 40
1.0
 40
1.0
 40
1.0
 40
1.0
 10
4.0308685445
 20
2.7472881441
 30
0.0
 10
4.0402926394
 20
2.7486286808
 30
0.0
 10
4.059093438
 20
2.7518571723
 30
0.0
 10
4.0870139709
 20
2.758305166
 30
0.0
 10
4.1146210237
 20
2.7663441652
 30
0.0
 10
4.1418463642
 20
2.7759513722
 30
0.0
 10
4.1686302107
 20
2.7870929528
 30
0.0
 10
4.2037717467
 20
2.8039995826
 30
0.0
 10
4.2463394621
 20
2.8288631849
 30
0.0
 10
4.2945866676
 20
2.8641440743
 30
0.0
 10
4.3398129197
 20
2.904608606
 30
0.0
 10
4.3816922563
 20
2.9498725741
 30
0.0
 10
4.419941063
 20
2.9995330506
 30
0.0
 10
4.4543072397
 20
3.0531669025
 30
0.0
 10
4.4845655181
 20
3.1103340309
 30
0.0
 10
4.5105171686
 20
3.1705755418
 30
0.0
 10
4.5319919723
 20
3.2334128395
 30
0.0
 10
4.54884731
 20
3.2983492464
 30
0.0
 10
4.5609705128
 20
3.3648801114
 30
0.0
 10
4.5682745086
 20
3.4324724391
 30
0.0
 10
4.5699026952
 20
3.4778801541
 30
0.0
 10
4.5699026952
 20
3.5006038381
 30
0.0
  0
SPLINE
  5
281
100
AcDbEntity
  8
ALL_FEATURES
100
AcDbSpline
 62
7
  6
CONTINUOUS
 70
0
 71
3
 72
36
 73
32
 74
0
 42
0.0000001
 43
0.0000001
 44
0.0000000001
 40
0.0
 40
0.0
 40
0.0
 40
0.0
 40
0.0236964844
 40
0.0477315146
 40
0.0723782189
 40
0.0978939738
 40
0.1244867241
 40
0.1523098083
 40
0.1814398871
 40
0.2118992129
 40
0.2436720294
 40
0.2766902554
 40
0.3459900747
 40
0.3820341267
 40
0.4187647389
 40
0.455997019
 40
0.4935315056
 40
0.5686461426
 40
0.6058517033
 40
0.6425436286
 40
0.6785322634
 40
0.7136498427
 40
0.7806294421
 40
0.8123153749
 40
0.8426866576
 40
0.8717184465
 40
0.8994543929
 40
0.925987664
 40
0.9514626368
 40
0.9760609532
 40
1.0
 40
1.0
 40
1.0
 40
1.0
 10
4.008864396
 20
2.9019792829
 30
0.0
 10
4.0076260885
 20
2.9018024197
 30
0.0
 10
4.0051550204
 20
2.9012554318
 30
0.0
 10
4.0015770196
 20
2.8998780773
 30
0.0
 10
3.9981530149
 20
2.897949311
 30
0.0
 10
3.9949149762
 20
2.8954950218
 30
0.0
 10
3.9918890536
 20
2.8925398949
 30
0.0
 10
3.9891033325
 20
2.8891095611
 30
0.0
 10
3.9865781834
 20
2.8852385266
 30
0.0
 10
3.9843353371
 20
2.8809614788
 30
0.0
 10
3.9823981677
 20
2.8763149795
 30
0.0
 10
3.9802056539
 20
2.86957856
 30
0.0
 10
3.9787419051
 20
2.8623930876
 30
0.0
 10
3.9779726727
 20
2.8549296713
 30
0.0
 10
3.9777455003
 20
2.8491229451
 30
0.0
 10
3.9778817127
 20
2.8432350576
 30
0.0
 10
3.978541208
 20
2.8353472303
 30
0.0
 10
3.9799062996
 20
2.8275322299
 30
0.0
 10
3.9819584181
 20
2.8199348113
 30
0.0
 10
3.983814469
 20
2.8144350275
 30
0.0
 10
3.9859791111
 20
2.809167567
 30
0.0
 10
3.9891941465
 20
2.8026220422
 30
0.0
 10
3.9929647373
 20
2.7966124381
 30
0.0
 10
3.9972708993
 20
2.7913259577
 30
0.0
 10
4.000626404
 20
2.7878723049
 30
0.0
 10
4.0041402851
 20
2.7848920114
 30
0.0
 10
4.0077807024
 20
2.7824099235
 30
0.0
 10
4.0115173112
 20
2.7804492912
 30
0.0
 10
4.0153184802
 20
2.7790351214
 30
0.0
 10
4.0191422706
 20
2.7781769955
 30
0.0
 10
4.021708013
 20
2.7779800608
 30
0.0
 10
4.0229716913
 20
2.7779800608
 30
0.0
  0
SPLINE
  5
282
100
AcDbEntity
  8
ALL_FEATURES
100
AcDbSpline
 62
7
  6
CONTINUOUS
 70
0
 71
3
 72
35
 73
31
 74
0
 42
0.0000001
 43
0.0000001
 44
0.0000000001
 40
0.0
 40
0.0
 40
0.0
 40
0.0
 40
0.0239564281
 40
0.0485575566
 40
0.0740248884
 40
0.100550812
 40
0.1282860416
 40
0.1573277311
 40
0.1877025253
 40
0.2193900858
 40
0.2523306411
 40
0.2864231994
 40
0.3215437013
 40
0.3575376469
 40
0.4314044822
 40
0.5065263012
 40
0.5440634522
 40
0.5812984638
 40
0.6180328951
 40
0.6540795789
 40
0.6892619537
 40
0.7234285812
 40
0.7881674655
 40
0.8476935333
 40
0.8755194216
 40
0.9021201685
 40
0.9276341158
 40
0.9522730062
 40
0.9762997493
 40
1.0
 40
1.0
 40
1.0
 40
1.0
 10
4.0097072479
 20
2.933289504
 30
0.0
 10
4.0116040278
 20
2.933289504
 30
0.0
 10
4.0154540045
 20
2.9329948647
 30
0.0
 10
4.0211907643
 20
2.9317087155
 30
0.0
 10
4.0268900759
 20
2.9295845858
 30
0.0
 10
4.0324933756
 20
2.9266444573
 30
0.0
 10
4.0379544948
 20
2.9229223149
 30
0.0
 10
4.0432241779
 20
2.9184495772
 30
0.0
 10
4.0482601646
 20
2.9132712544
 30
0.0
 10
4.0530162439
 20
2.9074321861
 30
0.0
 10
4.0574491499
 20
2.9009848558
 30
0.0
 10
4.0615229551
 20
2.8939893645
 30
0.0
 10
4.0651974157
 20
2.8865061708
 30
0.0
 10
4.0695615127
 20
2.8758813384
 30
0.0
 10
4.0738056753
 20
2.8618213016
 30
0.0
 10
4.0763536423
 20
2.8472366972
 30
0.0
 10
4.0773429933
 20
2.835403958
 30
0.0
 10
4.077546161
 20
2.8265718862
 30
0.0
 10
4.0772059246
 20
2.8178621809
 30
0.0
 10
4.0763296042
 20
2.8093531257
 30
0.0
 10
4.0749206154
 20
2.8011209712
 30
0.0
 10
4.0723974695
 20
2.7908014282
 30
0.0
 10
4.0680835543
 20
2.7789656292
 30
0.0
 10
4.0620293759
 20
2.7684616657
 30
0.0
 10
4.0563271746
 20
2.7614482201
 30
0.0
 10
4.0517895079
 20
2.7570135399
 30
0.0
 10
4.0469315859
 20
2.7533339425
 30
0.0
 10
4.0417973087
 20
2.7504417732
 30
0.0
 10
4.0364325205
 20
2.748373462
 30
0.0
 10
4.0327260499
 20
2.747554473
 30
0.0
 10
4.0308683282
 20
2.7472896895
 30
0.0
  0
ENDSEC
  0
SECTION
  2
OBJECTS
  0
DICTIONARY
  5
C
100
AcDbDictionary
280
0
281
1
  3
ACAD_GROUP
350
D
  3
ACAD_MLINESTYLE
350
17
  3
ACAD_LAYOUT
350
1A
  3
ACAD_PLOTSETTINGS
350
19
  3
ACAD_PLOTSTYLENAME
350
E
  0
DICTIONARY
  5
D
102
{ACAD_REACTORS
330
C
102
}
100
AcDbDictionary
280
0
281
1
  0
ACDBDICTIONARYWDFLT
  5
E
102
{ACAD_REACTORS
330
C
102
}
100
AcDbDictionary
281
1
  3
Normal
350
F
100
AcDbDictionaryWithDefault
340
F
  0
DICTIONARY
  5
17
102
{ACAD_REACTORS
330
C
102
}
100
AcDbDictionary
280
0
281
1
  3
Standard
350
18
  0
DICTIONARY
  5
19
102
{ACAD_REACTORS
330
C
102
}
100
AcDbDictionary
281
1
  0
DICTIONARY
  5
1A
102
{ACAD_REACTORS
330
C
102
}
100
AcDbDictionary
281
1
  3
Model
350
283
  3
Layout1
350
284
  0
ACDBPLACEHOLDER
  5
F
102
{ACAD_REACTORS
330
E
102
}
  0
MLINESTYLE
  5
18
102
{ACAD_REACTORS
330
17
102
}
100
AcDbMlineStyle
  2
STANDARD
 70
0
  3

 62
256
 51
90.0
 52
90.0
 71
2
 49
0.5
 62
256
  6
BYLAYER
 49
-0.5
 62
256
  6
BYLAYER
  0
LAYOUT
  5
283
102
{ACAD_REACTORS
330
1A
102
}
100
AcDbPlotSettings
  1

  2
none_device
  4
ANSI_A_(11.00_x_8.50_Inches)
  6

 40
0.0
 41
0.0
 42
0.0
 43
0.0
 44
279.4
 45
215.9
 46
0.0
 47
0.0
 48
0.0
 49
0.0
140
0.0
141
0.0
142
1.0
143
1.0
 70
1024
 72
0
 73
0
 74
0
  7

 75
0
147
1.0
148
0.0
149
0.0
100
AcDbLayout
  1
Model
 70
0
 71
0
 10
0.0
 20
0.0
 11
11.0
 21
8.5
 12
0.0
 22
0.0
 32
0.0
 14
0.0
 24
0.0
 34
0.0
 15
0.0
 25
0.0
 35
0.0
146
0.0
 13
0.0
 23
0.0
 33
0.0
 16
1.0
 26
0.0
 36
0.0
 17
0.0
 27
1.0
 37
0.0
 76
0
330
20D
345
0
346
0
  0
LAYOUT
  5
284
102
{ACAD_REACTORS
330
1A
102
}
100
AcDbPlotSettings
  1

  2
none_device
  4
ANSI_A_(11.00_x_8.50_Inches)
  6

 40
0.0
 41
0.0
 42
0.0
 43
0.0
 44
279.4
 45
215.9
 46
0.0
 47
0.0
 48
0.0
 49
0.0
140
0.0
141
0.0
142
1.0
143
1.0
 70
0
 72
0
 73
0
 74
0
  7

 75
0
147
1.0
148
0.0
149
0.0
100
AcDbLayout
  1
Layout1
 70
0
 71
1
 10
0.0
 20
0.0
 11
11.0
 21
8.5
 12
0.0
 22
0.0
 32
0.0
 14
0.0
 24
0.0
 34
0.0
 15
0.0
 25
0.0
 35
0.0
146
0.0
 13
0.0
 23
0.0
 33
0.0
 16
1.0
 26
0.0
 36
0.0
 17
0.0
 27
1.0
 37
0.0
 76
0
330
20E
345
0
346
0
  0
ENDSEC
  0
EOF
