999
DXF file: 20-275_TOP.dxf
999
Pro/ENGINEER 2018400 by Parametric Technology Corporation
  0
SECTION
  2
HEADER
  9
$ACADVER
  1
AC1027
  9
$DWGCODEPAGE
  3
ANSI_1252
  9
$EXTMAX
 10
11.0
 20
8.5
 30
0.0
  9
$EXTMIN
 10
0.0
 20
0.0
 30
0.0
  9
$LIMMIN
 10
0.0
 20
0.0
  9
$LIMMAX
 10
11.0
 20
8.5
  9
$VIEWCTR
 10
5.5
 20
4.25
  9
$VIEWSIZE
 40
8.5
  9
$CLAYER
  8
0
  9
$LTSCALE
 40
0.605
  9
$CELTYPE
  6
BYLAYER
  9
$DIMSCALE
 40
1.0
  9
$DIMASZ
 40
0.1
  9
$DIMEXO
 40
0.0625
  9
$DIMDLI
 40
0.418
  9
$DIMEXE
 40
0.125
  9
$DIMCEN
 40
0.099
  9
$DIMLFAC
 40
1.0
  9
$DIMBLK
  1
_FILLED
  9
$DIMALT
 70
1
  9
$DIMALTD
 70
2
  9
$DIMALTTD
 70
2
  9
$DIMALTF
 40
25.4
  9
$DIMTXT
 40
0.08
  9
$DIMTOL
 70
1
  9
$DIMLIM
 70
0
  9
$DIMTFAC
 40
1.0
  9
$DIMTP
 40
0.001
  9
$DIMTM
 40
0.001
  9
$DIMGAP
 40
0.09
  9
$DIMDSEP
 70
46
  9
$AUNITS
 70
0
  9
$PDMODE
 70
3
  9
$PDSIZE
 40
0.3125
  9
$HANDSEED
  5
24C
  9
$TILEMODE
 70
1
  9
$MEASUREMENT
 70
0
  9
$INSUNITS
 70
1
  0
ENDSEC
  0
SECTION
  2
CLASSES
  0
CLASS
  1
ACDBDICTIONARYWDFLT
  2
AcDbDictionaryWithDefault
  3
AutoCAD 2000
 90
0
 91
1
280
0
281
0
  0
CLASS
  1
ACDBPLACEHOLDER
  2
AcDbPlaceHolder
  3
AutoCAD 2000
 90
0
 91
1
280
0
281
0
  0
CLASS
  1
LAYOUT
  2
AcDbLayout
  3
AutoCAD 2000
 90
0
 91
0
280
0
281
0
  0
ENDSEC
  0
SECTION
  2
TABLES
  0
TABLE
  2
VPORT
  5
8
100
AcDbSymbolTable
 70
2
  0
VPORT
  5
1F4
100
AcDbSymbolTableRecord
100
AcDbViewportTableRecord
  2
*ACTIVE
 70
0
 10
0.0
 20
0.0
 11
1.0
 21
1.0
 12
5.5
 22
4.25
 13
0.0
 23
0.0
 14
1.0
 24
1.0
 15
0.0
 25
0.0
 16
0.0
 26
0.0
 36
1.0
 17
0.0
 27
0.0
 37
0.0
 40
8.5
 41
1.2941176471
 42
50.0
 43
0.0
 44
0.0
 50
0.0
 51
0.0
 71
0
 72
100
 73
1
 74
1
 75
0
 76
0
 77
0
 78
0
  0
ENDTAB
  0
TABLE
  2
LTYPE
  5
5
100
AcDbSymbolTable
 70
6
  0
LTYPE
  5
14
100
AcDbSymbolTableRecord
100
AcDbLinetypeTableRecord
  2
BYBLOCK
 70
0
  3

 72
65
 73
0
 40
0.0
  0
LTYPE
  5
15
100
AcDbSymbolTableRecord
100
AcDbLinetypeTableRecord
  2
BYLAYER
 70
0
  3

 72
65
 73
0
 40
0.0
  0
LTYPE
  5
16
100
AcDbSymbolTableRecord
100
AcDbLinetypeTableRecord
  2
CONTINUOUS
 70
64
  3
Solid line
 72
65
 73
0
 40
0.0
  0
LTYPE
  5
1F5
100
AcDbSymbolTableRecord
100
AcDbLinetypeTableRecord
  2
CENTER
 70
64
  3
____ _ ____ _ ____ _ ____ _ ____ _ ____ _ ____
 72
65
 73
4
 40
0.6
 49
0.375
 74
0
 49
-0.075
 74
0
 49
0.075
 74
0
 49
-0.075
 74
0
  0
LTYPE
  5
1F6
100
AcDbSymbolTableRecord
100
AcDbLinetypeTableRecord
  2
HIDDEN
 70
64
  3
- - - - - - - - - - - - - - - - - - - -
 72
65
 73
2
 40
0.2
 49
0.1
 74
0
 49
-0.1
 74
0
  0
LTYPE
  5
1F7
100
AcDbSymbolTableRecord
100
AcDbLinetypeTableRecord
  2
PHANTOM
 70
64
  3
_____ _ _ _____ _ _ _____ _ _ _____
 72
65
 73
6
 40
0.8
 49
0.45
 74
0
 49
-0.05
 74
0
 49
0.1
 74
0
 49
-0.05
 74
0
 49
0.1
 74
0
 49
-0.05
 74
0
  0
LTYPE
  5
1F8
100
AcDbSymbolTableRecord
100
AcDbLinetypeTableRecord
  2
DOT
 70
64
  3
. . . . . . . . . . . . . . . . . . . .
 72
65
 73
2
 40
0.2
 49
0.1
 74
0
 49
-0.1
 74
0
  0
LTYPE
  5
1F9
100
AcDbSymbolTableRecord
100
AcDbLinetypeTableRecord
  2
DASHED
 70
64
  3
- - - - - - - - - - - - - - - - - - - -
 72
65
 73
2
 40
0.2
 49
0.1
 74
0
 49
-0.1
 74
0
  0
ENDTAB
  0
TABLE
  2
LAYER
  5
2
100
AcDbSymbolTable
 70
36
  0
LAYER
  5
10
100
AcDbSymbolTableRecord
100
AcDbLayerTableRecord
  2
0
 70
0
 62
7
  6
CONTINUOUS
370
-3
390
F
  0
LAYER
  5
1FA
100
AcDbSymbolTableRecord
100
AcDbLayerTableRecord
  2
DEFAULT_1
 70
0
 62
7
  6
CENTER
370
-3
390
F
  0
LAYER
  5
1FB
100
AcDbSymbolTableRecord
100
AcDbLayerTableRecord
  2
DEFAULT_2
 70
0
 62
8
  6
HIDDEN
370
-3
390
F
  0
LAYER
  5
1FC
100
AcDbSymbolTableRecord
100
AcDbLayerTableRecord
  2
DEFAULT_3
 70
0
 62
7
  6
PHANTOM
370
-3
390
F
  0
LAYER
  5
1FD
100
AcDbSymbolTableRecord
100
AcDbLayerTableRecord
  2
ALL_FEATURES
 70
0
 62
7
  6
CONTINUOUS
370
-3
390
F
  0
LAYER
  5
1FE
100
AcDbSymbolTableRecord
100
AcDbLayerTableRecord
  2
AXES_FEATURES
 70
0
 62
7
  6
CONTINUOUS
370
-3
390
F
  0
LAYER
  5
1FF
100
AcDbSymbolTableRecord
100
AcDbLayerTableRecord
  2
CHAMFER_FEATURES
 70
0
 62
7
  6
CONTINUOUS
370
-3
390
F
  0
LAYER
  5
200
100
AcDbSymbolTableRecord
100
AcDbLayerTableRecord
  2
CUT_FEATURES
 70
0
 62
7
  6
CONTINUOUS
370
-3
390
F
  0
LAYER
  5
201
100
AcDbSymbolTableRecord
100
AcDbLayerTableRecord
  2
DEFAULT_COORDINATE_SYSTEM
 70
0
 62
7
  6
CONTINUOUS
370
-3
390
F
  0
LAYER
  5
202
100
AcDbSymbolTableRecord
100
AcDbLayerTableRecord
  2
DEFAULT_DATUM_AXES
 70
0
 62
7
  6
CONTINUOUS
370
-3
390
F
  0
LAYER
  5
203
100
AcDbSymbolTableRecord
100
AcDbLayerTableRecord
  2
DEFAULT_DATUM_CURVES
 70
0
 62
7
  6
CONTINUOUS
370
-3
390
F
  0
LAYER
  5
204
100
AcDbSymbolTableRecord
100
AcDbLayerTableRecord
  2
DEFAULT_DATUM_PLANES
 70
0
 62
7
  6
CONTINUOUS
370
-3
390
F
  0
LAYER
  5
205
100
AcDbSymbolTableRecord
100
AcDbLayerTableRecord
  2
DEFAULT_SURFACES
 70
0
 62
7
  6
CONTINUOUS
370
-3
390
F
  0
LAYER
  5
206
100
AcDbSymbolTableRecord
100
AcDbLayerTableRecord
  2
DIMENSIONS
 70
0
 62
7
  6
CONTINUOUS
370
-3
390
F
  0
LAYER
  5
207
100
AcDbSymbolTableRecord
100
AcDbLayerTableRecord
  2
PROTRUSION_FEATURES
 70
0
 62
7
  6
CONTINUOUS
370
-3
390
F
  0
LAYER
  5
208
100
AcDbSymbolTableRecord
100
AcDbLayerTableRecord
  2
QUILTS
 70
0
 62
7
  6
CONTINUOUS
370
-3
390
F
  0
LAYER
  5
209
100
AcDbSymbolTableRecord
100
AcDbLayerTableRecord
  2
ROUND_FEATURES
 70
0
 62
7
  6
CONTINUOUS
370
-3
390
F
  0
LAYER
  5
20A
100
AcDbSymbolTableRecord
100
AcDbLayerTableRecord
  2
XSEC_DATUMS
 70
0
 62
7
  6
CONTINUOUS
370
-3
390
F
  0
ENDTAB
  0
TABLE
  2
STYLE
  5
3
100
AcDbSymbolTable
 70
1
  0
STYLE
  5
11
100
AcDbSymbolTableRecord
100
AcDbTextStyleTableRecord
  2
STANDARD
 70
0
 40
0.0
 41
0.8
 50
0.0
 71
0
 42
0.2
  3
txt
  4

  0
STYLE
  5
20B
100
AcDbSymbolTableRecord
100
AcDbTextStyleTableRecord
  2
TEXTSTYLE_1
 70
0
 40
0.0
 41
0.8
 50
0.0
 71
0
 42
0.2
  3
gdt
  4

  0
ENDTAB
  0
TABLE
  2
VIEW
  5
6
100
AcDbSymbolTable
 70
0
  0
ENDTAB
  0
TABLE
  2
UCS
  5
7
100
AcDbSymbolTable
 70
0
  0
ENDTAB
  0
TABLE
  2
APPID
  5
9
100
AcDbSymbolTable
 70
1
  0
APPID
  5
20C
100
AcDbSymbolTableRecord
100
AcDbRegAppTableRecord
  2
ACAD
 70
0
  0
ENDTAB
  0
TABLE
  2
BLOCK_RECORD
  5
1
100
AcDbSymbolTable
 70
0
  0
BLOCK_RECORD
  5
20D
100
AcDbSymbolTableRecord
100
AcDbBlockTableRecord
  2
*Model_Space
  0
BLOCK_RECORD
  5
20E
100
AcDbSymbolTableRecord
100
AcDbBlockTableRecord
  2
*Paper_Space
  0
BLOCK_RECORD
  5
20F
100
AcDbSymbolTableRecord
100
AcDbBlockTableRecord
  2
_FILLED
  0
ENDTAB
  0
TABLE
  2
DIMSTYLE
  5
A
100
AcDbSymbolTable
 70
1
100
AcDbDimStyleTable
 71
0
  0
DIMSTYLE
105
210
100
AcDbSymbolTableRecord
100
AcDbDimStyleTableRecord
  2
STANDARD
 70
0
  3

  4

 40
1.0
 41
0.1
 42
0.0625
 43
0.38
 44
0.125
 45
0.0
 46
0.0
 47
0.001
 48
0.001
140
0.08
141
0.09
142
0.0
143
25.4
144
1.0
145
0.0
146
1.0
147
0.09
 71
1.0
 72
0.0
 73
1
 74
1
 75
0
 76
0
 77
0
 78
4
 79
1
170
1
171
2
172
0
173
0
174
0
175
0
176
0
177
0
178
0
270
2
179
3
271
3
272
3
273
2
274
2
275
0
280
0
281
0
282
0
283
1
284
4
285
0
286
0
287
3
288
0
340
11
278
46
341
20F
342
20F
343
20F
344
20F
  0
ENDTAB
  0
ENDSEC
  0
SECTION
  2
BLOCKS
  0
BLOCK
  5
20
100
AcDbEntity
  8
0
100
AcDbBlockBegin
  2
*Model_Space
 70
0
 10
0.0
 20
0.0
 30
0.0
  3
*Model_Space
  1

  0
ENDBLK
  5
21
100
AcDbEntity
  8
0
100
AcDbBlockEnd
  0
BLOCK
  5
1C
100
AcDbEntity
  8
0
100
AcDbBlockBegin
  2
*Paper_Space
 70
0
 10
0.0
 20
0.0
 30
0.0
  3
*Paper_Space
  1

  0
ENDBLK
  5
1D
100
AcDbEntity
  8
0
100
AcDbBlockEnd
  0
BLOCK
  5
211
100
AcDbEntity
  8
0
100
AcDbBlockBegin
  2
_FILLED
 70
64
 10
0.0
 20
0.0
  3
_FILLED
  1

  0
SOLID
  5
212
100
AcDbEntity
  8
0
  6
BYBLOCK
 62
0
100
AcDbTrace
 10
0.0
 20
0.0
 11
-1.0
 21
0.2
 12
-1.0
 22
-0.2
 13
-1.0
 23
-0.2
  0
ENDBLK
  5
213
100
AcDbEntity
  8
0
  6
BYBLOCK
 62
0
100
AcDbBlockEnd
  0
ENDSEC
  0
SECTION
  2
ENTITIES
  0
LINE
  5
214
100
AcDbEntity
  8
0
100
AcDbLine
 62
7
  6
CONTINUOUS
 10
0.0
 20
0.0
 11
0.0
 21
8.5
  0
LINE
  5
215
100
AcDbEntity
  8
0
100
AcDbLine
 62
7
  6
CONTINUOUS
 10
0.0
 20
0.0
 11
11.0
 21
0.0
  0
LINE
  5
216
100
AcDbEntity
  8
0
100
AcDbLine
 62
7
  6
CONTINUOUS
 10
0.0
 20
8.5
 11
11.0
 21
8.5
  0
LINE
  5
217
100
AcDbEntity
  8
0
100
AcDbLine
 62
7
  6
CONTINUOUS
 10
11.0
 20
0.0
 11
11.0
 21
8.5
  0
LINE
  5
218
100
AcDbEntity
  8
DEFAULT_1
100
AcDbLine
 62
7
  6
CENTER
 10
4.4371526952
 20
4.0338997491
 11
4.4371526952
 21
4.0621606352
  0
LINE
  5
219
100
AcDbEntity
  8
ALL_FEATURES
100
AcDbLine
 62
7
  6
CONTINUOUS
 10
3.9584040332
 20
3.7466450978
 11
4.1541793364
 21
3.9063565294
  0
LINE
  5
21A
100
AcDbEntity
  8
ALL_FEATURES
100
AcDbLine
 62
7
  6
CONTINUOUS
 10
5.0849735244
 20
4.6256816622
 11
4.9369747277
 21
4.5049458017
  0
LINE
  5
21B
100
AcDbEntity
  8
DEFAULT_1
100
AcDbLine
 62
7
  6
CENTER
 10
4.4688900179
 20
4.0071899799
 11
4.4444153726
 21
4.0213204229
  0
LINE
  5
21C
100
AcDbEntity
  8
DEFAULT_1
100
AcDbLine
 62
7
  6
CENTER
 10
4.5151526952
 20
4.0395163769
 11
4.5151526952
 21
4.0338997491
  0
LINE
  5
21D
100
AcDbEntity
  8
ALL_FEATURES
100
AcDbLine
 62
7
  6
CONTINUOUS
 10
4.646398735
 20
4.2272447241
 11
4.4565568049
 21
4.0723736758
  0
LINE
  5
21E
100
AcDbEntity
  8
DEFAULT_1
100
AcDbLine
 62
7
  6
CENTER
 10
4.4444153726
 20
4.0747399614
 11
4.4688900179
 21
4.0888704044
  0
LINE
  5
21F
100
AcDbEntity
  8
ALL_FEATURES
100
AcDbLine
 62
7
  6
CONTINUOUS
 10
4.6859066555
 20
4.1788156603
 11
4.4960647254
 21
4.023944612
  0
LINE
  5
220
100
AcDbEntity
  8
ALL_FEATURES
100
AcDbLine
 62
7
  6
CONTINUOUS
 10
5.1643054287
 20
4.5284361021
 11
5.0390351986
 21
4.4262419671
  0
LINE
  5
221
100
AcDbEntity
  8
ALL_FEATURES
100
AcDbLine
 62
7
  6
CONTINUOUS
 10
4.0769277946
 20
3.6013579065
 11
4.2383776986
 21
3.7330670386
  0
LINE
  5
222
100
AcDbEntity
  8
DEFAULT_1
100
AcDbLine
 62
7
  6
CENTER
 10
4.5078900179
 20
4.0213204229
 11
4.4834153726
 21
4.0071899799
  0
CIRCLE
  5
223
100
AcDbEntity
  8
0
100
AcDbCircle
 62
7
  6
CONTINUOUS
 10
4.6661526952
 20
3.8730301922
 40
0.11725
  0
ARC
  5
224
100
AcDbEntity
  8
0
100
AcDbCircle
 62
7
  6
CONTINUOUS
 10
4.4761526952
 20
4.0480301922
 40
0.085
100
AcDbArc
 50
60.787854751
 51
17.6261499659
  0
ARC
  5
225
100
AcDbEntity
  8
ALL_FEATURES
100
AcDbCircle
 62
7
  6
CONTINUOUS
 10
4.4761526952
 20
4.0480301922
 40
0.0765
100
AcDbArc
 50
63.3202912017
 51
15.0896524778
  0
ARC
  5
226
100
AcDbEntity
  8
ALL_FEATURES
100
AcDbCircle
 62
7
  6
CONTINUOUS
 10
4.4761526952
 20
4.0480301922
 40
0.0415
100
AcDbArc
 50
88.0943110874
 51
350.3211270513
  0
ARC
  5
227
100
AcDbEntity
  8
ALL_FEATURES
100
AcDbCircle
 62
7
  6
CONTINUOUS
 10
4.4763107651
 20
4.0481591439
 40
0.03125
100
AcDbArc
 50
129.207203505
 51
309.207203505
  0
CIRCLE
  5
228
100
AcDbEntity
  8
0
100
AcDbCircle
 62
7
  6
CONTINUOUS
 10
4.6661526952
 20
4.0480301922
 40
0.53125
  0
CIRCLE
  5
229
100
AcDbEntity
  8
0
100
AcDbCircle
 62
7
  6
CONTINUOUS
 10
4.6661526952
 20
4.0480301922
 40
0.5280915664
  0
CIRCLE
  5
22A
100
AcDbEntity
  8
0
100
AcDbCircle
 62
7
  6
CONTINUOUS
 10
4.6661526952
 20
4.0480301922
 40
0.4405036286
  0
CIRCLE
  5
22B
100
AcDbEntity
  8
0
100
AcDbCircle
 62
7
  6
CONTINUOUS
 10
4.6661526952
 20
4.0480301922
 40
0.4286620622
  0
CIRCLE
  5
22C
100
AcDbEntity
  8
ALL_FEATURES
100
AcDbCircle
 62
7
  6
CONTINUOUS
 10
4.6661526952
 20
4.0480301922
 40
0.345
  0
ARC
  5
22D
100
AcDbEntity
  8
0
100
AcDbCircle
 62
7
  6
CONTINUOUS
 10
4.5961526952
 20
4.1630301922
 40
0.15625
100
AcDbArc
 50
254.148010601
 51
193.4142389287
  0
ARC
  5
22E
100
AcDbEntity
  8
0
100
AcDbCircle
 62
7
  6
CONTINUOUS
 10
4.6661526952
 20
4.2030301924
 40
0.0646649998
100
AcDbArc
 50
66.0589484854
 51
111.0211441075
  0
ARC
  5
22F
100
AcDbEntity
  8
0
100
AcDbCircle
 62
7
  6
CONTINUOUS
 10
4.6662977046
 20
4.2033594305
 40
0.0643052439
100
AcDbArc
 50
64.2333588341
 51
66.0579946975
  0
ARC
  5
230
100
AcDbEntity
  8
0
100
AcDbCircle
 62
7
  6
CONTINUOUS
 10
4.6620537344
 20
4.2057698081
 40
0.0640090537
100
AcDbArc
 50
61.4064737162
 51
61.706246196
  0
ARC
  5
231
100
AcDbEntity
  8
ALL_FEATURES
100
AcDbCircle
 62
7
  6
CONTINUOUS
 10
4.6669050842
 20
4.2046691857
 40
0.0550027481
100
AcDbArc
 50
156.003937277
 51
157.0155767759
  0
ARC
  5
232
100
AcDbEntity
  8
0
100
AcDbCircle
 62
7
  6
CONTINUOUS
 10
4.6661526952
 20
4.2030301922
 40
0.055
100
AcDbArc
 50
155.1346141599
 51
184.5672536506
  0
ARC
  5
233
100
AcDbEntity
  8
0
100
AcDbCircle
 62
7
  6
CONTINUOUS
 10
4.6661526952
 20
4.2030301922
 40
0.055
100
AcDbArc
 50
253.8399700527
 51
313.550826099
  0
ARC
  5
234
100
AcDbEntity
  8
ALL_FEATURES
100
AcDbCircle
 62
7
  6
CONTINUOUS
 10
4.6664250559
 20
4.2048250704
 40
0.0544990089
100
AcDbArc
 50
156.9693955343
 51
185.7512040632
  0
ARC
  5
235
100
AcDbEntity
  8
ALL_FEATURES
100
AcDbCircle
 62
7
  6
CONTINUOUS
 10
4.6661526952
 20
4.2030301922
 40
0.0525
100
AcDbArc
 50
298.0082989236
 51
182.6738683318
  0
ARC
  5
236
100
AcDbEntity
  8
ALL_FEATURES
100
AcDbCircle
 62
7
  6
CONTINUOUS
 10
4.6612589334
 20
4.2033572241
 40
0.0499761173
100
AcDbArc
 50
263.0262760241
 51
271.6320703883
  0
ARC
  5
237
100
AcDbEntity
  8
ALL_FEATURES
100
AcDbCircle
 62
7
  6
CONTINUOUS
 10
4.6661526952
 20
4.2030301922
 40
0.0325
100
AcDbArc
 50
293.3351749813
 51
145.0633960013
  0
ARC
  5
238
100
AcDbEntity
  8
ALL_FEATURES
100
AcDbCircle
 62
7
  6
CONTINUOUS
 10
4.6661526952
 20
4.2030301922
 40
0.03125
100
AcDbArc
 50
309.207203505
 51
129.207203505
  0
CIRCLE
  5
239
100
AcDbEntity
  8
0
100
AcDbCircle
 62
7
  6
CONTINUOUS
 10
4.8761526952
 20
4.0480301922
 40
0.082
  0
SPLINE
  5
23A
100
AcDbEntity
  8
ALL_FEATURES
100
AcDbSpline
 62
7
  6
CONTINUOUS
 70
0
 71
3
 72
16
 73
12
 74
0
 42
0.0000001
 43
0.0000001
 44
0.0000000001
 40
0.0
 40
0.0
 40
0.0
 40
0.0
 40
0.1249939574
 40
0.1875072295
 40
0.250020801
 40
0.3750183267
 40
0.5000177055
 40
0.625005896
 40
0.7500058844
 40
0.8750458842
 40
1.0
 40
1.0
 40
1.0
 40
1.0
 10
4.7252635414
 20
4.2108215288
 30
0.0
 10
4.7249710449
 20
4.2126197725
 30
0.0
 10
4.7244080589
 20
4.215299393
 30
0.0
 10
4.7234140082
 20
4.2188063882
 30
0.0
 10
4.7222598171
 20
4.2222642906
 30
0.0
 10
4.7205193891
 20
4.2264813466
 30
0.0
 10
4.7179729257
 20
4.2313262325
 30
0.0
 10
4.714988477
 20
4.2359146159
 30
0.0
 10
4.7115902412
 20
4.2402065089
 30
0.0
 10
4.7078068637
 20
4.2441617442
 30
0.0
 10
4.7050489237
 20
4.2465528315
 30
0.0
 10
4.7036182236
 20
4.2476798701
 30
0.0
  0
SPLINE
  5
23B
100
AcDbEntity
  8
ALL_FEATURES
100
AcDbSpline
 62
7
  6
CONTINUOUS
 70
0
 71
3
 72
30
 73
26
 74
0
 42
0.0000001
 43
0.0000001
 44
0.0000000001
 40
0.0
 40
0.0
 40
0.0
 40
0.0
 40
0.0312563982
 40
0.062512762
 40
0.0937694288
 40
0.1250259747
 40
0.1875129876
 40
0.2187696778
 40
0.2500262444
 40
0.281283116
 40
0.3125399488
 40
0.3750279107
 40
0.4062848816
 40
0.43754164
 40
0.5000305212
 40
0.5625194582
 40
0.5937766599
 40
0.62503348
 40
0.6875231868
 40
0.7500143859
 40
0.8125022659
 40
0.8749889311
 40
0.9062536706
 40
0.9375248771
 40
1.0
 40
1.0
 40
1.0
 40
1.0
 10
4.6166560362
 20
4.2270373658
 30
0.0
 10
4.6170923028
 20
4.2280174174
 30
0.0
 10
4.6180224719
 20
4.2299524534
 30
0.0
 10
4.619584934
 20
4.232767985
 30
0.0
 10
4.6213087174
 20
4.2354880452
 30
0.0
 10
4.6238130704
 20
4.2389736754
 30
0.0
 10
4.6266180668
 20
4.2422351071
 30
0.0
 10
4.6296879857
 20
4.2452345711
 30
0.0
 10
4.6321176321
 20
4.2473480085
 30
0.0
 10
4.6346648984
 20
4.2493180556
 30
0.0
 10
4.6382052563
 20
4.2517444836
 30
0.0
 10
4.6419499022
 20
4.2538611925
 30
0.0
 10
4.6458534637
 20
4.2556456347
 30
0.0
 10
4.6498529842
 20
4.2572039361
 30
0.0
 10
4.6550089908
 20
4.2587208707
 30
0.0
 10
4.6603038933
 20
4.2596421346
 30
0.0
 10
4.6645797644
 20
4.2600172509
 30
0.0
 10
4.6688700016
 20
4.2601499256
 30
0.0
 10
4.6742369211
 20
4.2598617789
 30
0.0
 10
4.6805955482
 20
4.2587949758
 30
0.0
 10
4.6867951675
 20
4.2570250489
 30
0.0
 10
4.6917662693
 20
4.2549824457
 30
0.0
 10
4.695587304
 20
4.2530256139
 30
0.0
 10
4.699292878
 20
4.2508596894
 30
0.0
 10
4.7019338369
 20
4.2490067512
 30
0.0
 10
4.7036182236
 20
4.2476798701
 30
0.0
  0
SPLINE
  5
23C
100
AcDbEntity
  8
ALL_FEATURES
100
AcDbSpline
 62
7
  6
CONTINUOUS
 70
0
 71
3
 72
12
 73
8
 74
0
 42
0.0000001
 43
0.0000001
 44
0.0000000001
 40
0.0
 40
0.0
 40
0.0
 40
0.0
 40
0.2500276241
 40
0.3750633593
 40
0.5001060362
 40
0.7501631302
 40
1.0
 40
1.0
 40
1.0
 40
1.0
 10
4.6727208001
 20
4.1484420906
 30
0.0
 10
4.674338031
 20
4.148840239
 30
0.0
 10
4.6767385749
 20
4.1495493478
 30
0.0
 10
4.6798610686
 20
4.1507128795
 30
0.0
 10
4.6829265191
 20
4.1520205208
 30
0.0
 10
4.6866367868
 20
4.1539222425
 30
0.0
 10
4.6894485302
 20
4.1557171444
 30
0.0
 10
4.6908066662
 20
4.156679014
 30
0.0
  0
SPLINE
  5
23D
100
AcDbEntity
  8
ALL_FEATURES
100
AcDbSpline
 62
7
  6
CONTINUOUS
 70
0
 71
3
 72
11
 73
7
 74
0
 42
0.0000001
 43
0.0000001
 44
0.0000000001
 40
0.0
 40
0.0
 40
0.0
 40
0.0
 40
0.2500321643
 40
0.5000269308
 40
0.7500127565
 40
1.0
 40
1.0
 40
1.0
 40
1.0
 10
4.6626823107
 20
4.1534013807
 30
0.0
 10
4.6650379157
 20
4.1530008107
 30
0.0
 10
4.6698137863
 20
4.1525406834
 30
0.0
 10
4.6769964933
 20
4.1528779177
 30
0.0
 10
4.6840599193
 20
4.1542194408
 30
0.0
 10
4.6886019544
 20
4.1557589456
 30
0.0
 10
4.6908066662
 20
4.156679014
 30
0.0
  0
SPLINE
  5
23E
100
AcDbEntity
  8
ALL_FEATURES
100
AcDbSpline
 62
7
  6
CONTINUOUS
 70
0
 71
3
 72
15
 73
11
 74
0
 42
0.0000001
 43
0.0000001
 44
0.0000000001
 40
0.0
 40
0.0
 40
0.0
 40
0.0
 40
0.1249867263
 40
0.2500035744
 40
0.3749965603
 40
0.4999942779
 40
0.6249908913
 40
0.7499875264
 40
0.8750153083
 40
1.0
 40
1.0
 40
1.0
 40
1.0
 10
4.5025504588
 20
4.1287978972
 30
0.0
 10
4.500428017
 20
4.1293362076
 30
0.0
 10
4.4961389854
 20
4.1302486838
 30
0.0
 10
4.4896200581
 20
4.131112653
 30
0.0
 10
4.4830528187
 20
4.131463646
 30
0.0
 10
4.4764787241
 20
4.1312966605
 30
0.0
 10
4.4699382562
 20
4.1306106247
 30
0.0
 10
4.4634723842
 20
4.1294062291
 30
0.0
 10
4.4571242399
 20
4.1276882798
 30
0.0
 10
4.4529966249
 20
4.1262062928
 30
0.0
 10
4.4509675035
 20
4.1253834637
 30
0.0
  0
SPLINE
  5
23F
100
AcDbEntity
  8
ALL_FEATURES
100
AcDbSpline
 62
7
  6
CONTINUOUS
 70
0
 71
3
 72
11
 73
7
 74
0
 42
0.0000001
 43
0.0000001
 44
0.0000000001
 40
0.0
 40
0.0
 40
0.0
 40
0.0
 40
0.2499916243
 40
0.4999874426
 40
0.7499865125
 40
1.0
 40
1.0
 40
1.0
 40
1.0
 10
4.4509675035
 20
4.1253834637
 30
0.0
 10
4.4467295386
 20
4.1243271295
 30
0.0
 10
4.4384094091
 20
4.1215234707
 30
0.0
 10
4.4267703031
 20
4.1153900096
 30
0.0
 10
4.4162410067
 20
4.1075027752
 30
0.0
 10
4.4101222776
 20
4.1012098073
 30
0.0
 10
4.4073280711
 20
4.097852437
 30
0.0
  0
SPLINE
  5
240
100
AcDbEntity
  8
ALL_FEATURES
100
AcDbSpline
 62
7
  6
CONTINUOUS
 70
0
 71
3
 72
25
 73
21
 74
0
 42
0.0000001
 43
0.0000001
 44
0.0000000001
 40
0.0
 40
0.0
 40
0.0
 40
0.0
 40
0.1914514774
 40
0.3758718775
 40
0.4630725166
 40
0.5458680249
 40
0.6234951012
 40
0.6952478584
 40
0.7604345185
 40
0.8184429254
 40
0.8688036191
 40
0.9110904384
 40
0.9291113199
 40
0.9450327304
 40
0.9588586748
 40
0.9706140416
 40
0.9803626131
 40
0.9882491623
 40
0.9945919144
 40
1.0
 40
1.0
 40
1.0
 40
1.0
 10
5.129966477
 20
4.5814045931
 30
0.0
 10
5.1273882139
 20
4.5845650446
 30
0.0
 10
5.1222601474
 20
4.5907161544
 30
0.0
 10
5.1157785203
 20
4.5981547729
 30
0.0
 10
5.1107107955
 20
4.6037522605
 30
0.0
 10
5.1071168965
 20
4.6076143532
 30
0.0
 10
5.1036917926
 20
4.6111832054
 30
0.0
 10
5.1004689833
 20
4.6144253563
 30
0.0
 10
5.0974798363
 20
4.6173092744
 30
0.0
 10
5.0947530165
 20
4.6198072391
 30
0.0
 10
5.092315696
 20
4.6218964545
 30
0.0
 10
5.0904584355
 20
4.6233511249
 30
0.0
 10
5.0891288318
 20
4.6242842634
 30
0.0
 10
5.0882713491
 20
4.6248330276
 30
0.0
 10
5.0875010987
 20
4.6252683726
 30
0.0
 10
5.0868194742
 20
4.6255897106
 30
0.0
 10
5.0862269495
 20
4.6257971369
 30
0.0
 10
5.0857216236
 20
4.6258896541
 30
0.0
 10
5.085297754
 20
4.6258649908
 30
0.0
 10
5.0850634849
 20
4.6257536532
 30
0.0
 10
5.0849742091
 20
4.6256808229
 30
0.0
  0
SPLINE
  5
241
100
AcDbEntity
  8
ALL_FEATURES
100
AcDbSpline
 62
7
  6
CONTINUOUS
 70
0
 71
3
 72
25
 73
21
 74
0
 42
0.0000001
 43
0.0000001
 44
0.0000000001
 40
0.0
 40
0.0
 40
0.0
 40
0.0
 40
0.0054080856
 40
0.0117508377
 40
0.0196373869
 40
0.0293859584
 40
0.0411413252
 40
0.0549672696
 40
0.0708886801
 40
0.0889095616
 40
0.1311963809
 40
0.1815570746
 40
0.2395654815
 40
0.3047521416
 40
0.3765048988
 40
0.4541319751
 40
0.5369274834
 40
0.6241281225
 40
0.8085485226
 40
1.0
 40
1.0
 40
1.0
 40
1.0
 10
5.164304744
 20
4.5284369414
 30
0.0
 10
5.1643940198
 20
4.5285097717
 30
0.0
 10
5.1645501376
 20
4.5287169076
 30
0.0
 10
5.1646594248
 20
4.5291271881
 30
0.0
 10
5.164670278
 20
4.5296407987
 30
0.0
 10
5.1645860755
 20
4.530262909
 30
0.0
 10
5.1644081763
 20
4.5309951807
 30
0.0
 10
5.1641363917
 20
4.5318371689
 30
0.0
 10
5.1637710178
 20
4.5327873903
 30
0.0
 10
5.1631239178
 20
4.534277308
 30
0.0
 10
5.1620718817
 20
4.536388872
 30
0.0
 10
5.1605147234
 20
4.5391961145
 30
0.0
 10
5.1586152843
 20
4.5423690477
 30
0.0
 10
5.156390439
 20
4.545876475
 30
0.0
 10
5.1538615864
 20
4.5496847485
 30
0.0
 10
5.1510533159
 20
4.5537568068
 30
0.0
 10
5.1479916788
 20
4.5580531132
 30
0.0
 10
5.1435259949
 20
4.5641417395
 30
0.0
 10
5.137540648
 20
4.5719852182
 30
0.0
 10
5.1325447401
 20
4.5782441415
 30
0.0
 10
5.129966477
 20
4.5814045931
 30
0.0
  0
SPLINE
  5
242
100
AcDbEntity
  8
ALL_FEATURES
100
AcDbSpline
 62
7
  6
CONTINUOUS
 70
0
 71
3
 72
28
 73
24
 74
0
 42
0.0000001
 43
0.0000001
 44
0.0000000001
 40
0.0
 40
0.0
 40
0.0
 40
0.0
 40
0.1915063567
 40
0.3758304649
 40
0.4630235267
 40
0.5458287419
 40
0.6234771422
 40
0.695215819
 40
0.7603863405
 40
0.8184047308
 40
0.8687490767
 40
0.890923597
 40
0.9110431113
 40
0.9290719026
 40
0.9449922203
 40
0.958812158
 40
0.970561495
 40
0.9803084339
 40
0.9881981002
 40
0.9915418629
 40
0.9945614172
 40
0.9973439291
 40
1.0
 40
1.0
 40
1.0
 40
1.0
 10
4.0097072479
 20
3.6675089062
 30
0.0
 10
4.0135605674
 20
3.6627854822
 30
0.0
 10
4.0212212969
 20
3.6535957586
 30
0.0
 10
4.0309050515
 20
3.6424832389
 30
0.0
 10
4.038474605
 20
3.6341220132
 30
0.0
 10
4.0438450773
 20
3.6283513258
 30
0.0
 10
4.048962429
 20
3.6230181722
 30
0.0
 10
4.0537776277
 20
3.6181744066
 30
0.0
 10
4.0582436393
 20
3.6138662485
 30
0.0
 10
4.0623168418
 20
3.6101342731
 30
0.0
 10
4.0654722659
 20
3.6074290089
 30
0.0
 10
4.0677774862
 20
3.605589758
 30
0.0
 10
4.0693111258
 20
3.6044339163
 30
0.0
 10
4.0707201125
 20
3.6034449085
 30
0.0
 10
4.0720013033
 20
3.6026249153
 30
0.0
 10
4.0731518252
 20
3.6019749011
 30
0.0
 10
4.0741701902
 20
3.6014951224
 30
0.0
 10
4.075054828
 20
3.6011857846
 30
0.0
 10
4.0757167524
 20
3.601063717
 30
0.0
 10
4.0761718448
 20
3.6010685765
 30
0.0
 10
4.0764603852
 20
3.6011169124
 30
0.0
 10
4.0767146073
 20
3.6012107379
 30
0.0
 10
4.0768617456
 20
3.601305123
 30
0.0
 10
4.0769272565
 20
3.6013585661
 30
0.0
  0
SPLINE
  5
243
100
AcDbEntity
  8
ALL_FEATURES
100
AcDbSpline
 62
7
  6
CONTINUOUS
 70
0
 71
3
 72
28
 73
24
 74
0
 42
0.0000001
 43
0.0000001
 44
0.0000000001
 40
0.0
 40
0.0
 40
0.0
 40
0.0
 40
0.0026560709
 40
0.0054385828
 40
0.0084581371
 40
0.0118018998
 40
0.0196915661
 40
0.029438505
 40
0.041187842
 40
0.0550077797
 40
0.0709280974
 40
0.0889568887
 40
0.109076403
 40
0.1312509233
 40
0.1815952692
 40
0.2396136595
 40
0.304784181
 40
0.3765228578
 40
0.4541712581
 40
0.5369764733
 40
0.6241695351
 40
0.8084936433
 40
1.0
 40
1.0
 40
1.0
 40
1.0
 10
3.9584045714
 20
3.7466444382
 30
0.0
 10
3.9583390605
 20
3.7465909951
 30
0.0
 10
3.9582170483
 20
3.7464658101
 30
0.0
 10
3.9580740786
 20
3.7462356107
 30
0.0
 10
3.9579687795
 20
3.7459626565
 30
0.0
 10
3.9578726221
 20
3.7455178122
 30
0.0
 10
3.9578592673
 20
3.7448448589
 30
0.0
 10
3.9579846394
 20
3.7439161202
 30
0.0
 10
3.9582501231
 20
3.7428221488
 30
0.0
 10
3.9586558326
 20
3.7415645245
 30
0.0
 10
3.9592018155
 20
3.7401447565
 30
0.0
 10
3.959887704
 20
3.7385658527
 30
0.0
 10
3.960711993
 20
3.7368313303
 30
0.0
 10
3.9620508096
 20
3.7342036973
 30
0.0
 10
3.9640672472
 20
3.73056926
 30
0.0
 10
3.9669051587
 20
3.7258295472
 30
0.0
 10
3.9702286252
 20
3.7205893129
 30
0.0
 10
3.9740066588
 20
3.7148994389
 30
0.0
 10
3.9782034276
 20
3.7088152834
 30
0.0
 10
3.9827779813
 20
3.702395294
 30
0.0
 10
3.9894486479
 20
3.6933007658
 30
0.0
 10
3.9983899547
 20
3.6815825651
 30
0.0
 10
4.0058539283
 20
3.6722323301
 30
0.0
 10
4.0097072479
 20
3.6675089062
 30
0.0
  0
SPLINE
  5
244
100
AcDbEntity
  8
0
100
AcDbSpline
 62
7
  6
CONTINUOUS
 70
0
 71
3
 72
20
 73
16
 74
0
 42
0.0000001
 43
0.0000001
 44
0.0000000001
 40
0.0
 40
0.0
 40
0.0
 40
0.0
 40
0.0799535766
 40
0.1591164234
 40
0.2363775055
 40
0.3111068421
 40
0.4512530367
 40
0.5784592395
 40
0.693963409
 40
0.7482088816
 40
0.8005968887
 40
0.8515397809
 40
0.9014775934
 40
0.9508303646
 40
1.0
 40
1.0
 40
1.0
 40
1.0
 10
4.1922473151
 20
4.0480301922
 30
0.0
 10
4.1922473151
 20
4.0468789715
 30
0.0
 10
4.1921558732
 20
4.0445869406
 30
0.0
 10
4.1917556663
 20
4.0412037027
 30
0.0
 10
4.1910982144
 20
4.0379369033
 30
0.0
 10
4.1899333117
 20
4.0338914086
 30
0.0
 10
4.187985552
 20
4.0293377233
 30
0.0
 10
4.1849205025
 20
4.0247179239
 30
0.0
 10
4.1818750315
 20
4.0216684247
 30
0.0
 10
4.1792702953
 20
4.0198025605
 30
0.0
 10
4.1772876262
 20
4.018689561
 30
0.0
 10
4.1752496396
 20
4.0178307065
 30
0.0
 10
4.173168803
 20
4.0172223156
 30
0.0
 10
4.1710576455
 20
4.016859884
 30
0.0
 10
4.1696377353
 20
4.0167799318
 30
0.0
 10
4.1689297607
 20
4.016779911
 30
0.0
  0
SPLINE
  5
245
100
AcDbEntity
  8
0
100
AcDbSpline
 62
7
  6
CONTINUOUS
 70
0
 71
3
 72
20
 73
16
 74
0
 42
0.0000001
 43
0.0000001
 44
0.0000000001
 40
0.0
 40
0.0
 40
0.0
 40
0.0
 40
0.0491663155
 40
0.0985139111
 40
0.1484467413
 40
0.1993833406
 40
0.2517628523
 40
0.3060006287
 40
0.4215000277
 40
0.5487161
 40
0.6888857582
 40
0.7636337335
 40
0.8408980614
 40
0.9200496608
 40
1.0
 40
1.0
 40
1.0
 40
1.0
 10
4.1689297645
 20
4.0792804382
 30
0.0
 10
4.169637691
 20
4.0792804475
 30
0.0
 10
4.1710574874
 20
4.0792005845
 30
0.0
 10
4.1731684373
 20
4.0788380874
 30
0.0
 10
4.1752490553
 20
4.078229822
 30
0.0
 10
4.177286828
 20
4.0773711976
 30
0.0
 10
4.1792692822
 20
4.0762584787
 30
0.0
 10
4.1818738747
 20
4.074392939
 30
0.0
 10
4.1849195601
 20
4.0713437026
 30
0.0
 10
4.1879849926
 20
4.0667236628
 30
0.0
 10
4.1899332942
 20
4.0621693682
 30
0.0
 10
4.1910981085
 20
4.0581231707
 30
0.0
 10
4.1917558073
 20
4.054856274
 30
0.0
 10
4.1921560355
 20
4.0514731915
 30
0.0
 10
4.1922473151
 20
4.0491813658
 30
0.0
 10
4.1922473151
 20
4.0480301922
 30
0.0
  0
SPLINE
  5
246
100
AcDbEntity
  8
0
100
AcDbSpline
 62
7
  6
CONTINUOUS
 70
0
 71
3
 72
25
 73
21
 74
0
 42
0.0000001
 43
0.0000001
 44
0.0000000001
 40
0.0
 40
0.0
 40
0.0
 40
0.0
 40
0.0624697225
 40
0.125002009
 40
0.1875024042
 40
0.2499903649
 40
0.3124886287
 40
0.3437514813
 40
0.3750144433
 40
0.4375101569
 40
0.5000064954
 40
0.5625029581
 40
0.6249993912
 40
0.6874947557
 40
0.7187598226
 40
0.7500239883
 40
0.812512165
 40
0.8750055652
 40
0.937536883
 40
1.0
 40
1.0
 40
1.0
 40
1.0
 10
4.6926879973
 20
4.2619721292
 30
0.0
 10
4.6948360295
 20
4.2608012996
 30
0.0
 10
4.6990040141
 20
4.2582100167
 30
0.0
 10
4.7047684324
 20
4.2536364663
 30
0.0
 10
4.7099643625
 20
4.2484229723
 30
0.0
 10
4.7145151758
 20
4.2426401633
 30
0.0
 10
4.7177136723
 20
4.2374054204
 30
0.0
 10
4.7198852043
 20
4.2330143711
 30
0.0
 10
4.7217888047
 20
4.2285008304
 30
0.0
 10
4.7236546054
 20
4.2226560187
 30
0.0
 10
4.7250241102
 20
4.2154243786
 30
0.0
 10
4.7254991783
 20
4.208078482
 30
0.0
 10
4.7250597116
 20
4.2007307318
 30
0.0
 10
4.7239315148
 20
4.1946984192
 30
0.0
 10
4.7225764705
 20
4.18999053
 30
0.0
 10
4.720925731
 20
4.1853783385
 30
0.0
 10
4.7183132769
 20
4.1798250629
 30
0.0
 10
4.714343777
 20
4.173622526
 30
0.0
 10
4.7095971656
 20
4.1679942607
 30
0.0
 10
4.7059636176
 20
4.1646888566
 30
0.0
 10
4.7040475727
 20
4.163168202
 30
0.0
  0
SPLINE
  5
247
100
AcDbEntity
  8
0
100
AcDbSpline
 62
7
  6
CONTINUOUS
 70
0
 71
3
 72
17
 73
13
 74
0
 42
0.0000001
 43
0.0000001
 44
0.0000000001
 40
0.0
 40
0.0
 40
0.0
 40
0.0
 40
0.0625591138
 40
0.1251246995
 40
0.1876977764
 40
0.2502719893
 40
0.3752975398
 40
0.5002888666
 40
0.6252424248
 40
0.7501715763
 40
0.8750833994
 40
1.0
 40
1.0
 40
1.0
 40
1.0
 10
4.6083845984
 20
4.1962525093
 30
0.0
 10
4.6080458017
 20
4.1979135807
 30
0.0
 10
4.607513332
 20
4.201267434
 30
0.0
 10
4.6071567745
 20
4.2063473167
 30
0.0
 10
4.6072398594
 20
4.2114400577
 30
0.0
 10
4.607931585
 20
4.2181908983
 30
0.0
 10
4.6098736429
 20
4.2264816852
 30
0.0
 10
4.6138336182
 20
4.2358896583
 30
0.0
 10
4.6192907441
 20
4.244512797
 30
0.0
 10
4.6260786542
 20
4.2521285598
 30
0.0
 10
4.6339992146
 20
4.2585509616
 30
0.0
 10
4.6398980328
 20
4.2619410329
 30
0.0
 10
4.6429565548
 20
4.2633916144
 30
0.0
  0
SPLINE
  5
248
100
AcDbEntity
  8
0
100
AcDbSpline
 62
7
  6
CONTINUOUS
 70
0
 71
3
 72
19
 73
15
 74
0
 42
0.0000001
 43
0.0000001
 44
0.0000000001
 40
0.0
 40
0.0
 40
0.0
 40
0.0
 40
0.0488529668
 40
0.0983021629
 40
0.1486986437
 40
0.2003704288
 40
0.3086642585
 40
0.4256068609
 40
0.5531192511
 40
0.6923229715
 40
0.766267536
 40
0.8426415376
 40
0.9209132163
 40
1.0
 40
1.0
 40
1.0
 40
1.0
 10
4.1689297607
 20
4.016779911
 30
0.0
 10
4.1682073796
 20
4.0167798898
 30
0.0
 10
4.1667525088
 20
4.0168633814
 30
0.0
 10
4.1645810044
 20
4.0172343862
 30
0.0
 10
4.1624222053
 20
4.0178504444
 30
0.0
 10
4.1595339126
 20
4.0190184644
 30
0.0
 10
4.1559980631
 20
4.0211425516
 30
0.0
 10
4.1521113374
 20
4.0246672089
 30
0.0
 10
4.1486727478
 20
4.0292195283
 30
0.0
 10
4.1464095571
 20
4.0337543683
 30
0.0
 10
4.1450324247
 20
4.037812992
 30
0.0
 10
4.1442450212
 20
4.0411055827
 30
0.0
 10
4.1437614962
 20
4.0445325335
 30
0.0
 10
4.1436501796
 20
4.0468607483
 30
0.0
 10
4.1436501796
 20
4.0480301922
 30
0.0
  0
SPLINE
  5
249
100
AcDbEntity
  8
0
100
AcDbSpline
 62
7
  6
CONTINUOUS
 70
0
 71
3
 72
20
 73
16
 74
0
 42
0.0000001
 43
0.0000001
 44
0.0000000001
 40
0.0
 40
0.0
 40
0.0
 40
0.0
 40
0.0790731033
 40
0.1573444762
 40
0.2337298587
 40
0.3076966104
 40
0.4468862281
 40
0.5743811637
 40
0.6341280199
 40
0.6914326476
 40
0.7996909294
 40
0.851346277
 40
0.9017252504
 40
0.9511601984
 40
1.0
 40
1.0
 40
1.0
 40
1.0
 10
4.1436501796
 20
4.0480301922
 30
0.0
 10
4.1436501796
 20
4.049199588
 30
0.0
 10
4.1437615501
 20
4.0515278957
 30
0.0
 10
4.1442450588
 20
4.0549552859
 30
0.0
 10
4.1450329873
 20
4.0582486911
 30
0.0
 10
4.1464104314
 20
4.0623082343
 30
0.0
 10
4.1486740032
 20
4.0668425911
 30
0.0
 10
4.151601516
 20
4.0707184318
 30
0.0
 10
4.1541765696
 20
4.0732651816
 30
0.0
 10
4.1567597681
 20
4.075375606
 30
0.0
 10
4.1595357582
 20
4.077042655
 30
0.0
 10
4.1624232231
 20
4.0782102235
 30
0.0
 10
4.1645816609
 20
4.0788262676
 30
0.0
 10
4.1667528362
 20
4.0791968914
 30
0.0
 10
4.1682074828
 20
4.0792804286
 30
0.0
 10
4.1689297645
 20
4.0792804382
 30
0.0
  0
ENDSEC
  0
SECTION
  2
OBJECTS
  0
DICTIONARY
  5
C
100
AcDbDictionary
280
0
281
1
  3
ACAD_GROUP
350
D
  3
ACAD_MLINESTYLE
350
17
  3
ACAD_LAYOUT
350
1A
  3
ACAD_PLOTSETTINGS
350
19
  3
ACAD_PLOTSTYLENAME
350
E
  0
DICTIONARY
  5
D
102
{ACAD_REACTORS
330
C
102
}
100
AcDbDictionary
280
0
281
1
  0
ACDBDICTIONARYWDFLT
  5
E
102
{ACAD_REACTORS
330
C
102
}
100
AcDbDictionary
281
1
  3
Normal
350
F
100
AcDbDictionaryWithDefault
340
F
  0
DICTIONARY
  5
17
102
{ACAD_REACTORS
330
C
102
}
100
AcDbDictionary
280
0
281
1
  3
Standard
350
18
  0
DICTIONARY
  5
19
102
{ACAD_REACTORS
330
C
102
}
100
AcDbDictionary
281
1
  0
DICTIONARY
  5
1A
102
{ACAD_REACTORS
330
C
102
}
100
AcDbDictionary
281
1
  3
Model
350
24A
  3
Layout1
350
24B
  0
ACDBPLACEHOLDER
  5
F
102
{ACAD_REACTORS
330
E
102
}
  0
MLINESTYLE
  5
18
102
{ACAD_REACTORS
330
17
102
}
100
AcDbMlineStyle
  2
STANDARD
 70
0
  3

 62
256
 51
90.0
 52
90.0
 71
2
 49
0.5
 62
256
  6
BYLAYER
 49
-0.5
 62
256
  6
BYLAYER
  0
LAYOUT
  5
24A
102
{ACAD_REACTORS
330
1A
102
}
100
AcDbPlotSettings
  1

  2
none_device
  4
ANSI_A_(11.00_x_8.50_Inches)
  6

 40
0.0
 41
0.0
 42
0.0
 43
0.0
 44
279.4
 45
215.9
 46
0.0
 47
0.0
 48
0.0
 49
0.0
140
0.0
141
0.0
142
1.0
143
1.0
 70
1024
 72
0
 73
0
 74
0
  7

 75
0
147
1.0
148
0.0
149
0.0
100
AcDbLayout
  1
Model
 70
0
 71
0
 10
0.0
 20
0.0
 11
11.0
 21
8.5
 12
0.0
 22
0.0
 32
0.0
 14
0.0
 24
0.0
 34
0.0
 15
0.0
 25
0.0
 35
0.0
146
0.0
 13
0.0
 23
0.0
 33
0.0
 16
1.0
 26
0.0
 36
0.0
 17
0.0
 27
1.0
 37
0.0
 76
0
330
20D
345
0
346
0
  0
LAYOUT
  5
24B
102
{ACAD_REACTORS
330
1A
102
}
100
AcDbPlotSettings
  1

  2
none_device
  4
ANSI_A_(11.00_x_8.50_Inches)
  6

 40
0.0
 41
0.0
 42
0.0
 43
0.0
 44
279.4
 45
215.9
 46
0.0
 47
0.0
 48
0.0
 49
0.0
140
0.0
141
0.0
142
1.0
143
1.0
 70
0
 72
0
 73
0
 74
0
  7

 75
0
147
1.0
148
0.0
149
0.0
100
AcDbLayout
  1
Layout1
 70
0
 71
1
 10
0.0
 20
0.0
 11
11.0
 21
8.5
 12
0.0
 22
0.0
 32
0.0
 14
0.0
 24
0.0
 34
0.0
 15
0.0
 25
0.0
 35
0.0
146
0.0
 13
0.0
 23
0.0
 33
0.0
 16
1.0
 26
0.0
 36
0.0
 17
0.0
 27
1.0
 37
0.0
 76
0
330
20E
345
0
346
0
  0
ENDSEC
  0
EOF
