ISO-10303-21;
HEADER;
FILE_DESCRIPTION((''),'2;1');
FILE_NAME('20-512_ASM','2024-02-07T23:38:20',('ChavanR'),(''),
'CREO PARAMETRIC BY PTC INC, 2023134','CREO PARAMETRIC BY PTC INC, 2023134','');
FILE_SCHEMA(('CONFIG_CONTROL_DESIGN'));
ENDSEC;
DATA;
#2=CARTESIAN_POINT('',(0.E0,3.125E-1,0.E0));
#3=DIRECTION('',(0.E0,1.E0,0.E0));
#4=DIRECTION('',(1.E0,0.E0,0.E0));
#5=AXIS2_PLACEMENT_3D('',#2,#3,#4);
#7=CARTESIAN_POINT('',(0.E0,3.125E-1,0.E0));
#8=DIRECTION('',(0.E0,1.E0,0.E0));
#9=DIRECTION('',(-1.E0,0.E0,0.E0));
#10=AXIS2_PLACEMENT_3D('',#7,#8,#9);
#12=CARTESIAN_POINT('',(0.E0,3.125E-1,0.E0));
#13=DIRECTION('',(0.E0,1.E0,0.E0));
#14=DIRECTION('',(1.E0,0.E0,0.E0));
#15=AXIS2_PLACEMENT_3D('',#12,#13,#14);
#17=CARTESIAN_POINT('',(0.E0,3.125E-1,0.E0));
#18=DIRECTION('',(0.E0,1.E0,0.E0));
#19=DIRECTION('',(-1.E0,0.E0,0.E0));
#20=AXIS2_PLACEMENT_3D('',#17,#18,#19);
#22=CARTESIAN_POINT('',(1.595E0,2.825E-1,0.E0));
#23=DIRECTION('',(0.E0,0.E0,-1.E0));
#24=DIRECTION('',(0.E0,1.E0,0.E0));
#25=AXIS2_PLACEMENT_3D('',#22,#23,#24);
#27=CARTESIAN_POINT('',(-1.595E0,2.825E-1,0.E0));
#28=DIRECTION('',(0.E0,0.E0,1.E0));
#29=DIRECTION('',(0.E0,1.E0,0.E0));
#30=AXIS2_PLACEMENT_3D('',#27,#28,#29);
#32=CARTESIAN_POINT('',(0.E0,2.825E-1,0.E0));
#33=DIRECTION('',(0.E0,1.E0,0.E0));
#34=DIRECTION('',(-1.E0,0.E0,0.E0));
#35=AXIS2_PLACEMENT_3D('',#32,#33,#34);
#37=DIRECTION('',(0.E0,1.E0,-1.634564339688E-14));
#38=VECTOR('',#37,2.825E-1);
#39=CARTESIAN_POINT('',(-1.625E0,0.E0,0.E0));
#40=LINE('',#39,#38);
#41=CARTESIAN_POINT('',(0.E0,2.825E-1,0.E0));
#42=DIRECTION('',(0.E0,1.E0,0.E0));
#43=DIRECTION('',(1.E0,0.E0,0.E0));
#44=AXIS2_PLACEMENT_3D('',#41,#42,#43);
#46=DIRECTION('',(0.E0,1.E0,1.569200363237E-14));
#47=VECTOR('',#46,2.825E-1);
#48=CARTESIAN_POINT('',(1.625E0,0.E0,0.E0));
#49=LINE('',#48,#47);
#50=CARTESIAN_POINT('',(0.E0,0.E0,0.E0));
#51=DIRECTION('',(0.E0,1.E0,0.E0));
#52=DIRECTION('',(1.E0,0.E0,0.E0));
#53=AXIS2_PLACEMENT_3D('',#50,#51,#52);
#55=CARTESIAN_POINT('',(0.E0,0.E0,0.E0));
#56=DIRECTION('',(0.E0,1.E0,0.E0));
#57=DIRECTION('',(-1.E0,0.E0,0.E0));
#58=AXIS2_PLACEMENT_3D('',#55,#56,#57);
#60=CARTESIAN_POINT('',(0.E0,0.E0,0.E0));
#61=DIRECTION('',(0.E0,1.E0,0.E0));
#62=DIRECTION('',(1.E0,0.E0,0.E0));
#63=AXIS2_PLACEMENT_3D('',#60,#61,#62);
#65=CARTESIAN_POINT('',(0.E0,0.E0,0.E0));
#66=DIRECTION('',(0.E0,1.E0,0.E0));
#67=DIRECTION('',(-1.E0,0.E0,0.E0));
#68=AXIS2_PLACEMENT_3D('',#65,#66,#67);
#70=CARTESIAN_POINT('',(0.E0,1.77E-1,0.E0));
#71=DIRECTION('',(0.E0,1.E0,0.E0));
#72=DIRECTION('',(1.E0,0.E0,0.E0));
#73=AXIS2_PLACEMENT_3D('',#70,#71,#72);
#75=CARTESIAN_POINT('',(1.532E0,1.77E-1,0.E0));
#76=DIRECTION('',(0.E0,0.E0,-1.E0));
#77=DIRECTION('',(-1.708035422500E-14,1.E0,0.E0));
#78=AXIS2_PLACEMENT_3D('',#75,#76,#77);
#80=CARTESIAN_POINT('',(0.E0,1.9E-1,0.E0));
#81=DIRECTION('',(0.E0,1.E0,0.E0));
#82=DIRECTION('',(1.E0,0.E0,0.E0));
#83=AXIS2_PLACEMENT_3D('',#80,#81,#82);
#85=CARTESIAN_POINT('',(0.E0,1.9E-1,0.E0));
#86=DIRECTION('',(0.E0,1.E0,0.E0));
#87=DIRECTION('',(-1.E0,0.E0,0.E0));
#88=AXIS2_PLACEMENT_3D('',#85,#86,#87);
#90=CARTESIAN_POINT('',(0.E0,2.2E-1,0.E0));
#91=DIRECTION('',(0.E0,1.E0,0.E0));
#92=DIRECTION('',(-1.E0,0.E0,0.E0));
#93=AXIS2_PLACEMENT_3D('',#90,#91,#92);
#95=DIRECTION('',(0.E0,1.E0,4.306993515693E-12));
#96=VECTOR('',#95,3.E-2);
#97=CARTESIAN_POINT('',(-1.295E0,1.9E-1,0.E0));
#98=LINE('',#97,#96);
#99=CARTESIAN_POINT('',(0.E0,1.9E-1,0.E0));
#100=DIRECTION('',(0.E0,-1.E0,0.E0));
#101=DIRECTION('',(1.E0,0.E0,0.E0));
#102=AXIS2_PLACEMENT_3D('',#99,#100,#101);
#104=DIRECTION('',(0.E0,1.E0,-4.299895219976E-12));
#105=VECTOR('',#104,3.E-2);
#106=CARTESIAN_POINT('',(1.295E0,1.9E-1,0.E0));
#107=LINE('',#106,#105);
#108=CARTESIAN_POINT('',(-1.282E0,2.2E-1,0.E0));
#109=DIRECTION('',(0.E0,0.E0,1.E0));
#110=DIRECTION('',(0.E0,1.E0,0.E0));
#111=AXIS2_PLACEMENT_3D('',#108,#109,#110);
#113=CARTESIAN_POINT('',(0.E0,2.33E-1,0.E0));
#114=DIRECTION('',(0.E0,1.E0,0.E0));
#115=DIRECTION('',(1.E0,0.E0,0.E0));
#116=AXIS2_PLACEMENT_3D('',#113,#114,#115);
#118=CARTESIAN_POINT('',(0.E0,2.33E-1,0.E0));
#119=DIRECTION('',(0.E0,1.E0,0.E0));
#120=DIRECTION('',(-1.E0,0.E0,0.E0));
#121=AXIS2_PLACEMENT_3D('',#118,#119,#120);
#123=CARTESIAN_POINT('',(0.E0,2.33E-1,0.E0));
#124=DIRECTION('',(0.E0,1.E0,0.E0));
#125=DIRECTION('',(1.E0,0.E0,0.E0));
#126=AXIS2_PLACEMENT_3D('',#123,#124,#125);
#128=CARTESIAN_POINT('',(0.E0,2.33E-1,0.E0));
#129=DIRECTION('',(0.E0,1.E0,0.E0));
#130=DIRECTION('',(-1.E0,0.E0,0.E0));
#131=AXIS2_PLACEMENT_3D('',#128,#129,#130);
#133=DIRECTION('',(0.E0,1.E0,0.E0));
#134=VECTOR('',#133,7.95E-2);
#135=CARTESIAN_POINT('',(2.95E-1,2.33E-1,0.E0));
#136=LINE('',#135,#134);
#137=DIRECTION('',(0.E0,1.E0,0.E0));
#138=VECTOR('',#137,7.95E-2);
#139=CARTESIAN_POINT('',(-2.95E-1,2.33E-1,0.E0));
#140=LINE('',#139,#138);
#141=CARTESIAN_POINT('',(1.282E0,2.2E-1,0.E0));
#142=DIRECTION('',(0.E0,0.E0,-1.E0));
#143=DIRECTION('',(0.E0,1.E0,0.E0));
#144=AXIS2_PLACEMENT_3D('',#141,#142,#143);
#146=CARTESIAN_POINT('',(0.E0,2.2E-1,0.E0));
#147=DIRECTION('',(0.E0,1.E0,0.E0));
#148=DIRECTION('',(1.E0,0.E0,0.E0));
#149=AXIS2_PLACEMENT_3D('',#146,#147,#148);
#151=CARTESIAN_POINT('',(0.E0,1.9E-1,0.E0));
#152=DIRECTION('',(0.E0,1.E0,0.E0));
#153=DIRECTION('',(1.E0,0.E0,0.E0));
#154=AXIS2_PLACEMENT_3D('',#151,#152,#153);
#156=CARTESIAN_POINT('',(-1.532E0,1.77E-1,0.E0));
#157=DIRECTION('',(0.E0,0.E0,1.E0));
#158=DIRECTION('',(3.416070845E-14,1.E0,0.E0));
#159=AXIS2_PLACEMENT_3D('',#156,#157,#158);
#161=CARTESIAN_POINT('',(0.E0,1.77E-1,0.E0));
#162=DIRECTION('',(0.E0,1.E0,0.E0));
#163=DIRECTION('',(-1.E0,0.E0,0.E0));
#164=AXIS2_PLACEMENT_3D('',#161,#162,#163);
#166=DIRECTION('',(0.E0,1.E0,6.032575373011E-13));
#167=VECTOR('',#166,1.77E-1);
#168=CARTESIAN_POINT('',(-1.545E0,0.E0,0.E0));
#169=LINE('',#168,#167);
#170=DIRECTION('',(0.E0,1.E0,-6.052702575646E-13));
#171=VECTOR('',#170,1.77E-1);
#172=CARTESIAN_POINT('',(1.545E0,0.E0,0.E0));
#173=LINE('',#172,#171);
#174=CARTESIAN_POINT('',(1.625E0,0.E0,0.E0));
#175=CARTESIAN_POINT('',(-1.625E0,0.E0,0.E0));
#176=VERTEX_POINT('',#174);
#177=VERTEX_POINT('',#175);
#178=CARTESIAN_POINT('',(1.545E0,0.E0,0.E0));
#179=CARTESIAN_POINT('',(-1.545E0,0.E0,0.E0));
#180=VERTEX_POINT('',#178);
#181=VERTEX_POINT('',#179);
#182=CARTESIAN_POINT('',(1.595E0,3.125E-1,0.E0));
#183=CARTESIAN_POINT('',(-1.595E0,3.125E-1,0.E0));
#184=VERTEX_POINT('',#182);
#185=VERTEX_POINT('',#183);
#186=CARTESIAN_POINT('',(1.625E0,2.825E-1,0.E0));
#187=CARTESIAN_POINT('',(-1.625E0,2.825E-1,0.E0));
#188=VERTEX_POINT('',#186);
#189=VERTEX_POINT('',#187);
#190=CARTESIAN_POINT('',(2.95E-1,3.125E-1,0.E0));
#191=CARTESIAN_POINT('',(-2.95E-1,3.125E-1,0.E0));
#192=VERTEX_POINT('',#190);
#193=VERTEX_POINT('',#191);
#194=CARTESIAN_POINT('',(2.95E-1,2.33E-1,0.E0));
#195=CARTESIAN_POINT('',(-2.95E-1,2.33E-1,0.E0));
#196=VERTEX_POINT('',#194);
#197=VERTEX_POINT('',#195);
#198=CARTESIAN_POINT('',(1.295E0,1.9E-1,0.E0));
#199=CARTESIAN_POINT('',(-1.295E0,1.9E-1,0.E0));
#200=VERTEX_POINT('',#198);
#201=VERTEX_POINT('',#199);
#202=CARTESIAN_POINT('',(1.532E0,1.9E-1,0.E0));
#203=CARTESIAN_POINT('',(-1.532E0,1.9E-1,0.E0));
#204=VERTEX_POINT('',#202);
#205=VERTEX_POINT('',#203);
#206=CARTESIAN_POINT('',(1.545E0,1.77E-1,0.E0));
#207=CARTESIAN_POINT('',(-1.545E0,1.77E-1,0.E0));
#208=VERTEX_POINT('',#206);
#209=VERTEX_POINT('',#207);
#210=CARTESIAN_POINT('',(1.282E0,2.33E-1,0.E0));
#211=CARTESIAN_POINT('',(-1.282E0,2.33E-1,0.E0));
#212=VERTEX_POINT('',#210);
#213=VERTEX_POINT('',#211);
#214=CARTESIAN_POINT('',(1.295E0,2.2E-1,0.E0));
#215=CARTESIAN_POINT('',(-1.295E0,2.2E-1,0.E0));
#216=VERTEX_POINT('',#214);
#217=VERTEX_POINT('',#215);
#218=CARTESIAN_POINT('',(0.E0,3.125E-1,0.E0));
#219=DIRECTION('',(0.E0,1.E0,0.E0));
#220=DIRECTION('',(1.E0,0.E0,0.E0));
#221=AXIS2_PLACEMENT_3D('',#218,#219,#220);
#222=PLANE('',#221);
#224=ORIENTED_EDGE('',*,*,#223,.F.);
#226=ORIENTED_EDGE('',*,*,#225,.F.);
#227=EDGE_LOOP('',(#224,#226));
#228=FACE_OUTER_BOUND('',#227,.F.);
#230=ORIENTED_EDGE('',*,*,#229,.T.);
#232=ORIENTED_EDGE('',*,*,#231,.T.);
#233=EDGE_LOOP('',(#230,#232));
#234=FACE_BOUND('',#233,.F.);
#235=ADVANCED_FACE('',(#228,#234),#222,.T.);
#236=CARTESIAN_POINT('',(0.E0,2.825E-1,0.E0));
#237=DIRECTION('',(0.E0,1.E0,0.E0));
#238=DIRECTION('',(9.999904992145E-1,0.E0,4.359068791139E-3));
#239=AXIS2_PLACEMENT_3D('',#236,#237,#238);
#240=TOROIDAL_SURFACE('',#239,1.595E0,3.E-2);
#241=ORIENTED_EDGE('',*,*,#223,.T.);
#243=ORIENTED_EDGE('',*,*,#242,.T.);
#245=ORIENTED_EDGE('',*,*,#244,.F.);
#247=ORIENTED_EDGE('',*,*,#246,.F.);
#248=EDGE_LOOP('',(#241,#243,#245,#247));
#249=FACE_OUTER_BOUND('',#248,.F.);
#250=ADVANCED_FACE('',(#249),#240,.T.);
#251=CARTESIAN_POINT('',(0.E0,2.825E-1,0.E0));
#252=DIRECTION('',(0.E0,1.E0,0.E0));
#253=DIRECTION('',(-9.999904992145E-1,0.E0,-4.359068791139E-3));
#254=AXIS2_PLACEMENT_3D('',#251,#252,#253);
#255=TOROIDAL_SURFACE('',#254,1.595E0,3.E-2);
#256=ORIENTED_EDGE('',*,*,#225,.T.);
#257=ORIENTED_EDGE('',*,*,#246,.T.);
#259=ORIENTED_EDGE('',*,*,#258,.F.);
#260=ORIENTED_EDGE('',*,*,#242,.F.);
#261=EDGE_LOOP('',(#256,#257,#259,#260));
#262=FACE_OUTER_BOUND('',#261,.F.);
#263=ADVANCED_FACE('',(#262),#255,.T.);
#264=CARTESIAN_POINT('',(0.E0,0.E0,0.E0));
#265=DIRECTION('',(0.E0,1.E0,0.E0));
#266=DIRECTION('',(1.E0,0.E0,0.E0));
#267=AXIS2_PLACEMENT_3D('',#264,#265,#266);
#268=CYLINDRICAL_SURFACE('',#267,1.625E0);
#269=ORIENTED_EDGE('',*,*,#258,.T.);
#271=ORIENTED_EDGE('',*,*,#270,.F.);
#273=ORIENTED_EDGE('',*,*,#272,.F.);
#275=ORIENTED_EDGE('',*,*,#274,.T.);
#276=EDGE_LOOP('',(#269,#271,#273,#275));
#277=FACE_OUTER_BOUND('',#276,.F.);
#278=ADVANCED_FACE('',(#277),#268,.T.);
#279=CARTESIAN_POINT('',(0.E0,0.E0,0.E0));
#280=DIRECTION('',(0.E0,1.E0,0.E0));
#281=DIRECTION('',(1.E0,0.E0,0.E0));
#282=AXIS2_PLACEMENT_3D('',#279,#280,#281);
#283=CYLINDRICAL_SURFACE('',#282,1.625E0);
#284=ORIENTED_EDGE('',*,*,#244,.T.);
#285=ORIENTED_EDGE('',*,*,#274,.F.);
#287=ORIENTED_EDGE('',*,*,#286,.F.);
#288=ORIENTED_EDGE('',*,*,#270,.T.);
#289=EDGE_LOOP('',(#284,#285,#287,#288));
#290=FACE_OUTER_BOUND('',#289,.F.);
#291=ADVANCED_FACE('',(#290),#283,.T.);
#292=CARTESIAN_POINT('',(0.E0,0.E0,0.E0));
#293=DIRECTION('',(0.E0,1.E0,0.E0));
#294=DIRECTION('',(1.E0,0.E0,0.E0));
#295=AXIS2_PLACEMENT_3D('',#292,#293,#294);
#296=PLANE('',#295);
#297=ORIENTED_EDGE('',*,*,#286,.T.);
#298=ORIENTED_EDGE('',*,*,#272,.T.);
#299=EDGE_LOOP('',(#297,#298));
#300=FACE_OUTER_BOUND('',#299,.F.);
#302=ORIENTED_EDGE('',*,*,#301,.F.);
#304=ORIENTED_EDGE('',*,*,#303,.F.);
#305=EDGE_LOOP('',(#302,#304));
#306=FACE_BOUND('',#305,.F.);
#307=ADVANCED_FACE('',(#300,#306),#296,.F.);
#308=CARTESIAN_POINT('',(0.E0,0.E0,0.E0));
#309=DIRECTION('',(0.E0,1.E0,0.E0));
#310=DIRECTION('',(1.E0,0.E0,0.E0));
#311=AXIS2_PLACEMENT_3D('',#308,#309,#310);
#312=CYLINDRICAL_SURFACE('',#311,1.545E0);
#314=ORIENTED_EDGE('',*,*,#313,.F.);
#316=ORIENTED_EDGE('',*,*,#315,.F.);
#317=ORIENTED_EDGE('',*,*,#301,.T.);
#319=ORIENTED_EDGE('',*,*,#318,.T.);
#320=EDGE_LOOP('',(#314,#316,#317,#319));
#321=FACE_OUTER_BOUND('',#320,.F.);
#322=ADVANCED_FACE('',(#321),#312,.F.);
#323=CARTESIAN_POINT('',(0.E0,1.77E-1,0.E0));
#324=DIRECTION('',(0.E0,1.E0,0.E0));
#325=DIRECTION('',(9.999894898430E-1,0.E0,4.584779548414E-3));
#326=AXIS2_PLACEMENT_3D('',#323,#324,#325);
#327=TOROIDAL_SURFACE('',#326,1.532E0,1.3E-2);
#329=ORIENTED_EDGE('',*,*,#328,.F.);
#331=ORIENTED_EDGE('',*,*,#330,.T.);
#332=ORIENTED_EDGE('',*,*,#313,.T.);
#334=ORIENTED_EDGE('',*,*,#333,.F.);
#335=EDGE_LOOP('',(#329,#331,#332,#334));
#336=FACE_OUTER_BOUND('',#335,.F.);
#337=ADVANCED_FACE('',(#336),#327,.F.);
#338=CARTESIAN_POINT('',(0.E0,1.9E-1,0.E0));
#339=DIRECTION('',(0.E0,1.E0,0.E0));
#340=DIRECTION('',(1.E0,0.E0,0.E0));
#341=AXIS2_PLACEMENT_3D('',#338,#339,#340);
#342=PLANE('',#341);
#343=ORIENTED_EDGE('',*,*,#328,.T.);
#345=ORIENTED_EDGE('',*,*,#344,.T.);
#346=EDGE_LOOP('',(#343,#345));
#347=FACE_OUTER_BOUND('',#346,.F.);
#349=ORIENTED_EDGE('',*,*,#348,.T.);
#351=ORIENTED_EDGE('',*,*,#350,.F.);
#352=EDGE_LOOP('',(#349,#351));
#353=FACE_BOUND('',#352,.F.);
#354=ADVANCED_FACE('',(#347,#353),#342,.F.);
#355=CARTESIAN_POINT('',(0.E0,0.E0,0.E0));
#356=DIRECTION('',(0.E0,1.E0,0.E0));
#357=DIRECTION('',(1.E0,0.E0,0.E0));
#358=AXIS2_PLACEMENT_3D('',#355,#356,#357);
#359=CYLINDRICAL_SURFACE('',#358,1.295E0);
#361=ORIENTED_EDGE('',*,*,#360,.F.);
#363=ORIENTED_EDGE('',*,*,#362,.F.);
#364=ORIENTED_EDGE('',*,*,#348,.F.);
#366=ORIENTED_EDGE('',*,*,#365,.T.);
#367=EDGE_LOOP('',(#361,#363,#364,#366));
#368=FACE_OUTER_BOUND('',#367,.F.);
#369=ADVANCED_FACE('',(#368),#359,.F.);
#370=CARTESIAN_POINT('',(0.E0,2.2E-1,0.E0));
#371=DIRECTION('',(0.E0,1.E0,0.E0));
#372=DIRECTION('',(-9.999850401819E-1,0.E0,-5.469864012261E-3));
#373=AXIS2_PLACEMENT_3D('',#370,#371,#372);
#374=TOROIDAL_SURFACE('',#373,1.282E0,1.3E-2);
#376=ORIENTED_EDGE('',*,*,#375,.F.);
#378=ORIENTED_EDGE('',*,*,#377,.T.);
#379=ORIENTED_EDGE('',*,*,#360,.T.);
#381=ORIENTED_EDGE('',*,*,#380,.F.);
#382=EDGE_LOOP('',(#376,#378,#379,#381));
#383=FACE_OUTER_BOUND('',#382,.F.);
#384=ADVANCED_FACE('',(#383),#374,.F.);
#385=CARTESIAN_POINT('',(0.E0,2.33E-1,0.E0));
#386=DIRECTION('',(0.E0,1.E0,0.E0));
#387=DIRECTION('',(1.E0,0.E0,0.E0));
#388=AXIS2_PLACEMENT_3D('',#385,#386,#387);
#389=PLANE('',#388);
#391=ORIENTED_EDGE('',*,*,#390,.T.);
#392=ORIENTED_EDGE('',*,*,#375,.T.);
#393=EDGE_LOOP('',(#391,#392));
#394=FACE_OUTER_BOUND('',#393,.F.);
#396=ORIENTED_EDGE('',*,*,#395,.F.);
#398=ORIENTED_EDGE('',*,*,#397,.F.);
#399=EDGE_LOOP('',(#396,#398));
#400=FACE_BOUND('',#399,.F.);
#401=ADVANCED_FACE('',(#394,#400),#389,.F.);
#402=CARTESIAN_POINT('',(0.E0,0.E0,0.E0));
#403=DIRECTION('',(0.E0,1.E0,0.E0));
#404=DIRECTION('',(1.E0,0.E0,0.E0));
#405=AXIS2_PLACEMENT_3D('',#402,#403,#404);
#406=CYLINDRICAL_SURFACE('',#405,2.95E-1);
#407=ORIENTED_EDGE('',*,*,#229,.F.);
#409=ORIENTED_EDGE('',*,*,#408,.F.);
#410=ORIENTED_EDGE('',*,*,#395,.T.);
#412=ORIENTED_EDGE('',*,*,#411,.T.);
#413=EDGE_LOOP('',(#407,#409,#410,#412));
#414=FACE_OUTER_BOUND('',#413,.F.);
#415=ADVANCED_FACE('',(#414),#406,.F.);
#416=CARTESIAN_POINT('',(0.E0,0.E0,0.E0));
#417=DIRECTION('',(0.E0,1.E0,0.E0));
#418=DIRECTION('',(1.E0,0.E0,0.E0));
#419=AXIS2_PLACEMENT_3D('',#416,#417,#418);
#420=CYLINDRICAL_SURFACE('',#419,2.95E-1);
#421=ORIENTED_EDGE('',*,*,#231,.F.);
#422=ORIENTED_EDGE('',*,*,#411,.F.);
#423=ORIENTED_EDGE('',*,*,#397,.T.);
#424=ORIENTED_EDGE('',*,*,#408,.T.);
#425=EDGE_LOOP('',(#421,#422,#423,#424));
#426=FACE_OUTER_BOUND('',#425,.F.);
#427=ADVANCED_FACE('',(#426),#420,.F.);
#428=CARTESIAN_POINT('',(0.E0,2.2E-1,0.E0));
#429=DIRECTION('',(0.E0,1.E0,0.E0));
#430=DIRECTION('',(9.999850401819E-1,0.E0,5.469864012260E-3));
#431=AXIS2_PLACEMENT_3D('',#428,#429,#430);
#432=TOROIDAL_SURFACE('',#431,1.282E0,1.3E-2);
#433=ORIENTED_EDGE('',*,*,#390,.F.);
#434=ORIENTED_EDGE('',*,*,#380,.T.);
#436=ORIENTED_EDGE('',*,*,#435,.T.);
#437=ORIENTED_EDGE('',*,*,#377,.F.);
#438=EDGE_LOOP('',(#433,#434,#436,#437));
#439=FACE_OUTER_BOUND('',#438,.F.);
#440=ADVANCED_FACE('',(#439),#432,.F.);
#441=CARTESIAN_POINT('',(0.E0,0.E0,0.E0));
#442=DIRECTION('',(0.E0,1.E0,0.E0));
#443=DIRECTION('',(1.E0,0.E0,0.E0));
#444=AXIS2_PLACEMENT_3D('',#441,#442,#443);
#445=CYLINDRICAL_SURFACE('',#444,1.295E0);
#446=ORIENTED_EDGE('',*,*,#435,.F.);
#447=ORIENTED_EDGE('',*,*,#365,.F.);
#448=ORIENTED_EDGE('',*,*,#350,.T.);
#449=ORIENTED_EDGE('',*,*,#362,.T.);
#450=EDGE_LOOP('',(#446,#447,#448,#449));
#451=FACE_OUTER_BOUND('',#450,.F.);
#452=ADVANCED_FACE('',(#451),#445,.F.);
#453=CARTESIAN_POINT('',(0.E0,1.77E-1,0.E0));
#454=DIRECTION('',(0.E0,1.E0,0.E0));
#455=DIRECTION('',(-9.999894898430E-1,0.E0,-4.584779548415E-3));
#456=AXIS2_PLACEMENT_3D('',#453,#454,#455);
#457=TOROIDAL_SURFACE('',#456,1.532E0,1.3E-2);
#458=ORIENTED_EDGE('',*,*,#344,.F.);
#459=ORIENTED_EDGE('',*,*,#333,.T.);
#461=ORIENTED_EDGE('',*,*,#460,.T.);
#462=ORIENTED_EDGE('',*,*,#330,.F.);
#463=EDGE_LOOP('',(#458,#459,#461,#462));
#464=FACE_OUTER_BOUND('',#463,.F.);
#465=ADVANCED_FACE('',(#464),#457,.F.);
#466=CARTESIAN_POINT('',(0.E0,0.E0,0.E0));
#467=DIRECTION('',(0.E0,1.E0,0.E0));
#468=DIRECTION('',(1.E0,0.E0,0.E0));
#469=AXIS2_PLACEMENT_3D('',#466,#467,#468);
#470=CYLINDRICAL_SURFACE('',#469,1.545E0);
#471=ORIENTED_EDGE('',*,*,#460,.F.);
#472=ORIENTED_EDGE('',*,*,#318,.F.);
#473=ORIENTED_EDGE('',*,*,#303,.T.);
#474=ORIENTED_EDGE('',*,*,#315,.T.);
#475=EDGE_LOOP('',(#471,#472,#473,#474));
#476=FACE_OUTER_BOUND('',#475,.F.);
#477=ADVANCED_FACE('',(#476),#470,.F.);
#480=DIMENSIONAL_EXPONENTS(1.E0,0.E0,0.E0,0.E0,0.E0,0.E0,0.E0);
#482=LENGTH_MEASURE_WITH_UNIT(LENGTH_MEASURE(2.54E1),#481);
#483=(CONVERSION_BASED_UNIT('INCH',#482)LENGTH_UNIT()NAMED_UNIT(#480));
#484=DIMENSIONAL_EXPONENTS(0.E0,0.E0,0.E0,0.E0,0.E0,0.E0,0.E0);
#486=PLANE_ANGLE_MEASURE_WITH_UNIT(PLANE_ANGLE_MEASURE(1.745329251994E-2),#485);
#487=(CONVERSION_BASED_UNIT('DEGREE',#486)NAMED_UNIT(*)PLANE_ANGLE_UNIT());
#489=UNCERTAINTY_MEASURE_WITH_UNIT(LENGTH_MEASURE(4.606621155625E-4),#483,
'closure',
'Maximum model space distance between geometric entities at asserted connectivities');
#490=(GEOMETRIC_REPRESENTATION_CONTEXT(3)GLOBAL_UNCERTAINTY_ASSIGNED_CONTEXT((
#489))GLOBAL_UNIT_ASSIGNED_CONTEXT((#483,#487,#488))REPRESENTATION_CONTEXT
('ID1','3'));
#491=CARTESIAN_POINT('',(0.E0,0.E0,0.E0));
#492=DIRECTION('',(0.E0,0.E0,1.E0));
#493=DIRECTION('',(1.E0,0.E0,0.E0));
#496=APPLICATION_CONTEXT(
'CONFIGURATION CONTROLLED 3D DESIGNS OF MECHANICAL PARTS AND ASSEMBLIES');
#497=APPLICATION_PROTOCOL_DEFINITION('international standard',
'config_control_design',1994,#496);
#498=DESIGN_CONTEXT('',#496,'design');
#499=MECHANICAL_CONTEXT('',#496,'mechanical');
#500=PRODUCT('12508','12508','NOT SPECIFIED',(#499));
#501=PRODUCT_DEFINITION_FORMATION_WITH_SPECIFIED_SOURCE('1','LAST_VERSION',#500,
.MADE.);
#510=CARTESIAN_POINT('',(0.E0,0.E0,0.E0));
#511=DIRECTION('',(0.E0,-1.E0,0.E0));
#512=DIRECTION('',(1.E0,0.E0,0.E0));
#513=AXIS2_PLACEMENT_3D('',#510,#511,#512);
#514=ITEM_DEFINED_TRANSFORMATION('','',#494,#513);
#515=(REPRESENTATION_RELATIONSHIP('','',#495,#507)REPRESENTATION_RELATIONSHIP_WITH_TRANSFORMATION(#514)SHAPE_REPRESENTATION_RELATIONSHIP());
#516=CONTEXT_DEPENDENT_SHAPE_REPRESENTATION(#515,#509);
#517=DIMENSIONAL_EXPONENTS(1.E0,0.E0,0.E0,0.E0,0.E0,0.E0,0.E0);
#519=LENGTH_MEASURE_WITH_UNIT(LENGTH_MEASURE(2.54E1),#518);
#520=(CONVERSION_BASED_UNIT('INCH',#519)LENGTH_UNIT()NAMED_UNIT(#517));
#521=DIMENSIONAL_EXPONENTS(0.E0,0.E0,0.E0,0.E0,0.E0,0.E0,0.E0);
#523=PLANE_ANGLE_MEASURE_WITH_UNIT(PLANE_ANGLE_MEASURE(1.745329251994E-2),#522);
#524=(CONVERSION_BASED_UNIT('DEGREE',#523)NAMED_UNIT(*)PLANE_ANGLE_UNIT());
#526=UNCERTAINTY_MEASURE_WITH_UNIT(LENGTH_MEASURE(4.606621155625E-4),#520,
'closure',
'Maximum model space distance between geometric entities at asserted connectivities');
#527=(GEOMETRIC_REPRESENTATION_CONTEXT(3)GLOBAL_UNCERTAINTY_ASSIGNED_CONTEXT((
#526))GLOBAL_UNIT_ASSIGNED_CONTEXT((#520,#524,#525))REPRESENTATION_CONTEXT
('ID2','3'));
#528=CARTESIAN_POINT('',(0.E0,0.E0,0.E0));
#529=DIRECTION('',(0.E0,0.E0,1.E0));
#530=DIRECTION('',(1.E0,0.E0,0.E0));
#532=MECHANICAL_CONTEXT('',#496,'mechanical');
#533=PRODUCT('20-512_ASM','20-512_ASM','NOT SPECIFIED',(#532));
#534=PRODUCT_DEFINITION_FORMATION_WITH_SPECIFIED_SOURCE('1','LAST_VERSION',#533,
.MADE.);
#536=PRODUCT_CATEGORY('part','');
#537=PRODUCT_RELATED_PRODUCT_CATEGORY('assembly','',(#533));
#538=PRODUCT_CATEGORY_RELATIONSHIP('','',#536,#537);
#539=PRODUCT_CATEGORY('part','');
#540=PRODUCT_RELATED_PRODUCT_CATEGORY('detail','',(#500));
#541=PRODUCT_CATEGORY_RELATIONSHIP('','',#539,#540);
#542=SECURITY_CLASSIFICATION_LEVEL('unclassified');
#543=SECURITY_CLASSIFICATION('','',#542);
#544=CC_DESIGN_SECURITY_CLASSIFICATION(#543,(#501,#534,#508));
#545=APPROVAL_STATUS('approved');
#546=APPROVAL(#545,'');
#547=CC_DESIGN_APPROVAL(#546,(#543,#501,#534,#502,#535));
#548=CALENDAR_DATE(124,7,2);
#549=COORDINATED_UNIVERSAL_TIME_OFFSET(5,30,.AHEAD.);
#550=LOCAL_TIME(23,38,2.E1,#549);
#551=DATE_AND_TIME(#548,#550);
#552=APPROVAL_DATE_TIME(#551,#546);
#553=DATE_TIME_ROLE('creation_date');
#554=CC_DESIGN_DATE_AND_TIME_ASSIGNMENT(#551,#553,(#502,#535));
#555=DATE_TIME_ROLE('classification_date');
#556=CC_DESIGN_DATE_AND_TIME_ASSIGNMENT(#551,#555,(#543));
#557=PERSON('UNSPECIFIED','UNSPECIFIED',$,$,$,$);
#558=ORGANIZATION('UNSPECIFIED','UNSPECIFIED','UNSPECIFIED');
#559=PERSON_AND_ORGANIZATION(#557,#558);
#560=APPROVAL_ROLE('approver');
#561=APPROVAL_PERSON_ORGANIZATION(#559,#546,#560);
#562=PERSON_AND_ORGANIZATION_ROLE('creator');
#563=CC_DESIGN_PERSON_AND_ORGANIZATION_ASSIGNMENT(#559,#562,(#501,#534,#502,
#535));
#564=PERSON_AND_ORGANIZATION_ROLE('design_supplier');
#565=CC_DESIGN_PERSON_AND_ORGANIZATION_ASSIGNMENT(#559,#564,(#501,#534));
#566=PERSON_AND_ORGANIZATION_ROLE('classification_officer');
#567=CC_DESIGN_PERSON_AND_ORGANIZATION_ASSIGNMENT(#559,#566,(#543));
#568=PERSON_AND_ORGANIZATION_ROLE('design_owner');
#569=CC_DESIGN_PERSON_AND_ORGANIZATION_ASSIGNMENT(#559,#568,(#533,#500));
#6=CIRCLE('',#5,1.595E0);
#11=CIRCLE('',#10,1.595E0);
#16=CIRCLE('',#15,2.95E-1);
#21=CIRCLE('',#20,2.95E-1);
#26=CIRCLE('',#25,3.E-2);
#31=CIRCLE('',#30,3.E-2);
#36=CIRCLE('',#35,1.625E0);
#45=CIRCLE('',#44,1.625E0);
#54=CIRCLE('',#53,1.625E0);
#59=CIRCLE('',#58,1.625E0);
#64=CIRCLE('',#63,1.545E0);
#69=CIRCLE('',#68,1.545E0);
#74=CIRCLE('',#73,1.545E0);
#79=CIRCLE('',#78,1.3E-2);
#84=CIRCLE('',#83,1.532E0);
#89=CIRCLE('',#88,1.532E0);
#94=CIRCLE('',#93,1.295E0);
#103=CIRCLE('',#102,1.295E0);
#112=CIRCLE('',#111,1.3E-2);
#117=CIRCLE('',#116,2.95E-1);
#122=CIRCLE('',#121,2.95E-1);
#127=CIRCLE('',#126,1.282E0);
#132=CIRCLE('',#131,1.282E0);
#145=CIRCLE('',#144,1.3E-2);
#150=CIRCLE('',#149,1.295E0);
#155=CIRCLE('',#154,1.295E0);
#160=CIRCLE('',#159,1.3E-2);
#165=CIRCLE('',#164,1.545E0);
#223=EDGE_CURVE('',#184,#185,#6,.T.);
#225=EDGE_CURVE('',#185,#184,#11,.T.);
#229=EDGE_CURVE('',#192,#193,#16,.T.);
#231=EDGE_CURVE('',#193,#192,#21,.T.);
#242=EDGE_CURVE('',#185,#189,#31,.T.);
#244=EDGE_CURVE('',#188,#189,#45,.T.);
#246=EDGE_CURVE('',#184,#188,#26,.T.);
#258=EDGE_CURVE('',#189,#188,#36,.T.);
#270=EDGE_CURVE('',#176,#188,#49,.T.);
#272=EDGE_CURVE('',#177,#176,#59,.T.);
#274=EDGE_CURVE('',#177,#189,#40,.T.);
#286=EDGE_CURVE('',#176,#177,#54,.T.);
#301=EDGE_CURVE('',#180,#181,#64,.T.);
#303=EDGE_CURVE('',#181,#180,#69,.T.);
#313=EDGE_CURVE('',#208,#209,#74,.T.);
#315=EDGE_CURVE('',#180,#208,#173,.T.);
#318=EDGE_CURVE('',#181,#209,#169,.T.);
#328=EDGE_CURVE('',#204,#205,#84,.T.);
#330=EDGE_CURVE('',#204,#208,#79,.T.);
#333=EDGE_CURVE('',#205,#209,#160,.T.);
#344=EDGE_CURVE('',#205,#204,#89,.T.);
#348=EDGE_CURVE('',#200,#201,#103,.T.);
#350=EDGE_CURVE('',#200,#201,#155,.T.);
#360=EDGE_CURVE('',#217,#216,#94,.T.);
#362=EDGE_CURVE('',#201,#217,#98,.T.);
#365=EDGE_CURVE('',#200,#216,#107,.T.);
#375=EDGE_CURVE('',#213,#212,#132,.T.);
#377=EDGE_CURVE('',#213,#217,#112,.T.);
#380=EDGE_CURVE('',#212,#216,#145,.T.);
#390=EDGE_CURVE('',#212,#213,#127,.T.);
#395=EDGE_CURVE('',#196,#197,#117,.T.);
#397=EDGE_CURVE('',#197,#196,#122,.T.);
#408=EDGE_CURVE('',#196,#192,#136,.T.);
#411=EDGE_CURVE('',#197,#193,#140,.T.);
#435=EDGE_CURVE('',#216,#217,#150,.T.);
#460=EDGE_CURVE('',#209,#208,#165,.T.);
#478=CLOSED_SHELL('',(#235,#250,#263,#278,#291,#307,#322,#337,#354,#369,#384,
#401,#415,#427,#440,#452,#465,#477));
#479=MANIFOLD_SOLID_BREP('',#478);
#481=(LENGTH_UNIT()NAMED_UNIT(*)SI_UNIT(.MILLI.,.METRE.));
#485=(NAMED_UNIT(*)PLANE_ANGLE_UNIT()SI_UNIT($,.RADIAN.));
#488=(NAMED_UNIT(*)SI_UNIT($,.STERADIAN.)SOLID_ANGLE_UNIT());
#494=AXIS2_PLACEMENT_3D('',#491,#492,#493);
#495=ADVANCED_BREP_SHAPE_REPRESENTATION('',(#494,#479),#490);
#502=PRODUCT_DEFINITION('design','',#501,#498);
#503=PRODUCT_DEFINITION_SHAPE('','SHAPE FOR 12508.',#502);
#504=SHAPE_DEFINITION_REPRESENTATION(#503,#495);
#505=SHAPE_DEFINITION_REPRESENTATION(#506,#507);
#506=PRODUCT_DEFINITION_SHAPE('','SHAPE FOR 20-512_ASM.',#535);
#507=SHAPE_REPRESENTATION('',(#513,#531),#527);
#508=NEXT_ASSEMBLY_USAGE_OCCURRENCE('1','Next assembly relationship','12508',
#535,#502,$);
#509=PRODUCT_DEFINITION_SHAPE('Placement #1',
'Placement of 12508 with respect to 20-512_ASM',#508);
#518=(LENGTH_UNIT()NAMED_UNIT(*)SI_UNIT(.MILLI.,.METRE.));
#522=(NAMED_UNIT(*)PLANE_ANGLE_UNIT()SI_UNIT($,.RADIAN.));
#525=(NAMED_UNIT(*)SI_UNIT($,.STERADIAN.)SOLID_ANGLE_UNIT());
#531=AXIS2_PLACEMENT_3D('',#528,#529,#530);
#535=PRODUCT_DEFINITION('design','',#534,#498);
ENDSEC;
END-ISO-10303-21;
