999
DXF file: 200-1001_top.dxf
999
Pro/ENGINEER 2018400 by Parametric Technology Corporation
  0
SECTION
  2
HEADER
  9
$ACADVER
  1
AC1027
  9
$DWGCODEPAGE
  3
ANSI_1252
  9
$EXTMAX
 10
11.0
 20
8.5
 30
0.0
  9
$EXTMIN
 10
0.0
 20
0.0
 30
0.0
  9
$LIMMIN
 10
0.0
 20
0.0
  9
$LIMMAX
 10
11.0
 20
8.5
  9
$VIEWCTR
 10
5.5
 20
4.25
  9
$VIEWSIZE
 40
8.5
  9
$CLAYER
  8
0
  9
$LTSCALE
 40
0.605
  9
$CELTYPE
  6
BYLAYER
  9
$DIMSCALE
 40
1.0
  9
$DIMASZ
 40
0.1
  9
$DIMEXO
 40
0.0625
  9
$DIMDLI
 40
0.418
  9
$DIMEXE
 40
0.125
  9
$DIMCEN
 40
0.099
  9
$DIMLFAC
 40
1.0
  9
$DIMBLK
  1
_FILLED
  9
$DIMALT
 70
1
  9
$DIMALTD
 70
1
  9
$DIMALTTD
 70
2
  9
$DIMALTF
 40
25.4
  9
$DIMTXT
 40
0.08
  9
$DIMTOL
 70
1
  9
$DIMLIM
 70
0
  9
$DIMTFAC
 40
1.0
  9
$DIMTP
 40
0.01
  9
$DIMTM
 40
0.01
  9
$DIMGAP
 40
0.09
  9
$DIMDSEP
 70
46
  9
$AUNITS
 70
0
  9
$PDMODE
 70
3
  9
$PDSIZE
 40
0.3125
  9
$HANDSEED
  5
3A7
  9
$TILEMODE
 70
1
  9
$MEASUREMENT
 70
0
  9
$INSUNITS
 70
1
  0
ENDSEC
  0
SECTION
  2
CLASSES
  0
CLASS
  1
ACDBDICTIONARYWDFLT
  2
AcDbDictionaryWithDefault
  3
AutoCAD 2000
 90
0
 91
1
280
0
281
0
  0
CLASS
  1
ACDBPLACEHOLDER
  2
AcDbPlaceHolder
  3
AutoCAD 2000
 90
0
 91
1
280
0
281
0
  0
CLASS
  1
LAYOUT
  2
AcDbLayout
  3
AutoCAD 2000
 90
0
 91
0
280
0
281
0
  0
ENDSEC
  0
SECTION
  2
TABLES
  0
TABLE
  2
VPORT
  5
8
100
AcDbSymbolTable
 70
2
  0
VPORT
  5
1F4
100
AcDbSymbolTableRecord
100
AcDbViewportTableRecord
  2
*ACTIVE
 70
0
 10
0.0
 20
0.0
 11
1.0
 21
1.0
 12
5.5
 22
4.25
 13
0.0
 23
0.0
 14
1.0
 24
1.0
 15
0.0
 25
0.0
 16
0.0
 26
0.0
 36
1.0
 17
0.0
 27
0.0
 37
0.0
 40
8.5
 41
1.2941176471
 42
50.0
 43
0.0
 44
0.0
 50
0.0
 51
0.0
 71
0
 72
100
 73
1
 74
1
 75
0
 76
0
 77
0
 78
0
  0
ENDTAB
  0
TABLE
  2
LTYPE
  5
5
100
AcDbSymbolTable
 70
6
  0
LTYPE
  5
14
100
AcDbSymbolTableRecord
100
AcDbLinetypeTableRecord
  2
BYBLOCK
 70
0
  3

 72
65
 73
0
 40
0.0
  0
LTYPE
  5
15
100
AcDbSymbolTableRecord
100
AcDbLinetypeTableRecord
  2
BYLAYER
 70
0
  3

 72
65
 73
0
 40
0.0
  0
LTYPE
  5
16
100
AcDbSymbolTableRecord
100
AcDbLinetypeTableRecord
  2
CONTINUOUS
 70
64
  3
Solid line
 72
65
 73
0
 40
0.0
  0
LTYPE
  5
1F5
100
AcDbSymbolTableRecord
100
AcDbLinetypeTableRecord
  2
CENTER
 70
64
  3
____ _ ____ _ ____ _ ____ _ ____ _ ____ _ ____
 72
65
 73
4
 40
0.6
 49
0.375
 74
0
 49
-0.075
 74
0
 49
0.075
 74
0
 49
-0.075
 74
0
  0
LTYPE
  5
1F6
100
AcDbSymbolTableRecord
100
AcDbLinetypeTableRecord
  2
HIDDEN
 70
64
  3
- - - - - - - - - - - - - - - - - - - -
 72
65
 73
2
 40
0.2
 49
0.1
 74
0
 49
-0.1
 74
0
  0
LTYPE
  5
1F7
100
AcDbSymbolTableRecord
100
AcDbLinetypeTableRecord
  2
PHANTOM
 70
64
  3
_____ _ _ _____ _ _ _____ _ _ _____
 72
65
 73
6
 40
0.8
 49
0.45
 74
0
 49
-0.05
 74
0
 49
0.1
 74
0
 49
-0.05
 74
0
 49
0.1
 74
0
 49
-0.05
 74
0
  0
LTYPE
  5
1F8
100
AcDbSymbolTableRecord
100
AcDbLinetypeTableRecord
  2
DOT
 70
64
  3
. . . . . . . . . . . . . . . . . . . .
 72
65
 73
2
 40
0.2
 49
0.1
 74
0
 49
-0.1
 74
0
  0
LTYPE
  5
1F9
100
AcDbSymbolTableRecord
100
AcDbLinetypeTableRecord
  2
DASHED
 70
64
  3
- - - - - - - - - - - - - - - - - - - -
 72
65
 73
2
 40
0.2
 49
0.1
 74
0
 49
-0.1
 74
0
  0
ENDTAB
  0
TABLE
  2
LAYER
  5
2
100
AcDbSymbolTable
 70
36
  0
LAYER
  5
10
100
AcDbSymbolTableRecord
100
AcDbLayerTableRecord
  2
0
 70
0
 62
7
  6
CONTINUOUS
370
-3
390
F
  0
LAYER
  5
1FA
100
AcDbSymbolTableRecord
100
AcDbLayerTableRecord
  2
DEFAULT_1
 70
0
 62
7
  6
CENTER
370
-3
390
F
  0
LAYER
  5
1FB
100
AcDbSymbolTableRecord
100
AcDbLayerTableRecord
  2
DEFAULT_2
 70
0
 62
8
  6
HIDDEN
370
-3
390
F
  0
LAYER
  5
1FC
100
AcDbSymbolTableRecord
100
AcDbLayerTableRecord
  2
DEFAULT_3
 70
0
 62
7
  6
PHANTOM
370
-3
390
F
  0
LAYER
  5
1FD
100
AcDbSymbolTableRecord
100
AcDbLayerTableRecord
  2
ALL_FEATURES
 70
0
 62
7
  6
CONTINUOUS
370
-3
390
F
  0
LAYER
  5
1FE
100
AcDbSymbolTableRecord
100
AcDbLayerTableRecord
  2
AXES_FEATURES
 70
0
 62
7
  6
CONTINUOUS
370
-3
390
F
  0
LAYER
  5
1FF
100
AcDbSymbolTableRecord
100
AcDbLayerTableRecord
  2
CHAMFER_FEATURES
 70
0
 62
7
  6
CONTINUOUS
370
-3
390
F
  0
LAYER
  5
200
100
AcDbSymbolTableRecord
100
AcDbLayerTableRecord
  2
CUT_FEATURES
 70
0
 62
7
  6
CONTINUOUS
370
-3
390
F
  0
LAYER
  5
201
100
AcDbSymbolTableRecord
100
AcDbLayerTableRecord
  2
DATUM_PLANES
 70
0
 62
7
  6
CONTINUOUS
370
-3
390
F
  0
LAYER
  5
202
100
AcDbSymbolTableRecord
100
AcDbLayerTableRecord
  2
DEFAULT_COORDINATE_SYSTEM
 70
0
 62
7
  6
CONTINUOUS
370
-3
390
F
  0
LAYER
  5
203
100
AcDbSymbolTableRecord
100
AcDbLayerTableRecord
  2
DEFAULT_DATUM_AXES
 70
0
 62
7
  6
CONTINUOUS
370
-3
390
F
  0
LAYER
  5
204
100
AcDbSymbolTableRecord
100
AcDbLayerTableRecord
  2
DEFAULT_DATUM_PLANES
 70
0
 62
7
  6
CONTINUOUS
370
-3
390
F
  0
LAYER
  5
205
100
AcDbSymbolTableRecord
100
AcDbLayerTableRecord
  2
DIMENSIONS
 70
0
 62
7
  6
CONTINUOUS
370
-3
390
F
  0
LAYER
  5
206
100
AcDbSymbolTableRecord
100
AcDbLayerTableRecord
  2
PROTRUSION_FEATURES
 70
0
 62
7
  6
CONTINUOUS
370
-3
390
F
  0
LAYER
  5
207
100
AcDbSymbolTableRecord
100
AcDbLayerTableRecord
  2
SHELL_FEATURES
 70
0
 62
7
  6
CONTINUOUS
370
-3
390
F
  0
LAYER
  5
208
100
AcDbSymbolTableRecord
100
AcDbLayerTableRecord
  2
XSEC_DATUMS
 70
0
 62
7
  6
CONTINUOUS
370
-3
390
F
  0
ENDTAB
  0
TABLE
  2
STYLE
  5
3
100
AcDbSymbolTable
 70
1
  0
STYLE
  5
11
100
AcDbSymbolTableRecord
100
AcDbTextStyleTableRecord
  2
STANDARD
 70
0
 40
0.0
 41
0.8
 50
0.0
 71
0
 42
0.2
  3
txt
  4

  0
STYLE
  5
209
100
AcDbSymbolTableRecord
100
AcDbTextStyleTableRecord
  2
TEXTSTYLE_1
 70
0
 40
0.0
 41
0.8
 50
0.0
 71
0
 42
0.2
  3
gdt
  4

  0
ENDTAB
  0
TABLE
  2
VIEW
  5
6
100
AcDbSymbolTable
 70
0
  0
ENDTAB
  0
TABLE
  2
UCS
  5
7
100
AcDbSymbolTable
 70
0
  0
ENDTAB
  0
TABLE
  2
APPID
  5
9
100
AcDbSymbolTable
 70
1
  0
APPID
  5
20A
100
AcDbSymbolTableRecord
100
AcDbRegAppTableRecord
  2
ACAD
 70
0
  0
ENDTAB
  0
TABLE
  2
BLOCK_RECORD
  5
1
100
AcDbSymbolTable
 70
0
  0
BLOCK_RECORD
  5
20B
100
AcDbSymbolTableRecord
100
AcDbBlockTableRecord
  2
*Model_Space
  0
BLOCK_RECORD
  5
20C
100
AcDbSymbolTableRecord
100
AcDbBlockTableRecord
  2
*Paper_Space
  0
BLOCK_RECORD
  5
20D
100
AcDbSymbolTableRecord
100
AcDbBlockTableRecord
  2
_FILLED
  0
ENDTAB
  0
TABLE
  2
DIMSTYLE
  5
A
100
AcDbSymbolTable
 70
1
100
AcDbDimStyleTable
 71
0
  0
DIMSTYLE
105
20E
100
AcDbSymbolTableRecord
100
AcDbDimStyleTableRecord
  2
STANDARD
 70
0
  3

  4

 40
1.0
 41
0.1
 42
0.0625
 43
0.38
 44
0.125
 45
0.0
 46
0.0
 47
0.01
 48
0.01
140
0.08
141
0.09
142
0.0
143
25.4
144
1.0
145
0.0
146
1.0
147
0.09
 71
1.0
 72
0.0
 73
1
 74
1
 75
0
 76
0
 77
0
 78
4
 79
1
170
1
171
1
172
0
173
0
174
0
175
0
176
0
177
0
178
0
270
2
179
2
271
2
272
2
273
2
274
2
275
0
280
0
281
0
282
0
283
1
284
4
285
0
286
0
287
3
288
0
340
11
278
46
341
20D
342
20D
343
20D
344
20D
  0
ENDTAB
  0
ENDSEC
  0
SECTION
  2
BLOCKS
  0
BLOCK
  5
20
100
AcDbEntity
  8
0
100
AcDbBlockBegin
  2
*Model_Space
 70
0
 10
0.0
 20
0.0
 30
0.0
  3
*Model_Space
  1

  0
ENDBLK
  5
21
100
AcDbEntity
  8
0
100
AcDbBlockEnd
  0
BLOCK
  5
1C
100
AcDbEntity
  8
0
100
AcDbBlockBegin
  2
*Paper_Space
 70
0
 10
0.0
 20
0.0
 30
0.0
  3
*Paper_Space
  1

  0
ENDBLK
  5
1D
100
AcDbEntity
  8
0
100
AcDbBlockEnd
  0
BLOCK
  5
20F
100
AcDbEntity
  8
0
100
AcDbBlockBegin
  2
_FILLED
 70
64
 10
0.0
 20
0.0
  3
_FILLED
  1

  0
SOLID
  5
210
100
AcDbEntity
  8
0
  6
BYBLOCK
 62
0
100
AcDbTrace
 10
0.0
 20
0.0
 11
-1.0
 21
0.2
 12
-1.0
 22
-0.2
 13
-1.0
 23
-0.2
  0
ENDBLK
  5
211
100
AcDbEntity
  8
0
  6
BYBLOCK
 62
0
100
AcDbBlockEnd
  0
ENDSEC
  0
SECTION
  2
ENTITIES
  0
MTEXT
  5
212
100
AcDbEntity
  8
0
100
AcDbMText
 62
2
  6
CONTINUOUS
  7
STANDARD
 71
3
 72
1
 10
5.5576475155
 20
0.9526836911
 30
0.0
 11
1.0
 21
0.0
 31
0.0
 73
2
 44
0.9
  1
SCALE  .500
 40
0.08
 41
0.704
  0
LINE
  5
213
100
AcDbEntity
  8
0
100
AcDbLine
 62
7
  6
CONTINUOUS
 10
0.0
 20
0.0
 11
0.0
 21
8.5
  0
LINE
  5
214
100
AcDbEntity
  8
0
100
AcDbLine
 62
7
  6
CONTINUOUS
 10
0.0
 20
0.0
 11
11.0
 21
0.0
  0
LINE
  5
215
100
AcDbEntity
  8
0
100
AcDbLine
 62
7
  6
CONTINUOUS
 10
0.0
 20
8.5
 11
11.0
 21
8.5
  0
LINE
  5
216
100
AcDbEntity
  8
0
100
AcDbLine
 62
7
  6
CONTINUOUS
 10
11.0
 20
0.0
 11
11.0
 21
8.5
  0
LINE
  5
217
100
AcDbEntity
  8
ALL_FEATURES
100
AcDbLine
 62
7
  6
CONTINUOUS
 10
4.9925288644
 20
8.0301927544
 11
4.9742776966
 21
8.0196423861
  0
LINE
  5
218
100
AcDbEntity
  8
ALL_FEATURES
100
AcDbLine
 62
7
  6
CONTINUOUS
 10
4.9915234316
 20
7.9944780046
 11
4.9742806015
 21
7.9845104322
  0
LINE
  5
219
100
AcDbEntity
  8
ALL_FEATURES
100
AcDbLine
 62
7
  6
CONTINUOUS
 10
4.9908322665
 20
7.9587629767
 11
4.9742822378
 21
7.9491958523
  0
LINE
  5
21A
100
AcDbEntity
  8
ALL_FEATURES
100
AcDbLine
 62
7
  6
CONTINUOUS
 10
4.9897320793
 20
7.9230435092
 11
4.974277937
 21
7.9141101573
  0
LINE
  5
21B
100
AcDbEntity
  8
ALL_FEATURES
100
AcDbLine
 62
7
  6
CONTINUOUS
 10
4.9887576631
 20
7.8873287046
 11
4.9742806466
 21
7.8789601178
  0
LINE
  5
21C
100
AcDbEntity
  8
ALL_FEATURES
100
AcDbLine
 62
7
  6
CONTINUOUS
 10
4.9880777576
 20
7.8516130733
 11
4.9742812665
 21
7.8436378801
  0
LINE
  5
21D
100
AcDbEntity
  8
ALL_FEATURES
100
AcDbLine
 62
7
  6
CONTINUOUS
 10
5.3612047527
 20
8.0563749904
 11
5.3636582222
 21
8.0577935689
  0
LINE
  5
21E
100
AcDbEntity
  8
ALL_FEATURES
100
AcDbLine
 62
7
  6
CONTINUOUS
 10
4.9869388441
 20
7.8158944614
 11
4.9742782874
 21
7.808576074
  0
LINE
  5
21F
100
AcDbEntity
  8
ALL_FEATURES
100
AcDbLine
 62
7
  6
CONTINUOUS
 10
5.3623727787
 20
8.0206627006
 11
5.3800531576
 21
8.0308840129
  0
LINE
  5
220
100
AcDbEntity
  8
ALL_FEATURES
100
AcDbLine
 62
7
  6
CONTINUOUS
 10
4.9859923407
 20
7.7801795082
 11
4.97428066
 21
7.7734095712
  0
LINE
  5
221
100
AcDbEntity
  8
ALL_FEATURES
100
AcDbLine
 62
7
  6
CONTINUOUS
 10
5.3632509372
 20
7.9849496011
 11
5.380053909
 21
7.9946635708
  0
LINE
  5
222
100
AcDbEntity
  8
ALL_FEATURES
100
AcDbLine
 62
7
  6
CONTINUOUS
 10
5.3639967258
 20
7.9492343337
 11
5.38005149
 21
7.9585158284
  0
LINE
  5
223
100
AcDbEntity
  8
ALL_FEATURES
100
AcDbLine
 62
7
  6
CONTINUOUS
 10
5.3651482096
 20
7.9135223492
 11
5.3800534134
 21
7.9221391087
  0
LINE
  5
224
100
AcDbEntity
  8
ALL_FEATURES
100
AcDbLine
 62
7
  6
CONTINUOUS
 10
4.994048913
 20
8.0633799735
 11
4.9778304934
 21
8.0471615538
  0
LINE
  5
225
100
AcDbEntity
  8
ALL_FEATURES
100
AcDbLine
 62
7
  6
CONTINUOUS
 10
5.3690914708
 20
7.7703679872
 11
5.3792915136
 21
7.7762878762
  0
LINE
  5
226
100
AcDbEntity
  8
ALL_FEATURES
100
AcDbLine
 62
7
  6
CONTINUOUS
 10
5.3660201049
 20
7.8778089468
 11
5.3800537579
 21
7.8859217959
  0
LINE
  5
227
100
AcDbEntity
  8
ALL_FEATURES
100
AcDbLine
 62
7
  6
CONTINUOUS
 10
5.3667924218
 20
7.8420936234
 11
5.3800512015
 21
7.8497585813
  0
LINE
  5
228
100
AcDbEntity
  8
ALL_FEATURES
100
AcDbLine
 62
7
  6
CONTINUOUS
 10
5.3679210127
 20
7.8063818383
 11
5.3800536323
 21
7.8133956151
  0
LINE
  5
229
100
AcDbEntity
  8
ALL_FEATURES
100
AcDbLine
 62
7
  6
CONTINUOUS
 10
4.9742806015
 20
7.9845104325
 11
4.974048913
 21
7.9842426514
  0
LINE
  5
22A
100
AcDbEntity
  8
ALL_FEATURES
100
AcDbLine
 62
7
  6
CONTINUOUS
 10
4.974277937
 20
7.9141101572
 11
4.974048913
 21
7.9138454527
  0
LINE
  5
22B
100
AcDbEntity
  8
ALL_FEATURES
100
AcDbLine
 62
7
  6
CONTINUOUS
 10
4.9742812665
 20
7.8436378777
 11
4.974048913
 21
7.8433693511
  0
LINE
  5
22C
100
AcDbEntity
  8
ALL_FEATURES
100
AcDbLine
 62
7
  6
CONTINUOUS
 10
4.97428066
 20
7.7734095715
 11
4.974048913
 21
7.7731417192
  0
LINE
  5
22D
100
AcDbEntity
  8
ALL_FEATURES
100
AcDbLine
 62
7
  6
CONTINUOUS
 10
5.38005149
 20
7.9585158282
 11
5.380298913
 21
7.9588018047
  0
LINE
  5
22E
100
AcDbEntity
  8
ALL_FEATURES
100
AcDbLine
 62
7
  6
CONTINUOUS
 10
5.3800537579
 20
7.885921796
 11
5.380298913
 21
7.8862051563
  0
LINE
  5
22F
100
AcDbEntity
  8
ALL_FEATURES
100
AcDbLine
 62
7
  6
CONTINUOUS
 10
5.380298913
 20
3.7183799735
 11
4.974048913
 21
3.7183799735
  0
LINE
  5
230
100
AcDbEntity
  8
ALL_FEATURES
100
AcDbLine
 62
7
  6
CONTINUOUS
 10
4.974048913
 20
8.0193779641
 11
4.974048913
 21
8.0130501337
  0
LINE
  5
231
100
AcDbEntity
  8
ALL_FEATURES
100
AcDbLine
 62
7
  6
CONTINUOUS
 10
4.974048913
 20
7.9842426513
 11
4.974048913
 21
7.9769366187
  0
LINE
  5
232
100
AcDbEntity
  8
ALL_FEATURES
100
AcDbLine
 62
7
  6
CONTINUOUS
 10
4.974048913
 20
7.9489262075
 11
4.974048913
 21
7.9405873597
  0
LINE
  5
233
100
AcDbEntity
  8
ALL_FEATURES
100
AcDbLine
 62
7
  6
CONTINUOUS
 10
4.974048913
 20
7.9138454513
 11
4.974048913
 21
7.9043105025
  0
LINE
  5
234
100
AcDbEntity
  8
ALL_FEATURES
100
AcDbLine
 62
7
  6
CONTINUOUS
 10
4.974048913
 20
7.8786922827
 11
4.974048913
 21
7.8682034747
  0
LINE
  5
235
100
AcDbEntity
  8
ALL_FEATURES
100
AcDbLine
 62
7
  6
CONTINUOUS
 10
4.974048913
 20
7.8433693535
 11
4.974048913
 21
7.8318318497
  0
LINE
  5
236
100
AcDbEntity
  8
ALL_FEATURES
100
AcDbLine
 62
7
  6
CONTINUOUS
 10
4.974048913
 20
7.808310958
 11
4.974048913
 21
7.7955710667
  0
LINE
  5
237
100
AcDbEntity
  8
ALL_FEATURES
100
AcDbLine
 62
7
  6
CONTINUOUS
 10
4.974048913
 20
7.7731417193
 11
4.974048913
 21
2.2160543929
  0
LINE
  5
238
100
AcDbEntity
  8
ALL_FEATURES
100
AcDbLine
 62
7
  6
CONTINUOUS
 10
4.9857396438
 20
7.7888174101
 11
4.9857396438
 21
7.7798874101
  0
LINE
  5
239
100
AcDbEntity
  8
ALL_FEATURES
100
AcDbLine
 62
7
  6
CONTINUOUS
 10
4.9866849076
 20
7.8245309326
 11
4.9866849076
 21
7.8156009326
  0
LINE
  5
23A
100
AcDbEntity
  8
ALL_FEATURES
100
AcDbLine
 62
7
  6
CONTINUOUS
 10
4.9878222459
 20
7.8602477134
 11
4.9878222459
 21
7.8513177134
  0
LINE
  5
23B
100
AcDbEntity
  8
ALL_FEATURES
100
AcDbLine
 62
7
  6
CONTINUOUS
 10
4.9885012874
 20
7.8959623425
 11
4.9885012874
 21
7.8870323425
  0
LINE
  5
23C
100
AcDbEntity
  8
ALL_FEATURES
100
AcDbLine
 62
7
  6
CONTINUOUS
 10
4.989474381
 20
7.9316756213
 11
4.989474381
 21
7.9227456213
  0
LINE
  5
23D
100
AcDbEntity
  8
ALL_FEATURES
100
AcDbLine
 62
7
  6
CONTINUOUS
 10
4.9905730054
 20
7.9673932682
 11
4.9905730054
 21
7.9584632682
  0
LINE
  5
23E
100
AcDbEntity
  8
ALL_FEATURES
100
AcDbLine
 62
7
  6
CONTINUOUS
 10
4.9912632685
 20
8.0031072519
 11
4.9912632685
 21
7.9941772519
  0
LINE
  5
23F
100
AcDbEntity
  8
ALL_FEATURES
100
AcDbLine
 62
7
  6
CONTINUOUS
 10
4.9922672865
 20
8.0388203697
 11
4.9922672865
 21
8.0298903697
  0
LINE
  5
240
100
AcDbEntity
  8
ALL_FEATURES
100
AcDbLine
 62
7
  6
CONTINUOUS
 10
4.974048913
 20
2.2005587887
 11
4.9740490358
 21
2.2007076012
  0
LINE
  5
241
100
AcDbEntity
  8
ALL_FEATURES
100
AcDbLine
 62
7
  6
CONTINUOUS
 10
5.0805358713
 20
2.089449928
 11
5.0805358713
 21
2.0831354644
  0
LINE
  5
242
100
AcDbEntity
  8
ALL_FEATURES
100
AcDbLine
 62
7
  6
CONTINUOUS
 10
5.2738119548
 20
7.7559235258
 11
5.2738119548
 21
7.7648535258
  0
LINE
  5
243
100
AcDbEntity
  8
ALL_FEATURES
100
AcDbLine
 62
7
  6
CONTINUOUS
 10
5.3614671368
 20
8.0477483551
 11
5.3614671368
 21
8.0566783551
  0
LINE
  5
244
100
AcDbEntity
  8
ALL_FEATURES
100
AcDbLine
 62
7
  6
CONTINUOUS
 10
5.362633487
 20
8.0120341197
 11
5.362633487
 21
8.0209641197
  0
LINE
  5
245
100
AcDbEntity
  8
ALL_FEATURES
100
AcDbLine
 62
7
  6
CONTINUOUS
 10
5.3635104496
 20
7.9763196322
 11
5.3635104496
 21
7.9852496322
  0
LINE
  5
246
100
AcDbEntity
  8
ALL_FEATURES
100
AcDbLine
 62
7
  6
CONTINUOUS
 10
5.3642552122
 20
7.9406031797
 11
5.3642552122
 21
7.9495331797
  0
LINE
  5
247
100
AcDbEntity
  8
ALL_FEATURES
100
AcDbLine
 62
7
  6
CONTINUOUS
 10
5.3654051025
 20
7.904889344
 11
5.3654051025
 21
7.913819344
  0
LINE
  5
248
100
AcDbEntity
  8
ALL_FEATURES
100
AcDbLine
 62
7
  6
CONTINUOUS
 10
5.3662758427
 20
7.869174602
 11
5.3662758427
 21
7.878104602
  0
LINE
  5
249
100
AcDbEntity
  8
ALL_FEATURES
100
AcDbLine
 62
7
  6
CONTINUOUS
 10
5.3670471214
 20
7.8334580786
 11
5.3670471214
 21
7.8423880786
  0
LINE
  5
24A
100
AcDbEntity
  8
ALL_FEATURES
100
AcDbLine
 62
7
  6
CONTINUOUS
 10
5.3681742048
 20
7.7977445413
 11
5.3681742048
 21
7.8066745413
  0
LINE
  5
24B
100
AcDbEntity
  8
ALL_FEATURES
100
AcDbLine
 62
7
  6
CONTINUOUS
 10
5.3693387071
 20
7.7617252485
 11
5.3693387071
 21
7.7706552485
  0
LINE
  5
24C
100
AcDbEntity
  8
ALL_FEATURES
100
AcDbLine
 62
7
  6
CONTINUOUS
 10
5.380298913
 20
8.0368813324
 11
5.380298913
 21
8.0311680739
  0
LINE
  5
24D
100
AcDbEntity
  8
ALL_FEATURES
100
AcDbLine
 62
7
  6
CONTINUOUS
 10
5.380298913
 20
8.0018397212
 11
5.380298913
 21
7.9949467528
  0
LINE
  5
24E
100
AcDbEntity
  8
ALL_FEATURES
100
AcDbLine
 62
7
  6
CONTINUOUS
 10
5.380298913
 20
7.9666310443
 11
5.380298913
 21
7.9588018036
  0
LINE
  5
24F
100
AcDbEntity
  8
ALL_FEATURES
100
AcDbLine
 62
7
  6
CONTINUOUS
 10
5.380298913
 20
7.9313460237
 11
5.380298913
 21
7.9224228766
  0
LINE
  5
250
100
AcDbEntity
  8
ALL_FEATURES
100
AcDbLine
 62
7
  6
CONTINUOUS
 10
5.380298913
 20
7.8962949158
 11
5.380298913
 21
7.8862051558
  0
LINE
  5
251
100
AcDbEntity
  8
ALL_FEATURES
100
AcDbLine
 62
7
  6
CONTINUOUS
 10
5.380298913
 20
7.8610826464
 11
5.380298913
 21
7.8500448959
  0
LINE
  5
252
100
AcDbEntity
  8
ALL_FEATURES
100
AcDbLine
 62
7
  6
CONTINUOUS
 10
5.380298913
 20
7.8258129294
 11
5.380298913
 21
7.813679131
  0
LINE
  5
253
100
AcDbEntity
  8
ALL_FEATURES
100
AcDbLine
 62
7
  6
CONTINUOUS
 10
5.380298913
 20
7.7907486591
 11
5.380298913
 21
7.777455951
  0
LINE
  5
254
100
AcDbEntity
  8
ALL_FEATURES
100
AcDbLine
 62
7
  6
CONTINUOUS
 10
5.380298913
 20
7.7555418574
 11
5.380298913
 21
2.2036094112
  0
LINE
  5
255
100
AcDbEntity
  8
ALL_FEATURES
100
AcDbLine
 62
7
  6
CONTINUOUS
 10
4.9742922101
 20
7.9766554384
 11
4.974048913
 21
7.9769366233
  0
LINE
  5
256
100
AcDbEntity
  8
ALL_FEATURES
100
AcDbLine
 62
7
  6
CONTINUOUS
 10
4.974295996
 20
7.8315462439
 11
4.974048913
 21
7.8318318494
  0
LINE
  5
257
100
AcDbEntity
  8
ALL_FEATURES
100
AcDbLine
 62
7
  6
CONTINUOUS
 10
4.9742936306
 20
7.9040276443
 11
4.974048913
 21
7.9043105023
  0
LINE
  5
258
100
AcDbEntity
  8
ALL_FEATURES
100
AcDbLine
 62
7
  6
CONTINUOUS
 10
5.380067756
 20
7.7558024752
 11
5.3802987903
 21
7.755541467
  0
LINE
  5
259
100
AcDbEntity
  8
ALL_FEATURES
100
AcDbLine
 62
7
  6
CONTINUOUS
 10
5.380298913
 20
7.7555418574
 11
5.3802979821
 21
7.7555429323
  0
LINE
  5
25A
100
AcDbEntity
  8
ALL_FEATURES
100
AcDbLine
 62
7
  6
CONTINUOUS
 10
5.3800700246
 20
7.8260774636
 11
5.380298913
 21
7.8258129281
  0
LINE
  5
25B
100
AcDbEntity
  8
ALL_FEATURES
100
AcDbLine
 62
7
  6
CONTINUOUS
 10
5.3800677619
 20
7.791015827
 11
5.380298913
 21
7.7907486597
  0
LINE
  5
25C
100
AcDbEntity
  8
ALL_FEATURES
100
AcDbLine
 62
7
  6
CONTINUOUS
 10
5.3800679727
 20
7.896561839
 11
5.380298913
 21
7.8962949171
  0
LINE
  5
25D
100
AcDbEntity
  8
ALL_FEATURES
100
AcDbLine
 62
7
  6
CONTINUOUS
 10
5.3800674192
 20
7.966898595
 11
5.380298913
 21
7.9666310435
  0
LINE
  5
25E
100
AcDbEntity
  8
ALL_FEATURES
100
AcDbLine
 62
7
  6
CONTINUOUS
 10
5.3800693017
 20
8.0371466917
 11
5.380298913
 21
8.0368813315
  0
LINE
  5
25F
100
AcDbEntity
  8
ALL_FEATURES
100
AcDbLine
 62
7
  6
CONTINUOUS
 10
4.9740490358
 20
2.2007076012
 11
4.975262813
 21
2.2012021803
  0
LINE
  5
260
100
AcDbEntity
  8
ALL_FEATURES
100
AcDbLine
 62
7
  6
CONTINUOUS
 10
4.9742936155
 20
7.7952882247
 11
4.9859922773
 21
7.7885253557
  0
LINE
  5
261
100
AcDbEntity
  8
ALL_FEATURES
100
AcDbLine
 62
7
  6
CONTINUOUS
 10
4.974295996
 20
7.8315462438
 11
4.9869387572
 21
7.8242374637
  0
LINE
  5
262
100
AcDbEntity
  8
ALL_FEATURES
100
AcDbLine
 62
7
  6
CONTINUOUS
 10
4.9742931745
 20
7.867921171
 11
4.9880776962
 21
7.8599523959
  0
LINE
  5
263
100
AcDbEntity
  8
ALL_FEATURES
100
AcDbLine
 62
7
  6
CONTINUOUS
 10
4.9742936306
 20
7.9040276441
 11
4.9887575964
 21
7.8956660262
  0
LINE
  5
264
100
AcDbEntity
  8
ALL_FEATURES
100
AcDbLine
 62
7
  6
CONTINUOUS
 10
4.9742922101
 20
7.9766554363
 11
4.9908322117
 21
7.9670935975
  0
LINE
  5
265
100
AcDbEntity
  8
ALL_FEATURES
100
AcDbLine
 62
7
  6
CONTINUOUS
 10
4.9742963836
 20
7.9403013097
 11
4.9897319833
 21
7.9313777997
  0
LINE
  5
266
100
AcDbEntity
  8
ALL_FEATURES
100
AcDbLine
 62
7
  6
CONTINUOUS
 10
5.360298913
 20
8.0633799735
 11
5.3649716117
 21
8.0587072748
  0
LINE
  5
267
100
AcDbEntity
  8
ALL_FEATURES
100
AcDbLine
 62
7
  6
CONTINUOUS
 10
5.3690427407
 20
7.7620401542
 11
5.3690868915
 21
7.7620156899
  0
LINE
  5
268
100
AcDbEntity
  8
ALL_FEATURES
100
AcDbLine
 62
7
  6
CONTINUOUS
 10
5.3802979821
 20
7.7555429323
 11
5.3687909355
 21
7.7623210033
  0
LINE
  5
269
100
AcDbEntity
  8
ALL_FEATURES
100
AcDbLine
 62
7
  6
CONTINUOUS
 10
5.3800677619
 20
7.7910158263
 11
5.3679209434
 21
7.798037292
  0
LINE
  5
26A
100
AcDbEntity
  8
ALL_FEATURES
100
AcDbLine
 62
7
  6
CONTINUOUS
 10
5.3800700246
 20
7.8260774657
 11
5.3667923278
 21
7.8337525989
  0
LINE
  5
26B
100
AcDbEntity
  8
ALL_FEATURES
100
AcDbLine
 62
7
  6
CONTINUOUS
 10
5.3800675719
 20
7.8613500231
 11
5.3660200345
 21
7.8694703056
  0
LINE
  5
26C
100
AcDbEntity
  8
ALL_FEATURES
100
AcDbLine
 62
7
  6
CONTINUOUS
 10
5.3800679727
 20
7.8965618377
 11
5.3651481346
 21
7.9051863904
  0
LINE
  5
26D
100
AcDbEntity
  8
ALL_FEATURES
100
AcDbLine
 62
7
  6
CONTINUOUS
 10
5.3800697186
 20
7.9316109087
 11
5.36399663
 21
7.9409020919
  0
LINE
  5
26E
100
AcDbEntity
  8
ALL_FEATURES
100
AcDbLine
 62
7
  6
CONTINUOUS
 10
5.3800674192
 20
7.9668985956
 11
5.3632508671
 21
7.9766197116
  0
LINE
  5
26F
100
AcDbEntity
  8
ALL_FEATURES
100
AcDbLine
 62
7
  6
CONTINUOUS
 10
4.9742936828
 20
8.0127672181
 11
4.9915233632
 21
8.0028065465
  0
LINE
  5
270
100
AcDbEntity
  8
ALL_FEATURES
100
AcDbLine
 62
7
  6
CONTINUOUS
 10
4.9778978696
 20
8.0469767396
 11
4.9925287631
 21
8.0385180551
  0
LINE
  5
271
100
AcDbEntity
  8
ALL_FEATURES
100
AcDbLine
 62
7
  6
CONTINUOUS
 10
5.3602705511
 20
8.0633799735
 11
4.9940772749
 21
8.0633799735
  0
LINE
  5
272
100
AcDbEntity
  8
ALL_FEATURES
100
AcDbLine
 62
7
  6
CONTINUOUS
 10
5.3674464604
 20
7.7556688369
 11
5.2738119548
 21
7.7559235258
  0
LINE
  5
273
100
AcDbEntity
  8
ALL_FEATURES
100
AcDbLine
 62
7
  6
CONTINUOUS
 10
5.3800682152
 20
8.0021063605
 11
5.3623726996
 21
8.0123355934
  0
LINE
  5
274
100
AcDbEntity
  8
ALL_FEATURES
100
AcDbLine
 62
7
  6
CONTINUOUS
 10
5.3800693017
 20
8.0371466939
 11
5.3612046586
 21
8.048051785
  0
ARC
  5
275
100
AcDbEntity
  8
ALL_FEATURES
100
AcDbCircle
 62
7
  6
CONTINUOUS
 10
4.4936917384
 20
33.0054490889
 40
25.0288559967
100
AcDbArc
 50
271.5648143377
 51
271.7975580078
  0
ARC
  5
276
100
AcDbEntity
  8
ALL_FEATURES
100
AcDbCircle
 62
7
  6
CONTINUOUS
 10
4.5239744683
 20
32.0179532728
 40
24.0690250662
100
AcDbArc
 50
271.5551176997
 51
271.7971421709
  0
ARC
  5
277
100
AcDbEntity
  8
ALL_FEATURES
100
AcDbCircle
 62
7
  6
CONTINUOUS
 10
5.1576535448
 20
2.1397417424
 40
0.2283381157
100
AcDbArc
 50
246.9715612936
 51
248.9253859172
  0
ARC
  5
278
100
AcDbEntity
  8
ALL_FEATURES
100
AcDbCircle
 62
7
  6
CONTINUOUS
 10
5.1020095432
 20
2.1390823283
 40
0.1318791751
100
AcDbArc
 50
214.9262653125
 51
220.1375968368
  0
ARC
  5
279
100
AcDbEntity
  8
ALL_FEATURES
100
AcDbCircle
 62
7
  6
CONTINUOUS
 10
5.0943385063
 20
2.1336464829
 40
0.1224776498
100
AcDbArc
 50
209.4306068073
 51
214.8958780955
  0
ARC
  5
27A
100
AcDbEntity
  8
ALL_FEATURES
100
AcDbCircle
 62
7
  6
CONTINUOUS
 10
5.0894909008
 20
2.1235369574
 40
0.1168184268
100
AcDbArc
 50
209.0327427864
 51
210.5652247047
  0
ARC
  5
27B
100
AcDbEntity
  8
ALL_FEATURES
100
AcDbCircle
 62
7
  6
CONTINUOUS
 10
5.0880975147
 20
2.0786721417
 40
0.1152525063
100
AcDbArc
 50
208.6489039003
 51
208.9608330525
  0
ARC
  5
27C
100
AcDbEntity
  8
ALL_FEATURES
100
AcDbCircle
 62
7
  6
CONTINUOUS
 10
5.0864410179
 20
2.1291134932
 40
0.1133719699
100
AcDbArc
 50
203.6315860425
 51
209.3965279459
  0
ARC
  5
27D
100
AcDbEntity
  8
ALL_FEATURES
100
AcDbCircle
 62
7
  6
CONTINUOUS
 10
5.085606343
 20
2.1030352205
 40
0.112417042
100
AcDbArc
 50
202.9100761286
 51
209.0708350643
  0
ARC
  5
27E
100
AcDbEntity
  8
ALL_FEATURES
100
AcDbCircle
 62
7
  6
CONTINUOUS
 10
5.0855608396
 20
2.1542055793
 40
0.1123696699
100
AcDbArc
 50
202.8976093582
 51
209.0604315597
  0
ARC
  5
27F
100
AcDbEntity
  8
ALL_FEATURES
100
AcDbCircle
 62
7
  6
CONTINUOUS
 10
5.0853632359
 20
2.0772103124
 40
0.1121521166
100
AcDbArc
 50
202.9797511287
 51
208.6632400966
  0
ARC
  5
280
100
AcDbEntity
  8
ALL_FEATURES
100
AcDbCircle
 62
7
  6
CONTINUOUS
 10
5.0852855637
 20
2.1462175933
 40
0.1120625289
100
AcDbArc
 50
203.5751811744
 51
209.4117515006
  0
ARC
  5
281
100
AcDbEntity
  8
ALL_FEATURES
100
AcDbCircle
 62
7
  6
CONTINUOUS
 10
5.084707208
 20
2.0961943308
 40
0.1113974312
100
AcDbArc
 50
202.9287096084
 51
208.9792916459
  0
ARC
  5
282
100
AcDbEntity
  8
ALL_FEATURES
100
AcDbCircle
 62
7
  6
CONTINUOUS
 10
5.0846710904
 20
2.1209706471
 40
0.1113588481
100
AcDbArc
 50
202.8577933014
 51
209.0817580215
  0
ARC
  5
283
100
AcDbEntity
  8
ALL_FEATURES
100
AcDbCircle
 62
7
  6
CONTINUOUS
 10
5.0819696188
 20
2.0700303811
 40
0.1084024248
100
AcDbArc
 50
200.4236752068
 51
206.6390128819
  0
ARC
  5
284
100
AcDbEntity
  8
ALL_FEATURES
100
AcDbCircle
 62
7
  6
CONTINUOUS
 10
5.0793414745
 20
2.1515096614
 40
0.1055914572
100
AcDbArc
 50
196.4574778919
 51
202.8630884925
  0
ARC
  5
285
100
AcDbEntity
  8
ALL_FEATURES
100
AcDbCircle
 62
7
  6
CONTINUOUS
 10
5.0772813035
 20
2.048319731
 40
0.1034096152
100
AcDbArc
 50
194.0720047238
 51
200.4385269872
  0
ARC
  5
286
100
AcDbEntity
  8
ALL_FEATURES
100
AcDbCircle
 62
7
  6
CONTINUOUS
 10
5.0741009181
 20
2.14990222
 40
0.1001102271
100
AcDbArc
 50
189.8346673315
 51
196.424903345
  0
ARC
  5
287
100
AcDbEntity
  8
ALL_FEATURES
100
AcDbCircle
 62
7
  6
CONTINUOUS
 10
5.0728114241
 20
2.0471484431
 40
0.0987890969
100
AcDbArc
 50
187.5197512152
 51
194.0433958735
  0
ARC
  5
288
100
AcDbEntity
  8
ALL_FEATURES
100
AcDbCircle
 62
7
  6
CONTINUOUS
 10
5.0708228639
 20
2.0467158466
 40
0.0967743163
100
AcDbArc
 50
173.8347138769
 51
174.4377108151
  0
ARC
  5
289
100
AcDbEntity
  8
ALL_FEATURES
100
AcDbCircle
 62
7
  6
CONTINUOUS
 10
5.0707757749
 20
2.021190099
 40
0.0967252884
100
AcDbArc
 50
180.0194723482
 51
190.1591128016
  0
ARC
  5
28A
100
AcDbEntity
  8
ALL_FEATURES
100
AcDbCircle
 62
7
  6
CONTINUOUS
 10
5.0707587841
 20
2.0723609513
 40
0.0967082962
100
AcDbArc
 50
180.0195776121
 51
190.172634037
  0
ARC
  5
28B
100
AcDbEntity
  8
ALL_FEATURES
100
AcDbCircle
 62
7
  6
CONTINUOUS
 10
5.0707478779
 20
2.141438051
 40
0.0966976393
100
AcDbArc
 50
180.0072671897
 51
191.2607063731
  0
ARC
  5
28C
100
AcDbEntity
  8
ALL_FEATURES
100
AcDbCircle
 62
7
  6
CONTINUOUS
 10
5.0707030085
 20
2.0980788758
 40
0.0966525776
100
AcDbArc
 50
180.0161144228
 51
189.8209958064
  0
ARC
  5
28D
100
AcDbEntity
  8
ALL_FEATURES
100
AcDbCircle
 62
7
  6
CONTINUOUS
 10
5.0706738333
 20
2.1492575442
 40
0.0966234027
100
AcDbArc
 50
180.0159458203
 51
189.8051152107
  0
ARC
  5
28E
100
AcDbEntity
  8
ALL_FEATURES
100
AcDbCircle
 62
7
  6
CONTINUOUS
 10
5.0705873137
 20
2.123673796
 40
0.0965370751
100
AcDbArc
 50
180.0073040384
 51
191.2700842578
  0
ARC
  5
28F
100
AcDbEntity
  8
ALL_FEATURES
100
AcDbCircle
 62
7
  6
CONTINUOUS
 10
5.0704710259
 20
2.0980338716
 40
0.0964210837
100
AcDbArc
 50
174.4662308318
 51
176.5583966673
  0
ARC
  5
290
100
AcDbEntity
  8
ALL_FEATURES
100
AcDbCircle
 62
7
  6
CONTINUOUS
 10
5.0704556068
 20
2.1236322474
 40
0.0964055872
100
AcDbArc
 50
174.9718956068
 51
178.428091067
  0
ARC
  5
291
100
AcDbEntity
  8
ALL_FEATURES
100
AcDbCircle
 62
7
  6
CONTINUOUS
 10
5.0704243763
 20
2.0723133277
 40
0.0963743121
100
AcDbArc
 50
174.2455656248
 51
176.9704456198
  0
ARC
  5
292
100
AcDbEntity
  8
ALL_FEATURES
100
AcDbCircle
 62
7
  6
CONTINUOUS
 10
5.0704175791
 20
2.1492149052
 40
0.0963675617
100
AcDbArc
 50
174.8540857099
 51
176.5429613033
  0
ARC
  5
293
100
AcDbEntity
  8
ALL_FEATURES
100
AcDbCircle
 62
7
  6
CONTINUOUS
 10
5.0702847712
 20
2.046759691
 40
0.096234508
100
AcDbArc
 50
174.4326392622
 51
187.4917040559
  0
ARC
  5
294
100
AcDbEntity
  8
ALL_FEATURES
100
AcDbCircle
 62
7
  6
CONTINUOUS
 10
5.0702575447
 20
2.0211566853
 40
0.0962070526
100
AcDbArc
 50
173.829582557
 51
179.9996778112
  0
ARC
  5
295
100
AcDbEntity
  8
ALL_FEATURES
100
AcDbCircle
 62
7
  6
CONTINUOUS
 10
5.0702231128
 20
2.0980495252
 40
0.096172678
100
AcDbArc
 50
176.5588392224
 51
179.9987089475
  0
ARC
  5
296
100
AcDbEntity
  8
ALL_FEATURES
100
AcDbCircle
 62
7
  6
CONTINUOUS
 10
5.0701997698
 20
2.1492283906
 40
0.0961493356
100
AcDbArc
 50
176.5431561689
 51
179.9986517341
  0
ARC
  5
297
100
AcDbEntity
  8
ALL_FEATURES
100
AcDbCircle
 62
7
  6
CONTINUOUS
 10
5.0701787539
 20
2.0723279459
 40
0.0961282605
100
AcDbArc
 50
176.9714090501
 51
180.0000233498
  0
ARC
  5
298
100
AcDbEntity
  8
ALL_FEATURES
100
AcDbCircle
 62
7
  6
CONTINUOUS
 10
5.070111807
 20
2.1236449262
 40
0.0960615691
100
AcDbArc
 50
178.4300254007
 51
179.9901208364
  0
ARC
  5
299
100
AcDbEntity
  8
ALL_FEATURES
100
AcDbCircle
 62
7
  6
CONTINUOUS
 10
5.1592638202
 20
2.169355694
 40
0.2326799475
100
AcDbArc
 50
246.7572123207
 51
250.5295561761
  0
ARC
  5
29A
100
AcDbEntity
  8
ALL_FEATURES
100
AcDbCircle
 62
7
  6
CONTINUOUS
 10
5.1537166981
 20
2.3009702225
 40
0.2297986407
100
AcDbArc
 50
248.0809255318
 51
251.4304053764
  0
ARC
  5
29B
100
AcDbEntity
  8
ALL_FEATURES
100
AcDbCircle
 62
7
  6
CONTINUOUS
 10
5.1635325368
 20
2.286921376
 40
0.2200389607
100
AcDbArc
 50
244.3786560593
 51
247.8402191913
  0
ARC
  5
29C
100
AcDbEntity
  8
ALL_FEATURES
100
AcDbCircle
 62
7
  6
CONTINUOUS
 10
5.1167970584
 20
2.1950004404
 40
0.1517745645
100
AcDbArc
 50
225.6796468202
 51
226.6659053446
  0
ARC
  5
29D
100
AcDbEntity
  8
ALL_FEATURES
100
AcDbCircle
 62
7
  6
CONTINUOUS
 10
5.1121080878
 20
2.1733737153
 40
0.1452143587
100
AcDbArc
 50
220.5610778053
 51
225.7377610077
  0
ARC
  5
29E
100
AcDbEntity
  8
ALL_FEATURES
100
AcDbCircle
 62
7
  6
CONTINUOUS
 10
5.0856988625
 20
2.179970252
 40
0.1125185422
100
AcDbArc
 50
202.8033027341
 51
209.2990091358
  0
ARC
  5
29F
100
AcDbEntity
  8
ALL_FEATURES
100
AcDbCircle
 62
7
  6
CONTINUOUS
 10
5.0841810825
 20
2.2080385836
 40
0.1116505324
100
AcDbArc
 50
209.3792754116
 51
211.0113811593
  0
ARC
  5
2A0
100
AcDbEntity
  8
ALL_FEATURES
100
AcDbCircle
 62
7
  6
CONTINUOUS
 10
5.0846819539
 20
2.1708007852
 40
0.1113677683
100
AcDbArc
 50
202.8393286186
 51
209.0637975602
  0
ARC
  5
2A1
100
AcDbEntity
  8
ALL_FEATURES
100
AcDbCircle
 62
7
  6
CONTINUOUS
 10
5.0844907025
 20
2.1955212357
 40
0.1111606702
100
AcDbArc
 50
202.7452180163
 51
208.8523507384
  0
ARC
  5
2A2
100
AcDbEntity
  8
ALL_FEATURES
100
AcDbCircle
 62
7
  6
CONTINUOUS
 10
5.0793117704
 20
2.1772035195
 40
0.1055583877
100
AcDbArc
 50
196.454803586
 51
202.7625666243
  0
ARC
  5
2A3
100
AcDbEntity
  8
ALL_FEATURES
100
AcDbCircle
 62
7
  6
CONTINUOUS
 10
5.0741446733
 20
2.1756201404
 40
0.1001544258
100
AcDbArc
 50
189.909619823
 51
196.4233949512
  0
ARC
  5
2A4
100
AcDbEntity
  8
ALL_FEATURES
100
AcDbCircle
 62
7
  6
CONTINUOUS
 10
5.0707223991
 20
2.1749734325
 40
0.0966719275
100
AcDbArc
 50
180.0167729711
 51
189.8811089628
  0
ARC
  5
2A5
100
AcDbEntity
  8
ALL_FEATURES
100
AcDbCircle
 62
7
  6
CONTINUOUS
 10
5.0702220728
 20
2.1749435357
 40
0.0961715971
100
AcDbArc
 50
175.1541455002
 51
179.9990487118
  0
ARC
  5
2A6
100
AcDbEntity
  8
ALL_FEATURES
100
AcDbCircle
 62
7
  6
CONTINUOUS
 10
5.0696115734
 20
2.2005510252
 40
0.0955626658
100
AcDbArc
 50
175.5887793429
 51
179.9061228498
  0
ARC
  5
2A7
100
AcDbEntity
  8
ALL_FEATURES
100
AcDbCircle
 62
7
  6
CONTINUOUS
 10
5.0652730459
 20
2.2006247302
 40
0.0912241557
100
AcDbArc
 50
180.0414163387
 51
192.0402873662
  0
ARC
  5
2A8
100
AcDbEntity
  8
ALL_FEATURES
100
AcDbCircle
 62
7
  6
CONTINUOUS
 10
5.1713511599
 20
2.1461415707
 40
0.2879674529
100
AcDbArc
 50
270.4114164913
 51
273.7728732489
  0
ARC
  5
2A9
100
AcDbEntity
  8
ALL_FEATURES
100
AcDbCircle
 62
7
  6
CONTINUOUS
 10
5.1717091546
 20
2.1394023543
 40
0.2605585376
100
AcDbArc
 50
268.1727659585
 51
271.562245029
  0
ARC
  5
2AA
100
AcDbEntity
  8
ALL_FEATURES
100
AcDbCircle
 62
7
  6
CONTINUOUS
 10
5.2582705184
 20
2.0894914756
 40
0.1227146392
100
AcDbArc
 50
332.0578278689
 51
337.7936894914
  0
ARC
  5
2AB
100
AcDbEntity
  8
ALL_FEATURES
100
AcDbCircle
 62
7
  6
CONTINUOUS
 10
5.2583387597
 20
2.0836417752
 40
0.1226552849
100
AcDbArc
 50
332.7319976087
 51
338.6558711655
  0
ARC
  5
2AC
100
AcDbEntity
  8
ALL_FEATURES
100
AcDbCircle
 62
7
  6
CONTINUOUS
 10
5.258338469
 20
2.1406657881
 40
0.1226450527
100
AcDbArc
 50
332.0647602204
 51
337.8033019344
  0
ARC
  5
2AD
100
AcDbEntity
  8
ALL_FEATURES
100
AcDbCircle
 62
7
  6
CONTINUOUS
 10
5.2587201746
 20
2.1331434872
 40
0.1222395923
100
AcDbArc
 50
333.0243905757
 51
338.9476855035
  0
ARC
  5
2AE
100
AcDbEntity
  8
ALL_FEATURES
100
AcDbCircle
 62
7
  6
CONTINUOUS
 10
5.2592733075
 20
2.0633621583
 40
0.121620623
100
AcDbArc
 50
332.7164319925
 51
338.6933440362
  0
ARC
  5
2AF
100
AcDbEntity
  8
ALL_FEATURES
100
AcDbCircle
 62
7
  6
CONTINUOUS
 10
5.2596611342
 20
2.1145393564
 40
0.1211964632
100
AcDbArc
 50
333.1982012152
 51
338.9905354836
  0
ARC
  5
2B0
100
AcDbEntity
  8
ALL_FEATURES
100
AcDbCircle
 62
7
  6
CONTINUOUS
 10
5.265205558
 20
2.1637010144
 40
0.1152739044
100
AcDbArc
 50
338.9575124331
 51
345.1199122047
  0
ARC
  5
2B1
100
AcDbEntity
  8
ALL_FEATURES
100
AcDbCircle
 62
7
  6
CONTINUOUS
 10
5.2684621167
 20
2.0550777863
 40
0.1119018351
100
AcDbArc
 50
343.6583170119
 51
349.7331070634
  0
ARC
  5
2B2
100
AcDbEntity
  8
ALL_FEATURES
100
AcDbCircle
 62
7
  6
CONTINUOUS
 10
5.2684750206
 20
2.1546846476
 40
0.111888234
100
AcDbArc
 50
343.697179056
 51
349.7760561255
  0
ARC
  5
2B3
100
AcDbEntity
  8
ALL_FEATURES
100
AcDbCircle
 62
7
  6
CONTINUOUS
 10
5.2685104057
 20
2.1048526862
 40
0.1118531481
100
AcDbArc
 50
343.6767218882
 51
349.7548796034
  0
ARC
  5
2B4
100
AcDbEntity
  8
ALL_FEATURES
100
AcDbCircle
 62
7
  6
CONTINUOUS
 10
5.2699398613
 20
2.1624814792
 40
0.1103851975
100
AcDbArc
 50
345.1006469907
 51
351.3952837624
  0
ARC
  5
2B5
100
AcDbEntity
  8
ALL_FEATURES
100
AcDbCircle
 62
7
  6
CONTINUOUS
 10
5.2720872205
 20
2.1539899113
 40
0.1082100858
100
AcDbArc
 50
349.7985877742
 51
359.9793831243
  0
ARC
  5
2B6
100
AcDbEntity
  8
ALL_FEATURES
100
AcDbCircle
 62
7
  6
CONTINUOUS
 10
5.2721010685
 20
2.0083402486
 40
0.1081963953
100
AcDbArc
 50
352.7482142787
 51
359.9809641422
  0
ARC
  5
2B7
100
AcDbEntity
  8
ALL_FEATURES
100
AcDbCircle
 62
7
  6
CONTINUOUS
 10
5.2721260184
 20
2.1041560506
 40
0.1081712883
100
AcDbArc
 50
349.7773677651
 51
359.9792349281
  0
ARC
  5
2B8
100
AcDbEntity
  8
ALL_FEATURES
100
AcDbCircle
 62
7
  6
CONTINUOUS
 10
5.2721933348
 20
2.0852202211
 40
0.1081039655
100
AcDbArc
 50
349.7743147396
 51
359.9932377646
  0
ARC
  5
2B9
100
AcDbEntity
  8
ALL_FEATURES
100
AcDbCircle
 62
7
  6
CONTINUOUS
 10
5.2722233098
 20
2.0339815075
 40
0.1080739911
100
AcDbArc
 50
349.7491144272
 51
359.9931270319
  0
ARC
  5
2BA
100
AcDbEntity
  8
ALL_FEATURES
100
AcDbCircle
 62
7
  6
CONTINUOUS
 10
5.2722386804
 20
2.13640315
 40
0.1080586196
100
AcDbArc
 50
349.7912199386
 51
359.9933447537
  0
ARC
  5
2BB
100
AcDbEntity
  8
ALL_FEATURES
100
AcDbCircle
 62
7
  6
CONTINUOUS
 10
5.2722647008
 20
2.1108362606
 40
0.1080331117
100
AcDbArc
 50
3.9448913433
 51
5.0174954452
  0
ARC
  5
2BC
100
AcDbEntity
  8
ALL_FEATURES
100
AcDbCircle
 62
7
  6
CONTINUOUS
 10
5.2722924519
 20
2.0594831498
 40
0.1080053974
100
AcDbArc
 50
3.6667722002
 51
5.3665526784
  0
ARC
  5
2BD
100
AcDbEntity
  8
ALL_FEATURES
100
AcDbCircle
 62
7
  6
CONTINUOUS
 10
5.2724756219
 20
2.1621026033
 40
0.1078216461
100
AcDbArc
 50
351.3936711022
 51
4.6699697729
  0
ARC
  5
2BE
100
AcDbEntity
  8
ALL_FEATURES
100
AcDbCircle
 62
7
  6
CONTINUOUS
 10
5.2725036674
 20
2.110852394
 40
0.1077936014
100
AcDbArc
 50
351.4024924499
 51
3.945074739
  0
ARC
  5
2BF
100
AcDbEntity
  8
ALL_FEATURES
100
AcDbCircle
 62
7
  6
CONTINUOUS
 10
5.2725335185
 20
2.0339693214
 40
0.1077637816
100
AcDbArc
 50
359.9995863618
 51
5.3042828022
  0
ARC
  5
2C0
100
AcDbEntity
  8
ALL_FEATURES
100
AcDbCircle
 62
7
  6
CONTINUOUS
 10
5.2725487464
 20
2.0594998565
 40
0.1077485592
100
AcDbArc
 50
351.1189932825
 51
3.6666224673
  0
ARC
  5
2C1
100
AcDbEntity
  8
ALL_FEATURES
100
AcDbCircle
 62
7
  6
CONTINUOUS
 10
5.2725977283
 20
2.0852111526
 40
0.1076995713
100
AcDbArc
 50
359.9980367816
 51
4.8618595508
  0
ARC
  5
2C2
100
AcDbEntity
  8
ALL_FEATURES
100
AcDbCircle
 62
7
  6
CONTINUOUS
 10
5.2726362611
 20
2.136394177
 40
0.1076610383
100
AcDbArc
 50
359.9980954928
 51
4.4572605648
  0
ARC
  5
2C3
100
AcDbEntity
  8
ALL_FEATURES
100
AcDbCircle
 62
7
  6
CONTINUOUS
 10
5.2727703891
 20
2.0083212015
 40
0.10752707
100
AcDbArc
 50
359.9909949129
 51
5.8194885983
  0
ARC
  5
2C4
100
AcDbEntity
  8
ALL_FEATURES
100
AcDbCircle
 62
7
  6
CONTINUOUS
 10
5.1714909552
 20
2.1960801041
 40
0.286620031
100
AcDbArc
 50
268.7715161778
 51
271.1361063442
  0
ARC
  5
2C5
100
AcDbEntity
  8
ALL_FEATURES
100
AcDbCircle
 62
7
  6
CONTINUOUS
 10
5.1716116485
 20
2.3221458083
 40
0.2712071223
100
AcDbArc
 50
269.5680759966
 51
272.9957786275
  0
ARC
  5
2C6
100
AcDbEntity
  8
ALL_FEATURES
100
AcDbCircle
 62
7
  6
CONTINUOUS
 10
5.1717118936
 20
2.2953574496
 40
0.2689394918
100
AcDbArc
 50
269.7533655873
 51
273.1914825478
  0
ARC
  5
2C7
100
AcDbEntity
  8
ALL_FEATURES
100
AcDbCircle
 62
7
  6
CONTINUOUS
 10
5.1715310321
 20
2.2693507827
 40
0.2675002094
100
AcDbArc
 50
269.9994787424
 51
273.4385343081
  0
ARC
  5
2C8
100
AcDbEntity
  8
ALL_FEATURES
100
AcDbCircle
 62
7
  6
CONTINUOUS
 10
5.1716061905
 20
2.2444349008
 40
0.2673059241
100
AcDbArc
 50
270.1889026367
 51
273.6169596929
  0
ARC
  5
2C9
100
AcDbEntity
  8
ALL_FEATURES
100
AcDbCircle
 62
7
  6
CONTINUOUS
 10
5.1717198535
 20
2.2174475486
 40
0.2648159254
100
AcDbArc
 50
270.3735589409
 51
273.8143830018
  0
ARC
  5
2CA
100
AcDbEntity
  8
ALL_FEATURES
100
AcDbCircle
 62
7
  6
CONTINUOUS
 10
5.1714913917
 20
2.1918275706
 40
0.2638227078
100
AcDbArc
 50
270.6298277589
 51
274.0671080155
  0
ARC
  5
2CB
100
AcDbEntity
  8
ALL_FEATURES
100
AcDbCircle
 62
7
  6
CONTINUOUS
 10
5.1716299664
 20
2.1656578317
 40
0.2623385069
100
AcDbArc
 50
270.9331568445
 51
274.3234378595
  0
ARC
  5
2CC
100
AcDbEntity
  8
ALL_FEATURES
100
AcDbCircle
 62
7
  6
CONTINUOUS
 10
5.2549084757
 20
2.1937397852
 40
0.1264801459
100
AcDbArc
 50
332.1468652276
 51
332.4184385154
  0
ARC
  5
2CD
100
AcDbEntity
  8
ALL_FEATURES
100
AcDbCircle
 62
7
  6
CONTINUOUS
 10
5.2585229447
 20
2.1919384677
 40
0.1224424465
100
AcDbArc
 50
332.3824371663
 51
337.8761887633
  0
ARC
  5
2CE
100
AcDbEntity
  8
ALL_FEATURES
100
AcDbCircle
 62
7
  6
CONTINUOUS
 10
5.2587380234
 20
2.1829169383
 40
0.1222231903
100
AcDbArc
 50
333.0091419117
 51
338.9335492016
  0
ARC
  5
2CF
100
AcDbEntity
  8
ALL_FEATURES
100
AcDbCircle
 62
7
  6
CONTINUOUS
 10
5.2595377346
 20
2.1658271128
 40
0.1213271736
100
AcDbArc
 50
333.0078462044
 51
338.9814886862
  0
ARC
  5
2D0
100
AcDbEntity
  8
ALL_FEATURES
100
AcDbCircle
 62
7
  6
CONTINUOUS
 10
5.268545908
 20
2.2043277801
 40
0.1118155339
100
AcDbArc
 50
343.7797696706
 51
349.870482347
  0
ARC
  5
2D1
100
AcDbEntity
  8
ALL_FEATURES
100
AcDbCircle
 62
7
  6
CONTINUOUS
 10
5.2721146013
 20
2.2036466072
 40
0.1081826748
100
AcDbArc
 50
349.8932111675
 51
359.9802996509
  0
ARC
  5
2D2
100
AcDbEntity
  8
ALL_FEATURES
100
AcDbCircle
 62
7
  6
CONTINUOUS
 10
5.2722411458
 20
2.1877613402
 40
0.1080561246
100
AcDbArc
 50
349.8873234247
 51
359.9937040102
  0
ARC
  5
2D3
100
AcDbEntity
  8
ALL_FEATURES
100
AcDbCircle
 62
7
  6
CONTINUOUS
 10
5.2726221935
 20
2.1877526132
 40
0.1076750763
100
AcDbArc
 50
359.9983255361
 51
3.9765853925
  0
SPLINE
  5
2D4
100
AcDbEntity
  8
ALL_FEATURES
100
AcDbSpline
 62
7
  6
CONTINUOUS
 70
0
 71
3
 72
12
 73
8
 74
0
 42
0.0000001
 43
0.0000001
 44
0.0000000001
 40
0.0
 40
0.0
 40
0.0
 40
0.0
 40
0.2668098095
 40
0.5209983491
 40
0.7641220397
 40
0.8827356746
 40
1.0
 40
1.0
 40
1.0
 40
1.0
 10
5.0246141047
 20
1.9035504673
 30
0.0
 10
5.0187667853
 20
1.9087505863
 30
0.0
 10
5.0080486561
 20
1.9197394087
 30
0.0
 10
4.9951179687
 20
1.9381669047
 30
0.0
 10
4.987514412
 20
1.9546848469
 30
0.0
 10
4.9835812512
 20
1.9681911833
 30
0.0
 10
4.9823240678
 20
1.9750088734
 30
0.0
 10
4.9818755467
 20
1.9784186792
 30
0.0
  0
SPLINE
  5
2D5
100
AcDbEntity
  8
ALL_FEATURES
100
AcDbSpline
 62
7
  6
CONTINUOUS
 70
0
 71
3
 72
15
 73
11
 74
0
 42
0.0000001
 43
0.0000001
 44
0.0000000001
 40
0.0
 40
0.0
 40
0.0
 40
0.0
 40
0.132030003
 40
0.263477707
 40
0.3934072765
 40
0.5211494851
 40
0.6461394596
 40
0.767898122
 40
0.8860025332
 40
1.0
 40
1.0
 40
1.0
 40
1.0
 10
5.177173913
 20
1.8547489085
 30
0.0
 10
5.1699954014
 20
1.8547489085
 30
0.0
 10
5.1556643481
 20
1.855288775
 30
0.0
 10
5.134390708
 20
1.8576943576
 30
0.0
 10
5.1135918144
 20
1.8616841359
 30
0.0
 10
5.0935085164
 20
1.8672027062
 30
0.0
 10
5.0743605643
 20
1.8741953685
 30
0.0
 10
5.0563545019
 20
1.8825824764
 30
0.0
 10
5.0397054016
 20
1.892277206
 30
0.0
 10
5.0294436303
 20
1.8996656452
 30
0.0
 10
5.0246141047
 20
1.9035504673
 30
0.0
  0
SPLINE
  5
2D6
100
AcDbEntity
  8
ALL_FEATURES
100
AcDbSpline
 62
7
  6
CONTINUOUS
 70
0
 71
3
 72
19
 73
15
 74
0
 42
0.0000001
 43
0.0000001
 44
0.0000000001
 40
0.0
 40
0.0
 40
0.0
 40
0.0
 40
0.1401420142
 40
0.2786891108
 40
0.4135520077
 40
0.4791751914
 40
0.543356243
 40
0.6668338487
 40
0.7261259708
 40
0.7837586018
 40
0.8398088348
 40
0.8944025057
 40
0.9477187077
 40
1.0
 40
1.0
 40
1.0
 40
1.0
 10
5.177173913
 20
1.8796772462
 30
0.0
 10
5.1887984059
 20
1.8799026241
 30
0.0
 10
5.2119132393
 20
1.8817564596
 30
0.0
 10
5.2456029661
 20
1.8886706174
 30
0.0
 10
5.2722937618
 20
1.897832336
 30
0.0
 10
5.2922222453
 20
1.9070930043
 30
0.0
 10
5.3106055817
 20
1.9172976111
 30
0.0
 10
5.3273770176
 20
1.929246871
 30
0.0
 10
5.3420270876
 20
1.9428118101
 30
0.0
 10
5.3516532584
 20
1.9534836441
 30
0.0
 10
5.3599922831
 20
1.9647073987
 30
0.0
 10
5.3669850173
 20
1.9764038243
 30
0.0
 10
5.3725662237
 20
1.9884923805
 30
0.0
 10
5.3753453754
 20
1.996823721
 30
0.0
 10
5.3764788286
 20
2.0010104474
 30
0.0
  0
SPLINE
  5
2D7
100
AcDbEntity
  8
ALL_FEATURES
100
AcDbSpline
 62
7
  6
CONTINUOUS
 70
0
 71
3
 72
9
 73
5
 74
0
 42
0.0000001
 43
0.0000001
 44
0.0000000001
 40
0.0
 40
0.0
 40
0.0
 40
0.0
 40
0.5021496777
 40
1.0
 40
1.0
 40
1.0
 40
1.0
 10
5.3764788286
 20
2.0010104474
 30
0.0
 10
5.3777386263
 20
2.0056638626
 30
0.0
 10
5.3796550492
 20
2.0151029204
 30
0.0
 10
5.38029742
 20
2.0247144403
 30
0.0
 10
5.3802973017
 20
2.0294940936
 30
0.0
  0
SPLINE
  5
2D8
100
AcDbEntity
  8
ALL_FEATURES
100
AcDbSpline
 62
7
  6
CONTINUOUS
 70
0
 71
3
 72
20
 73
16
 74
0
 42
0.0000001
 43
0.0000001
 44
0.0000000001
 40
0.0
 40
0.0
 40
0.0
 40
0.0
 40
0.0717258794
 40
0.1433267226
 40
0.2843322371
 40
0.420533666
 40
0.5501292709
 40
0.6121419773
 40
0.6721987288
 40
0.7303466947
 40
0.7867234026
 40
0.8415410345
 40
0.8951038088
 40
0.9477809193
 40
1.0
 40
1.0
 40
1.0
 40
1.0
 10
5.177173913
 20
1.8547489085
 30
0.0
 10
5.1838123485
 20
1.8548802669
 30
0.0
 10
5.1970737558
 20
1.8556063691
 30
0.0
 10
5.2232084671
 20
1.858859119
 30
0.0
 10
5.2547754431
 20
1.8662166309
 30
0.0
 10
5.2899124576
 20
1.880148671
 30
0.0
 10
5.3160909189
 20
1.8958283484
 30
0.0
 10
5.3342428519
 20
1.9104808762
 30
0.0
 10
5.3461616282
 20
1.9221958447
 30
0.0
 10
5.356455225
 20
1.9346953928
 30
0.0
 10
5.3650330515
 20
1.9478580616
 30
0.0
 10
5.3717975437
 20
1.9615700618
 30
0.0
 10
5.3766834642
 20
1.9756996608
 30
0.0
 10
5.3796399768
 20
1.9901094078
 30
0.0
 10
5.3802972676
 20
1.9998325355
 30
0.0
 10
5.3802973288
 20
2.0046665069
 30
0.0
  0
SPLINE
  5
2D9
100
AcDbEntity
  8
ALL_FEATURES
100
AcDbSpline
 62
7
  6
CONTINUOUS
 70
0
 71
3
 72
15
 73
11
 74
0
 42
0.0000001
 43
0.0000001
 44
0.0000000001
 40
0.0
 40
0.0
 40
0.0
 40
0.0
 40
0.1371333218
 40
0.2731767387
 40
0.406445361
 40
0.5357689351
 40
0.6601773675
 40
0.7790254598
 40
0.8921685934
 40
1.0
 40
1.0
 40
1.0
 40
1.0
 10
5.177173913
 20
1.9044826607
 30
0.0
 10
5.1873309402
 20
1.9046807337
 30
0.0
 10
5.2075595929
 20
1.906152058
 30
0.0
 10
5.2372428607
 20
1.9115270976
 30
0.0
 10
5.2656035727
 20
1.919986865
 30
0.0
 10
5.2919982685
 20
1.9313550395
 30
0.0
 10
5.3158542439
 20
1.9453922688
 30
0.0
 10
5.3366343177
 20
1.9618304536
 30
0.0
 10
5.3538637384
 20
1.9803217885
 30
0.0
 10
5.3629189292
 20
1.9940811061
 30
0.0
 10
5.3666620908
 20
2.0011380759
 30
0.0
  0
SPLINE
  5
2DA
100
AcDbEntity
  8
ALL_FEATURES
100
AcDbSpline
 62
7
  6
CONTINUOUS
 70
0
 71
3
 72
9
 73
5
 74
0
 42
0.0000001
 43
0.0000001
 44
0.0000000001
 40
0.0
 40
0.0
 40
0.0
 40
0.0
 40
0.5046235688
 40
1.0
 40
1.0
 40
1.0
 40
1.0
 10
5.3666620908
 20
2.0011380759
 30
0.0
 10
5.3685766246
 20
2.0047475401
 30
0.0
 10
5.3720265595
 20
2.0120889456
 30
0.0
 10
5.3747154259
 20
2.0197434397
 30
0.0
 10
5.3758432129
 20
2.0235925379
 30
0.0
  0
SPLINE
  5
2DB
100
AcDbEntity
  8
ALL_FEATURES
100
AcDbSpline
 62
7
  6
CONTINUOUS
 70
0
 71
3
 72
15
 73
11
 74
0
 42
0.0000001
 43
0.0000001
 44
0.0000000001
 40
0.0
 40
0.0
 40
0.0
 40
0.0
 40
0.1372971291
 40
0.2734844057
 40
0.4068435558
 40
0.5361907557
 40
0.6605547301
 40
0.7793045166
 40
0.8923105997
 40
1.0
 40
1.0
 40
1.0
 40
1.0
 10
5.177173913
 20
1.9294099644
 30
0.0
 10
5.1874128208
 20
1.9296119646
 30
0.0
 10
5.2078029783
 20
1.9311084462
 30
0.0
 10
5.2377121016
 20
1.9365703088
 30
0.0
 10
5.2662660394
 20
1.9451640262
 30
0.0
 10
5.2928076378
 20
1.9567060407
 30
0.0
 10
5.3167521224
 20
1.9709526275
 30
0.0
 10
5.3375537094
 20
1.9876258591
 30
0.0
 10
5.3547265117
 20
2.0063709106
 30
0.0
 10
5.363685385
 20
2.0203061124
 30
0.0
 10
5.3673637594
 20
2.0274468611
 30
0.0
  0
SPLINE
  5
2DC
100
AcDbEntity
  8
ALL_FEATURES
100
AcDbSpline
 62
7
  6
CONTINUOUS
 70
0
 71
3
 72
10
 73
6
 74
0
 42
0.0000001
 43
0.0000001
 44
0.0000000001
 40
0.0
 40
0.0
 40
0.0
 40
0.0
 40
0.5039890037
 40
0.7525392533
 40
1.0
 40
1.0
 40
1.0
 40
1.0
 10
5.3725812631
 20
2.0389990899
 30
0.0
 10
5.375098656
 20
2.0454548688
 30
0.0
 10
5.3780200656
 20
2.0554604736
 30
0.0
 10
5.3799729176
 20
2.0690838256
 30
0.0
 10
5.3802973877
 20
2.0759087228
 30
0.0
 10
5.3802973055
 20
2.0793110084
 30
0.0
  0
SPLINE
  5
2DD
100
AcDbEntity
  8
ALL_FEATURES
100
AcDbSpline
 62
7
  6
CONTINUOUS
 70
0
 71
3
 72
15
 73
11
 74
0
 42
0.0000001
 43
0.0000001
 44
0.0000000001
 40
0.0
 40
0.0
 40
0.0
 40
0.0
 40
0.1371445101
 40
0.2731970329
 40
0.4064715959
 40
0.5357972442
 40
0.660203768
 40
0.7790460288
 40
0.8921799434
 40
1.0
 40
1.0
 40
1.0
 40
1.0
 10
5.177173913
 20
1.9542987663
 30
0.0
 10
5.1873328396
 20
1.9544956981
 30
0.0
 10
5.2075652544
 20
1.9559651283
 30
0.0
 10
5.2372539912
 20
1.9613384807
 30
0.0
 10
5.265619416
 20
1.9697976756
 30
0.0
 10
5.2920176993
 20
1.9811662486
 30
0.0
 10
5.3158758455
 20
1.9952046828
 30
0.0
 10
5.3366564142
 20
2.0116447182
 30
0.0
 10
5.3538845087
 20
2.0301382768
 30
0.0
 10
5.362937479
 20
2.0438993627
 30
0.0
 10
5.3666791176
 20
2.0509571209
 30
0.0
  0
SPLINE
  5
2DE
100
AcDbEntity
  8
ALL_FEATURES
100
AcDbSpline
 62
7
  6
CONTINUOUS
 70
0
 71
3
 72
9
 73
5
 74
0
 42
0.0000001
 43
0.0000001
 44
0.0000000001
 40
0.0
 40
0.0
 40
0.0
 40
0.0
 40
0.5046233187
 40
1.0
 40
1.0
 40
1.0
 40
1.0
 10
5.3666791176
 20
2.0509571209
 30
0.0
 10
5.368593013
 20
2.0545672534
 30
0.0
 10
5.3720414389
 20
2.0619100285
 30
0.0
 10
5.374728254
 20
2.0695658782
 30
0.0
 10
5.3758548859
 20
2.0734156167
 30
0.0
  0
SPLINE
  5
2DF
100
AcDbEntity
  8
ALL_FEATURES
100
AcDbSpline
 62
7
  6
CONTINUOUS
 70
0
 71
3
 72
15
 73
11
 74
0
 42
0.0000001
 43
0.0000001
 44
0.0000000001
 40
0.0
 40
0.0
 40
0.0
 40
0.0
 40
0.1373771189
 40
0.2736340559
 40
0.4070423955
 40
0.5364086013
 40
0.6607560215
 40
0.7794534898
 40
0.8923864557
 40
1.0
 40
1.0
 40
1.0
 40
1.0
 10
5.177173913
 20
1.9791167411
 30
0.0
 10
5.1874478053
 20
1.9793171564
 30
0.0
 10
5.2079072033
 20
1.9808180747
 30
0.0
 10
5.2379139876
 20
1.9863091411
 30
0.0
 10
5.2665522343
 20
1.9949530985
 30
0.0
 10
5.2931577954
 20
2.0065645258
 30
0.0
 10
5.3171404192
 20
2.0208952854
 30
0.0
 10
5.3379491785
 20
2.0376646436
 30
0.0
 10
5.3550951237
 20
2.056512758
 30
0.0
 10
5.3640104302
 20
2.0705196357
 30
0.0
 10
5.3676600632
 20
2.0776942439
 30
0.0
  0
SPLINE
  5
2E0
100
AcDbEntity
  8
ALL_FEATURES
100
AcDbSpline
 62
7
  6
CONTINUOUS
 70
0
 71
3
 72
10
 73
6
 74
0
 42
0.0000001
 43
0.0000001
 44
0.0000000001
 40
0.0
 40
0.0
 40
0.0
 40
0.0
 40
0.503874926
 40
0.7524659312
 40
1.0
 40
1.0
 40
1.0
 40
1.0
 10
5.3728006195
 20
2.0892325546
 30
0.0
 10
5.3752478615
 20
2.095603949
 30
0.0
 10
5.3780855544
 20
2.105470202
 30
0.0
 10
5.3799823455
 20
2.1188955465
 30
0.0
 10
5.3802973889
 20
2.125620928
 30
0.0
 10
5.3802972686
 20
2.1289738931
 30
0.0
  0
SPLINE
  5
2E1
100
AcDbEntity
  8
ALL_FEATURES
100
AcDbSpline
 62
7
  6
CONTINUOUS
 70
0
 71
3
 72
15
 73
11
 74
0
 42
0.0000001
 43
0.0000001
 44
0.0000000001
 40
0.0
 40
0.0
 40
0.0
 40
0.0
 40
0.1371358551
 40
0.2731834721
 40
0.4064559299
 40
0.535781568
 40
0.6601898625
 40
0.7790353787
 40
0.8921738862
 40
1.0
 40
1.0
 40
1.0
 40
1.0
 10
5.177173913
 20
2.0040650035
 30
0.0
 10
5.1873345545
 20
2.0042649088
 30
0.0
 10
5.2075703442
 20
2.0057404944
 30
0.0
 10
5.237263426
 20
2.0111235605
 30
0.0
 10
5.2656326057
 20
2.0195929578
 30
0.0
 10
5.2920337502
 20
2.0309720973
 30
0.0
 10
5.3158936186
 20
2.0450213252
 30
0.0
 10
5.3366745389
 20
2.0614722308
 30
0.0
 10
5.35390149
 20
2.0799764908
 30
0.0
 10
5.3629524741
 20
2.0937445306
 30
0.0
 10
5.3666928412
 20
2.1008056186
 30
0.0
  0
SPLINE
  5
2E2
100
AcDbEntity
  8
ALL_FEATURES
100
AcDbSpline
 62
7
  6
CONTINUOUS
 70
0
 71
3
 72
9
 73
5
 74
0
 42
0.0000001
 43
0.0000001
 44
0.0000000001
 40
0.0
 40
0.0
 40
0.0
 40
0.0
 40
0.5046209811
 40
1.0
 40
1.0
 40
1.0
 40
1.0
 10
5.3666928412
 20
2.1008056186
 30
0.0
 10
5.368606262
 20
2.1044177861
 30
0.0
 10
5.3720535251
 20
2.1117646089
 30
0.0
 10
5.3747386915
 20
2.1194243963
 30
0.0
 10
5.3758643935
 20
2.1232760578
 30
0.0
  0
SPLINE
  5
2E3
100
AcDbEntity
  8
ALL_FEATURES
100
AcDbSpline
 62
7
  6
CONTINUOUS
 70
0
 71
3
 72
15
 73
11
 74
0
 42
0.0000001
 43
0.0000001
 44
0.0000000001
 40
0.0
 40
0.0
 40
0.0
 40
0.0
 40
0.1373811044
 40
0.2736404925
 40
0.4070499862
 40
0.5364163151
 40
0.6607631348
 40
0.7794594561
 40
0.8923901919
 40
1.0
 40
1.0
 40
1.0
 40
1.0
 10
5.177173913
 20
2.0289202041
 30
0.0
 10
5.187446369
 20
2.0291193526
 30
0.0
 10
5.2079029261
 20
2.0306174317
 30
0.0
 10
5.2379059001
 20
2.0361033908
 30
0.0
 10
5.2665408501
 20
2.0447414518
 30
0.0
 10
5.2931439106
 20
2.0563462638
 30
0.0
 10
5.3171250475
 20
2.0706699048
 30
0.0
 10
5.3379335633
 20
2.0874317527
 30
0.0
 10
5.3550806207
 20
2.1062721975
 30
0.0
 10
5.3639977466
 20
2.120273987
 30
0.0
 10
5.3676485355
 20
2.1274461477
 30
0.0
  0
SPLINE
  5
2E4
100
AcDbEntity
  8
ALL_FEATURES
100
AcDbSpline
 62
7
  6
CONTINUOUS
 70
0
 71
3
 72
10
 73
6
 74
0
 42
0.0000001
 43
0.0000001
 44
0.0000000001
 40
0.0
 40
0.0
 40
0.0
 40
0.0
 40
0.503879539
 40
0.7524687159
 40
1.0
 40
1.0
 40
1.0
 40
1.0
 10
5.3727923252
 20
2.1389837562
 30
0.0
 10
5.3752422127
 20
2.1453573532
 30
0.0
 10
5.3780830782
 20
2.1552274393
 30
0.0
 10
5.3799819895
 20
2.1686584072
 30
0.0
 10
5.3802973871
 20
2.1753866322
 30
0.0
 10
5.3802972679
 20
2.1787410051
 30
0.0
  0
SPLINE
  5
2E5
100
AcDbEntity
  8
ALL_FEATURES
100
AcDbSpline
 62
7
  6
CONTINUOUS
 70
0
 71
3
 72
15
 73
11
 74
0
 42
0.0000001
 43
0.0000001
 44
0.0000000001
 40
0.0
 40
0.0
 40
0.0
 40
0.0
 40
0.1371501228
 40
0.2732040099
 40
0.4064762932
 40
0.5358016721
 40
0.6602069713
 40
0.7790471493
 40
0.8921797735
 40
1.0
 40
1.0
 40
1.0
 40
1.0
 10
5.177173913
 20
2.0537514035
 30
0.0
 10
5.1873393755
 20
2.0539497522
 30
0.0
 10
5.207584363
 20
2.0554233979
 30
0.0
 10
5.237290255
 20
2.0608067924
 30
0.0
 10
5.2656702874
 20
2.0692796476
 30
0.0
 10
5.2920800037
 20
2.0806651954
 30
0.0
 10
5.3159456281
 20
2.0947236283
 30
0.0
 10
5.3367288732
 20
2.1111858769
 30
0.0
 10
5.3539530172
 20
2.1297039529
 30
0.0
 10
5.3629989048
 20
2.1434817369
 30
0.0
 10
5.3667356362
 20
2.1505475753
 30
0.0
  0
SPLINE
  5
2E6
100
AcDbEntity
  8
ALL_FEATURES
100
AcDbSpline
 62
7
  6
CONTINUOUS
 70
0
 71
3
 72
9
 73
5
 74
0
 42
0.0000001
 43
0.0000001
 44
0.0000000001
 40
0.0
 40
0.0
 40
0.0
 40
0.0
 40
0.5046288712
 40
1.0
 40
1.0
 40
1.0
 40
1.0
 10
5.3667356362
 20
2.1505475753
 30
0.0
 10
5.3686523153
 20
2.154171851
 30
0.0
 10
5.3721035414
 20
2.1615436074
 30
0.0
 10
5.3747871719
 20
2.1692296473
 30
0.0
 10
5.3759106378
 20
2.1730943297
 30
0.0
  0
SPLINE
  5
2E7
100
AcDbEntity
  8
ALL_FEATURES
100
AcDbSpline
 62
7
  6
CONTINUOUS
 70
0
 71
3
 72
10
 73
6
 74
0
 42
0.0000001
 43
0.0000001
 44
0.0000000001
 40
0.0
 40
0.0
 40
0.0
 40
0.0
 40
0.2420329959
 40
0.6168516264
 40
1.0
 40
1.0
 40
1.0
 40
1.0
 10
5.0755469463
 20
1.9465763839
 30
0.0
 10
5.0833472457
 20
1.9435674933
 30
0.0
 10
5.1036505206
 20
1.9369661175
 30
0.0
 10
5.1376923804
 20
1.9304354755
 30
0.0
 10
5.1639414535
 20
1.9291489053
 30
0.0
 10
5.177173913
 20
1.9294099644
 30
0.0
  0
SPLINE
  5
2E8
100
AcDbEntity
  8
ALL_FEATURES
100
AcDbSpline
 62
7
  6
CONTINUOUS
 70
0
 71
3
 72
15
 73
11
 74
0
 42
0.0000001
 43
0.0000001
 44
0.0000000001
 40
0.0
 40
0.0
 40
0.0
 40
0.0
 40
0.2223185523
 40
0.2814771236
 40
0.3419536683
 40
0.4666119217
 40
0.595676493
 40
0.7282856882
 40
0.8634959639
 40
1.0
 40
1.0
 40
1.0
 40
1.0
 10
5.0011881025
 20
2.0717721034
 30
0.0
 10
5.0104671981
 20
2.0607560037
 30
0.0
 10
5.024480792
 20
2.0485994629
 30
0.0
 10
5.0431789758
 20
2.0367311506
 30
0.0
 10
5.0570297896
 20
2.0290490648
 30
0.0
 10
5.0756568433
 20
2.0207323428
 30
0.0
 10
5.0994977921
 20
2.0129733101
 30
0.0
 10
5.1246598333
 20
2.0074810173
 30
0.0
 10
5.1507049164
 20
2.0043590403
 30
0.0
 10
5.1683319474
 20
2.0038910424
 30
0.0
 10
5.177173913
 20
2.0040650035
 30
0.0
  0
SPLINE
  5
2E9
100
AcDbEntity
  8
ALL_FEATURES
100
AcDbSpline
 62
7
  6
CONTINUOUS
 70
0
 71
3
 72
11
 73
7
 74
0
 42
0.0000001
 43
0.0000001
 44
0.0000000001
 40
0.0
 40
0.0
 40
0.0
 40
0.0
 40
0.3295536982
 40
0.597328305
 40
0.8140980131
 40
1.0
 40
1.0
 40
1.0
 40
1.0
 10
5.3792891046
 20
7.7762878832
 30
0.0
 10
5.3794417173
 20
7.7763763902
 30
0.0
 10
5.3797113879
 20
7.7765500298
 30
0.0
 10
5.3800390396
 20
7.7768409878
 30
0.0
 10
5.3802473187
 20
7.7771395516
 30
0.0
 10
5.380298898
 20
7.7773564319
 30
0.0
 10
5.3802989121
 20
7.777455951
 30
0.0
  0
LINE
  5
2EA
100
AcDbEntity
  8
ALL_FEATURES
100
AcDbLine
 62
7
  6
CONTINUOUS
 10
4.9742792371
 20
7.8085760701
 11
4.9740505554
 21
7.8083109564
  0
LINE
  5
2EB
100
AcDbEntity
  8
ALL_FEATURES
100
AcDbLine
 62
7
  6
CONTINUOUS
 10
5.3802727127
 20
8.0310781166
 11
5.3800523759
 21
8.0308840168
  0
LINE
  5
2EC
100
AcDbEntity
  8
ALL_FEATURES
100
AcDbLine
 62
7
  6
CONTINUOUS
 10
5.3800525892
 20
7.8133956184
 11
5.3802973499
 21
7.813679131
  0
LINE
  5
2ED
100
AcDbEntity
  8
ALL_FEATURES
100
AcDbLine
 62
7
  6
CONTINUOUS
 10
5.3800502157
 20
7.8497585848
 11
5.3802973909
 21
7.8500448963
  0
LINE
  5
2EE
100
AcDbEntity
  8
ALL_FEATURES
100
AcDbLine
 62
7
  6
CONTINUOUS
 10
4.9742945511
 20
7.7952882288
 11
4.974050558
 21
7.7955710683
  0
LINE
  5
2EF
100
AcDbEntity
  8
ALL_FEATURES
100
AcDbLine
 62
7
  6
CONTINUOUS
 10
4.9742940622
 20
7.8679211748
 11
4.9740505284
 21
7.8682034762
  0
LINE
  5
2F0
100
AcDbEntity
  8
ALL_FEATURES
100
AcDbLine
 62
7
  6
CONTINUOUS
 10
5.3800655691
 20
7.8613500183
 11
5.3802975922
 21
7.861082645
  0
LINE
  5
2F1
100
AcDbEntity
  8
ALL_FEATURES
100
AcDbLine
 62
7
  6
CONTINUOUS
 10
5.3800686771
 20
7.9316109055
 11
5.3802973343
 21
7.9313460234
  0
LINE
  5
2F2
100
AcDbEntity
  8
ALL_FEATURES
100
AcDbLine
 62
7
  6
CONTINUOUS
 10
4.9742815887
 20
7.8789601139
 11
4.9740505546
 21
7.8786922811
  0
LINE
  5
2F3
100
AcDbEntity
  8
ALL_FEATURES
100
AcDbLine
 62
7
  6
CONTINUOUS
 10
4.9742832132
 20
7.9491958484
 11
4.9740505224
 21
7.9489262061
  0
SPLINE
  5
2F4
100
AcDbEntity
  8
ALL_FEATURES
100
AcDbSpline
 62
7
  6
CONTINUOUS
 70
0
 71
3
 72
9
 73
5
 74
0
 42
0.0000001
 43
0.0000001
 44
0.0000000001
 40
0.0
 40
0.0
 40
0.0
 40
0.0
 40
0.4969734091
 40
1.0
 40
1.0
 40
1.0
 40
1.0
 10
4.974048914
 20
2.2160543929
 30
0.0
 10
4.9740489727
 20
2.210963153
 30
0.0
 10
4.9748255073
 20
2.2007047921
 30
0.0
 10
4.9771076188
 20
2.1906758774
 30
0.0
 10
4.978606649
 20
2.1857454707
 30
0.0
  0
SPLINE
  5
2F5
100
AcDbEntity
  8
ALL_FEATURES
100
AcDbSpline
 62
7
  6
CONTINUOUS
 70
0
 71
3
 72
9
 73
5
 74
0
 42
0.0000001
 43
0.0000001
 44
0.0000000001
 40
0.0
 40
0.0
 40
0.0
 40
0.0
 40
0.2469379376
 40
1.0
 40
1.0
 40
1.0
 40
1.0
 10
4.978606649
 20
2.1857454707
 30
0.0
 10
4.9791262769
 20
2.1840363812
 30
0.0
 10
4.9814013821
 20
2.1771679515
 30
0.0
 10
4.9843490922
 20
2.1705255025
 30
0.0
 10
4.9868897473
 20
2.1657066258
 30
0.0
  0
SPLINE
  5
2F6
100
AcDbEntity
  8
ALL_FEATURES
100
AcDbSpline
 62
7
  6
CONTINUOUS
 70
0
 71
3
 72
14
 73
10
 74
0
 42
0.0000001
 43
0.0000001
 44
0.0000000001
 40
0.0
 40
0.0
 40
0.0
 40
0.0
 40
0.1123242296
 40
0.2280035641
 40
0.3473196169
 40
0.4704322638
 40
0.7280144804
 40
0.8624501254
 40
1.0
 40
1.0
 40
1.0
 40
1.0
 10
4.9868897473
 20
2.1657066258
 30
0.0
 10
4.9890425684
 20
2.1616233562
 30
0.0
 10
4.9938910176
 20
2.153578943
 30
0.0
 10
5.002537257
 20
2.1421926155
 30
0.0
 10
5.0125790861
 20
2.1314010022
 30
0.0
 10
5.0279507113
 20
2.1177286694
 30
0.0
 10
5.0456099286
 20
2.105839591
 30
0.0
 10
5.0649606574
 20
2.09585504
 30
0.0
 10
5.0752586459
 20
2.0914757169
 30
0.0
 10
5.0805358713
 20
2.089449928
 30
0.0
  0
SPLINE
  5
2F7
100
AcDbEntity
  8
ALL_FEATURES
100
AcDbSpline
 62
7
  6
CONTINUOUS
 70
0
 71
3
 72
10
 73
6
 74
0
 42
0.0000001
 43
0.0000001
 44
0.0000000001
 40
0.0
 40
0.0
 40
0.0
 40
0.0
 40
0.2469399865
 40
0.4951873495
 40
1.0
 40
1.0
 40
1.0
 40
1.0
 10
4.9740504757
 20
2.1911594246
 30
0.0
 10
4.9740504705
 20
2.1878962502
 30
0.0
 10
4.9743843623
 20
2.1813468093
 30
0.0
 10
4.9763931694
 20
2.1682703833
 30
0.0
 10
4.979397181
 20
2.1586955083
 30
0.0
 10
4.981974637
 20
2.152542742
 30
0.0
  0
SPLINE
  5
2F8
100
AcDbEntity
  8
ALL_FEATURES
100
AcDbSpline
 62
7
  6
CONTINUOUS
 70
0
 71
3
 72
15
 73
11
 74
0
 42
0.0000001
 43
0.0000001
 44
0.0000000001
 40
0.0
 40
0.0
 40
0.0
 40
0.0
 40
0.1052230423
 40
0.2164490902
 40
0.334155037
 40
0.458222189
 40
0.5879861489
 40
0.7224407907
 40
0.8603649368
 40
1.0
 40
1.0
 40
1.0
 40
1.0
 10
4.9871288354
 20
2.1418801932
 30
0.0
 10
4.9908330955
 20
2.1351432687
 30
0.0
 10
4.9998543319
 20
2.1220227719
 30
0.0
 10
5.0170490111
 20
2.1045442734
 30
0.0
 10
5.0378489454
 20
2.0891319267
 30
0.0
 10
5.0617750484
 20
2.0761394761
 30
0.0
 10
5.0882850752
 20
2.0658400341
 30
0.0
 10
5.1167980958
 20
2.0584795588
 30
0.0
 10
5.1466594902
 20
2.0542400553
 30
0.0
 10
5.1669733772
 20
2.0535523706
 30
0.0
 10
5.177173913
 20
2.0537514035
 30
0.0
  0
SPLINE
  5
2F9
100
AcDbEntity
  8
ALL_FEATURES
100
AcDbSpline
 62
7
  6
CONTINUOUS
 70
0
 71
3
 72
10
 73
6
 74
0
 42
0.0000001
 43
0.0000001
 44
0.0000000001
 40
0.0
 40
0.0
 40
0.0
 40
0.0
 40
0.2469055588
 40
0.4951347772
 40
1.0
 40
1.0
 40
1.0
 40
1.0
 10
4.9740504342
 20
2.166365241
 30
0.0
 10
4.9740504127
 20
2.163086996
 30
0.0
 10
4.9743872931
 20
2.1565070343
 30
0.0
 10
4.976414547
 20
2.1433696067
 30
0.0
 10
4.9794456892
 20
2.1337520338
 30
0.0
 10
4.9820457596
 20
2.1275735781
 30
0.0
  0
SPLINE
  5
2FA
100
AcDbEntity
  8
ALL_FEATURES
100
AcDbSpline
 62
7
  6
CONTINUOUS
 70
0
 71
3
 72
9
 73
5
 74
0
 42
0.0000001
 43
0.0000001
 44
0.0000000001
 40
0.0
 40
0.0
 40
0.0
 40
0.0
 40
0.48883088
 40
1.0
 40
1.0
 40
1.0
 40
1.0
 10
4.9873376884
 20
2.1167001956
 30
0.0
 10
4.990371295
 20
2.1112304343
 30
0.0
 10
4.9974926747
 20
2.1005320261
 30
0.0
 10
5.0060774989
 20
2.0909838667
 30
0.0
 10
5.0107568029
 20
2.0864141493
 30
0.0
  0
SPLINE
  5
2FB
100
AcDbEntity
  8
ALL_FEATURES
100
AcDbSpline
 62
7
  6
CONTINUOUS
 70
0
 71
3
 72
14
 73
10
 74
0
 42
0.0000001
 43
0.0000001
 44
0.0000000001
 40
0.0
 40
0.0
 40
0.0
 40
0.0
 40
0.2266989863
 40
0.3473289506
 40
0.4721658744
 40
0.6006193955
 40
0.7320153919
 40
0.8655358574
 40
1.0
 40
1.0
 40
1.0
 40
1.0
 10
5.0126415658
 20
2.0846050067
 30
0.0
 10
5.0224125175
 20
2.0753855636
 30
0.0
 10
5.0392757596
 20
2.0631730134
 30
0.0
 10
5.0642262312
 20
2.0504613339
 30
0.0
 10
5.0848964195
 20
2.0423701874
 30
0.0
 10
5.1068337614
 20
2.0360645009
 30
0.0
 10
5.129747705
 20
2.0316208961
 30
0.0
 10
5.1533091241
 20
2.0291228657
 30
0.0
 10
5.1692072331
 20
2.0287657568
 30
0.0
 10
5.177173913
 20
2.0289202041
 30
0.0
  0
SPLINE
  5
2FC
100
AcDbEntity
  8
ALL_FEATURES
100
AcDbSpline
 62
7
  6
CONTINUOUS
 70
0
 71
3
 72
9
 73
5
 74
0
 42
0.0000001
 43
0.0000001
 44
0.0000000001
 40
0.0
 40
0.0
 40
0.0
 40
0.0
 40
0.4957563039
 40
1.0
 40
1.0
 40
1.0
 40
1.0
 10
4.9759117834
 20
2.1225555558
 30
0.0
 10
4.9766262057
 20
2.118954734
 30
0.0
 10
4.9784734438
 20
2.1117666772
 30
0.0
 10
4.9810839866
 20
2.1048206661
 30
0.0
 10
4.9825762147
 20
2.1013979547
 30
0.0
  0
SPLINE
  5
2FD
100
AcDbEntity
  8
ALL_FEATURES
100
AcDbSpline
 62
7
  6
CONTINUOUS
 70
0
 71
3
 72
9
 73
5
 74
0
 42
0.0000001
 43
0.0000001
 44
0.0000000001
 40
0.0
 40
0.0
 40
0.0
 40
0.0
 40
0.2453760554
 40
1.0
 40
1.0
 40
1.0
 40
1.0
 10
4.987666426
 20
2.0911856541
 30
0.0
 10
4.9886158392
 20
2.0894976506
 30
0.0
 10
4.992654931
 20
2.0827147773
 30
0.0
 10
4.9973521513
 20
2.0763283943
 30
0.0
 10
5.0011881025
 20
2.0717721034
 30
0.0
  0
SPLINE
  5
2FE
100
AcDbEntity
  8
ALL_FEATURES
100
AcDbSpline
 62
7
  6
CONTINUOUS
 70
0
 71
3
 72
10
 73
6
 74
0
 42
0.0000001
 43
0.0000001
 44
0.0000000001
 40
0.0
 40
0.0
 40
0.0
 40
0.0
 40
0.2469016261
 40
0.4951281847
 40
1.0
 40
1.0
 40
1.0
 40
1.0
 10
4.9740504347
 20
2.1165269505
 30
0.0
 10
4.9740504155
 20
2.1132467992
 30
0.0
 10
4.9743877829
 20
2.1066629852
 30
0.0
 10
4.9764179326
 20
2.0935179409
 30
0.0
 10
4.9794534031
 20
2.08389522
 30
0.0
 10
4.982057052
 20
2.0777138308
 30
0.0
  0
SPLINE
  5
2FF
100
AcDbEntity
  8
ALL_FEATURES
100
AcDbSpline
 62
7
  6
CONTINUOUS
 70
0
 71
3
 72
15
 73
11
 74
0
 42
0.0000001
 43
0.0000001
 44
0.0000000001
 40
0.0
 40
0.0
 40
0.0
 40
0.0
 40
0.1057037152
 40
0.2173716443
 40
0.335376207
 40
0.4595403469
 40
0.5891920885
 40
0.7233531411
 40
0.8608547234
 40
1.0
 40
1.0
 40
1.0
 40
1.0
 10
4.9889042977
 20
2.0641325794
 30
0.0
 10
4.9927672251
 20
2.0575905429
 30
0.0
 10
5.0020214927
 20
2.0448801567
 30
0.0
 10
5.0193514771
 20
2.0279885613
 30
0.0
 10
5.040094637
 20
2.0131220579
 30
0.0
 10
5.0637933331
 20
2.0006106995
 30
0.0
 10
5.0899313688
 20
1.9907073506
 30
0.0
 10
5.11795911
 20
1.9836390046
 30
0.0
 10
5.1472587806
 20
1.9795752789
 30
0.0
 10
5.1671748236
 20
1.9789216865
 30
0.0
 10
5.177173913
 20
1.9791167411
 30
0.0
  0
SPLINE
  5
300
100
AcDbEntity
  8
ALL_FEATURES
100
AcDbSpline
 62
7
  6
CONTINUOUS
 70
0
 71
3
 72
10
 73
6
 74
0
 42
0.0000001
 43
0.0000001
 44
0.0000000001
 40
0.0
 40
0.0
 40
0.0
 40
0.0
 40
0.2468929247
 40
0.4951128463
 40
1.0
 40
1.0
 40
1.0
 40
1.0
 10
4.9740504934
 20
2.0917420749
 30
0.0
 10
4.9740505296
 20
2.0884501984
 30
0.0
 10
4.9743903682
 20
2.0818428018
 30
0.0
 10
4.9764340718
 20
2.0686511616
 30
0.0
 10
4.9794903579
 20
2.058996123
 30
0.0
 10
4.9821112534
 20
2.0527955084
 30
0.0
  0
SPLINE
  5
301
100
AcDbEntity
  8
ALL_FEATURES
100
AcDbSpline
 62
7
  6
CONTINUOUS
 70
0
 71
3
 72
15
 73
11
 74
0
 42
0.0000001
 43
0.0000001
 44
0.0000000001
 40
0.0
 40
0.0
 40
0.0
 40
0.0
 40
0.1052594391
 40
0.2165208774
 40
0.3342530994
 40
0.4583300765
 40
0.5880862732
 40
0.7225181144
 40
0.860407371
 40
1.0
 40
1.0
 40
1.0
 40
1.0
 10
4.9872573062
 20
2.0422230022
 30
0.0
 10
4.9909735303
 20
2.0354997946
 30
0.0
 10
5.0000123956
 20
2.0224081159
 30
0.0
 10
5.017217688
 20
2.0049705577
 30
0.0
 10
5.0380137978
 20
1.9895953727
 30
0.0
 10
5.0619235648
 20
1.9766351789
 30
0.0
 10
5.0884064381
 20
1.9663616248
 30
0.0
 10
5.1168837691
 20
1.9590192003
 30
0.0
 10
5.1467036779
 20
1.9547890096
 30
0.0
 10
5.166988247
 20
1.9541013162
 30
0.0
 10
5.177173913
 20
1.9542987663
 30
0.0
  0
SPLINE
  5
302
100
AcDbEntity
  8
ALL_FEATURES
100
AcDbSpline
 62
7
  6
CONTINUOUS
 70
0
 71
3
 72
9
 73
5
 74
0
 42
0.0000001
 43
0.0000001
 44
0.0000000001
 40
0.0
 40
0.0
 40
0.0
 40
0.0
 40
0.4958578786
 40
1.0
 40
1.0
 40
1.0
 40
1.0
 10
4.9740502637
 20
2.0667917966
 30
0.0
 10
4.9740497816
 20
2.0609563268
 30
0.0
 10
4.9751306062
 20
2.049163364
 30
0.0
 10
4.9783126859
 20
2.0377628881
 30
0.0
 10
4.9803816007
 20
2.0322023455
 30
0.0
  0
SPLINE
  5
303
100
AcDbEntity
  8
ALL_FEATURES
100
AcDbSpline
 62
7
  6
CONTINUOUS
 70
0
 71
3
 72
12
 73
8
 74
0
 42
0.0000001
 43
0.0000001
 44
0.0000000001
 40
0.0
 40
0.0
 40
0.0
 40
0.0
 40
0.2262492702
 40
0.4677587925
 40
0.7259837015
 40
0.861258903
 40
1.0
 40
1.0
 40
1.0
 40
1.0
 10
4.9850742036
 20
2.0214262226
 30
0.0
 10
4.9891230216
 20
2.0133385348
 30
0.0
 10
4.9995431541
 20
1.9975920949
 30
0.0
 10
5.0203151255
 20
1.9770873803
 30
0.0
 10
5.0414049238
 20
1.9627194795
 30
0.0
 10
5.0602907752
 20
1.9528897071
 30
0.0
 10
5.070372867
 20
1.9485739991
 30
0.0
 10
5.0755469463
 20
1.9465763839
 30
0.0
  0
SPLINE
  5
304
100
AcDbEntity
  8
ALL_FEATURES
100
AcDbSpline
 62
7
  6
CONTINUOUS
 70
0
 71
3
 72
10
 73
6
 74
0
 42
0.0000001
 43
0.0000001
 44
0.0000000001
 40
0.0
 40
0.0
 40
0.0
 40
0.0
 40
0.2468955082
 40
0.4951164885
 40
1.0
 40
1.0
 40
1.0
 40
1.0
 10
4.9740504921
 20
2.0418955033
 30
0.0
 10
4.9740505263
 20
2.0386050439
 30
0.0
 10
4.9743901315
 20
2.0320005139
 30
0.0
 10
4.9764324822
 20
2.0188146276
 30
0.0
 10
4.9794867472
 20
2.0091637052
 30
0.0
 10
4.9821059534
 20
2.0029656517
 30
0.0
  0
SPLINE
  5
305
100
AcDbEntity
  8
ALL_FEATURES
100
AcDbSpline
 62
7
  6
CONTINUOUS
 70
0
 71
3
 72
17
 73
13
 74
0
 42
0.0000001
 43
0.0000001
 44
0.0000000001
 40
0.0
 40
0.0
 40
0.0
 40
0.0
 40
0.0513225982
 40
0.103974453
 40
0.213816386
 40
0.2713398243
 40
0.330617298
 40
0.454269501
 40
0.5842878565
 40
0.7195839952
 40
0.8588011827
 40
1.0
 40
1.0
 40
1.0
 40
1.0
 10
4.9821059534
 20
2.0029656517
 30
0.0
 10
4.9836423541
 20
1.9993299342
 30
0.0
 10
4.9871603701
 20
1.9921285725
 30
0.0
 10
4.9958800857
 20
1.978161104
 30
0.0
 10
5.0069376982
 20
1.9652005293
 30
0.0
 10
5.0198713284
 20
1.9534961139
 30
0.0
 10
5.0345636771
 20
1.9422348011
 30
0.0
 10
5.0553331153
 20
1.929887256
 30
0.0
 10
5.0829854851
 20
1.9182599662
 30
0.0
 10
5.1130388076
 20
1.9099119991
 30
0.0
 10
5.1447111628
 20
1.9050753695
 30
0.0
 10
5.1663169287
 20
1.9042709379
 30
0.0
 10
5.177173913
 20
1.9044826607
 30
0.0
  0
SPLINE
  5
306
100
AcDbEntity
  8
ALL_FEATURES
100
AcDbSpline
 62
7
  6
CONTINUOUS
 70
0
 71
3
 72
14
 73
10
 74
0
 42
0.0000001
 43
0.0000001
 44
0.0000000001
 40
0.0
 40
0.0
 40
0.0
 40
0.0
 40
0.1146041698
 40
0.230411315
 40
0.3485323411
 40
0.4699256045
 40
0.5953698514
 40
0.7253973002
 40
1.0
 40
1.0
 40
1.0
 40
1.0
 10
4.9740505023
 20
2.0171173413
 30
0.0
 10
4.9740503971
 20
2.012519189
 30
0.0
 10
4.9747155276
 20
2.003260858
 30
0.0
 10
4.9777076064
 20
1.9895558064
 30
0.0
 10
4.9826485603
 20
1.9761364106
 30
0.0
 10
4.9894882879
 20
1.9631442925
 30
0.0
 10
4.9981587892
 20
1.9507105211
 30
0.0
 10
5.0122706784
 20
1.9347525148
 30
0.0
 10
5.0249838861
 20
1.9244221623
 30
0.0
 10
5.0341188693
 20
1.9182626166
 30
0.0
  0
SPLINE
  5
307
100
AcDbEntity
  8
ALL_FEATURES
100
AcDbSpline
 62
7
  6
CONTINUOUS
 70
0
 71
3
 72
12
 73
8
 74
0
 42
0.0000001
 43
0.0000001
 44
0.0000000001
 40
0.0
 40
0.0
 40
0.0
 40
0.0
 40
0.2333059319
 40
0.4801607527
 40
0.7372439642
 40
0.8683299755
 40
1.0
 40
1.0
 40
1.0
 40
1.0
 10
5.0341188693
 20
1.9182626166
 30
0.0
 10
5.0438106328
 20
1.9117276445
 30
0.0
 10
5.0650701284
 20
1.9001621893
 30
0.0
 10
5.1000624731
 20
1.8879272169
 30
0.0
 10
5.131433957
 20
1.8819399696
 30
0.0
 10
5.1574018973
 20
1.8797511225
 30
0.0
 10
5.1705781914
 20
1.8795493671
 30
0.0
 10
5.177173913
 20
1.8796772462
 30
0.0
  0
LINE
  5
308
100
AcDbEntity
  8
ALL_FEATURES
100
AcDbLine
 62
7
  6
CONTINUOUS
 10
4.9742945562
 20
8.0127672219
 11
4.9740505261
 21
8.0130501353
  0
LINE
  5
309
100
AcDbEntity
  8
ALL_FEATURES
100
AcDbLine
 62
7
  6
CONTINUOUS
 10
5.3648989222
 20
8.0585117306
 11
5.3649706695
 21
8.0587072729
  0
LINE
  5
30A
100
AcDbEntity
  8
ALL_FEATURES
100
AcDbLine
 62
7
  6
CONTINUOUS
 10
5.3800534211
 20
7.9946635729
 11
5.3802975615
 21
7.9949467536
  0
LINE
  5
30B
100
AcDbEntity
  8
ALL_FEATURES
100
AcDbLine
 62
7
  6
CONTINUOUS
 10
5.380052419
 20
7.9221391122
 11
5.3802973902
 21
7.9224228769
  0
LINE
  5
30C
100
AcDbEntity
  8
ALL_FEATURES
100
AcDbLine
 62
7
  6
CONTINUOUS
 10
4.9742786813
 20
8.0196423822
 11
4.9740505259
 21
8.0193779627
  0
LINE
  5
30D
100
AcDbEntity
  8
ALL_FEATURES
100
AcDbLine
 62
7
  6
CONTINUOUS
 10
5.3800671746
 20
8.0021063573
 11
5.3802973356
 21
8.001839721
  0
LINE
  5
30E
100
AcDbEntity
  8
ALL_FEATURES
100
AcDbLine
 62
7
  6
CONTINUOUS
 10
4.9742972597
 20
7.9403013136
 11
4.974050528
 21
7.9405873613
  0
LINE
  5
30F
100
AcDbEntity
  8
ALL_FEATURES
100
AcDbLine
 62
7
  6
CONTINUOUS
 10
5.3667918108
 20
7.8420936277
 11
5.3640618576
 21
7.8413791004
  0
SPLINE
  5
310
100
AcDbEntity
  8
ALL_FEATURES
100
AcDbSpline
 62
7
  6
CONTINUOUS
 70
0
 71
3
 72
41
 73
37
 74
0
 42
0.0000001
 43
0.0000001
 44
0.0000000001
 40
0.0
 40
0.0
 40
0.0
 40
0.0
 40
0.0046979385
 40
0.0104372765
 40
0.0250064557
 40
0.0436071502
 40
0.0660700431
 40
0.0922130089
 40
0.1218165197
 40
0.1903422782
 40
0.2693095672
 40
0.3560172285
 40
0.4474924414
 40
0.5406082874
 40
0.6321816564
 40
0.676404388
 40
0.7190789516
 40
0.7598415779
 40
0.7983362988
 40
0.8342431237
 40
0.8672528992
 40
0.8970773447
 40
0.9234752939
 40
0.9462139363
 40
0.96510109
 40
0.9730551114
 40
0.9799929144
 40
0.9858979469
 40
0.9907597341
 40
0.9927988785
 40
0.9945770696
 40
0.9960951212
 40
0.997354829
 40
0.9983599758
 40
0.999118962
 40
1.0
 40
1.0
 40
1.0
 40
1.0
 10
5.3640618576
 20
7.8413791004
 30
0.0
 10
5.3634781958
 20
7.8412802155
 30
0.0
 10
5.362176585
 20
7.8410896563
 30
0.0
 10
5.3590479615
 20
7.84071325
 30
0.0
 10
5.3541650313
 20
7.8402630392
 30
0.0
 10
5.3471736352
 20
7.8397486621
 30
0.0
 10
5.3387206991
 20
7.8392309748
 30
0.0
 10
5.3288793502
 20
7.8387107243
 30
0.0
 10
5.3132370329
 20
7.8379793241
 30
0.0
 10
5.2909389292
 20
7.8370897913
 30
0.0
 10
5.2614456221
 20
7.8360601312
 30
0.0
 10
5.2290590038
 20
7.8350272759
 30
0.0
 10
5.1948887824
 20
7.8339924058
 30
0.0
 10
5.1601051817
 20
7.8329571226
 30
0.0
 10
5.1312735515
 20
7.8320853278
 30
0.0
 10
5.1087958735
 20
7.8313786002
 30
0.0
 10
5.0927181878
 20
7.8308549233
 30
0.0
 10
5.0773626629
 20
7.8303316498
 30
0.0
 10
5.0628604396
 20
7.8298086204
 30
0.0
 10
5.049335791
 20
7.8292862059
 30
0.0
 10
5.036904508
 20
7.8287646063
 30
0.0
 10
5.0256725441
 20
7.8282437274
 30
0.0
 10
5.0157362569
 20
7.8277247069
 30
0.0
 10
5.0071802192
 20
7.827207585
 30
0.0
 10
5.0009486633
 20
7.8267579525
 30
0.0
 10
4.9967081751
 20
7.8263889858
 30
0.0
 10
4.9941004153
 20
7.8261291674
 30
0.0
 10
4.9918844273
 20
7.8258702696
 30
0.0
 10
4.9902863456
 20
7.8256448351
 30
0.0
 10
4.9892082758
 20
7.8254598834
 30
0.0
 10
4.9885487938
 20
7.8253299198
 30
0.0
 10
4.9879888015
 20
7.8251998079
 30
0.0
 10
4.9875313509
 20
7.8250720756
 30
0.0
 10
4.9871675381
 20
7.8249405777
 30
0.0
 10
4.9868795915
 20
7.8248041053
 30
0.0
 10
4.9866850258
 20
7.8246419514
 30
0.0
 10
4.9866849223
 20
7.8245309333
 30
0.0
  0
SPLINE
  5
311
100
AcDbEntity
  8
ALL_FEATURES
100
AcDbSpline
 62
7
  6
CONTINUOUS
 70
0
 71
3
 72
32
 73
28
 74
0
 42
0.0000001
 43
0.0000001
 44
0.0000000001
 40
0.0
 40
0.0
 40
0.0
 40
0.0
 40
0.0007387727
 40
0.0012432147
 40
0.0018671867
 40
0.0035115301
 40
0.0057165341
 40
0.0084985628
 40
0.0118646976
 40
0.0158162473
 40
0.0203524253
 40
0.0311709295
 40
0.0443012112
 40
0.0597198312
 40
0.077400275
 40
0.0972997907
 40
0.1193647612
 40
0.1697739902
 40
0.2281721552
 40
0.2939862022
 40
0.3665983969
 40
0.4453131795
 40
0.5293492818
 40
0.6179117152
 40
0.710167495
 40
0.8052689827
 40
1.0
 40
1.0
 40
1.0
 40
1.0
 10
5.3802973499
 20
7.7907486591
 30
0.0
 10
5.3802973525
 20
7.7906985354
 30
0.0
 10
5.3802513108
 20
7.7906168664
 30
0.0
 10
5.3801553216
 20
7.7905357007
 30
0.0
 10
5.379995136
 20
7.7904350354
 30
0.0
 10
5.3797142637
 20
7.7903173224
 30
0.0
 10
5.3792845176
 20
7.7901832443
 30
0.0
 10
5.37873368
 20
7.7900486723
 30
0.0
 10
5.3780618734
 20
7.7899131497
 30
0.0
 10
5.3772691034
 20
7.7897771785
 30
0.0
 10
5.3759734959
 20
7.7895838744
 30
0.0
 10
5.3740550044
 20
7.7893482488
 30
0.0
 10
5.3713976949
 20
7.7890774668
 30
0.0
 10
5.3682728575
 20
7.7888057009
 30
0.0
 10
5.3646873324
 20
7.7885332375
 30
0.0
 10
5.3606497605
 20
7.7882602723
 30
0.0
 10
5.3543940454
 20
7.7878786188
 30
0.0
 10
5.3455269561
 20
7.7874097724
 30
0.0
 10
5.3336917337
 20
7.7868670742
 30
0.0
 10
5.3203487697
 20
7.7863227897
 30
0.0
 10
5.3056263974
 20
7.7857774571
 30
0.0
 10
5.2896669551
 20
7.7852314723
 30
0.0
 10
5.2726247659
 20
7.7846848314
 30
0.0
 10
5.2546634188
 20
7.784137947
 30
0.0
 10
5.2359509972
 20
7.7835905838
 30
0.0
 10
5.2100377637
 20
7.7828546353
 30
0.0
 10
5.1903808706
 20
7.7823123809
 30
0.0
 10
5.177173913
 20
7.7819479461
 30
0.0
  0
SPLINE
  5
312
100
AcDbEntity
  8
ALL_FEATURES
100
AcDbSpline
 62
7
  6
CONTINUOUS
 70
0
 71
3
 72
17
 73
13
 74
0
 42
0.0000001
 43
0.0000001
 44
0.0000000001
 40
0.0
 40
0.0
 40
0.0
 40
0.0
 40
0.1670108214
 40
0.3298605924
 40
0.4840376567
 40
0.6256583844
 40
0.7510540223
 40
0.8569625506
 40
0.9017293856
 40
0.9406543143
 40
0.9734867558
 40
1.0
 40
1.0
 40
1.0
 40
1.0
 10
5.177173913
 20
7.8046223394
 30
0.0
 10
5.1880455297
 20
7.8049308058
 30
0.0
 10
5.2095178984
 20
7.805540043
 30
0.0
 10
5.2410258056
 20
7.8064573064
 30
0.0
 10
5.2708795774
 20
7.807373392
 30
0.0
 10
5.2982931681
 20
7.8082867342
 30
0.0
 10
5.3225616048
 20
7.8091965139
 30
0.0
 10
5.3405227369
 20
7.8099851885
 30
0.0
 10
5.3528527263
 20
7.8106355439
 30
0.0
 10
5.3604272214
 20
7.8110939591
 30
0.0
 10
5.3668106018
 20
7.8115497912
 30
0.0
 10
5.3706609416
 20
7.8118867863
 30
0.0
 10
5.3723784851
 20
7.8120632193
 30
0.0
  0
SPLINE
  5
313
100
AcDbEntity
  8
ALL_FEATURES
100
AcDbSpline
 62
7
  6
CONTINUOUS
 70
0
 71
3
 72
13
 73
9
 74
0
 42
0.0000001
 43
0.0000001
 44
0.0000000001
 40
0.0
 40
0.0
 40
0.0
 40
0.0
 40
0.3756446615
 40
0.6676170898
 40
0.7820297067
 40
0.8753677171
 40
0.9478237743
 40
1.0
 40
1.0
 40
1.0
 40
1.0
 10
5.3723784851
 20
7.8120632193
 30
0.0
 10
5.3733516773
 20
7.8121631896
 30
0.0
 10
5.3750796949
 20
7.8123562217
 30
0.0
 10
5.3770971765
 20
7.8126411384
 30
0.0
 10
5.3783767618
 20
7.8128793673
 30
0.0
 10
5.3790887051
 20
7.813042044
 30
0.0
 10
5.3796329729
 20
7.8132031925
 30
0.0
 10
5.3799349997
 20
7.8133275184
 30
0.0
 10
5.3800525892
 20
7.8133956184
 30
0.0
  0
SPLINE
  5
314
100
AcDbEntity
  8
ALL_FEATURES
100
AcDbSpline
 62
7
  6
CONTINUOUS
 70
0
 71
3
 72
11
 73
7
 74
0
 42
0.0000001
 43
0.0000001
 44
0.0000000001
 40
0.0
 40
0.0
 40
0.0
 40
0.0
 40
0.2321999569
 40
0.4760813421
 40
0.732153886
 40
1.0
 40
1.0
 40
1.0
 40
1.0
 10
5.0029718174
 20
2.1421171437
 30
0.0
 10
5.0066711512
 20
2.1366308784
 30
0.0
 10
5.0151916209
 20
2.1259921309
 30
0.0
 10
5.0305043163
 20
2.1117291792
 30
0.0
 10
5.0483679538
 20
2.0989989559
 30
0.0
 10
5.0615011548
 20
2.0918200858
 30
0.0
 10
5.0683829216
 20
2.0885185157
 30
0.0
  0
SPLINE
  5
315
100
AcDbEntity
  8
ALL_FEATURES
100
AcDbSpline
 62
7
  6
CONTINUOUS
 70
0
 71
3
 72
16
 73
12
 74
0
 42
0.0000001
 43
0.0000001
 44
0.0000000001
 40
0.0
 40
0.0
 40
0.0
 40
0.0
 40
0.0353067279
 40
0.0597869099
 40
0.0902456383
 40
0.1708758161
 40
0.2792749738
 40
0.4161871531
 40
0.581935906
 40
0.7765625889
 40
1.0
 40
1.0
 40
1.0
 40
1.0
 10
4.9740505261
 20
8.0130501353
 30
0.0
 10
4.9740505823
 20
8.0131057203
 30
0.0
 10
4.9741043043
 20
8.0131961523
 30
0.0
 10
4.9742136624
 20
8.0132847906
 30
0.0
 10
4.9743974321
 20
8.0133958011
 30
0.0
 10
4.974718968
 20
8.0135252156
 30
0.0
 10
4.9752107333
 20
8.0136728171
 30
0.0
 10
4.9758410243
 20
8.0138209341
 30
0.0
 10
4.9766096906
 20
8.0139701411
 30
0.0
 10
4.977516644
 20
8.0141198105
 30
0.0
 10
4.97816817
 20
8.014213428
 30
0.0
 10
4.9785167303
 20
8.014260826
 30
0.0
  0
LINE
  5
316
100
AcDbEntity
  8
ALL_FEATURES
100
AcDbLine
 62
7
  6
CONTINUOUS
 10
4.9785167303
 20
8.014260826
 11
4.9877028576
 21
8.0151751025
  0
SPLINE
  5
317
100
AcDbEntity
  8
ALL_FEATURES
100
AcDbSpline
 62
7
  6
CONTINUOUS
 70
0
 71
3
 72
15
 73
11
 74
0
 42
0.0000001
 43
0.0000001
 44
0.0000000001
 40
0.0
 40
0.0
 40
0.0
 40
0.0
 40
0.0318892449
 40
0.0692196306
 40
0.159349325
 40
0.2683933464
 40
0.3939226745
 40
0.5330711492
 40
0.6827375196
 40
1.0
 40
1.0
 40
1.0
 40
1.0
 10
4.9877028576
 20
8.0151751025
 30
0.0
 10
4.9897121291
 20
8.0153332599
 30
0.0
 10
4.9940762572
 20
8.0156416024
 30
0.0
 10
5.0041292291
 20
8.0162506045
 30
0.0
 10
5.0190591935
 20
8.0169864584
 30
0.0
 10
5.0395639178
 20
8.017832841
 30
0.0
 10
5.0631689313
 20
8.0186829903
 30
0.0
 10
5.0893427141
 20
8.0195365441
 30
0.0
 10
5.1276308119
 20
8.0206992263
 30
0.0
 10
5.1571301423
 20
8.0215354384
 30
0.0
 10
5.177173913
 20
8.0221044615
 30
0.0
  0
SPLINE
  5
318
100
AcDbEntity
  8
ALL_FEATURES
100
AcDbSpline
 62
7
  6
CONTINUOUS
 70
0
 71
3
 72
16
 73
12
 74
0
 42
0.0000001
 43
0.0000001
 44
0.0000000001
 40
0.0
 40
0.0
 40
0.0
 40
0.0
 40
0.0372807803
 40
0.0623801469
 40
0.093251577
 40
0.1742410178
 40
0.2825568462
 40
0.4190559361
 40
0.5840951439
 40
0.7777507867
 40
1.0
 40
1.0
 40
1.0
 40
1.0
 10
4.9740505224
 20
7.9769366173
 30
0.0
 10
4.9740504904
 20
7.9769871454
 30
0.0
 10
4.9740947493
 20
7.9770695189
 30
0.0
 10
4.9741890407
 20
7.9771524484
 30
0.0
 10
4.9743453881
 20
7.977254381
 30
0.0
 10
4.9746200451
 20
7.977373904
 30
0.0
 10
4.9750404321
 20
7.9775098691
 30
0.0
 10
4.9755792263
 20
7.9776463294
 30
0.0
 10
4.9762362778
 20
7.9777837115
 30
0.0
 10
4.9770115982
 20
7.9779215131
 30
0.0
 10
4.9775687017
 20
7.978007697
 30
0.0
 10
4.9778667485
 20
7.9780513245
 30
0.0
  0
LINE
  5
319
100
AcDbEntity
  8
ALL_FEATURES
100
AcDbLine
 62
7
  6
CONTINUOUS
 10
4.9778667485
 20
7.9780513245
 11
4.9869644804
 21
7.9789943756
  0
SPLINE
  5
31A
100
AcDbEntity
  8
ALL_FEATURES
100
AcDbSpline
 62
7
  6
CONTINUOUS
 70
0
 71
3
 72
15
 73
11
 74
0
 42
0.0000001
 43
0.0000001
 44
0.0000000001
 40
0.0
 40
0.0
 40
0.0
 40
0.0
 40
0.0313049258
 40
0.0681479355
 40
0.1575841898
 40
0.2662941699
 40
0.3918044443
 40
0.5312123291
 40
0.6813638182
 40
1.0
 40
1.0
 40
1.0
 40
1.0
 10
4.9869644804
 20
7.9789943756
 30
0.0
 10
4.9889443449
 20
7.9791536868
 30
0.0
 10
4.9932572873
 20
7.9794636638
 30
0.0
 10
5.0032372023
 20
7.9800753996
 30
0.0
 10
5.0181291785
 20
7.9808130097
 30
0.0
 10
5.0386474266
 20
7.9816602027
 30
0.0
 10
5.0623385618
 20
7.9825106701
 30
0.0
 10
5.0886604808
 20
7.9833639519
 30
0.0
 10
5.1272323577
 20
7.9845258603
 30
0.0
 10
5.1569647507
 20
7.9853598069
 30
0.0
 10
5.177173913
 20
7.9859270187
 30
0.0
  0
SPLINE
  5
31B
100
AcDbEntity
  8
ALL_FEATURES
100
AcDbSpline
 62
7
  6
CONTINUOUS
 70
0
 71
3
 72
23
 73
19
 74
0
 42
0.0000001
 43
0.0000001
 44
0.0000000001
 40
0.0
 40
0.0
 40
0.0
 40
0.0
 40
0.2077016951
 40
0.3969565732
 40
0.5643695287
 40
0.639100162
 40
0.7074617627
 40
0.7691968639
 40
0.8240865709
 40
0.8719157222
 40
0.9124745021
 40
0.9456170423
 40
0.9593818712
 40
0.971264536
 40
0.9812597673
 40
0.9893673841
 40
0.9955986026
 40
1.0
 40
1.0
 40
1.0
 40
1.0
 10
5.2788008798
 20
7.988909837
 30
0.0
 10
5.2858247923
 20
7.9891402345
 30
0.0
 10
5.299248316
 20
7.9895955768
 30
0.0
 10
5.318330884
 20
7.9903052961
 30
0.0
 10
5.3329147914
 20
7.9909157394
 30
0.0
 10
5.3434092096
 20
7.9914115382
 30
0.0
 10
5.3503304549
 20
7.9917688333
 30
0.0
 10
5.3565794217
 20
7.9921256954
 30
0.0
 10
5.3621324463
 20
7.9924818397
 30
0.0
 10
5.3669674222
 20
7.9928366802
 30
0.0
 10
5.3710643472
 20
7.9931901937
 30
0.0
 10
5.3740080747
 20
7.9934983342
 30
0.0
 10
5.3759811344
 20
7.9937517475
 30
0.0
 10
5.3771741353
 20
7.9939292902
 30
0.0
 10
5.3781732461
 20
7.9941060141
 30
0.0
 10
5.3789784159
 20
7.9942811782
 30
0.0
 10
5.3795881366
 20
7.9944545241
 30
0.0
 10
5.3799245513
 20
7.9945889353
 30
0.0
 10
5.3800534211
 20
7.9946635729
 30
0.0
  0
SPLINE
  5
31C
100
AcDbEntity
  8
ALL_FEATURES
100
AcDbSpline
 62
7
  6
CONTINUOUS
 70
0
 71
3
 72
18
 73
14
 74
0
 42
0.0000001
 43
0.0000001
 44
0.0000000001
 40
0.0
 40
0.0
 40
0.0
 40
0.0
 40
0.0246151127
 40
0.0461581064
 40
0.0748127579
 40
0.1108240487
 40
0.15431133
 40
0.2053251766
 40
0.2638661237
 40
0.4034521793
 40
0.5728602959
 40
0.7718119765
 40
1.0
 40
1.0
 40
1.0
 40
1.0
 10
4.974050528
 20
7.9405873613
 30
0.0
 10
4.9740506392
 20
7.9407016359
 30
0.0
 10
4.9742580905
 20
7.9408658895
 30
0.0
 10
4.9745590283
 20
7.9410034461
 30
0.0
 10
4.9749432027
 20
7.9411369938
 30
0.0
 10
4.9754262184
 20
7.9412665931
 30
0.0
 10
4.9760184852
 20
7.9413986765
 30
0.0
 10
4.9767164524
 20
7.9415305722
 30
0.0
 10
4.9778579322
 20
7.9417183213
 30
0.0
 10
4.9795490247
 20
7.9419470854
 30
0.0
 10
4.9818925687
 20
7.9422100332
 30
0.0
 10
4.9846495071
 20
7.9424739185
 30
0.0
 10
4.9866256313
 20
7.9426391485
 30
0.0
 10
4.9876816753
 20
7.9427228238
 30
0.0
  0
SPLINE
  5
31D
100
AcDbEntity
  8
ALL_FEATURES
100
AcDbSpline
 62
7
  6
CONTINUOUS
 70
0
 71
3
 72
15
 73
11
 74
0
 42
0.0000001
 43
0.0000001
 44
0.0000000001
 40
0.0
 40
0.0
 40
0.0
 40
0.0
 40
0.0318732689
 40
0.0691901582
 40
0.1593004909
 40
0.2683349667
 40
0.3938638372
 40
0.5330196416
 40
0.682699705
 40
1.0
 40
1.0
 40
1.0
 40
1.0
 10
4.9876816753
 20
7.9427228238
 30
0.0
 10
4.9896901005
 20
7.9428819607
 30
0.0
 10
4.9940527572
 20
7.9431922074
 30
0.0
 10
5.0041036261
 20
7.9438049865
 30
0.0
 10
5.0190324923
 20
7.9445454123
 30
0.0
 10
5.0395376202
 20
7.9453970723
 30
0.0
 10
5.0631451265
 20
7.9462525365
 30
0.0
 10
5.089323198
 20
7.947111422
 30
0.0
 10
5.1276194218
 20
7.948281339
 30
0.0
 10
5.1571254274
 20
7.9491226604
 30
0.0
 10
5.177173913
 20
7.9496951059
 30
0.0
  0
SPLINE
  5
31E
100
AcDbEntity
  8
ALL_FEATURES
100
AcDbSpline
 62
7
  6
CONTINUOUS
 70
0
 71
3
 72
16
 73
12
 74
0
 42
0.0000001
 43
0.0000001
 44
0.0000000001
 40
0.0
 40
0.0
 40
0.0
 40
0.0
 40
0.3520062886
 40
0.5065219254
 40
0.6442369366
 40
0.7636420452
 40
0.8634223543
 40
0.9055780492
 40
0.9424387675
 40
0.9739316829
 40
1.0
 40
1.0
 40
1.0
 40
1.0
 10
5.2738119548
 20
7.7648535258
 30
0.0
 10
5.2858132204
 20
7.7656410186
 30
0.0
 10
5.3030792302
 20
7.7668301179
 30
0.0
 10
5.3250220083
 20
7.7685741318
 30
0.0
 10
5.3390314321
 20
7.7698208262
 30
0.0
 10
5.3511625885
 20
7.7710635238
 30
0.0
 10
5.3600276395
 20
7.7721421244
 30
0.0
 10
5.3660723564
 20
7.7730279871
 30
0.0
 10
5.3697964858
 20
7.7736529504
 30
0.0
 10
5.3729623778
 20
7.774275589
 30
0.0
 10
5.3748767215
 20
7.7747309451
 30
0.0
 10
5.3757357473
 20
7.7749662933
 30
0.0
  0
SPLINE
  5
31F
100
AcDbEntity
  8
ALL_FEATURES
100
AcDbSpline
 62
7
  6
CONTINUOUS
 70
0
 71
3
 72
10
 73
6
 74
0
 42
0.0000001
 43
0.0000001
 44
0.0000000001
 40
0.0
 40
0.0
 40
0.0
 40
0.0
 40
0.5781856041
 40
0.8082091151
 40
1.0
 40
1.0
 40
1.0
 40
1.0
 10
5.3757357473
 20
7.7749662933
 30
0.0
 10
5.3764419326
 20
7.7751597676
 30
0.0
 10
5.3774237789
 20
7.7754558898
 30
0.0
 10
5.3785996292
 20
7.7759278823
 30
0.0
 10
5.3790789989
 20
7.7761660334
 30
0.0
 10
5.3792891046
 20
7.7762878832
 30
0.0
  0
SPLINE
  5
320
100
AcDbEntity
  8
ALL_FEATURES
100
AcDbSpline
 62
7
  6
CONTINUOUS
 70
0
 71
3
 72
32
 73
28
 74
0
 42
0.0000001
 43
0.0000001
 44
0.0000000001
 40
0.0
 40
0.0
 40
0.0
 40
0.0
 40
0.0007563362
 40
0.0012671128
 40
0.0018961748
 40
0.0035482894
 40
0.0057593866
 40
0.0085467254
 40
0.011917004
 40
0.0158716196
 40
0.0204100757
 40
0.0312316951
 40
0.0443645237
 40
0.0597865397
 40
0.0774715595
 40
0.0973749026
 40
0.1194430104
 40
0.1698571449
 40
0.2282591627
 40
0.2940738958
 40
0.366680586
 40
0.4453862589
 40
0.5294110391
 40
0.6179609597
 40
0.7102039222
 40
0.8052927098
 40
1.0
 40
1.0
 40
1.0
 40
1.0
 10
4.9740505546
 20
7.9043105008
 30
0.0
 10
4.9740505071
 20
7.9043618218
 30
0.0
 10
4.9740959064
 20
7.9044455021
 30
0.0
 10
4.974192219
 20
7.9045295064
 30
0.0
 10
4.9743521619
 20
7.9046329698
 30
0.0
 10
4.9746330579
 20
7.9047542193
 30
0.0
 10
4.9750629898
 20
7.9048921939
 30
0.0
 10
4.9756140312
 20
7.9050306702
 30
0.0
 10
4.976285983
 20
7.9051701173
 30
0.0
 10
4.977078817
 20
7.9053100245
 30
0.0
 10
4.9783743117
 20
7.9055088978
 30
0.0
 10
4.9802927284
 20
7.9057513303
 30
0.0
 10
4.9829501487
 20
7.9060299299
 30
0.0
 10
4.9860753637
 20
7.9063095275
 30
0.0
 10
4.9896614877
 20
7.9065898226
 30
0.0
 10
4.9936997533
 20
7.9068706563
 30
0.0
 10
4.9999562883
 20
7.9072632933
 30
0.0
 10
5.0088244485
 20
7.9077456236
 30
0.0
 10
5.020660897
 20
7.9083038712
 30
0.0
 10
5.0340046247
 20
7.9088637046
 30
0.0
 10
5.0487270896
 20
7.909424597
 30
0.0
 10
5.0646859903
 20
7.9099861142
 30
0.0
 10
5.0817273143
 20
7.9105482923
 30
0.0
 10
5.0996876709
 20
7.9111107197
 30
0.0
 10
5.1183991094
 20
7.9116736376
 30
0.0
 10
5.14431125
 20
7.9124305087
 30
0.0
 10
5.1639674027
 20
7.9129881839
 30
0.0
 10
5.177173913
 20
7.9133629887
 30
0.0
  0
SPLINE
  5
321
100
AcDbEntity
  8
ALL_FEATURES
100
AcDbSpline
 62
7
  6
CONTINUOUS
 70
0
 71
3
 72
32
 73
28
 74
0
 42
0.0000001
 43
0.0000001
 44
0.0000000001
 40
0.0
 40
0.0
 40
0.0
 40
0.0
 40
0.0007561453
 40
0.0012670577
 40
0.0018962586
 40
0.0035483272
 40
0.0057585075
 40
0.0085437223
 40
0.0119119505
 40
0.015865481
 40
0.0204035771
 40
0.0312256035
 40
0.0443585762
 40
0.0597783493
 40
0.0774582888
 40
0.0973580142
 40
0.1194237176
 40
0.1698336237
 40
0.2282317073
 40
0.294046714
 40
0.3666557963
 40
0.4453678505
 40
0.5293997577
 40
0.6179546032
 40
0.7101996042
 40
0.8052868279
 40
1.0
 40
1.0
 40
1.0
 40
1.0
 10
4.9740505284
 20
7.8682034762
 30
0.0
 10
4.9740505776
 20
7.8682547837
 30
0.0
 10
4.9740961655
 20
7.8683383494
 30
0.0
 10
4.9741925796
 20
7.868422229
 30
0.0
 10
4.9743526321
 20
7.8685255487
 30
0.0
 10
4.9746335285
 20
7.8686466237
 30
0.0
 10
4.9750633002
 20
7.8687843972
 30
0.0
 10
4.9756140212
 20
7.8689226972
 30
0.0
 10
4.9762856488
 20
7.8690619179
 30
0.0
 10
4.9770782788
 20
7.8692015633
 30
0.0
 10
4.9783737452
 20
7.8694000594
 30
0.0
 10
4.9802922185
 20
7.8696419692
 30
0.0
 10
4.9829495609
 20
7.8699199169
 30
0.0
 10
4.9860743129
 20
7.8701988199
 30
0.0
 10
4.989659707
 20
7.8704784036
 30
0.0
 10
4.9936972289
 20
7.8707584151
 30
0.0
 10
4.9999530721
 20
7.8711498392
 30
0.0
 10
5.0088205027
 20
7.8716305309
 30
0.0
 10
5.0206563793
 20
7.872186702
 30
0.0
 10
5.0339999685
 20
7.8727441903
 30
0.0
 10
5.0487229786
 20
7.8733025307
 30
0.0
 10
5.0646828781
 20
7.8738612213
 30
0.0
 10
5.0817253627
 20
7.8744203159
 30
0.0
 10
5.0996865784
 20
7.874979379
 30
0.0
 10
5.1183982826
 20
7.8755386225
 30
0.0
 10
5.1443107171
 20
7.8762901788
 30
0.0
 10
5.1639670643
 20
7.8768435025
 30
0.0
 10
5.177173913
 20
7.8772151925
 30
0.0
  0
SPLINE
  5
322
100
AcDbEntity
  8
ALL_FEATURES
100
AcDbSpline
 62
7
  6
CONTINUOUS
 70
0
 71
3
 72
12
 73
8
 74
0
 42
0.0000001
 43
0.0000001
 44
0.0000000001
 40
0.0
 40
0.0
 40
0.0
 40
0.0
 40
0.23432775
 40
0.3564357643
 40
0.4813390998
 40
0.7377600285
 40
1.0
 40
1.0
 40
1.0
 40
1.0
 10
5.0455682281
 20
2.085164068
 30
0.0
 10
5.0541216168
 20
2.0796600608
 30
0.0
 10
5.0678768981
 20
2.0723942787
 30
0.0
 10
5.0873268868
 20
2.0647357002
 30
0.0
 10
5.1081947291
 20
2.0581908262
 30
0.0
 10
5.1356578769
 20
2.0526271611
 30
0.0
 10
5.1581846757
 20
2.0510323272
 30
0.0
 10
5.1695671741
 20
2.0509463921
 30
0.0
  0
SPLINE
  5
323
100
AcDbEntity
  8
ALL_FEATURES
100
AcDbSpline
 62
7
  6
CONTINUOUS
 70
0
 71
3
 72
12
 73
8
 74
0
 42
0.0000001
 43
0.0000001
 44
0.0000000001
 40
0.0
 40
0.0
 40
0.0
 40
0.0
 40
0.259306643
 40
0.5145339365
 40
0.6395998074
 40
0.7624301267
 40
1.0
 40
1.0
 40
1.0
 40
1.0
 10
5.1857855783
 20
2.0513093209
 30
0.0
 10
5.1967444543
 20
2.0518828476
 30
0.0
 10
5.2184426481
 20
2.0543476037
 30
0.0
 10
5.2448277139
 20
2.0607234847
 30
0.0
 10
5.2649426663
 20
2.0677535616
 30
0.0
 10
5.2838427363
 20
2.0758327611
 30
0.0
 10
5.29722657
 20
2.0832999776
 30
0.0
 10
5.305587694
 20
2.0888833419
 30
0.0
  0
SPLINE
  5
324
100
AcDbEntity
  8
ALL_FEATURES
100
AcDbSpline
 62
7
  6
CONTINUOUS
 70
0
 71
3
 72
32
 73
28
 74
0
 42
0.0000001
 43
0.0000001
 44
0.0000000001
 40
0.0
 40
0.0
 40
0.0
 40
0.0
 40
0.0007594645
 40
0.0012714029
 40
0.0019014079
 40
0.003554952
 40
0.005767102
 40
0.0085552576
 40
0.0119262022
 40
0.0158813756
 40
0.0204203061
 40
0.0312426778
 40
0.0443760522
 40
0.0597984371
 40
0.0774836874
 40
0.0973871875
 40
0.1194553799
 40
0.1698694459
 40
0.2282711446
 40
0.2940853344
 40
0.36669107
 40
0.4453955366
 40
0.5294189296
 40
0.6179673279
 40
0.7102087009
 40
0.8052958765
 40
1.0
 40
1.0
 40
1.0
 40
1.0
 10
4.9740505555
 20
7.831831848
 30
0.0
 10
4.9740505084
 20
7.8318833824
 30
0.0
 10
4.974095813
 20
7.8319674101
 30
0.0
 10
4.9741921888
 20
7.8320519136
 30
0.0
 10
4.9743520982
 20
7.8321558701
 30
0.0
 10
4.9746329975
 20
7.8322777488
 30
0.0
 10
4.9750629503
 20
7.8324164228
 30
0.0
 10
4.975614006
 20
7.8325556091
 30
0.0
 10
4.9762859665
 20
7.8326957694
 30
0.0
 10
4.9770788083
 20
7.832836397
 30
0.0
 10
4.9783742962
 20
7.8330362973
 30
0.0
 10
4.9802927174
 20
7.8332799976
 30
0.0
 10
4.9829501543
 20
7.8335600716
 30
0.0
 10
4.9860753804
 20
7.8338411658
 30
0.0
 10
4.9896615138
 20
7.8341229772
 30
0.0
 10
4.9936997906
 20
7.8344053448
 30
0.0
 10
4.9999563341
 20
7.8348001465
 30
0.0
 10
5.0088245156
 20
7.8352851762
 30
0.0
 10
5.0206610017
 20
7.8358465979
 30
0.0
 10
5.034004753
 20
7.8364096568
 30
0.0
 10
5.0487272208
 20
7.8369738199
 30
0.0
 10
5.0646861015
 20
7.8375386421
 30
0.0
 10
5.0817273959
 20
7.8381041558
 30
0.0
 10
5.0996877212
 20
7.8386699416
 30
0.0
 10
5.1183991324
 20
7.839236236
 30
0.0
 10
5.1443112548
 20
7.83999766
 30
0.0
 10
5.1639674027
 20
7.8405586951
 30
0.0
 10
5.177173913
 20
7.8409357523
 30
0.0
  0
SPLINE
  5
325
100
AcDbEntity
  8
ALL_FEATURES
100
AcDbSpline
 62
7
  6
CONTINUOUS
 70
0
 71
3
 72
12
 73
8
 74
0
 42
0.0000001
 43
0.0000001
 44
0.0000000001
 40
0.0
 40
0.0
 40
0.0
 40
0.0
 40
0.1314603472
 40
0.2623593339
 40
0.5192459577
 40
0.7662098654
 40
1.0
 40
1.0
 40
1.0
 40
1.0
 10
5.177173913
 20
1.8839351029
 30
0.0
 10
5.1706955676
 20
1.8838050562
 30
0.0
 10
5.1577527214
 20
1.8839864108
 30
0.0
 10
5.1322301882
 20
1.8860728381
 30
0.0
 10
5.1013593697
 20
1.8918226909
 30
0.0
 10
5.0668332665
 20
1.9036099382
 30
0.0
 10
5.0457734878
 20
1.9147648487
 30
0.0
 10
5.0361314934
 20
1.9210753267
 30
0.0
  0
SPLINE
  5
326
100
AcDbEntity
  8
ALL_FEATURES
100
AcDbSpline
 62
7
  6
CONTINUOUS
 70
0
 71
3
 72
14
 73
10
 74
0
 42
0.0000001
 43
0.0000001
 44
0.0000000001
 40
0.0
 40
0.0
 40
0.0
 40
0.0
 40
0.1386163676
 40
0.2729458072
 40
0.5287121775
 40
0.6509282842
 40
0.7698031698
 40
0.8859280705
 40
1.0
 40
1.0
 40
1.0
 40
1.0
 10
5.0361314934
 20
1.9210753267
 30
0.0
 10
5.0320483282
 20
1.9237476705
 30
0.0
 10
5.024209789
 20
1.929330005
 30
0.0
 10
5.0099997282
 20
1.9413721129
 30
0.0
 10
4.9978216461
 20
1.9548561079
 30
0.0
 10
4.988225505
 20
1.9695131023
 30
0.0
 10
4.9825049887
 20
1.9807429512
 30
0.0
 10
4.9781974857
 20
1.9922798553
 30
0.0
 10
4.9762746245
 20
2.0001764571
 30
0.0
 10
4.9755669719
 20
2.0041294646
 30
0.0
  0
SPLINE
  5
327
100
AcDbEntity
  8
ALL_FEATURES
100
AcDbSpline
 62
7
  6
CONTINUOUS
 70
0
 71
3
 72
32
 73
28
 74
0
 42
0.0000001
 43
0.0000001
 44
0.0000000001
 40
0.0
 40
0.0
 40
0.0
 40
0.0
 40
0.0007568316
 40
0.0012679945
 40
0.0018974001
 40
0.0035497978
 40
0.0057602719
 40
0.0085457982
 40
0.0119143369
 40
0.0158680639
 40
0.0204062741
 40
0.0312284342
 40
0.0443616641
 40
0.0597821098
 40
0.0774633568
 40
0.0973647342
 40
0.1194322188
 40
0.1698453999
 40
0.2282462962
 40
0.2940640437
 40
0.3666741165
 40
0.44538702
 40
0.5294179951
 40
0.6179685849
 40
0.7102079337
 40
0.8052903337
 40
1.0
 40
1.0
 40
1.0
 40
1.0
 10
4.974050558
 20
7.7955710683
 30
0.0
 10
4.9740506011
 20
7.7956224229
 30
0.0
 10
4.974096157
 20
7.7957060714
 30
0.0
 10
4.9741925761
 20
7.7957900717
 30
0.0
 10
4.974352612
 20
7.7958935173
 30
0.0
 10
4.9746335044
 20
7.7960147594
 30
0.0
 10
4.9750632846
 20
7.7961527296
 30
0.0
 10
4.9756140239
 20
7.7962912387
 30
0.0
 10
4.9762856697
 20
7.7964306797
 30
0.0
 10
4.9770783091
 20
7.7965705628
 30
0.0
 10
4.9783737653
 20
7.796769413
 30
0.0
 10
4.9802922338
 20
7.7970117953
 30
0.0
 10
4.9829496139
 20
7.7972903382
 30
0.0
 10
4.9860744922
 20
7.7975698941
 30
0.0
 10
4.9896601149
 20
7.797850186
 30
0.0
 10
4.9936979469
 20
7.7981309682
 30
0.0
 10
4.9999542375
 20
7.7985235491
 30
0.0
 10
5.0088222072
 20
7.7990058251
 30
0.0
 10
5.0206587072
 20
7.7995640504
 30
0.0
 10
5.0340027812
 20
7.8001238112
 30
0.0
 10
5.0487261556
 20
7.800684685
 30
0.0
 10
5.0646861817
 20
7.8012461408
 30
0.0
 10
5.0817284454
 20
7.8018082556
 30
0.0
 10
5.0996890052
 20
7.8023705972
 30
0.0
 10
5.1183997931
 20
7.8029333781
 30
0.0
 10
5.1443113918
 20
7.8036900786
 30
0.0
 10
5.1639672538
 20
7.8042476197
 30
0.0
 10
5.177173913
 20
7.8046223394
 30
0.0
  0
SPLINE
  5
328
100
AcDbEntity
  8
ALL_FEATURES
100
AcDbSpline
 62
7
  6
CONTINUOUS
 70
0
 71
3
 72
11
 73
7
 74
0
 42
0.0000001
 43
0.0000001
 44
0.0000000001
 40
0.0
 40
0.0
 40
0.0
 40
0.0
 40
0.2341078501
 40
0.4774573276
 40
0.7323110922
 40
1.0
 40
1.0
 40
1.0
 40
1.0
 10
4.9964783494
 20
1.9781680058
 30
0.0
 10
4.9980634729
 20
1.9727527388
 30
0.0
 10
5.0023219697
 20
1.9619854419
 30
0.0
 10
5.0115528918
 20
1.9468540245
 30
0.0
 10
5.0235320758
 20
1.932721666
 30
0.0
 10
5.0329898636
 20
1.9243373815
 30
0.0
 10
5.0380752854
 20
1.9203668547
 30
0.0
  0
SPLINE
  5
329
100
AcDbEntity
  8
ALL_FEATURES
100
AcDbSpline
 62
7
  6
CONTINUOUS
 70
0
 71
3
 72
9
 73
5
 74
0
 42
0.0000001
 43
0.0000001
 44
0.0000000001
 40
0.0
 40
0.0
 40
0.0
 40
0.0
 40
0.2466281365
 40
1.0
 40
1.0
 40
1.0
 40
1.0
 10
5.1130199132
 20
1.8856646877
 30
0.0
 10
5.1170867916
 20
1.8846892711
 30
0.0
 10
5.1336791219
 20
1.8811705408
 30
0.0
 10
5.1506321582
 20
1.8793837178
 30
0.0
 10
5.1634010256
 20
1.8789763063
 30
0.0
  0
SPLINE
  5
32A
100
AcDbEntity
  8
ALL_FEATURES
100
AcDbSpline
 62
7
  6
CONTINUOUS
 70
0
 71
3
 72
9
 73
5
 74
0
 42
0.0000001
 43
0.0000001
 44
0.0000000001
 40
0.0
 40
0.0
 40
0.0
 40
0.0
 40
0.2520291233
 40
1.0
 40
1.0
 40
1.0
 40
1.0
 10
5.1788127467
 20
1.8789406672
 30
0.0
 10
5.1839576965
 20
1.8790810803
 30
0.0
 10
5.2043494967
 20
1.8802431602
 30
0.0
 10
5.2246149966
 20
1.883804109
 30
0.0
 10
5.2393425614
 20
1.8878562299
 30
0.0
  0
SPLINE
  5
32B
100
AcDbEntity
  8
ALL_FEATURES
100
AcDbSpline
 62
7
  6
CONTINUOUS
 70
0
 71
3
 72
11
 73
7
 74
0
 42
0.0000001
 43
0.0000001
 44
0.0000000001
 40
0.0
 40
0.0
 40
0.0
 40
0.0
 40
0.2395434275
 40
0.4875827727
 40
0.7419185194
 40
1.0
 40
1.0
 40
1.0
 40
1.0
 10
5.0697343822
 20
1.9985965194
 30
0.0
 10
5.0773888609
 20
1.9950314875
 30
0.0
 10
5.0934379981
 20
1.9887485505
 30
0.0
 10
5.118764299
 20
1.9820263802
 30
0.0
 10
5.1453103833
 20
1.9779669328
 30
0.0
 10
5.1633901058
 20
1.9771004598
 30
0.0
 10
5.1724874893
 20
1.9771304295
 30
0.0
  0
SPLINE
  5
32C
100
AcDbEntity
  8
ALL_FEATURES
100
AcDbSpline
 62
7
  6
CONTINUOUS
 70
0
 71
3
 72
10
 73
6
 74
0
 42
0.0000001
 43
0.0000001
 44
0.0000000001
 40
0.0
 40
0.0
 40
0.0
 40
0.0
 40
0.2559831068
 40
0.5093683369
 40
1.0
 40
1.0
 40
1.0
 40
1.0
 10
5.1884694347
 20
1.9776614238
 30
0.0
 10
5.196614375
 20
1.9781763683
 30
0.0
 10
5.2127883231
 20
1.9799483735
 30
0.0
 10
5.2440422116
 20
1.9863634823
 30
0.0
 10
5.2665683668
 20
1.99445634
 30
0.0
 10
5.2806221053
 20
2.0013244906
 30
0.0
  0
SPLINE
  5
32D
100
AcDbEntity
  8
ALL_FEATURES
100
AcDbSpline
 62
7
  6
CONTINUOUS
 70
0
 71
3
 72
15
 73
11
 74
0
 42
0.0000001
 43
0.0000001
 44
0.0000000001
 40
0.0
 40
0.0
 40
0.0
 40
0.0
 40
0.1398575736
 40
0.2757011045
 40
0.4070907065
 40
0.5339418587
 40
0.6563479019
 40
0.7745463653
 40
0.8889159881
 40
1.0
 40
1.0
 40
1.0
 40
1.0
 10
5.0683304204
 20
1.9295997082
 30
0.0
 10
5.0630134757
 20
1.9318604328
 30
0.0
 10
5.0526984846
 20
1.9367226926
 30
0.0
 10
5.0381066222
 20
1.9451218485
 30
0.0
 10
5.0247460131
 20
1.9544632227
 30
0.0
 10
5.0127364664
 20
1.9646518507
 30
0.0
 10
5.0021832684
 20
1.975601097
 30
0.0
 10
4.993181302
 20
1.9872157924
 30
0.0
 10
4.9858074382
 20
1.9993838984
 30
0.0
 10
4.9819830316
 20
2.0079084102
 30
0.0
 10
4.9803815935
 20
2.012208864
 30
0.0
  0
SPLINE
  5
32E
100
AcDbEntity
  8
ALL_FEATURES
100
AcDbSpline
 62
7
  6
CONTINUOUS
 70
0
 71
3
 72
10
 73
6
 74
0
 42
0.0000001
 43
0.0000001
 44
0.0000000001
 40
0.0
 40
0.0
 40
0.0
 40
0.0
 40
0.2562296726
 40
0.6341644114
 40
1.0
 40
1.0
 40
1.0
 40
1.0
 10
5.1653459809
 20
1.9095259531
 30
0.0
 10
5.1575054175
 20
1.9096940058
 30
0.0
 10
5.1381096011
 20
1.9109037151
 30
0.0
 10
5.1078446859
 20
1.9159747783
 30
0.0
 10
5.0859937189
 20
1.9226467484
 30
0.0
 10
5.0755469463
 20
1.9266764905
 30
0.0
  0
SPLINE
  5
32F
100
AcDbEntity
  8
ALL_FEATURES
100
AcDbSpline
 62
7
  6
CONTINUOUS
 70
0
 71
3
 72
21
 73
17
 74
0
 42
0.0000001
 43
0.0000001
 44
0.0000000001
 40
0.0
 40
0.0
 40
0.0
 40
0.0
 40
0.0514698048
 40
0.1034287154
 40
0.156331155
 40
0.2105801208
 40
0.2664882063
 40
0.3242912069
 40
0.3841303366
 40
0.4460535984
 40
0.510041667
 40
0.5759802656
 40
0.7128757258
 40
0.8550783082
 40
0.9274357049
 40
1.0
 40
1.0
 40
1.0
 40
1.0
 10
5.380298913
 20
2.7461081493
 30
0.0
 10
5.380298913
 20
2.7414041019
 30
0.0
 10
5.3796350685
 20
2.7319386221
 30
0.0
 10
5.3766811284
 20
2.7179167797
 30
0.0
 10
5.3717932189
 20
2.7041756961
 30
0.0
 10
5.365019646
 20
2.6908581291
 30
0.0
 10
5.3564451343
 20
2.6780831618
 30
0.0
 10
5.3461439962
 20
2.6659797583
 30
0.0
 10
5.3342245232
 20
2.6546576479
 30
0.0
 10
5.320804777
 20
2.6442178585
 30
0.0
 10
5.3060058832
 20
2.6347691658
 30
0.0
 10
5.2843741831
 20
2.623455893
 30
0.0
 10
5.2547071055
 20
2.6123605875
 30
0.0
 10
5.2231716108
 20
2.6056688885
 30
0.0
 10
5.1970560363
 20
2.6029405346
 30
0.0
 10
5.1838058769
 20
2.6024770844
 30
0.0
 10
5.177173913
 20
2.6024770844
 30
0.0
  0
SPLINE
  5
330
100
AcDbEntity
  8
ALL_FEATURES
100
AcDbSpline
 62
7
  6
CONTINUOUS
 70
0
 71
3
 72
26
 73
22
 74
0
 42
0.0000001
 43
0.0000001
 44
0.0000000001
 40
0.0
 40
0.0
 40
0.0
 40
0.0
 40
0.1892450884
 40
0.3717611957
 40
0.4583309712
 40
0.5407536051
 40
0.6182992772
 40
0.6902508224
 40
0.7559519768
 40
0.8148269394
 40
0.8663239363
 40
0.910000999
 40
0.9287825357
 40
0.9454607923
 40
0.9600003944
 40
0.9723786779
 40
0.9825752426
 40
0.9905735702
 40
0.9963672868
 40
0.9984469698
 40
1.0
 40
1.0
 40
1.0
 40
1.0
 10
5.177173913
 20
8.0281259802
 30
0.0
 10
5.1643619968
 20
8.0277746897
 30
0.0
 10
5.1391937162
 20
8.0270846643
 30
0.0
 10
5.1081654845
 20
8.0262034704
 30
0.0
 10
5.0843701202
 20
8.0254878987
 30
0.0
 10
5.0676814989
 20
8.0249608966
 30
0.0
 10
5.0519834093
 20
8.0244343824
 30
0.0
 10
5.037418449
 20
8.02390842
 30
0.0
 10
5.0241188419
 20
8.0233830882
 30
0.0
 10
5.0122056419
 20
8.0228592499
 30
0.0
 10
5.0017856108
 20
8.0223366444
 30
0.0
 10
4.9940810114
 20
8.0218839788
 30
0.0
 10
4.9887341428
 20
8.0215141573
 30
0.0
 10
4.9853580768
 20
8.0212513412
 30
0.0
 10
4.982417045
 20
8.0209892539
 30
0.0
 10
4.9799170161
 20
8.0207280783
 30
0.0
 10
4.9778621831
 20
8.0204693264
 30
0.0
 10
4.9762581621
 20
8.0202123879
 30
0.0
 10
4.9752049729
 20
8.0199874297
 30
0.0
 10
4.9745964848
 20
8.0197935936
 30
0.0
 10
4.9743696966
 20
8.0196950986
 30
0.0
 10
4.9742786813
 20
8.0196423822
 30
0.0
  0
SPLINE
  5
331
100
AcDbEntity
  8
ALL_FEATURES
100
AcDbSpline
 62
7
  6
CONTINUOUS
 70
0
 71
3
 72
11
 73
7
 74
0
 42
0.0000001
 43
0.0000001
 44
0.0000000001
 40
0.0
 40
0.0
 40
0.0
 40
0.0
 40
0.255108358
 40
0.5082685712
 40
0.757113452
 40
1.0
 40
1.0
 40
1.0
 40
1.0
 10
5.177173913
 20
1.9351362493
 30
0.0
 10
5.1689186931
 20
1.934969576
 30
0.0
 10
5.1524483737
 20
1.9353509597
 30
0.0
 10
5.1280597055
 20
1.9380294682
 30
0.0
 10
5.1043934114
 20
1.9427923347
 30
0.0
 10
5.0891181901
 20
1.947360443
 30
0.0
 10
5.081706812
 20
1.9499818842
 30
0.0
  0
SPLINE
  5
332
100
AcDbEntity
  8
ALL_FEATURES
100
AcDbSpline
 62
7
  6
CONTINUOUS
 70
0
 71
3
 72
11
 73
7
 74
0
 42
0.0000001
 43
0.0000001
 44
0.0000000001
 40
0.0
 40
0.0
 40
0.0
 40
0.0
 40
0.2716903777
 40
0.5289952133
 40
0.7714297398
 40
1.0
 40
1.0
 40
1.0
 40
1.0
 10
5.0674417521
 20
1.9555598433
 30
0.0
 10
5.0585850014
 20
1.9593687142
 30
0.0
 10
5.0417873255
 20
1.9679015687
 30
0.0
 10
5.0193471295
 20
1.9837631039
 30
0.0
 10
5.000837757
 20
2.0019711761
 30
0.0
 10
4.9911846099
 20
2.0157688926
 30
0.0
 10
4.9872572288
 20
2.0228655385
 30
0.0
  0
SPLINE
  5
333
100
AcDbEntity
  8
ALL_FEATURES
100
AcDbSpline
 62
7
  6
CONTINUOUS
 70
0
 71
3
 72
9
 73
5
 74
0
 42
0.0000001
 43
0.0000001
 44
0.0000000001
 40
0.0
 40
0.0
 40
0.0
 40
0.0
 40
0.5041135998
 40
1.0
 40
1.0
 40
1.0
 40
1.0
 10
4.9821111878
 20
2.0334254768
 30
0.0
 10
4.9806148934
 20
2.036961334
 30
0.0
 10
4.9780177546
 20
2.0441390681
 30
0.0
 10
4.9762371322
 20
2.0515633419
 30
0.0
 10
4.9755707349
 20
2.0552808502
 30
0.0
  0
SPLINE
  5
334
100
AcDbEntity
  8
ALL_FEATURES
100
AcDbSpline
 62
7
  6
CONTINUOUS
 70
0
 71
3
 72
15
 73
11
 74
0
 42
0.0000001
 43
0.0000001
 44
0.0000000001
 40
0.0
 40
0.0
 40
0.0
 40
0.0
 40
0.1396065887
 40
0.2774911831
 40
0.4119096008
 40
0.541657313
 40
0.665730202
 40
0.7834692256
 40
0.8947395773
 40
1.0
 40
1.0
 40
1.0
 40
1.0
 10
5.177173913
 20
1.9608269358
 30
0.0
 10
5.1669997212
 20
1.9606227611
 30
0.0
 10
5.1467386739
 20
1.9612944669
 30
0.0
 10
5.1169516894
 20
1.9654935096
 30
0.0
 10
5.088503555
 20
1.9727976249
 30
0.0
 10
5.0620424191
 20
1.9830262096
 30
0.0
 10
5.0381449248
 20
1.9959382675
 30
0.0
 10
5.0173486073
 20
2.0112613881
 30
0.0
 10
5.0001330532
 20
2.028648327
 30
0.0
 10
4.9910777288
 20
2.0417056735
 30
0.0
 10
4.9873516375
 20
2.0484128426
 30
0.0
  0
SPLINE
  5
335
100
AcDbEntity
  8
ALL_FEATURES
100
AcDbSpline
 62
7
  6
CONTINUOUS
 70
0
 71
3
 72
9
 73
5
 74
0
 42
0.0000001
 43
0.0000001
 44
0.0000000001
 40
0.0
 40
0.0
 40
0.0
 40
0.0
 40
0.5041603718
 40
1.0
 40
1.0
 40
1.0
 40
1.0
 10
4.9820570992
 20
2.0592728461
 30
0.0
 10
4.9805352824
 20
2.0628825547
 30
0.0
 10
4.977903376
 20
2.0702125374
 30
0.0
 10
4.9761234212
 20
2.077796416
 30
0.0
 10
4.97546683
 20
2.0815927889
 30
0.0
  0
SPLINE
  5
336
100
AcDbEntity
  8
ALL_FEATURES
100
AcDbSpline
 62
7
  6
CONTINUOUS
 70
0
 71
3
 72
9
 73
5
 74
0
 42
0.0000001
 43
0.0000001
 44
0.0000000001
 40
0.0
 40
0.0
 40
0.0
 40
0.0
 40
0.496453485
 40
1.0
 40
1.0
 40
1.0
 40
1.0
 10
5.378618549
 20
2.1687883552
 30
0.0
 10
5.3779243225
 20
2.1648872091
 30
0.0
 10
5.3760970514
 20
2.1571000384
 30
0.0
 10
5.3734630616
 20
2.1495489539
 30
0.0
 10
5.371950223
 20
2.1458255059
 30
0.0
  0
SPLINE
  5
337
100
AcDbEntity
  8
ALL_FEATURES
100
AcDbSpline
 62
7
  6
CONTINUOUS
 70
0
 71
3
 72
15
 73
11
 74
0
 42
0.0000001
 43
0.0000001
 44
0.0000000001
 40
0.0
 40
0.0
 40
0.0
 40
0.0
 40
0.1078531299
 40
0.2210096384
 40
0.3398639629
 40
0.4642735358
 40
0.5935935491
 40
0.7268512066
 40
0.8628816398
 40
1.0
 40
1.0
 40
1.0
 40
1.0
 10
5.3667356537
 20
2.1346474035
 30
0.0
 10
5.3629990879
 20
2.12757626
 30
0.0
 10
5.3539537628
 20
2.113787798
 30
0.0
 10
5.3367297718
 20
2.0952530701
 30
0.0
 10
5.3159465932
 20
2.0787741337
 30
0.0
 10
5.2920809695
 20
2.0646990009
 30
0.0
 10
5.2656712296
 20
2.0532967507
 30
0.0
 10
5.237291168
 20
2.0448071741
 30
0.0
 10
5.2075852538
 20
2.0394070287
 30
0.0
 10
5.1873396733
 20
2.0379221432
 30
0.0
 10
5.177173913
 20
2.0377181862
 30
0.0
  0
SPLINE
  5
338
100
AcDbEntity
  8
ALL_FEATURES
100
AcDbSpline
 62
7
  6
CONTINUOUS
 70
0
 71
3
 72
26
 73
22
 74
0
 42
0.0000001
 43
0.0000001
 44
0.0000000001
 40
0.0
 40
0.0
 40
0.0
 40
0.0
 40
0.1892131741
 40
0.3717009475
 40
0.4582647336
 40
0.5406853065
 40
0.6182309247
 40
0.6901815197
 40
0.7558797779
 40
0.8147517347
 40
0.8662488139
 40
0.9099299738
 40
0.9287141687
 40
0.9453960477
 40
0.9599430421
 40
0.9723313223
 40
0.9825389701
 40
0.9905479914
 40
0.9963521186
 40
0.9984388252
 40
1.0
 40
1.0
 40
1.0
 40
1.0
 10
5.177173913
 20
7.9930458266
 30
0.0
 10
5.1643642233
 20
7.9926925522
 30
0.0
 10
5.1392001534
 20
7.9919985468
 30
0.0
 10
5.1081765823
 20
7.9911121046
 30
0.0
 10
5.084383833
 20
7.9903921713
 30
0.0
 10
5.0676958774
 20
7.9898618874
 30
0.0
 10
5.0519981184
 20
7.989332074
 30
0.0
 10
5.0374335529
 20
7.9888028102
 30
0.0
 10
5.0241345505
 20
7.9882741861
 30
0.0
 10
5.012221898
 20
7.9877470685
 30
0.0
 10
5.0018019582
 20
7.9872212099
 30
0.0
 10
4.9940970626
 20
7.9867657657
 30
0.0
 10
4.9887496503
 20
7.986393676
 30
0.0
 10
4.9853727859
 20
7.9861292149
 30
0.0
 10
4.9824304711
 20
7.9858655223
 30
0.0
 10
4.9799286693
 20
7.9856027579
 30
0.0
 10
4.977871872
 20
7.9853424081
 30
0.0
 10
4.9762658798
 20
7.9850839334
 30
0.0
 10
4.975211075
 20
7.9848574288
 30
0.0
 10
4.9746011222
 20
7.9846624637
 30
0.0
 10
4.9743734716
 20
7.9845634022
 30
0.0
 10
4.9742819672
 20
7.98451043
 30
0.0
  0
SPLINE
  5
339
100
AcDbEntity
  8
ALL_FEATURES
100
AcDbSpline
 62
7
  6
CONTINUOUS
 70
0
 71
3
 72
9
 73
5
 74
0
 42
0.0000001
 43
0.0000001
 44
0.0000000001
 40
0.0
 40
0.0
 40
0.0
 40
0.0
 40
0.5042528287
 40
1.0
 40
1.0
 40
1.0
 40
1.0
 10
4.9825762076
 20
2.0836678692
 30
0.0
 10
4.9810840134
 20
2.0870874707
 30
0.0
 10
4.9784734979
 20
2.0940272913
 30
0.0
 10
4.9766262103
 20
2.101209346
 30
0.0
 10
4.975911779
 20
2.1048071585
 30
0.0
  0
SPLINE
  5
33A
100
AcDbEntity
  8
ALL_FEATURES
100
AcDbSpline
 62
7
  6
CONTINUOUS
 70
0
 71
3
 72
15
 73
11
 74
0
 42
0.0000001
 43
0.0000001
 44
0.0000000001
 40
0.0
 40
0.0
 40
0.0
 40
0.0
 40
0.1076562811
 40
0.2206213151
 40
0.3393383443
 40
0.4636917954
 40
0.5930508059
 40
0.726439443
 40
0.8626649876
 40
1.0
 40
1.0
 40
1.0
 40
1.0
 10
5.3676485798
 20
2.1107605331
 30
0.0
 10
5.363998003
 20
2.1035808011
 30
0.0
 10
5.355081644
 20
2.089563735
 30
0.0
 10
5.3379348314
 20
2.0706993194
 30
0.0
 10
5.3171264333
 20
2.0539132679
 30
0.0
 10
5.2931453149
 20
2.0395652633
 30
0.0
 10
5.2665422328
 20
2.0279359785
 30
0.0
 10
5.2379072496
 20
2.0192733467
 30
0.0
 10
5.2079042485
 20
2.0137627389
 30
0.0
 10
5.1874468109
 20
2.0122481202
 30
0.0
 10
5.177173913
 20
2.0120407258
 30
0.0
  0
SPLINE
  5
33B
100
AcDbEntity
  8
ALL_FEATURES
100
AcDbSpline
 62
7
  6
CONTINUOUS
 70
0
 71
3
 72
15
 73
11
 74
0
 42
0.0000001
 43
0.0000001
 44
0.0000000001
 40
0.0
 40
0.0
 40
0.0
 40
0.0
 40
0.1365069193
 40
0.271717911
 40
0.4043262864
 40
0.5333891584
 40
0.6580455287
 40
0.718521306
 40
0.7776793488
 40
1.0
 40
1.0
 40
1.0
 40
1.0
 10
5.177173913
 20
1.9863872876
 30
0.0
 10
5.1683320709
 20
1.9862113294
 30
0.0
 10
5.1507052302
 20
1.986675545
 30
0.0
 10
5.1246601568
 20
1.9897925384
 30
0.0
 10
5.0994980885
 20
1.995280568
 30
0.0
 10
5.0756570781
 20
2.0030360836
 30
0.0
 10
5.0570299571
 20
2.0113504889
 30
0.0
 10
5.0431791134
 20
2.0190311065
 30
0.0
 10
5.0244806631
 20
2.0308978316
 30
0.0
 10
5.0104670017
 20
2.0430537927
 30
0.0
 10
5.0011881025
 20
2.0540696591
 30
0.0
  0
SPLINE
  5
33C
100
AcDbEntity
  8
ALL_FEATURES
100
AcDbSpline
 62
7
  6
CONTINUOUS
 70
0
 71
3
 72
9
 73
5
 74
0
 42
0.0000001
 43
0.0000001
 44
0.0000000001
 40
0.0
 40
0.0
 40
0.0
 40
0.0
 40
0.4964460127
 40
1.0
 40
1.0
 40
1.0
 40
1.0
 10
5.3785865657
 20
2.1172513203
 30
0.0
 10
5.3778868945
 20
2.1133571571
 30
0.0
 10
5.376050166
 20
2.1055844245
 30
0.0
 10
5.3734098659
 20
2.0980481349
 30
0.0
 10
5.371894586
 20
2.094332029
 30
0.0
  0
SPLINE
  5
33D
100
AcDbEntity
  8
ALL_FEATURES
100
AcDbSpline
 62
7
  6
CONTINUOUS
 70
0
 71
3
 72
15
 73
11
 74
0
 42
0.0000001
 43
0.0000001
 44
0.0000000001
 40
0.0
 40
0.0
 40
0.0
 40
0.0
 40
0.1078549836
 40
0.2210129192
 40
0.3398685593
 40
0.4642783311
 40
0.5935977614
 40
0.7268574029
 40
0.8628867208
 40
1.0
 40
1.0
 40
1.0
 40
1.0
 10
5.3666926335
 20
2.0832098572
 30
0.0
 10
5.3629524441
 20
2.0761445927
 30
0.0
 10
5.3539020322
 20
2.062368317
 30
0.0
 10
5.3366752162
 20
2.0438516751
 30
0.0
 10
5.3158943556
 20
2.0273891326
 30
0.0
 10
5.2920344842
 20
2.0133290629
 30
0.0
 10
5.2656332977
 20
2.0019399127
 30
0.0
 10
5.2372640405
 20
1.9934613566
 30
0.0
 10
5.2075708494
 20
1.9880700133
 30
0.0
 10
5.1873347028
 20
1.9865894936
 30
0.0
 10
5.177173913
 20
1.9863872876
 30
0.0
  0
LINE
  5
33E
100
AcDbEntity
  8
ALL_FEATURES
100
AcDbLine
 62
7
  6
CONTINUOUS
 10
5.3802979695
 20
7.7555429323
 11
5.3674464604
 21
7.7556688369
  0
SPLINE
  5
33F
100
AcDbEntity
  8
ALL_FEATURES
100
AcDbSpline
 62
7
  6
CONTINUOUS
 70
0
 71
3
 72
9
 73
5
 74
0
 42
0.0000001
 43
0.0000001
 44
0.0000000001
 40
0.0
 40
0.0
 40
0.0
 40
0.0
 40
0.496617837
 40
1.0
 40
1.0
 40
1.0
 40
1.0
 10
5.3790854019
 20
2.0947368249
 30
0.0
 10
5.3784797581
 20
2.0907255997
 30
0.0
 10
5.3768059628
 20
2.0827111455
 30
0.0
 10
5.3742739849
 20
2.07492665
 30
0.0
 10
5.3728006039
 20
2.0710877386
 30
0.0
  0
SPLINE
  5
340
100
AcDbEntity
  8
ALL_FEATURES
100
AcDbSpline
 62
7
  6
CONTINUOUS
 70
0
 71
3
 72
15
 73
11
 74
0
 42
0.0000001
 43
0.0000001
 44
0.0000000001
 40
0.0
 40
0.0
 40
0.0
 40
0.0
 40
0.1076058658
 40
0.2205241147
 40
0.3392088939
 40
0.4635507795
 40
0.5929207266
 40
0.7263397359
 40
0.8626106332
 40
1.0
 40
1.0
 40
1.0
 40
1.0
 10
5.3678376629
 20
2.0598911969
 30
0.0
 10
5.3642058159
 20
2.0526899635
 30
0.0
 10
5.3553173487
 20
2.0386274873
 30
0.0
 10
5.3381879493
 20
2.0196974245
 30
0.0
 10
5.3173747317
 20
2.0028504988
 30
0.0
 10
5.2933694009
 20
1.9884488546
 30
0.0
 10
5.2667255768
 20
1.9767757019
 30
0.0
 10
5.2380369043
 20
1.9680809439
 30
0.0
 10
5.2079713497
 20
1.9625513617
 30
0.0
 10
5.1874694017
 20
1.9610335446
 30
0.0
 10
5.177173913
 20
1.9608269358
 30
0.0
  0
SPLINE
  5
341
100
AcDbEntity
  8
ALL_FEATURES
100
AcDbSpline
 62
7
  6
CONTINUOUS
 70
0
 71
3
 72
14
 73
10
 74
0
 42
0.0000001
 43
0.0000001
 44
0.0000000001
 40
0.0
 40
0.0
 40
0.0
 40
0.0
 40
0.1347993206
 40
0.2686052985
 40
0.400202892
 40
0.5287542999
 40
0.653565224
 40
0.7740306495
 40
1.0
 40
1.0
 40
1.0
 40
1.0
 10
5.177173913
 20
2.0120407258
 30
0.0
 10
5.1690728507
 20
2.0118771774
 30
0.0
 10
5.1529083725
 20
2.012238542
 30
0.0
 10
5.1289619204
 20
2.0148092882
 30
0.0
 10
5.1056963015
 20
2.0193899301
 30
0.0
 10
5.0834562733
 20
2.0258916208
 30
0.0
 10
5.0625460607
 20
2.034232306
 30
0.0
 10
5.0373985888
 20
2.0473200194
 30
0.0
 10
5.0204811224
 20
2.0598948844
 30
0.0
 10
5.0107566768
 20
2.0693780354
 30
0.0
  0
SPLINE
  5
342
100
AcDbEntity
  8
ALL_FEATURES
100
AcDbSpline
 62
7
  6
CONTINUOUS
 70
0
 71
3
 72
9
 73
5
 74
0
 42
0.0000001
 43
0.0000001
 44
0.0000000001
 40
0.0
 40
0.0
 40
0.0
 40
0.0
 40
0.2556988638
 40
1.0
 40
1.0
 40
1.0
 40
1.0
 10
5.0017868203
 20
2.0789468764
 30
0.0
 10
5.0003890335
 20
2.0805831576
 30
0.0
 10
4.9950728852
 20
2.087108452
 30
0.0
 10
4.9903787399
 20
2.0941475376
 30
0.0
 10
4.9873376259
 20
2.099624053
 30
0.0
  0
SPLINE
  5
343
100
AcDbEntity
  8
ALL_FEATURES
100
AcDbSpline
 62
7
  6
CONTINUOUS
 70
0
 71
3
 72
9
 73
5
 74
0
 42
0.0000001
 43
0.0000001
 44
0.0000000001
 40
0.0
 40
0.0
 40
0.0
 40
0.0
 40
0.4964436757
 40
1.0
 40
1.0
 40
1.0
 40
1.0
 10
5.3785801902
 20
2.0660289641
 30
0.0
 10
5.3778794242
 20
2.062135226
 30
0.0
 10
5.3760407685
 20
2.0543633969
 30
0.0
 10
5.3733991173
 20
2.0468280416
 30
0.0
 10
5.3718832857
 20
2.0431123662
 30
0.0
  0
SPLINE
  5
344
100
AcDbEntity
  8
ALL_FEATURES
100
AcDbSpline
 62
7
  6
CONTINUOUS
 70
0
 71
3
 72
15
 73
11
 74
0
 42
0.0000001
 43
0.0000001
 44
0.0000000001
 40
0.0
 40
0.0
 40
0.0
 40
0.0
 40
0.107867695
 40
0.2210364728
 40
0.3398995765
 40
0.4643125677
 40
0.5936305458
 40
0.7268838009
 40
0.8629020084
 40
1.0
 40
1.0
 40
1.0
 40
1.0
 10
5.3666792045
 20
2.0319898283
 30
0.0
 10
5.3629378022
 20
2.0249243429
 30
0.0
 10
5.3538856406
 20
2.0111476743
 30
0.0
 10
5.3366577842
 20
1.9926297459
 30
0.0
 10
5.3158773235
 20
1.9761652007
 30
0.0
 10
5.2920191822
 20
1.9621021853
 30
0.0
 10
5.2656208601
 20
1.9507090095
 30
0.0
 10
5.237255379
 20
1.9422252014
 30
0.0
 10
5.2075665869
 20
1.9368272465
 30
0.0
 10
5.187333283
 20
1.9353413676
 30
0.0
 10
5.177173913
 20
1.9351362493
 30
0.0
  0
SPLINE
  5
345
100
AcDbEntity
  8
ALL_FEATURES
100
AcDbSpline
 62
7
  6
CONTINUOUS
 70
0
 71
3
 72
20
 73
16
 74
0
 42
0.0000001
 43
0.0000001
 44
0.0000000001
 40
0.0
 40
0.0
 40
0.0
 40
0.0
 40
0.0082537981
 40
0.0143728625
 40
0.0221669892
 40
0.0431558827
 40
0.0716306588
 40
0.1077127825
 40
0.1514442942
 40
0.2028348171
 40
0.2618783927
 40
0.4027704191
 40
0.5733842372
 40
0.7727797466
 40
1.0
 40
1.0
 40
1.0
 40
1.0
 10
5.3662755475
 20
7.8691746019
 30
0.0
 10
5.3662758794
 20
7.8691043344
 30
0.0
 10
5.3661931412
 20
7.868990924
 30
0.0
 10
5.3660399296
 20
7.8688863398
 30
0.0
 10
5.3657737363
 20
7.8687494015
 30
0.0
 10
5.3653117111
 20
7.8685919234
 30
0.0
 10
5.3646057041
 20
7.8684111068
 30
0.0
 10
5.363701525
 20
7.8682298673
 30
0.0
 10
5.3625994671
 20
7.8680469437
 30
0.0
 10
5.361299782
 20
7.8678634401
 30
0.0
 10
5.3591760264
 20
7.8676024365
 30
0.0
 10
5.356037107
 20
7.8672847431
 30
0.0
 10
5.3517028402
 20
7.8669194899
 30
0.0
 10
5.3466314799
 20
7.8665531229
 30
0.0
 10
5.3430067621
 20
7.8663231619
 30
0.0
 10
5.3410758375
 20
7.8662068208
 30
0.0
  0
SPLINE
  5
346
100
AcDbEntity
  8
ALL_FEATURES
100
AcDbSpline
 62
7
  6
CONTINUOUS
 70
0
 71
3
 72
9
 73
5
 74
0
 42
0.0000001
 43
0.0000001
 44
0.0000000001
 40
0.0
 40
0.0
 40
0.0
 40
0.0
 40
0.4965508519
 40
1.0
 40
1.0
 40
1.0
 40
1.0
 10
5.3790042086
 20
2.0428549429
 30
0.0
 10
5.3783771251
 20
2.0388357493
 30
0.0
 10
5.3766581518
 20
2.0308067011
 30
0.0
 10
5.3740787467
 20
2.0230129379
 30
0.0
 10
5.3725810421
 20
2.0191701543
 30
0.0
  0
SPLINE
  5
347
100
AcDbEntity
  8
ALL_FEATURES
100
AcDbSpline
 62
7
  6
CONTINUOUS
 70
0
 71
3
 72
15
 73
11
 74
0
 42
0.0000001
 43
0.0000001
 44
0.0000000001
 40
0.0
 40
0.0
 40
0.0
 40
0.0
 40
0.1077134832
 40
0.2207353627
 40
0.3394929701
 40
0.4638575533
 40
0.5931991612
 40
0.7265476237
 40
0.8627202585
 40
1.0
 40
1.0
 40
1.0
 40
1.0
 10
5.3673634821
 20
2.0076119109
 30
0.0
 10
5.3636852563
 20
2.0004678224
 30
0.0
 10
5.3547268728
 20
1.9865260933
 30
0.0
 10
5.3375541821
 20
1.9677713651
 30
0.0
 10
5.3167526466
 20
1.9510892928
 30
0.0
 10
5.292808164
 20
1.9368347483
 30
0.0
 10
5.2662665338
 20
1.9252856927
 30
0.0
 10
5.2377125304
 20
1.9166858726
 30
0.0
 10
5.2078033075
 20
1.9112188769
 30
0.0
 10
5.1874129082
 20
1.9097196254
 30
0.0
 10
5.177173913
 20
1.9095164181
 30
0.0
  0
SPLINE
  5
348
100
AcDbEntity
  8
ALL_FEATURES
100
AcDbSpline
 62
7
  6
CONTINUOUS
 70
0
 71
3
 72
15
 73
11
 74
0
 42
0.0000001
 43
0.0000001
 44
0.0000000001
 40
0.0
 40
0.0
 40
0.0
 40
0.0
 40
0.1395446337
 40
0.277390062
 40
0.411790988
 40
0.5415359906
 40
0.665625553
 40
0.7833903531
 40
0.8946980989
 40
1.0
 40
1.0
 40
1.0
 40
1.0
 10
5.177173913
 20
2.0377181862
 30
0.0
 10
5.1670253412
 20
2.0375145741
 30
0.0
 10
5.1468138583
 20
2.0381822084
 30
0.0
 10
5.1170958749
 20
2.042359358
 30
0.0
 10
5.0887062448
 20
2.0496275532
 30
0.0
 10
5.0622904315
 20
2.0598079923
 30
0.0
 10
5.0384213741
 20
2.072659103
 30
0.0
 10
5.0176347988
 20
2.0879134214
 30
0.0
 10
5.0004034208
 20
2.1052226295
 30
0.0
 10
4.9913201461
 20
2.118226183
 30
0.0
 10
4.987573947
 20
2.1249073489
 30
0.0
  0
SPLINE
  5
349
100
AcDbEntity
  8
ALL_FEATURES
100
AcDbSpline
 62
7
  6
CONTINUOUS
 70
0
 71
3
 72
9
 73
5
 74
0
 42
0.0000001
 43
0.0000001
 44
0.0000000001
 40
0.0
 40
0.0
 40
0.0
 40
0.0
 40
0.4964395765
 40
1.0
 40
1.0
 40
1.0
 40
1.0
 10
5.3785722181
 20
2.0147487947
 30
0.0
 10
5.3778700741
 20
2.0108571351
 30
0.0
 10
5.3760289649
 20
2.0030895656
 30
0.0
 10
5.3733855539
 20
1.9955586208
 30
0.0
 10
5.371868997
 20
1.9918451438
 30
0.0
  0
SPLINE
  5
34A
100
AcDbEntity
  8
ALL_FEATURES
100
AcDbSpline
 62
7
  6
CONTINUOUS
 70
0
 71
3
 72
17
 73
13
 74
0
 42
0.0000001
 43
0.0000001
 44
0.0000000001
 40
0.0
 40
0.0
 40
0.0
 40
0.0
 40
0.0527830594
 40
0.1067456238
 40
0.2186722025
 40
0.2769305022
 40
0.3367290702
 40
0.4607738271
 40
0.5903300178
 40
0.7243467868
 40
0.8615230936
 40
1.0
 40
1.0
 40
1.0
 40
1.0
 10
5.371868997
 20
1.9918451438
 30
0.0
 10
5.3703084532
 20
1.9880239596
 30
0.0
 10
5.3667503268
 20
1.9804536677
 30
0.0
 10
5.3579765711
 20
1.9657521866
 30
0.0
 10
5.3468881498
 20
1.9520338045
 30
0.0
 10
5.333915407
 20
1.9395589751
 30
0.0
 10
5.3192559104
 20
1.9275494904
 30
0.0
 10
5.2985642551
 20
1.9142435312
 30
0.0
 10
5.2710004576
 20
1.90143562
 30
0.0
 10
5.2410709562
 20
1.8918809829
 30
0.0
 10
5.2095471797
 20
1.8858063656
 30
0.0
 10
5.1880004267
 20
1.8841524352
 30
0.0
 10
5.177173913
 20
1.8839351029
 30
0.0
  0
SPLINE
  5
34B
100
AcDbEntity
  8
ALL_FEATURES
100
AcDbSpline
 62
7
  6
CONTINUOUS
 70
0
 71
3
 72
47
 73
43
 74
0
 42
0.0000001
 43
0.0000001
 44
0.0000000001
 40
0.0
 40
0.0
 40
0.0
 40
0.0
 40
0.0009268692
 40
0.0017328296
 40
0.0028026628
 40
0.0041453319
 40
0.0057650524
 40
0.007664004
 40
0.0098433598
 40
0.0150423257
 40
0.0213518814
 40
0.0287575682
 40
0.0372438109
 40
0.0573917453
 40
0.0816200785
 40
0.1096956351
 40
0.1413743367
 40
0.1763587677
 40
0.2143239536
 40
0.2549300593
 40
0.2977942861
 40
0.3425252106
 40
0.388713485
 40
0.4837409039
 40
0.579389207
 40
0.6721445428
 40
0.7163651778
 40
0.7586011443
 40
0.7984688942
 40
0.8355927908
 40
0.8696414761
 40
0.9003014053
 40
0.9272840729
 40
0.9503578457
 40
0.9693029929
 40
0.9771729394
 40
0.9839550776
 40
0.9896362658
 40
0.9942050118
 40
0.9976547097
 40
0.9989633487
 40
1.0
 40
1.0
 40
1.0
 40
1.0
 10
5.3654038498
 20
7.904889339
 30
0.0
 10
5.3654033539
 20
7.9047728077
 30
0.0
 10
5.3651944701
 20
7.9046048122
 30
0.0
 10
5.3648894152
 20
7.9044635133
 30
0.0
 10
5.3645017334
 20
7.9043268794
 30
0.0
 10
5.3640144623
 20
7.9041941916
 30
0.0
 10
5.3634174727
 20
7.9040590018
 30
0.0
 10
5.3627140829
 20
7.9039239749
 30
0.0
 10
5.3615634247
 20
7.9037318089
 30
0.0
 10
5.3598582295
 20
7.9034978072
 30
0.0
 10
5.3574953315
 20
7.9032288521
 30
0.0
 10
5.3547169977
 20
7.9029589049
 30
0.0
 10
5.3502019785
 20
7.9025756316
 30
0.0
 10
5.3435718499
 20
7.9021090244
 30
0.0
 10
5.3344784473
 20
7.901572261
 30
0.0
 10
5.3239332628
 20
7.9010332094
 30
0.0
 10
5.3120342872
 20
7.9004928889
 30
0.0
 10
5.298890814
 20
7.8999515596
 30
0.0
 10
5.2846240911
 20
7.8994094627
 30
0.0
 10
5.269366014
 20
7.8988670985
 30
0.0
 10
5.2532568127
 20
7.8983242927
 30
0.0
 10
5.2364454107
 20
7.8977812908
 30
0.0
 10
5.2130783624
 20
7.8970502608
 30
0.0
 10
5.1833118358
 20
7.8961491749
 30
0.0
 10
5.1476930653
 20
7.8950776657
 30
0.0
 10
5.11845996
 20
7.894172174
 30
0.0
 10
5.0959402033
 20
7.8934369844
 30
0.0
 10
5.0800670992
 20
7.8928946206
 30
0.0
 10
5.0650867706
 20
7.892352846
 30
0.0
 10
5.0511365033
 20
7.8918114558
 30
0.0
 10
5.0383448048
 20
7.8912709591
 30
0.0
 10
5.0268293228
 20
7.8907316947
 30
0.0
 10
5.0166952637
 20
7.8901939538
 30
0.0
 10
5.0080363253
 20
7.8896588183
 30
0.0
 10
5.0017809402
 20
7.8891928652
 30
0.0
 10
4.9975742294
 20
7.8888089167
 30
0.0
 10
4.9950319104
 20
7.888539891
 30
0.0
 10
4.9929069441
 20
7.888272726
 30
0.0
 10
4.9912050274
 20
7.8880073464
 30
0.0
 10
4.9900544626
 20
7.88777443
 30
0.0
 10
4.9893526885
 20
7.8875777047
 30
0.0
 10
4.9890745692
 20
7.8874780515
 30
0.0
 10
4.9889551001
 20
7.8874259523
 30
0.0
  0
LINE
  5
34C
100
AcDbEntity
  8
ALL_FEATURES
100
AcDbLine
 62
7
  6
CONTINUOUS
 10
4.9889551001
 20
7.8874259523
 11
4.9887595929
 21
7.8873287016
  0
SPLINE
  5
34D
100
AcDbEntity
  8
ALL_FEATURES
100
AcDbSpline
 62
7
  6
CONTINUOUS
 70
0
 71
3
 72
26
 73
22
 74
0
 42
0.0000001
 43
0.0000001
 44
0.0000000001
 40
0.0
 40
0.0
 40
0.0
 40
0.0
 40
0.0022258859
 40
0.0038908048
 40
0.0060158027
 40
0.0117449759
 40
0.0195217227
 40
0.0293787158
 40
0.0413245747
 40
0.0553496831
 40
0.0714384789
 40
0.1097340623
 40
0.1560566533
 40
0.2102093673
 40
0.2719240526
 40
0.340921773
 40
0.4169163289
 40
0.4995836248
 40
0.5885846982
 40
0.7841464454
 40
1.0
 40
1.0
 40
1.0
 40
1.0
 10
5.3693373632
 20
7.761725247
 30
0.0
 10
5.369336945
 20
7.7616540818
 30
0.0
 10
5.3692501445
 20
7.7615404271
 30
0.0
 10
5.3690927979
 20
7.7614360505
 30
0.0
 10
5.3688185198
 20
7.7612988244
 30
0.0
 10
5.3683436516
 20
7.7611413655
 30
0.0
 10
5.3676182869
 20
7.7609607455
 30
0.0
 10
5.3666897342
 20
7.7607801083
 30
0.0
 10
5.3655586252
 20
7.7605982175
 30
0.0
 10
5.3642261786
 20
7.7604161075
 30
0.0
 10
5.3620541999
 20
7.7601578095
 30
0.0
 10
5.3588494154
 20
7.7598439431
 30
0.0
 10
5.3544271033
 20
7.7594842882
 30
0.0
 10
5.3492539224
 20
7.7591246295
 30
0.0
 10
5.3433542808
 20
7.7587649664
 30
0.0
 10
5.3367551307
 20
7.7584058306
 30
0.0
 10
5.3294851519
 20
7.7580475181
 30
0.0
 10
5.321574879
 20
7.7576899981
 30
0.0
 10
5.3098439821
 20
7.7571988454
 30
0.0
 10
5.2938558538
 20
7.7565962744
 30
0.0
 10
5.2807095765
 20
7.7561492622
 30
0.0
 10
5.2738119548
 20
7.7559235258
 30
0.0
  0
SPLINE
  5
34E
100
AcDbEntity
  8
ALL_FEATURES
100
AcDbSpline
 62
7
  6
CONTINUOUS
 70
0
 71
3
 72
11
 73
7
 74
0
 42
0.0000001
 43
0.0000001
 44
0.0000000001
 40
0.0
 40
0.0
 40
0.0
 40
0.0
 40
0.2727302609
 40
0.5303690683
 40
0.7724909299
 40
1.0
 40
1.0
 40
1.0
 40
1.0
 10
5.0679336353
 20
2.087783259
 30
0.0
 10
5.0592593103
 20
2.0912773385
 30
0.0
 10
5.0427893495
 20
2.0991378642
 30
0.0
 10
5.0206580868
 20
2.1138693234
 30
0.0
 10
5.00226359
 20
2.1308703755
 30
0.0
 10
4.9925083017
 20
2.143829213
 30
0.0
 10
4.9884893215
 20
2.1505152991
 30
0.0
  0
SPLINE
  5
34F
100
AcDbEntity
  8
ALL_FEATURES
100
AcDbSpline
 62
7
  6
CONTINUOUS
 70
0
 71
3
 72
9
 73
5
 74
0
 42
0.0000001
 43
0.0000001
 44
0.0000000001
 40
0.0
 40
0.0
 40
0.0
 40
0.0
 40
0.5070604204
 40
1.0
 40
1.0
 40
1.0
 40
1.0
 10
4.9868897777
 20
2.153264106
 30
0.0
 10
4.9843677074
 20
2.1577446534
 30
0.0
 10
4.9800046514
 20
2.1669432967
 30
0.0
 10
4.9770942375
 20
2.1767060779
 30
0.0
 10
4.9760557151
 20
2.1815954241
 30
0.0
  0
SPLINE
  5
350
100
AcDbEntity
  8
ALL_FEATURES
100
AcDbSpline
 62
7
  6
CONTINUOUS
 70
0
 71
3
 72
47
 73
43
 74
0
 42
0.0000001
 43
0.0000001
 44
0.0000000001
 40
0.0
 40
0.0
 40
0.0
 40
0.0
 40
0.0009294214
 40
0.001737225
 40
0.0028106205
 40
0.0041592531
 40
0.0057870767
 40
0.0076951593
 40
0.0098835005
 40
0.0150982204
 40
0.0214236494
 40
0.0288495322
 40
0.0373642637
 40
0.0575799196
 40
0.0818738619
 40
0.1100355243
 40
0.1418038118
 40
0.1768785215
 40
0.214947669
 40
0.2556508285
 40
0.2986132216
 40
0.3434429547
 40
0.3897196339
 40
0.48490518
 40
0.5806617751
 40
0.6734662427
 40
0.7176838644
 40
0.7599018224
 40
0.7997230348
 40
0.8367872627
 40
0.8707551669
 40
0.9013047698
 40
0.9281696474
 40
0.9510966007
 40
0.9698763745
 40
0.9776628659
 40
0.9843560134
 40
0.9899389307
 40
0.9944033646
 40
0.997751457
 40
0.9990110835
 40
1.0
 40
1.0
 40
1.0
 40
1.0
 10
5.3642532326
 20
7.9406031818
 30
0.0
 10
5.3642534341
 20
7.9404869647
 30
0.0
 10
5.3640463028
 20
7.9403179338
 30
0.0
 10
5.3637421755
 20
7.9401764919
 30
0.0
 10
5.3633554878
 20
7.9400395079
 30
0.0
 10
5.3628688212
 20
7.9399066298
 30
0.0
 10
5.3622723253
 20
7.9397712141
 30
0.0
 10
5.361569609
 20
7.9396359578
 30
0.0
 10
5.3604211448
 20
7.9394434927
 30
0.0
 10
5.3587203509
 20
7.9392089594
 30
0.0
 10
5.3563640234
 20
7.9389394017
 30
0.0
 10
5.3535928973
 20
7.9386688698
 30
0.0
 10
5.3490880687
 20
7.9382849854
 30
0.0
 10
5.3424739643
 20
7.9378176895
 30
0.0
 10
5.3334028164
 20
7.9372795395
 30
0.0
 10
5.3228849931
 20
7.9367397645
 30
0.0
 10
5.3110176622
 20
7.9361984257
 30
0.0
 10
5.2979103638
 20
7.9356559898
 30
0.0
 10
5.2836849731
 20
7.9351131339
 30
0.0
 10
5.2684726412
 20
7.9345697193
 30
0.0
 10
5.2524144523
 20
7.9340259947
 30
0.0
 10
5.2356589598
 20
7.9334821576
 30
0.0
 10
5.2123760376
 20
7.9327499233
 30
0.0
 10
5.1827273023
 20
7.931847619
 30
0.0
 10
5.147263125
 20
7.9307744634
 30
0.0
 10
5.1181699882
 20
7.9298676148
 30
0.0
 10
5.0957694423
 20
7.9291311806
 30
0.0
 10
5.0799912965
 20
7.9285882114
 30
0.0
 10
5.0651081731
 20
7.9280455803
 30
0.0
 10
5.0512573637
 20
7.9275035585
 30
0.0
 10
5.0385668102
 20
7.9269625506
 30
0.0
 10
5.0271528452
 20
7.9264223744
 30
0.0
 10
5.0171210535
 20
7.9258843762
 30
0.0
 10
5.0085633167
 20
7.9253486967
 30
0.0
 10
5.0023918241
 20
7.9248819428
 30
0.0
 10
4.9982506567
 20
7.9244974982
 30
0.0
 10
4.9957563841
 20
7.9242283807
 30
0.0
 10
4.9936798906
 20
7.9239611496
 30
0.0
 10
4.9920260391
 20
7.9236954827
 30
0.0
 10
4.9909144146
 20
7.9234624577
 30
0.0
 10
4.9902427177
 20
7.9232651698
 30
0.0
 10
4.9899792309
 20
7.9231651535
 30
0.0
 10
4.9898672557
 20
7.9231126891
 30
0.0
  0
SPLINE
  5
351
100
AcDbEntity
  8
ALL_FEATURES
100
AcDbSpline
 62
7
  6
CONTINUOUS
 70
0
 71
3
 72
9
 73
5
 74
0
 42
0.0000001
 43
0.0000001
 44
0.0000000001
 40
0.0
 40
0.0
 40
0.0
 40
0.0
 40
0.489665959
 40
1.0
 40
1.0
 40
1.0
 40
1.0
 10
5.0796101989
 20
1.969952573
 30
0.0
 10
5.0941021668
 20
1.964047252
 30
0.0
 10
5.1250890641
 20
1.955251169
 30
0.0
 10
5.1571372678
 20
1.9525303241
 30
0.0
 10
5.173446397
 20
1.9526372515
 30
0.0
  0
SPLINE
  5
352
100
AcDbEntity
  8
ALL_FEATURES
100
AcDbSpline
 62
7
  6
CONTINUOUS
 70
0
 71
3
 72
10
 73
6
 74
0
 42
0.0000001
 43
0.0000001
 44
0.0000000001
 40
0.0
 40
0.0
 40
0.0
 40
0.0
 40
0.2545569286
 40
0.5071065576
 40
1.0
 40
1.0
 40
1.0
 40
1.0
 10
5.189336568
 20
1.9532182433
 30
0.0
 10
5.1962523029
 20
1.9536796764
 30
0.0
 10
5.2100012274
 20
1.9551433494
 30
0.0
 10
5.2367787094
 20
1.9601613726
 30
0.0
 10
5.2562523919
 20
1.966325426
 30
0.0
 10
5.2686322643
 20
1.9715071731
 30
0.0
  0
SPLINE
  5
353
100
AcDbEntity
  8
ALL_FEATURES
100
AcDbSpline
 62
7
  6
CONTINUOUS
 70
0
 71
3
 72
26
 73
22
 74
0
 42
0.0000001
 43
0.0000001
 44
0.0000000001
 40
0.0
 40
0.0
 40
0.0
 40
0.0
 40
0.1891880338
 40
0.3716533833
 40
0.4582021077
 40
0.5406075704
 40
0.6181405749
 40
0.6900845424
 40
0.7557836773
 40
0.814662581
 40
0.8661698038
 40
0.9098635774
 40
0.9286560071
 40
0.9453468959
 40
0.959900831
 40
0.9722951813
 40
0.9825096127
 40
0.9905277123
 40
0.9963432728
 40
0.9984346964
 40
1.0
 40
1.0
 40
1.0
 40
1.0
 10
5.177173913
 20
7.9577932957
 30
0.0
 10
5.1643659311
 20
7.9574359456
 30
0.0
 10
5.1392050816
 20
7.9567343341
 30
0.0
 10
5.1081857413
 20
7.9558391793
 30
0.0
 10
5.0843965499
 20
7.9551128047
 30
0.0
 10
5.0677114935
 20
7.9545780905
 30
0.0
 10
5.0520160701
 20
7.9540441203
 30
0.0
 10
5.0374527678
 20
7.9535109582
 30
0.0
 10
5.0241537171
 20
7.9529786831
 30
0.0
 10
5.0122398962
 20
7.9524481659
 30
0.0
 10
5.0018180135
 20
7.951919142
 30
0.0
 10
4.9941111003
 20
7.9514611422
 30
0.0
 10
4.9887617499
 20
7.9510871237
 30
0.0
 10
4.985383315
 20
7.9508213682
 30
0.0
 10
4.982439591
 20
7.9505564057
 30
0.0
 10
4.9799365475
 20
7.9502924249
 30
0.0
 10
4.9778783787
 20
7.9500309282
 30
0.0
 10
4.9762706831
 20
7.9497713275
 30
0.0
 10
4.975214287
 20
7.9495440456
 30
0.0
 10
4.9746031045
 20
7.9493483873
 30
0.0
 10
4.9743749483
 20
7.9492489821
 30
0.0
 10
4.9742832132
 20
7.9491958484
 30
0.0
  0
SPLINE
  5
354
100
AcDbEntity
  8
ALL_FEATURES
100
AcDbSpline
 62
7
  6
CONTINUOUS
 70
0
 71
3
 72
21
 73
17
 74
0
 42
0.0000001
 43
0.0000001
 44
0.0000000001
 40
0.0
 40
0.0
 40
0.0
 40
0.0
 40
0.0725642951
 40
0.1449216918
 40
0.2871242742
 40
0.4240197344
 40
0.489958333
 40
0.5539464016
 40
0.6158696634
 40
0.6757087931
 40
0.7335117937
 40
0.7894198792
 40
0.843668845
 40
0.8965712846
 40
0.9485301952
 40
1.0
 40
1.0
 40
1.0
 40
1.0
 10
5.177173913
 20
2.6024770844
 30
0.0
 10
5.1705419492
 20
2.6024770844
 30
0.0
 10
5.1572917898
 20
2.6029405346
 30
0.0
 10
5.1311762153
 20
2.6056688885
 30
0.0
 10
5.0996407206
 20
2.6123605875
 30
0.0
 10
5.069973643
 20
2.623455893
 30
0.0
 10
5.0483419429
 20
2.6347691658
 30
0.0
 10
5.0335430491
 20
2.6442178585
 30
0.0
 10
5.0201233028
 20
2.6546576479
 30
0.0
 10
5.0082038299
 20
2.6659797583
 30
0.0
 10
4.9979026918
 20
2.6780831618
 30
0.0
 10
4.9893281801
 20
2.6908581291
 30
0.0
 10
4.9825546072
 20
2.7041756961
 30
0.0
 10
4.9776666977
 20
2.7179167797
 30
0.0
 10
4.9747127576
 20
2.7319386221
 30
0.0
 10
4.974048913
 20
2.7414041019
 30
0.0
 10
4.974048913
 20
2.7461081493
 30
0.0
  0
SPLINE
  5
355
100
AcDbEntity
  8
ALL_FEATURES
100
AcDbSpline
 62
7
  6
CONTINUOUS
 70
0
 71
3
 72
12
 73
8
 74
0
 42
0.0000001
 43
0.0000001
 44
0.0000000001
 40
0.0
 40
0.0
 40
0.0
 40
0.0
 40
0.0594428439
 40
0.1370519262
 40
0.3485349804
 40
0.6362049144
 40
1.0
 40
1.0
 40
1.0
 40
1.0
 10
5.3690889675
 20
7.7703679879
 30
0.0
 10
5.3690019934
 20
7.7703175337
 30
0.0
 10
5.3687896414
 20
7.7702221085
 30
0.0
 10
5.3682304827
 20
7.7700343956
 30
0.0
 10
5.3672780104
 20
7.7698150147
 30
0.0
 10
5.3658398259
 20
7.7695657038
 30
0.0
 10
5.3647477111
 20
7.7694163001
 30
0.0
 10
5.3641372115
 20
7.7693390418
 30
0.0
  0
SPLINE
  5
356
100
AcDbEntity
  8
ALL_FEATURES
100
AcDbSpline
 62
7
  6
CONTINUOUS
 70
0
 71
3
 72
14
 73
10
 74
0
 42
0.0000001
 43
0.0000001
 44
0.0000000001
 40
0.0
 40
0.0
 40
0.0
 40
0.0
 40
0.0609030148
 40
0.1423509346
 40
0.2434419739
 40
0.3630662251
 40
0.5000045745
 40
0.6529101632
 40
1.0
 40
1.0
 40
1.0
 40
1.0
 10
5.3641372115
 20
7.7693390418
 30
0.0
 10
5.362315471
 20
7.7691085019
 30
0.0
 10
5.3580427131
 20
7.7686899305
 30
0.0
 10
5.3507233599
 20
7.7681400994
 30
0.0
 10
5.3416293167
 20
7.7675884111
 30
0.0
 10
5.3308599342
 20
7.7670353808
 30
0.0
 10
5.3185264443
 20
7.7664832854
 30
0.0
 10
5.2993377194
 20
7.7657160974
 30
0.0
 10
5.2842713643
 20
7.7651958277
 30
0.0
 10
5.2738119548
 20
7.7648535258
 30
0.0
  0
SPLINE
  5
357
100
AcDbEntity
  8
ALL_FEATURES
100
AcDbSpline
 62
7
  6
CONTINUOUS
 70
0
 71
3
 72
23
 73
19
 74
0
 42
0.0000001
 43
0.0000001
 44
0.0000000001
 40
0.0
 40
0.0
 40
0.0
 40
0.0
 40
0.1871035261
 40
0.3673912773
 40
0.5345882814
 40
0.6115208095
 40
0.6831008283
 40
0.7487033185
 40
0.8077680485
 40
0.8597581381
 40
0.9042317753
 40
0.9407789073
 40
0.9559694208
 40
0.9690646127
 40
0.9800371722
 40
0.9888611565
 40
0.9955149628
 40
1.0
 40
1.0
 40
1.0
 40
1.0
 10
5.177173913
 20
8.0529367407
 30
0.0
 10
5.1888651982
 20
8.0531587899
 30
0.0
 10
5.211821855
 20
8.0535961922
 30
0.0
 10
5.2452254135
 20
8.054258499
 30
0.0
 10
5.2717441556
 20
8.0548251503
 30
0.0
 10
5.2914696197
 20
8.0552874862
 30
0.0
 10
5.3048469063
 20
8.0556247944
 30
0.0
 10
5.317107126
 20
8.0559622233
 30
0.0
 10
5.3281425321
 20
8.0562994259
 30
0.0
 10
5.3378567901
 20
8.056636225
 30
0.0
 10
5.3461628086
 20
8.0569721073
 30
0.0
 10
5.3521687461
 20
8.0572648549
 30
0.0
 10
5.356213411
 20
8.057506512
 30
0.0
 10
5.3586611702
 20
8.0576758556
 30
0.0
 10
5.3607098261
 20
8.0578446265
 30
0.0
 10
5.3623549447
 20
8.0580110434
 30
0.0
 10
5.3635911628
 20
8.0581764193
 30
0.0
 10
5.3642772694
 20
8.0583036846
 30
0.0
 10
5.3645472179
 20
8.0583791592
 30
0.0
  0
LINE
  5
358
100
AcDbEntity
  8
ALL_FEATURES
100
AcDbLine
 62
7
  6
CONTINUOUS
 10
5.3645472179
 20
8.0583791592
 11
5.3648989222
 21
8.0585117306
  0
SPLINE
  5
359
100
AcDbEntity
  8
ALL_FEATURES
100
AcDbSpline
 62
7
  6
CONTINUOUS
 70
0
 71
3
 72
26
 73
22
 74
0
 42
0.0000001
 43
0.0000001
 44
0.0000000001
 40
0.0
 40
0.0
 40
0.0
 40
0.0
 40
0.1890245293
 40
0.3713543386
 40
0.4578491898
 40
0.5402106771
 40
0.617710569
 40
0.6896343894
 40
0.7553214845
 40
0.8142023559
 40
0.8657308251
 40
0.9094639935
 40
0.9282841224
 40
0.945008929
 40
0.9596039441
 40
0.9720459409
 40
0.9823138918
 40
0.9903908224
 40
0.9962706572
 40
0.9983973379
 40
1.0
 40
1.0
 40
1.0
 40
1.0
 10
5.177173913
 20
7.9496951059
 30
0.0
 10
5.1899705808
 20
7.9500604898
 30
0.0
 10
5.2151106942
 20
7.9507782797
 30
0.0
 10
5.2461054732
 20
7.9516949203
 30
0.0
 10
5.2698782784
 20
7.9524392447
 30
0.0
 10
5.2865540114
 20
7.9529874379
 30
0.0
 10
5.3022423625
 20
7.9535351108
 30
0.0
 10
5.3168007164
 20
7.9540821135
 30
0.0
 10
5.3300971413
 20
7.9546284317
 30
0.0
 10
5.3420110744
 20
7.9551731262
 30
0.0
 10
5.3524364655
 20
7.9557164146
 30
0.0
 10
5.3601486243
 20
7.9561869004
 30
0.0
 10
5.3655041055
 20
7.9565711665
 30
0.0
 10
5.3688889285
 20
7.9568443211
 30
0.0
 10
5.3718403166
 20
7.9571167113
 30
0.0
 10
5.37435226
 20
7.9573881398
 30
0.0
 10
5.3764203898
 20
7.9576571424
 30
0.0
 10
5.3780390178
 20
7.9579242035
 30
0.0
 10
5.3791049224
 20
7.9581582618
 30
0.0
 10
5.3797241392
 20
7.9583593094
 30
0.0
 10
5.3799564373
 20
7.9584614385
 30
0.0
 10
5.3800503667
 20
7.9585158317
 30
0.0
  0
SPLINE
  5
35A
100
AcDbEntity
  8
ALL_FEATURES
100
AcDbSpline
 62
7
  6
CONTINUOUS
 70
0
 71
3
 72
14
 73
10
 74
0
 42
0.0000001
 43
0.0000001
 44
0.0000000001
 40
0.0
 40
0.0
 40
0.0
 40
0.0
 40
0.3136590676
 40
0.462031274
 40
0.6004625158
 40
0.7260175325
 40
0.8359507018
 40
0.9279309228
 40
1.0
 40
1.0
 40
1.0
 40
1.0
 10
5.177173913
 20
7.9225952145
 30
0.0
 10
5.1575781427
 20
7.922058003
 30
0.0
 10
5.1287128144
 20
7.9212676963
 30
0.0
 10
5.0912009993
 20
7.9201707382
 30
0.0
 10
5.0654419101
 20
7.9193645535
 30
0.0
 10
5.0420864037
 20
7.9185607836
 30
0.0
 10
5.0216356708
 20
7.9177611639
 30
0.0
 10
5.0045306056
 20
7.9169671956
 30
0.0
 10
4.9942943458
 20
7.9163736333
 30
0.0
 10
4.9898014739
 20
7.9160545407
 30
0.0
  0
SPLINE
  5
35B
100
AcDbEntity
  8
ALL_FEATURES
100
AcDbSpline
 62
7
  6
CONTINUOUS
 70
0
 71
3
 72
15
 73
11
 74
0
 42
0.0000001
 43
0.0000001
 44
0.0000000001
 40
0.0
 40
0.0
 40
0.0
 40
0.0
 40
0.3914919114
 40
0.5523175856
 40
0.6895471554
 40
0.8029726422
 40
0.8924327595
 40
0.9579128032
 40
0.9818061602
 40
1.0
 40
1.0
 40
1.0
 40
1.0
 10
4.9898014739
 20
7.9160545407
 30
0.0
 10
4.9877602243
 20
7.9159095671
 30
0.0
 10
4.9848814603
 20
7.9156878912
 30
0.0
 10
4.9812933427
 20
7.9153445202
 30
0.0
 10
4.9791557889
 20
7.9151050094
 30
0.0
 10
4.9773934705
 20
7.9148675498
 30
0.0
 10
4.9760107062
 20
7.9146317762
 30
0.0
 10
4.9750973389
 20
7.9144248364
 30
0.0
 10
4.9745634302
 20
7.9142477378
 30
0.0
 10
4.9743616053
 20
7.9141578021
 30
0.0
 10
4.9742792999
 20
7.914110155
 30
0.0
  0
SPLINE
  5
35C
100
AcDbEntity
  8
ALL_FEATURES
100
AcDbSpline
 62
7
  6
CONTINUOUS
 70
0
 71
3
 72
15
 73
11
 74
0
 42
0.0000001
 43
0.0000001
 44
0.0000000001
 40
0.0
 40
0.0
 40
0.0
 40
0.0
 40
0.3192054124
 40
0.4695661773
 40
0.6090904986
 40
0.7345980539
 40
0.8431627503
 40
0.9323037914
 40
0.9689407289
 40
1.0
 40
1.0
 40
1.0
 40
1.0
 10
5.177173913
 20
7.8874972979
 30
0.0
 10
5.1568974654
 20
7.8869379233
 30
0.0
 10
5.1270698108
 20
7.8861161962
 30
0.0
 10
5.088381557
 20
7.884972213
 30
0.0
 10
5.0619984263
 20
7.8841327983
 30
0.0
 10
5.0382725658
 20
7.8832968168
 30
0.0
 10
5.0177505123
 20
7.8824646645
 30
0.0
 10
5.0028762272
 20
7.8817404741
 30
0.0
 10
4.992927899
 20
7.8811398006
 30
0.0
 10
4.9886367134
 20
7.8808354734
 30
0.0
 10
4.9866692415
 20
7.8806789768
 30
0.0
  0
SPLINE
  5
35D
100
AcDbEntity
  8
ALL_FEATURES
100
AcDbSpline
 62
7
  6
CONTINUOUS
 70
0
 71
3
 72
14
 73
10
 74
0
 42
0.0000001
 43
0.0000001
 44
0.0000000001
 40
0.0
 40
0.0
 40
0.0
 40
0.0
 40
0.3872336237
 40
0.546840184
 40
0.6835434359
 40
0.7972008566
 40
0.887721272
 40
0.9551444977
 40
1.0
 40
1.0
 40
1.0
 40
1.0
 10
4.9866692415
 20
7.8806789768
 30
0.0
 10
4.9850558286
 20
7.8805506428
 30
0.0
 10
4.9827784078
 20
7.8803542493
 30
0.0
 10
4.9799375369
 20
7.8800507956
 30
0.0
 10
4.978236914
 20
7.8798390115
 30
0.0
 10
4.9768279356
 20
7.8796282781
 30
0.0
 10
4.9757107204
 20
7.8794204024
 30
0.0
 10
4.9748895519
 20
7.8792146996
 30
0.0
 10
4.9744438174
 20
7.8790540877
 30
0.0
 10
4.9742815887
 20
7.8789601139
 30
0.0
  0
SPLINE
  5
35E
100
AcDbEntity
  8
ALL_FEATURES
100
AcDbSpline
 62
7
  6
CONTINUOUS
 70
0
 71
3
 72
17
 73
13
 74
0
 42
0.0000001
 43
0.0000001
 44
0.0000000001
 40
0.0
 40
0.0
 40
0.0
 40
0.0
 40
0.166320167
 40
0.32854714
 40
0.482256032
 40
0.6236272095
 40
0.7490434511
 40
0.8552852412
 40
0.9003428235
 40
0.9396437444
 40
0.9729385144
 40
1.0
 40
1.0
 40
1.0
 40
1.0
 10
5.177173913
 20
7.8522151269
 30
0.0
 10
5.166375076
 20
7.8519146609
 30
0.0
 10
5.1450431577
 20
7.8513213879
 30
0.0
 10
5.1137318258
 20
7.8504289437
 30
0.0
 10
5.0840416399
 20
7.8495383401
 30
0.0
 10
5.0567434479
 20
7.8486510245
 30
0.0
 10
5.0325300791
 20
7.8477677311
 30
0.0
 10
5.0145725542
 20
7.8470029454
 30
0.0
 10
5.0022084237
 20
7.8463732184
 30
0.0
 10
4.9945792936
 20
7.8459288858
 30
0.0
 10
4.988121243
 20
7.8454870998
 30
0.0
 10
4.9842141369
 20
7.8451614735
 30
0.0
 10
4.9824646449
 20
7.8449915122
 30
0.0
  0
SPLINE
  5
35F
100
AcDbEntity
  8
ALL_FEATURES
100
AcDbSpline
 62
7
  6
CONTINUOUS
 70
0
 71
3
 72
13
 73
9
 74
0
 42
0.0000001
 43
0.0000001
 44
0.0000000001
 40
0.0
 40
0.0
 40
0.0
 40
0.0
 40
0.3785245137
 40
0.6715331831
 40
0.7857237714
 40
0.8783268272
 40
0.9495516615
 40
1.0
 40
1.0
 40
1.0
 40
1.0
 10
4.9824646449
 20
7.8449915122
 30
0.0
 10
4.9814200224
 20
7.8448900283
 30
0.0
 10
4.9795683337
 20
7.8446942818
 30
0.0
 10
4.9774081949
 20
7.8444049589
 30
0.0
 10
4.9760436456
 20
7.8441626557
 30
0.0
 10
4.9752900231
 20
7.8439976779
 30
0.0
 10
4.9747189477
 20
7.8438344033
 30
0.0
 10
4.9744036751
 20
7.84370796
 30
0.0
 10
4.974282619
 20
7.8436378778
 30
0.0
  0
SPLINE
  5
360
100
AcDbEntity
  8
ALL_FEATURES
100
AcDbSpline
 62
7
  6
CONTINUOUS
 70
0
 71
3
 72
33
 73
29
 74
0
 42
0.0000001
 43
0.0000001
 44
0.0000000001
 40
0.0
 40
0.0
 40
0.0
 40
0.0
 40
0.1605711326
 40
0.2459988773
 40
0.3328829016
 40
0.4197846054
 40
0.5052097035
 40
0.5876835514
 40
0.6658034533
 40
0.7382300234
 40
0.8037337756
 40
0.8335285335
 40
0.8611873521
 40
0.8865909934
 40
0.9096225138
 40
0.9301884672
 40
0.9482103336
 40
0.9636106338
 40
0.9763171837
 40
0.9816467464
 40
0.9862897594
 40
0.9902441198
 40
0.9935091616
 40
0.9960872134
 40
0.997987955
 40
0.9986937785
 40
0.9992482896
 40
1.0
 40
1.0
 40
1.0
 40
1.0
 10
5.2704762564
 20
7.9793034875
 30
0.0
 10
5.2554770433
 20
7.9787754642
 30
0.0
 10
5.2324957361
 20
7.9780279188
 30
0.0
 10
5.2013962996
 20
7.9770633586
 30
0.0
 10
5.1771789851
 20
7.9763253289
 30
0.0
 10
5.1529619242
 20
7.9755872059
 30
0.0
 10
5.1291572647
 20
7.9748493145
 30
0.0
 10
5.1061738268
 20
7.9741118389
 30
0.0
 10
5.0844059713
 20
7.9733753208
 30
0.0
 10
5.064225236
 20
7.9726398166
 30
0.0
 10
5.0485606232
 20
7.9720105836
 30
0.0
 10
5.0370791806
 20
7.9715002636
 30
0.0
 10
5.0293433934
 20
7.9711300357
 30
0.0
 10
5.0222405195
 20
7.9707602725
 30
0.0
 10
5.015801566
 20
7.9703909001
 30
0.0
 10
5.0100538025
 20
7.970022141
 30
0.0
 10
5.0050208644
 20
7.9696545675
 30
0.0
 10
5.0007247003
 20
7.9692884851
 30
0.0
 10
4.9976153957
 20
7.9689697929
 30
0.0
 10
4.9955117089
 20
7.9687081929
 30
0.0
 10
4.994222935
 20
7.9685242015
 30
0.0
 10
4.9931293042
 20
7.968340766
 30
0.0
 10
4.9922314861
 20
7.9681589964
 30
0.0
 10
4.9915302578
 20
7.9679776697
 30
0.0
 10
4.9910713436
 20
7.9678197058
 30
0.0
 10
4.9908073014
 20
7.9676823776
 30
0.0
 10
4.9906551331
 20
7.9675771328
 30
0.0
 10
4.9905737508
 20
7.9674635245
 30
0.0
 10
4.9905740584
 20
7.9673932632
 30
0.0
  0
SPLINE
  5
361
100
AcDbEntity
  8
ALL_FEATURES
100
AcDbSpline
 62
7
  6
CONTINUOUS
 70
0
 71
3
 72
23
 73
19
 74
0
 42
0.0000001
 43
0.0000001
 44
0.0000000001
 40
0.0
 40
0.0
 40
0.0
 40
0.0
 40
0.1501778863
 40
0.31133094
 40
0.4739078248
 40
0.5527199356
 40
0.6283122679
 40
0.6995579575
 40
0.7654112992
 40
0.8248873556
 40
0.8771129395
 40
0.9213135562
 40
0.940194522
 40
0.9568421769
 40
0.9711935546
 40
0.9831898685
 40
0.9927976852
 40
1.0
 40
1.0
 40
1.0
 40
1.0
 10
5.2704762564
 20
7.9703734875
 30
0.0
 10
5.2565560978
 20
7.9698834506
 30
0.0
 10
5.2276959597
 20
7.9689396159
 30
0.0
 10
5.1837623084
 20
7.9675939656
 30
0.0
 10
5.1464443006
 20
7.9664611147
 30
0.0
 10
5.1170593451
 20
7.9655344212
 30
0.0
 10
5.0961419006
 20
7.9648471655
 30
0.0
 10
5.076427019
 20
7.9641605487
 30
0.0
 10
5.0582078223
 20
7.9634751666
 30
0.0
 10
5.0417539835
 20
7.9627915074
 30
0.0
 10
5.0273102575
 20
7.9621102437
 30
0.0
 10
5.0166317458
 20
7.9615199425
 30
0.0
 10
5.0092527721
 20
7.9610358853
 30
0.0
 10
5.0046391024
 20
7.9606930901
 30
0.0
 10
5.0006659178
 20
7.9603516096
 30
0.0
 10
4.9973480793
 20
7.9600122495
 30
0.0
 10
4.994697566
 20
7.9596754129
 30
0.0
 10
4.993158285
 20
7.9594203445
 30
0.0
 10
4.9925048333
 20
7.9592816706
 30
0.0
  0
LINE
  5
362
100
AcDbEntity
  8
ALL_FEATURES
100
AcDbLine
 62
7
  6
CONTINUOUS
 10
4.9925048333
 20
7.9592816706
 11
4.9908322864
 21
7.9587629758
  0
SPLINE
  5
363
100
AcDbEntity
  8
ALL_FEATURES
100
AcDbSpline
 62
7
  6
CONTINUOUS
 70
0
 71
3
 72
35
 73
31
 74
0
 42
0.0000001
 43
0.0000001
 44
0.0000000001
 40
0.0
 40
0.0
 40
0.0
 40
0.0
 40
0.0497774446
 40
0.110650494
 40
0.1809155533
 40
0.2587421729
 40
0.3420453096
 40
0.4285985787
 40
0.5160887779
 40
0.602181524
 40
0.6845764004
 40
0.7236940462
 40
0.7610708877
 40
0.7964640445
 40
0.8296324171
 40
0.8603503654
 40
0.8884232359
 40
0.9136603259
 40
0.9358861186
 40
0.9549662886
 40
0.9707746082
 40
0.9831998261
 40
0.9881248438
 40
0.9921850725
 40
0.9953785073
 40
0.9966513027
 40
0.9977100817
 40
0.9985587565
 40
0.9992065211
 40
1.0
 40
1.0
 40
1.0
 40
1.0
 10
5.3410758375
 20
7.8751368208
 30
0.0
 10
5.3352157891
 20
7.8747842198
 30
0.0
 10
5.3221825575
 20
7.8741167079
 30
0.0
 10
5.3008649845
 20
7.8732094138
 30
0.0
 10
5.2762368906
 20
7.8722976611
 30
0.0
 10
5.2489620057
 20
7.8713823375
 30
0.0
 10
5.2197651826
 20
7.8704650539
 30
0.0
 10
5.1894281548
 20
7.8695469496
 30
0.0
 10
5.1587619861
 20
7.8686285827
 30
0.0
 10
5.1285864589
 20
7.8677106252
 30
0.0
 10
5.1041142389
 20
7.8669338581
 30
0.0
 10
5.0853857048
 20
7.8663051929
 30
0.0
 10
5.0721980378
 20
7.8658419838
 30
0.0
 10
5.0597124559
 20
7.8653791349
 30
0.0
 10
5.0480127668
 20
7.8649166381
 30
0.0
 10
5.0371771238
 20
7.864454452
 30
0.0
 10
5.027277768
 20
7.8639929945
 30
0.0
 10
5.0183810921
 20
7.8635325387
 30
0.0
 10
5.0105465427
 20
7.8630730208
 30
0.0
 10
5.0038259572
 20
7.862615885
 30
0.0
 10
4.9982642684
 20
7.8621616243
 30
0.0
 10
4.9943732398
 20
7.8617637665
 30
0.0
 10
4.9918697633
 20
7.8614324205
 30
0.0
 10
4.9904513531
 20
7.8612045164
 30
0.0
 10
4.9894653181
 20
7.8610054601
 30
0.0
 10
4.988834529
 20
7.8608392664
 30
0.0
 10
4.9884779056
 20
7.8607260073
 30
0.0
 10
4.9881959291
 20
7.8606097961
 30
0.0
 10
4.9879659782
 20
7.8604857195
 30
0.0
 10
4.9878233027
 20
7.860341289
 30
0.0
 10
4.9878236782
 20
7.8602477086
 30
0.0
  0
SPLINE
  5
364
100
AcDbEntity
  8
ALL_FEATURES
100
AcDbSpline
 62
7
  6
CONTINUOUS
 70
0
 71
3
 72
31
 73
27
 74
0
 42
0.0000001
 43
0.0000001
 44
0.0000000001
 40
0.0
 40
0.0
 40
0.0
 40
0.0
 40
0.048301128
 40
0.1071429467
 40
0.1749644688
 40
0.2500956325
 40
0.3306404759
 40
0.4145657998
 40
0.4997512074
 40
0.584053388
 40
0.6653411972
 40
0.741568778
 40
0.8108164476
 40
0.8422667893
 40
0.8713330636
 40
0.897839321
 40
0.9216109626
 40
0.9424976186
 40
0.9603803211
 40
0.9751435013
 40
0.9813235079
 40
0.986693074
 40
0.9912473336
 40
0.9949826793
 40
0.9978982078
 40
1.0
 40
1.0
 40
1.0
 40
1.0
 10
5.3410758375
 20
7.8662068208
 30
0.0
 10
5.33540067
 20
7.8658653441
 30
0.0
 10
5.3228053544
 20
7.8652171569
 30
0.0
 10
5.3022294719
 20
7.8643346056
 30
0.0
 10
5.2784930879
 20
7.8634479559
 30
0.0
 10
5.252200664
 20
7.8625579797
 30
0.0
 10
5.2240117487
 20
7.8616661055
 30
0.0
 10
5.1946388374
 20
7.8607734299
 30
0.0
 10
5.1648234695
 20
7.8598803802
 30
0.0
 10
5.1353186878
 20
7.8589876582
 30
0.0
 10
5.1068687761
 20
7.8580958117
 30
0.0
 10
5.080191769
 20
7.8572055093
 30
0.0
 10
5.0593800659
 20
7.8564437975
 30
0.0
 10
5.0441183034
 20
7.8558244996
 30
0.0
 10
5.033884838
 20
7.8553753963
 30
0.0
 10
5.0245561192
 20
7.8549271063
 30
0.0
 10
5.0161913912
 20
7.8544796148
 30
0.0
 10
5.0088432518
 20
7.8540333324
 30
0.0
 10
5.002557636
 20
7.8535889095
 30
0.0
 10
4.9980035659
 20
7.8532024187
 30
0.0
 10
4.9949226119
 20
7.8528846483
 30
0.0
 10
4.9930401351
 20
7.8526613083
 30
0.0
 10
4.9914477381
 20
7.8524388758
 30
0.0
 10
4.9901468492
 20
7.8522183196
 30
0.0
 10
4.9891401205
 20
7.8519997739
 30
0.0
 10
4.9885717972
 20
7.8518321551
 30
0.0
 10
4.988342515
 20
7.8517392282
 30
0.0
  0
LINE
  5
365
100
AcDbEntity
  8
ALL_FEATURES
100
AcDbLine
 62
7
  6
CONTINUOUS
 10
4.988342515
 20
7.8517392282
 11
4.9880779695
 21
7.8516130705
  0
SPLINE
  5
366
100
AcDbEntity
  8
ALL_FEATURES
100
AcDbSpline
 62
7
  6
CONTINUOUS
 70
0
 71
3
 72
17
 73
13
 74
0
 42
0.0000001
 43
0.0000001
 44
0.0000000001
 40
0.0
 40
0.0
 40
0.0
 40
0.0
 40
0.1676316686
 40
0.331029815
 40
0.4856202564
 40
0.6274642288
 40
0.752844739
 40
0.8584684373
 40
0.902978411
 40
0.9415687785
 40
0.9739853987
 40
1.0
 40
1.0
 40
1.0
 40
1.0
 10
5.177173913
 20
7.8170645651
 30
0.0
 10
5.1662382082
 20
7.8167647424
 30
0.0
 10
5.1446429784
 20
7.8161726794
 30
0.0
 10
5.1129634362
 20
7.8152812375
 30
0.0
 10
5.0829674871
 20
7.8143909459
 30
0.0
 10
5.0554536652
 20
7.8135033879
 30
0.0
 10
5.0311372208
 20
7.8126192417
 30
0.0
 10
5.0131729576
 20
7.8118524749
 30
0.0
 10
5.000872833
 20
7.8112195218
 30
0.0
 10
4.9933471294
 20
7.8107739643
 30
0.0
 10
4.9870308101
 20
7.8103310312
 30
0.0
 10
4.983231292
 20
7.8100027534
 30
0.0
 10
4.9815423243
 20
7.8098303944
 30
0.0
  0
SPLINE
  5
367
100
AcDbEntity
  8
ALL_FEATURES
100
AcDbSpline
 62
7
  6
CONTINUOUS
 70
0
 71
3
 72
13
 73
9
 74
0
 42
0.0000001
 43
0.0000001
 44
0.0000000001
 40
0.0
 40
0.0
 40
0.0
 40
0.0
 40
0.3760146266
 40
0.6680771313
 40
0.7824524379
 40
0.8757083601
 40
0.9480233472
 40
1.0
 40
1.0
 40
1.0
 40
1.0
 10
4.9815423243
 20
7.8098303944
 30
0.0
 10
4.9806204364
 20
7.8097363158
 30
0.0
 10
4.9789839852
 20
7.8095546724
 30
0.0
 10
4.977073625
 20
7.8092864488
 30
0.0
 10
4.975862642
 20
7.80906213
 30
0.0
 10
4.975189406
 20
7.8089090223
 30
0.0
 10
4.9746752264
 20
7.8087573546
 30
0.0
 10
4.9743900783
 20
7.8086402767
 30
0.0
 10
4.9742792371
 20
7.8085760701
 30
0.0
  0
SPLINE
  5
368
100
AcDbEntity
  8
ALL_FEATURES
100
AcDbSpline
 62
7
  6
CONTINUOUS
 70
0
 71
3
 72
30
 73
26
 74
0
 42
0.0000001
 43
0.0000001
 44
0.0000000001
 40
0.0
 40
0.0
 40
0.0
 40
0.0
 40
0.0008626637
 40
0.0022577056
 40
0.0042140341
 40
0.0067411445
 40
0.0098431115
 40
0.0135219453
 40
0.02260862
 40
0.0339820512
 40
0.0476156628
 40
0.063481553
 40
0.0815511651
 40
0.1017896218
 40
0.1241443014
 40
0.174978315
 40
0.2335987958
 40
0.2994568707
 40
0.3719272082
 40
0.4503388161
 40
0.5339177492
 40
0.6218700103
 40
0.7133645898
 40
0.8075511722
 40
1.0
 40
1.0
 40
1.0
 40
1.0
 10
4.977831902
 20
8.0471615524
 30
0.0
 10
4.9778725235
 20
8.0472020593
 30
0.0
 10
4.978011567
 20
8.0472697436
 30
0.0
 10
4.9782771176
 20
8.0473537265
 30
0.0
 10
4.9786598027
 20
8.0474394042
 30
0.0
 10
4.9791563753
 20
8.0475264011
 30
0.0
 10
4.9797693237
 20
8.0476140487
 30
0.0
 10
4.9808168799
 20
8.0477405533
 30
0.0
 10
4.9824150487
 20
8.0478933866
 30
0.0
 10
4.9846755106
 20
8.048068546
 30
0.0
 10
4.9873878794
 20
8.0482447104
 30
0.0
 10
4.9905462526
 20
8.0484217852
 30
0.0
 10
4.9941444197
 20
8.0485994026
 30
0.0
 10
4.9981745282
 20
8.0487774354
 30
0.0
 10
5.0043823954
 20
8.0490261203
 30
0.0
 10
5.0131423023
 20
8.0493323756
 30
0.0
 10
5.0247950529
 20
8.0496878661
 30
0.0
 10
5.0378871538
 20
8.050044808
 30
0.0
 10
5.0522957513
 20
8.0504031239
 30
0.0
 10
5.0678830838
 20
8.0507623857
 30
0.0
 10
5.0845001829
 20
8.0511227071
 30
0.0
 10
5.1019874658
 20
8.0514838269
 30
0.0
 10
5.1201802743
 20
8.0518458671
 30
0.0
 10
5.1453209022
 20
8.0523331718
 30
0.0
 10
5.1643785236
 20
8.0526937215
 30
0.0
 10
5.177173913
 20
8.0529367407
 30
0.0
  0
SPLINE
  5
369
100
AcDbEntity
  8
ALL_FEATURES
100
AcDbSpline
 62
7
  6
CONTINUOUS
 70
0
 71
3
 72
17
 73
13
 74
0
 42
0.0000001
 43
0.0000001
 44
0.0000000001
 40
0.0
 40
0.0
 40
0.0
 40
0.0
 40
0.1664183324
 40
0.3287269106
 40
0.4824953165
 40
0.623902893
 40
0.7493190268
 40
0.855518738
 40
0.9005370557
 40
0.9397867899
 40
0.9730170584
 40
1.0
 40
1.0
 40
1.0
 40
1.0
 10
5.177173913
 20
7.7819479461
 30
0.0
 10
5.1663646871
 20
7.7816496746
 30
0.0
 10
5.1450131725
 20
7.781060505
 30
0.0
 10
5.1136746861
 20
7.7801735085
 30
0.0
 10
5.0839619653
 20
7.779287625
 30
0.0
 10
5.0566474326
 20
7.7784043453
 30
0.0
 10
5.0324254632
 20
7.7775243858
 30
0.0
 10
5.0144665646
 20
7.7767619129
 30
0.0
 10
5.0021064562
 20
7.7761336112
 30
0.0
 10
4.9944845589
 20
7.7756902335
 30
0.0
 10
4.9880367318
 20
7.775249275
 30
0.0
 10
4.9841374796
 20
7.7749240297
 30
0.0
 10
4.9823924607
 20
7.7747541669
 30
0.0
  0
SPLINE
  5
36A
100
AcDbEntity
  8
ALL_FEATURES
100
AcDbSpline
 62
7
  6
CONTINUOUS
 70
0
 71
3
 72
13
 73
9
 74
0
 42
0.0000001
 43
0.0000001
 44
0.0000000001
 40
0.0
 40
0.0
 40
0.0
 40
0.0
 40
0.3783889185
 40
0.6713414479
 40
0.7855408298
 40
0.8781795891
 40
0.949465098
 40
1.0
 40
1.0
 40
1.0
 40
1.0
 10
4.9823924607
 20
7.7747541669
 30
0.0
 10
4.9813573015
 20
7.774653403
 30
0.0
 10
4.9795222607
 20
7.7744590176
 30
0.0
 10
4.9773814637
 20
7.7741716553
 30
0.0
 10
4.9760288832
 20
7.773930971
 30
0.0
 10
4.9752815934
 20
7.7737670557
 30
0.0
 10
4.974715061
 20
7.7736048062
 30
0.0
 10
4.9744022171
 20
7.7734791657
 30
0.0
 10
4.9742820088
 20
7.7734095692
 30
0.0
  0
SPLINE
  5
36B
100
AcDbEntity
  8
ALL_FEATURES
100
AcDbSpline
 62
7
  6
CONTINUOUS
 70
0
 71
3
 72
45
 73
41
 74
0
 42
0.0000001
 43
0.0000001
 44
0.0000000001
 40
0.0
 40
0.0
 40
0.0
 40
0.0
 40
0.0009125846
 40
0.0017092727
 40
0.0027678815
 40
0.0040972632
 40
0.0057016265
 40
0.0075831925
 40
0.0097430726
 40
0.0148948908
 40
0.0211466902
 40
0.0284849451
 40
0.0368950486
 40
0.056867089
 40
0.0808854554
 40
0.1087237777
 40
0.1401433906
 40
0.1748490349
 40
0.2125244147
 40
0.2528341374
 40
0.2954014579
 40
0.3398429851
 40
0.3857545453
 40
0.4802948042
 40
0.5755863623
 40
0.6681626663
 40
0.7546564436
 40
0.7946333339
 40
0.83193036
 40
0.866218226
 40
0.8971831793
 40
0.9245374754
 40
0.9480478346
 40
0.9674918866
 40
0.9756338061
 40
0.9827020036
 40
0.9886823985
 40
0.9935621824
 40
0.9973324193
 40
1.0
 40
1.0
 40
1.0
 40
1.0
 10
5.368172593
 20
7.7977445368
 30
0.0
 10
5.3681721664
 20
7.7976281952
 30
0.0
 10
5.3679617889
 20
7.7974610957
 30
0.0
 10
5.3676561079
 20
7.7973207575
 30
0.0
 10
5.367266624
 20
7.7971847799
 30
0.0
 10
5.3667771408
 20
7.7970527655
 30
0.0
 10
5.3661772303
 20
7.7969182364
 30
0.0
 10
5.3654702892
 20
7.7967838773
 30
0.0
 10
5.364313774
 20
7.7965926871
 30
0.0
 10
5.3626001238
 20
7.7963598137
 30
0.0
 10
5.3602256915
 20
7.7960921571
 30
0.0
 10
5.3574337664
 20
7.7958235156
 30
0.0
 10
5.3528958157
 20
7.7954420726
 30
0.0
 10
5.3462313137
 20
7.7949777991
 30
0.0
 10
5.3370896134
 20
7.7944435827
 30
0.0
 10
5.326486469
 20
7.7939071503
 30
0.0
 10
5.3145193967
 20
7.7933694821
 30
0.0
 10
5.3012971418
 20
7.7928307397
 30
0.0
 10
5.2869406889
 20
7.792291286
 30
0.0
 10
5.2715813326
 20
7.7917515441
 30
0.0
 10
5.2553588984
 20
7.7912113475
 30
0.0
 10
5.2384219339
 20
7.7906709777
 30
0.0
 10
5.2148617325
 20
7.7899432513
 30
0.0
 10
5.184820986
 20
7.7890461371
 30
0.0
 10
5.1488335168
 20
7.787979681
 30
0.0
 10
5.113872289
 20
7.786914395
 30
0.0
 10
5.0859614236
 20
7.7860069544
 30
0.0
 10
5.0650962772
 20
7.7852684277
 30
0.0
 10
5.0508838334
 20
7.7847295149
 30
0.0
 10
5.0378211401
 20
7.7841914909
 30
0.0
 10
5.0260271388
 20
7.7836546004
 30
0.0
 10
5.015608612
 20
7.7831191198
 30
0.0
 10
5.0066609618
 20
7.7825860748
 30
0.0
 10
5.0001630575
 20
7.782122431
 30
0.0
 10
4.9957615315
 20
7.7817410822
 30
0.0
 10
4.9930732007
 20
7.7814731494
 30
0.0
 10
4.9908031582
 20
7.7812063639
 30
0.0
 10
4.9889561394
 20
7.7809422999
 30
0.0
 10
4.9875374642
 20
7.7806805031
 30
0.0
 10
4.9867393987
 20
7.7804791696
 30
0.0
 10
4.9864187822
 20
7.7803657671
 30
0.0
  0
LINE
  5
36C
100
AcDbEntity
  8
ALL_FEATURES
100
AcDbLine
 62
7
  6
CONTINUOUS
 10
4.9864187822
 20
7.7803657671
 11
4.9859944395
 21
7.7801795069
  0
SPLINE
  5
36D
100
AcDbEntity
  8
ALL_FEATURES
100
AcDbSpline
 62
7
  6
CONTINUOUS
 70
0
 71
3
 72
9
 73
5
 74
0
 42
0.0000001
 43
0.0000001
 44
0.0000000001
 40
0.0
 40
0.0
 40
0.0
 40
0.0
 40
0.2431689347
 40
1.0
 40
1.0
 40
1.0
 40
1.0
 10
5.0885305434
 20
1.941930412
 30
0.0
 10
5.0951892376
 20
1.9395509605
 30
0.0
 10
5.1230367564
 20
1.9310960047
 30
0.0
 10
5.1523849842
 20
1.9277795821
 30
0.0
 10
5.1743914224
 20
1.9280208024
 30
0.0
  0
SPLINE
  5
36E
100
AcDbEntity
  8
ALL_FEATURES
100
AcDbSpline
 62
7
  6
CONTINUOUS
 70
0
 71
3
 72
9
 73
5
 74
0
 42
0.0000001
 43
0.0000001
 44
0.0000000001
 40
0.0
 40
0.0
 40
0.0
 40
0.0
 40
0.5050180329
 40
1.0
 40
1.0
 40
1.0
 40
1.0
 10
5.190202972
 20
1.9286692572
 30
0.0
 10
5.201548353
 20
1.9294757509
 30
0.0
 10
5.223936079
 20
1.9325199229
 30
0.0
 10
5.2457270634
 20
1.9385243948
 30
0.0
 10
5.2562347195
 20
1.9422481794
 30
0.0
  0
LINE
  5
36F
100
AcDbEntity
  8
ALL_FEATURES
100
AcDbLine
 62
7
  6
CONTINUOUS
 10
5.3612039161
 20
8.0563749871
 11
5.3587278495
 21
8.0556973838
  0
LINE
  5
370
100
AcDbEntity
  8
ALL_FEATURES
100
AcDbLine
 62
7
  6
CONTINUOUS
 10
5.3587278495
 20
8.0556973838
 11
5.355433727
 21
8.0552199168
  0
SPLINE
  5
371
100
AcDbEntity
  8
ALL_FEATURES
100
AcDbSpline
 62
7
  6
CONTINUOUS
 70
0
 71
3
 72
39
 73
35
 74
0
 42
0.0000001
 43
0.0000001
 44
0.0000000001
 40
0.0
 40
0.0
 40
0.0
 40
0.0
 40
0.0136678308
 40
0.0311967288
 40
0.0524527403
 40
0.0772754167
 40
0.1054516735
 40
0.1367601314
 40
0.2077347711
 40
0.2878961362
 40
0.3746403418
 40
0.4651586779
 40
0.556516134
 40
0.6457505393
 40
0.6886661222
 40
0.729976733
 40
0.769348241
 40
0.8064675342
 40
0.841025545
 40
0.8727476583
 40
0.9013825872
 40
0.9266877834
 40
0.9484707517
 40
0.9665592322
 40
0.9808007204
 40
0.9864503756
 40
0.9911080521
 40
0.9930631063
 40
0.9947684524
 40
0.9962244089
 40
0.9974326154
 40
0.9983977631
 40
0.9991295784
 40
1.0
 40
1.0
 40
1.0
 40
1.0
 10
5.355433727
 20
8.0552199168
 30
0.0
 10
5.3537883824
 20
8.0550199664
 30
0.0
 10
5.3500231149
 20
8.0546456464
 30
0.0
 10
5.3436819766
 20
8.0541450489
 30
0.0
 10
5.3359847688
 20
8.053641249
 30
0.0
 10
5.3269943011
 20
8.0531351659
 30
0.0
 10
5.3167832002
 20
8.0526273633
 30
0.0
 10
5.3009786641
 20
8.0519192956
 30
0.0
 10
5.2788710247
 20
8.0510545661
 30
0.0
 10
5.2500415994
 20
8.0500498626
 30
0.0
 10
5.2188409404
 20
8.0490426833
 30
0.0
 10
5.186281955
 20
8.0480342044
 30
0.0
 10
5.1534208539
 20
8.0470256173
 30
0.0
 10
5.1263302301
 20
8.0461752286
 30
0.0
 10
5.1053065567
 20
8.0454862847
 30
0.0
 10
5.0903269664
 20
8.0449765005
 30
0.0
 10
5.0760506867
 20
8.0444669659
 30
0.0
 10
5.0625937995
 20
8.0439579582
 30
0.0
 10
5.0500652153
 20
8.043449359
 30
0.0
 10
5.0385663861
 20
8.0429414122
 30
0.0
 10
5.0281907389
 20
8.0424347156
 30
0.0
 10
5.019021934
 20
8.0419290852
 30
0.0
 10
5.011134034
 20
8.0414260653
 30
0.0
 10
5.0045909001
 20
8.0409261312
 30
0.0
 10
5.0000053633
 20
8.0404887339
 30
0.0
 10
4.9970506674
 20
8.0401238811
 30
0.0
 10
4.9955796579
 20
8.0399044823
 30
0.0
 10
4.9945869713
 20
8.0397245365
 30
0.0
 10
4.9939796509
 20
8.0395980415
 30
0.0
 10
4.9934644142
 20
8.0394714316
 30
0.0
 10
4.9930436554
 20
8.039346979
 30
0.0
 10
4.9927102562
 20
8.0392189931
 30
0.0
 10
4.9924427587
 20
8.0390845535
 30
0.0
 10
4.9922691007
 20
8.0389259209
 30
0.0
 10
4.9922692184
 20
8.0388203681
 30
0.0
  0
SPLINE
  5
372
100
AcDbEntity
  8
ALL_FEATURES
100
AcDbSpline
 62
7
  6
CONTINUOUS
 70
0
 71
3
 72
11
 73
7
 74
0
 42
0.0000001
 43
0.0000001
 44
0.0000000001
 40
0.0
 40
0.0
 40
0.0
 40
0.0
 40
0.152977027
 40
0.369799031
 40
0.6519850957
 40
1.0
 40
1.0
 40
1.0
 40
1.0
 10
5.3623723986
 20
8.0206626971
 30
0.0
 10
5.3622326953
 20
8.0205820875
 30
0.0
 10
5.3618677237
 20
8.0204373173
 30
0.0
 10
5.3612064372
 20
8.0202504803
 30
0.0
 10
5.3603328344
 20
8.0200616884
 30
0.0
 10
5.3596783812
 20
8.0199467332
 30
0.0
 10
5.3593162239
 20
8.019887746
 30
0.0
  0
SPLINE
  5
373
100
AcDbEntity
  8
ALL_FEATURES
100
AcDbSpline
 62
7
  6
CONTINUOUS
 70
0
 71
3
 72
40
 73
36
 74
0
 42
0.0000001
 43
0.0000001
 44
0.0000000001
 40
0.0
 40
0.0
 40
0.0
 40
0.0
 40
0.0049472314
 40
0.0109299681
 40
0.0259614291
 40
0.0449638775
 40
0.0677870396
 40
0.0942447057
 40
0.1241013112
 40
0.1929997495
 40
0.2721410395
 40
0.3588430043
 40
0.4501652175
 40
0.543004801
 40
0.6342145188
 40
0.6782368456
 40
0.7207039132
 40
0.7612495205
 40
0.7995375034
 40
0.8352399835
 40
0.8680497015
 40
0.8976999574
 40
0.923930982
 40
0.9465236146
 40
0.9652986485
 40
0.9800883641
 40
0.9859546104
 40
0.9907905466
 40
0.9928203572
 40
0.9945908687
 40
0.9961023786
 40
0.9973562332
 40
0.9983562938
 40
0.9991122068
 40
1.0
 40
1.0
 40
1.0
 40
1.0
 10
5.3593162239
 20
8.019887746
 30
0.0
 10
5.358716103
 20
8.01979
 30
0.0
 10
5.3573859087
 20
8.0196008031
 30
0.0
 10
5.3542169847
 20
8.0192270484
 30
0.0
 10
5.3493186003
 20
8.0187789474
 30
0.0
 10
5.3423494656
 20
8.0182657155
 30
0.0
 10
5.3339729354
 20
8.0177499856
 30
0.0
 10
5.3242604639
 20
8.0172318815
 30
0.0
 10
5.3088886125
 20
8.0165039352
 30
0.0
 10
5.2870423683
 20
8.0156185928
 30
0.0
 10
5.2582101331
 20
8.01459274
 30
0.0
 10
5.2266204696
 20
8.0135638497
 30
0.0
 10
5.1933464867
 20
8.0125330765
 30
0.0
 10
5.1595182446
 20
8.0115018314
 30
0.0
 10
5.1315010339
 20
8.0106332319
 30
0.0
 10
5.1096726461
 20
8.009929141
 30
0.0
 10
5.0940683848
 20
8.0094075853
 30
0.0
 10
5.0791692938
 20
8.008886205
 30
0.0
 10
5.0651021077
 20
8.0083652915
 30
0.0
 10
5.0519863534
 20
8.0078449383
 30
0.0
 10
5.0399330795
 20
8.0073250869
 30
0.0
 10
5.0290449882
 20
8.0068064922
 30
0.0
 10
5.0194141376
 20
8.0062891684
 30
0.0
 10
5.0111218544
 20
8.0057742503
 30
0.0
 10
5.004238824
 20
8.0052625767
 30
0.0
 10
4.9994126523
 20
8.0048150792
 30
0.0
 10
4.9963017739
 20
8.0044415832
 30
0.0
 10
4.9947529148
 20
8.0042170029
 30
0.0
 10
4.9937074267
 20
8.0040328013
 30
0.0
 10
4.9930676697
 20
8.003903326
 30
0.0
 10
4.9925246941
 20
8.0037737161
 30
0.0
 10
4.9920813504
 20
8.0036464491
 30
0.0
 10
4.9917297202
 20
8.0035153962
 30
0.0
 10
4.9914497152
 20
8.0033786967
 30
0.0
 10
4.9912647647
 20
8.0032163608
 30
0.0
 10
4.9912650354
 20
8.0031072488
 30
0.0
  0
LINE
  5
374
100
AcDbEntity
  8
ALL_FEATURES
100
AcDbLine
 62
7
  6
CONTINUOUS
 10
5.3800523759
 20
8.0308840168
 11
5.3793355981
 21
8.0306055238
  0
LINE
  5
375
100
AcDbEntity
  8
ALL_FEATURES
100
AcDbLine
 62
7
  6
CONTINUOUS
 10
5.3793355981
 20
8.0306055238
 11
5.377041749
 21
8.0301329556
  0
SPLINE
  5
376
100
AcDbEntity
  8
ALL_FEATURES
100
AcDbSpline
 62
7
  6
CONTINUOUS
 70
0
 71
3
 72
19
 73
15
 74
0
 42
0.0000001
 43
0.0000001
 44
0.0000000001
 40
0.0
 40
0.0
 40
0.0
 40
0.0
 40
0.0089057234
 40
0.0196637385
 40
0.04667976
 40
0.0808868142
 40
0.1220104474
 40
0.169753664
 40
0.2237715844
 40
0.3489209264
 40
0.4936997267
 40
0.6537107804
 40
0.8242796782
 40
1.0
 40
1.0
 40
1.0
 40
1.0
 10
5.377041749
 20
8.0301329556
 30
0.0
 10
5.3764552379
 20
8.0300395227
 30
0.0
 10
5.3751561886
 20
8.0298586758
 30
0.0
 10
5.3720636527
 20
8.0295011748
 30
0.0
 10
5.3672819446
 20
8.0290720531
 30
0.0
 10
5.3604741668
 20
8.0285815632
 30
0.0
 10
5.3522812702
 20
8.0280881252
 30
0.0
 10
5.3427653892
 20
8.0275923505
 30
0.0
 10
5.3276491313
 20
8.0268953125
 30
0.0
 10
5.3060622317
 20
8.0260466047
 30
0.0
 10
5.2774071299
 20
8.0250647582
 30
0.0
 10
5.2457215902
 20
8.0240795162
 30
0.0
 10
5.2119717679
 20
8.0230923237
 30
0.0
 10
5.1888876645
 20
8.0224370035
 30
0.0
 10
5.177173913
 20
8.0221044615
 30
0.0
  0
SPLINE
  5
377
100
AcDbEntity
  8
ALL_FEATURES
100
AcDbSpline
 62
7
  6
CONTINUOUS
 70
0
 71
3
 72
11
 73
7
 74
0
 42
0.0000001
 43
0.0000001
 44
0.0000000001
 40
0.0
 40
0.0
 40
0.0
 40
0.0
 40
0.1469597094
 40
0.3618263365
 40
0.6460616379
 40
1.0
 40
1.0
 40
1.0
 40
1.0
 10
5.3632508759
 20
7.9849495998
 30
0.0
 10
5.3630897104
 20
7.9848565057
 30
0.0
 10
5.3626573117
 20
7.9846936064
 30
0.0
 10
5.3618670015
 20
7.9844843613
 30
0.0
 10
5.3608065478
 20
7.9842728006
 30
0.0
 10
5.3600086525
 20
7.9841442228
 30
0.0
 10
5.3595653008
 20
7.9840781137
 30
0.0
  0
SPLINE
  5
378
100
AcDbEntity
  8
ALL_FEATURES
100
AcDbSpline
 62
7
  6
CONTINUOUS
 70
0
 71
3
 72
15
 73
11
 74
0
 42
0.0000001
 43
0.0000001
 44
0.0000000001
 40
0.0
 40
0.0
 40
0.0
 40
0.0
 40
0.0254608924
 40
0.0564616985
 40
0.1347578163
 40
0.233986619
 40
0.3531280993
 40
0.4909043349
 40
0.6459119262
 40
1.0
 40
1.0
 40
1.0
 40
1.0
 10
5.3595653008
 20
7.9840781137
 30
0.0
 10
5.3588162292
 20
7.983966418
 30
0.0
 10
5.3571503316
 20
7.9837508598
 30
0.0
 10
5.3531643249
 20
7.9833255314
 30
0.0
 10
5.3469817593
 20
7.9828166056
 30
0.0
 10
5.3381763692
 20
7.9822336501
 30
0.0
 10
5.3275985372
 20
7.9816480374
 30
0.0
 10
5.3153596175
 20
7.9810590188
 30
0.0
 10
5.2961355186
 20
7.9802348361
 30
0.0
 10
5.2810023467
 20
7.9796742104
 30
0.0
 10
5.2704762564
 20
7.9793034875
 30
0.0
  0
SPLINE
  5
379
100
AcDbEntity
  8
ALL_FEATURES
100
AcDbSpline
 62
7
  6
CONTINUOUS
 70
0
 71
3
 72
12
 73
8
 74
0
 42
0.0000001
 43
0.0000001
 44
0.0000000001
 40
0.0
 40
0.0
 40
0.0
 40
0.0
 40
0.2379670579
 40
0.3608072662
 40
0.485788308
 40
0.7407271848
 40
1.0
 40
1.0
 40
1.0
 40
1.0
 10
5.0619962355
 20
2.0269466809
 30
0.0
 10
5.0699872683
 20
2.0228232743
 30
0.0
 10
5.0825532473
 20
2.0174047059
 30
0.0
 10
5.1000154884
 20
2.0117224445
 30
0.0
 10
5.1184109997
 20
2.006932001
 30
0.0
 10
5.1422844448
 20
2.0029204264
 30
0.0
 10
5.1617313401
 20
2.0018510699
 30
0.0
 10
5.1715285985
 20
2.0018505734
 30
0.0
  0
SPLINE
  5
37A
100
AcDbEntity
  8
ALL_FEATURES
100
AcDbSpline
 62
7
  6
CONTINUOUS
 70
0
 71
3
 72
9
 73
5
 74
0
 42
0.0000001
 43
0.0000001
 44
0.0000000001
 40
0.0
 40
0.0
 40
0.0
 40
0.0
 40
0.5097830583
 40
1.0
 40
1.0
 40
1.0
 40
1.0
 10
5.1875750866
 20
2.0023321498
 30
0.0
 10
5.2046116842
 20
2.0033553294
 30
0.0
 10
5.2379214129
 20
2.0085439104
 30
0.0
 10
5.2695842228
 20
2.0202952289
 30
0.0
 10
5.2842036392
 20
2.0277540477
 30
0.0
  0
SPLINE
  5
37B
100
AcDbEntity
  8
ALL_FEATURES
100
AcDbSpline
 62
7
  6
CONTINUOUS
 70
0
 71
3
 72
45
 73
41
 74
0
 42
0.0000001
 43
0.0000001
 44
0.0000000001
 40
0.0
 40
0.0
 40
0.0
 40
0.0
 40
0.0009151094
 40
0.0017141705
 40
0.0027772285
 40
0.0041134403
 40
0.0057261174
 40
0.0076163376
 40
0.0097841732
 40
0.0149503279
 40
0.0212178144
 40
0.0285772772
 40
0.0370173517
 40
0.0570548968
 40
0.0811387191
 40
0.1090644176
 40
0.1405714707
 40
0.1753679937
 40
0.2131468632
 40
0.2535524453
 40
0.2962184075
 40
0.3407577841
 40
0.3867571455
 40
0.481455093
 40
0.5768548286
 40
0.6694800689
 40
0.7559538046
 40
0.7958846285
 40
0.8331230954
 40
0.867330429
 40
0.8981862134
 40
0.9254235956
 40
0.9487875559
 40
0.9680672634
 40
0.9761259765
 40
0.9831052688
 40
0.9889873858
 40
0.9937628108
 40
0.9974310296
 40
1.0
 40
1.0
 40
1.0
 40
1.0
 10
5.3670453132
 20
7.8334580821
 30
0.0
 10
5.3670456544
 20
7.8333420245
 30
0.0
 10
5.3668366987
 20
7.8331738488
 30
0.0
 10
5.3665316864
 20
7.8330334337
 30
0.0
 10
5.366142737
 20
7.8328971179
 30
0.0
 10
5.3656534522
 20
7.8327649405
 30
0.0
 10
5.3650537758
 20
7.8326301697
 30
0.0
 10
5.3643474681
 20
7.8324955737
 30
0.0
 10
5.3631932061
 20
7.8323040375
 30
0.0
 10
5.3614838338
 20
7.8320706343
 30
0.0
 10
5.3591154219
 20
7.8318023817
 30
0.0
 10
5.3563296705
 20
7.831533174
 30
0.0
 10
5.3518006568
 20
7.8311512072
 30
0.0
 10
5.3451505477
 20
7.8306861134
 30
0.0
 10
5.336028846
 20
7.8301505668
 30
0.0
 10
5.325450455
 20
7.8296134664
 30
0.0
 10
5.313512005
 20
7.8290747144
 30
0.0
 10
5.3003228358
 20
7.8285349271
 30
0.0
 10
5.2860042755
 20
7.8279947157
 30
0.0
 10
5.2706870427
 20
7.8274539173
 30
0.0
 10
5.2545119212
 20
7.8269128441
 30
0.0
 10
5.237627
 20
7.8263716357
 30
0.0
 10
5.2141458006
 20
7.8256427286
 30
0.0
 10
5.18421644
 20
7.8247444149
 30
0.0
 10
5.1483762222
 20
7.8236763741
 30
0.0
 10
5.113579467
 20
7.822609586
 30
0.0
 10
5.0858159894
 20
7.8217009503
 30
0.0
 10
5.0650752566
 20
7.8209611025
 30
0.0
 10
5.0509602863
 20
7.8204215793
 30
0.0
 10
5.0379971115
 20
7.8198830312
 30
0.0
 10
5.0263034833
 20
7.8193452512
 30
0.0
 10
5.0159865446
 20
7.8188095169
 30
0.0
 10
5.0071399152
 20
7.8182758988
 30
0.0
 10
5.0007260769
 20
7.8178114819
 30
0.0
 10
4.9963904703
 20
7.8174296357
 30
0.0
 10
4.9937507056
 20
7.8171616103
 30
0.0
 10
4.9915298901
 20
7.8168946722
 30
0.0
 10
4.9897316398
 20
7.8166304123
 30
0.0
 10
4.9883600693
 20
7.8163686143
 30
0.0
 10
4.9875923848
 20
7.8161670425
 30
0.0
 10
4.987287374
 20
7.8160525039
 30
0.0
  0
LINE
  5
37C
100
AcDbEntity
  8
ALL_FEATURES
100
AcDbLine
 62
7
  6
CONTINUOUS
 10
4.987287374
 20
7.8160525039
 11
4.9869398664
 21
7.8158944662
  0
LINE
  5
37D
100
AcDbEntity
  8
ALL_FEATURES
100
AcDbLine
 62
7
  6
CONTINUOUS
 10
5.3660203102
 20
7.8778089485
 11
5.3631270591
 21
7.8770658486
  0
SPLINE
  5
37E
100
AcDbEntity
  8
ALL_FEATURES
100
AcDbSpline
 62
7
  6
CONTINUOUS
 70
0
 71
3
 72
11
 73
7
 74
0
 42
0.0000001
 43
0.0000001
 44
0.0000000001
 40
0.0
 40
0.0
 40
0.0
 40
0.0
 40
0.1632894526
 40
0.3857894949
 40
0.6654955822
 40
1.0
 40
1.0
 40
1.0
 40
1.0
 10
5.3631270591
 20
7.8770658486
 30
0.0
 10
5.3619380493
 20
7.876869145
 30
0.0
 10
5.3591114688
 20
7.8765136148
 30
0.0
 10
5.3542219613
 20
7.8760469827
 30
0.0
 10
5.348064135
 20
7.8755761246
 30
0.0
 10
5.343540205
 20
7.8752853026
 30
0.0
 10
5.3410758375
 20
7.8751368208
 30
0.0
  0
SPLINE
  5
37F
100
AcDbEntity
  8
ALL_FEATURES
100
AcDbSpline
 62
7
  6
CONTINUOUS
 70
0
 71
3
 72
45
 73
41
 74
0
 42
0.0000001
 43
0.0000001
 44
0.0000000001
 40
0.0
 40
0.0
 40
0.0
 40
0.0
 40
0.0009300628
 40
0.0017294634
 40
0.0027880579
 40
0.0041152013
 40
0.0057153631
 40
0.0075909062
 40
0.009743092
 40
0.0148753632
 40
0.0211023485
 40
0.028410648
 40
0.0367857023
 40
0.056672894
 40
0.0805899824
 40
0.1083119299
 40
0.13960206
 40
0.1741685532
 40
0.2116970344
 40
0.251855458
 40
0.294270322
 40
0.338561072
 40
0.3843272464
 40
0.4786060608
 40
0.5736976349
 40
0.6661606208
 40
0.7526501415
 40
0.7926714464
 40
0.8300464772
 40
0.864446929
 40
0.8955601648
 40
0.9230988069
 40
0.946829319
 40
0.9665290559
 40
0.9748117797
 40
0.9820291322
 40
0.9881667959
 40
0.9932116633
 40
0.9971542679
 40
1.0
 40
1.0
 40
1.0
 40
1.0
 10
5.3614657008
 20
8.0477483504
 30
0.0
 10
5.3614652745
 20
8.0476339111
 30
0.0
 10
5.3612658411
 20
8.0474666359
 30
0.0
 10
5.3609694929
 20
8.0473255626
 30
0.0
 10
5.3605955226
 20
8.0471898821
 30
0.0
 10
5.3601249351
 20
8.0470580541
 30
0.0
 10
5.3595485583
 20
8.0469238003
 30
0.0
 10
5.3588693178
 20
8.0467897019
 30
0.0
 10
5.3577582989
 20
8.0465989136
 30
0.0
 10
5.3561118398
 20
8.0463665267
 30
0.0
 10
5.353830328
 20
8.046099429
 30
0.0
 10
5.3511476195
 20
8.0458313546
 30
0.0
 10
5.3467873191
 20
8.0454507337
 30
0.0
 10
5.3403833191
 20
8.0449874276
 30
0.0
 10
5.3315983921
 20
8.0444543845
 30
0.0
 10
5.3214082784
 20
8.0439191277
 30
0.0
 10
5.3099063063
 20
8.0433826457
 30
0.0
 10
5.2971965525
 20
8.0428451264
 30
0.0
 10
5.2833947358
 20
8.0423068977
 30
0.0
 10
5.2686265417
 20
8.041768403
 30
0.0
 10
5.2530257764
 20
8.0412294739
 30
0.0
 10
5.2367346161
 20
8.0406903816
 30
0.0
 10
5.2140645322
 20
8.0399643052
 30
0.0
 10
5.1851458531
 20
8.0390692184
 30
0.0
 10
5.1504838136
 20
8.0380053548
 30
0.0
 10
5.1167806333
 20
8.0369426884
 30
0.0
 10
5.0898520183
 20
8.0360377873
 30
0.0
 10
5.069700011
 20
8.0353015077
 30
0.0
 10
5.0559543914
 20
8.0347640292
 30
0.0
 10
5.0433057312
 20
8.0342274275
 30
0.0
 10
5.0318685343
 20
8.0336919464
 30
0.0
 10
5.0217457299
 20
8.0331578279
 30
0.0
 10
5.0130294303
 20
8.032626077
 30
0.0
 10
5.0066828758
 20
8.0321638225
 30
0.0
 10
5.0023683041
 20
8.0317840206
 30
0.0
 10
4.999719202
 20
8.0315167088
 30
0.0
 10
4.9974708204
 20
8.0312504917
 30
0.0
 10
4.9956280213
 20
8.0309866516
 30
0.0
 10
4.9941957674
 20
8.0307249988
 30
0.0
 10
4.9933829387
 20
8.0305245644
 30
0.0
 10
4.9930509174
 20
8.0304133424
 30
0.0
  0
LINE
  5
380
100
AcDbEntity
  8
ALL_FEATURES
100
AcDbLine
 62
7
  6
CONTINUOUS
 10
4.9930509174
 20
8.0304133424
 11
4.9925308793
 21
8.0301927538
  0
SPLINE
  5
381
100
AcDbEntity
  8
ALL_FEATURES
100
AcDbSpline
 62
7
  6
CONTINUOUS
 70
0
 71
3
 72
11
 73
7
 74
0
 42
0.0000001
 43
0.0000001
 44
0.0000000001
 40
0.0
 40
0.0
 40
0.0
 40
0.0
 40
0.1524495723
 40
0.3689590008
 40
0.6512533432
 40
1.0
 40
1.0
 40
1.0
 40
1.0
 10
5.3651461388
 20
7.9135223481
 30
0.0
 10
5.3650074301
 20
7.9134421853
 30
0.0
 10
5.3646444221
 20
7.9132982958
 30
0.0
 10
5.3639859369
 20
7.9131127106
 30
0.0
 10
5.3631144921
 20
7.9129251858
 30
0.0
 10
5.3624612081
 20
7.9128111083
 30
0.0
 10
5.3620994227
 20
7.9127525616
 30
0.0
  0
SPLINE
  5
382
100
AcDbEntity
  8
ALL_FEATURES
100
AcDbSpline
 62
7
  6
CONTINUOUS
 70
0
 71
3
 72
41
 73
37
 74
0
 42
0.0000001
 43
0.0000001
 44
0.0000000001
 40
0.0
 40
0.0
 40
0.0
 40
0.0
 40
0.0049148364
 40
0.0108662169
 40
0.0258262793
 40
0.0447683535
 40
0.0675452914
 40
0.0939516698
 40
0.1237728699
 40
0.1926147905
 40
0.271733735
 40
0.3584360345
 40
0.4497792466
 40
0.5426613479
 40
0.633924464
 40
0.6779787491
 40
0.7204740704
 40
0.7610538907
 40
0.7993752422
 40
0.835104157
 40
0.8679475591
 40
0.8976245648
 40
0.9238766066
 40
0.9464960789
 40
0.9652848106
 40
0.973191168
 40
0.9800875534
 40
0.9859619115
 40
0.9908032981
 40
0.9928339122
 40
0.9946035333
 40
0.996113048
 40
0.997364896
 40
0.9983635509
 40
0.9991181753
 40
1.0
 40
1.0
 40
1.0
 40
1.0
 10
5.3620994227
 20
7.9127525616
 30
0.0
 10
5.3614941782
 20
7.9126546166
 30
0.0
 10
5.3601516509
 20
7.9124653301
 30
0.0
 10
5.3569514814
 20
7.9120914243
 30
0.0
 10
5.3519994283
 20
7.9116427048
 30
0.0
 10
5.3449473468
 20
7.9111293742
 30
0.0
 10
5.336464292
 20
7.9106136732
 30
0.0
 10
5.3266221957
 20
7.9100950087
 30
0.0
 10
5.3110368946
 20
7.9093668229
 30
0.0
 10
5.2888763608
 20
7.9084807476
 30
0.0
 10
5.2596204359
 20
7.9074545179
 30
0.0
 10
5.2275560505
 20
7.9064250429
 30
0.0
 10
5.1937739795
 20
7.9053936707
 30
0.0
 10
5.1594227086
 20
7.9043619044
 30
0.0
 10
5.130968431
 20
7.9034927701
 30
0.0
 10
5.1087977471
 20
7.9027883713
 30
0.0
 10
5.0929471307
 20
7.9022664223
 30
0.0
 10
5.0778120817
 20
7.9017447767
 30
0.0
 10
5.0635216395
 20
7.9012236247
 30
0.0
 10
5.0501969725
 20
7.9007027997
 30
0.0
 10
5.0379515238
 20
7.9001827903
 30
0.0
 10
5.0268894173
 20
7.8996638478
 30
0.0
 10
5.0171042014
 20
7.8991461832
 30
0.0
 10
5.0086793491
 20
7.8986307182
 30
0.0
 10
5.0025434694
 20
7.8981827473
 30
0.0
 10
4.9983690946
 20
7.8978147305
 30
0.0
 10
4.9958026083
 20
7.8975556163
 30
0.0
 10
4.9936206114
 20
7.8972974618
 30
0.0
 10
4.9920462126
 20
7.8970728564
 30
0.0
 10
4.9909838831
 20
7.8968885226
 30
0.0
 10
4.9903344186
 20
7.8967589651
 30
0.0
 10
4.9897834641
 20
7.8966292434
 30
0.0
 10
4.9893337164
 20
7.8965018561
 30
0.0
 10
4.9889765938
 20
7.8963707601
 30
0.0
 10
4.9886929103
 20
7.8962342087
 30
0.0
 10
4.9885034578
 20
7.8960723513
 30
0.0
 10
4.9885032007
 20
7.8959623453
 30
0.0
  0
SPLINE
  5
383
100
AcDbEntity
  8
ALL_FEATURES
100
AcDbSpline
 62
7
  6
CONTINUOUS
 70
0
 71
3
 72
14
 73
10
 74
0
 42
0.0000001
 43
0.0000001
 44
0.0000000001
 40
0.0
 40
0.0
 40
0.0
 40
0.0
 40
0.3145371205
 40
0.4632122525
 40
0.6018078248
 40
0.7273520391
 40
0.8370748193
 40
0.9286141106
 40
1.0
 40
1.0
 40
1.0
 40
1.0
 10
5.177173913
 20
7.9133629887
 30
0.0
 10
5.196881307
 20
7.9139222905
 30
0.0
 10
5.2259040197
 20
7.9147449355
 30
0.0
 10
5.2636083157
 20
7.915887433
 30
0.0
 10
5.2894701592
 20
7.9167268442
 30
0.0
 10
5.3128891213
 20
7.9175637791
 30
0.0
 10
5.3333567573
 20
7.9183962085
 30
0.0
 10
5.35042652
 20
7.9192227623
 30
0.0
 10
5.3606207438
 20
7.9198415739
 30
0.0
 10
5.3650827858
 20
7.9201752355
 30
0.0
  0
SPLINE
  5
384
100
AcDbEntity
  8
ALL_FEATURES
100
AcDbSpline
 62
7
  6
CONTINUOUS
 70
0
 71
3
 72
15
 73
11
 74
0
 42
0.0000001
 43
0.0000001
 44
0.0000000001
 40
0.0
 40
0.0
 40
0.0
 40
0.0
 40
0.3894980637
 40
0.5497732751
 40
0.6867796267
 40
0.8003323593
 40
0.8902954593
 40
0.9566625787
 40
0.9811357418
 40
1.0
 40
1.0
 40
1.0
 40
1.0
 10
5.3650827858
 20
7.9201752355
 30
0.0
 10
5.367042487
 20
7.9203217776
 30
0.0
 10
5.3698074881
 20
7.9205459208
 30
0.0
 10
5.373255312
 20
7.9208926388
 30
0.0
 10
5.3753140237
 20
7.9211346507
 30
0.0
 10
5.3770156399
 20
7.9213747144
 30
0.0
 10
5.3783562553
 20
7.9216130889
 30
0.0
 10
5.3792458555
 20
7.921822373
 30
0.0
 10
5.3797700832
 20
7.9220008398
 30
0.0
 10
5.3799700559
 20
7.922091414
 30
0.0
 10
5.380052419
 20
7.9221391122
 30
0.0
  0
SPLINE
  5
385
100
AcDbEntity
  8
ALL_FEATURES
100
AcDbSpline
 62
7
  6
CONTINUOUS
 70
0
 71
3
 72
44
 73
40
 74
0
 42
0.0000001
 43
0.0000001
 44
0.0000000001
 40
0.0
 40
0.0
 40
0.0
 40
0.0
 40
0.0009162146
 40
0.0017031418
 40
0.0027445931
 40
0.0040494353
 40
0.0056217191
 40
0.0074634193
 40
0.009575483
 40
0.0146117491
 40
0.0207276029
 40
0.0279089264
 40
0.0361388984
 40
0.0556745294
 40
0.0791813644
 40
0.1064420921
 40
0.1372155184
 40
0.1712382736
 40
0.2081965314
 40
0.2477679004
 40
0.2896019673
 40
0.3333203157
 40
0.3785401963
 40
0.4718579386
 40
0.5662432817
 40
0.6583450803
 40
0.7449009563
 40
0.7851296631
 40
0.8228456257
 40
0.8577064017
 40
0.8894147018
 40
0.9176835482
 40
0.9422610058
 40
0.9629435938
 40
0.979538707
 40
0.9862605801
 40
0.9919170538
 40
0.9964988171
 40
1.0
 40
1.0
 40
1.0
 40
1.0
 10
5.3626332782
 20
8.0120341169
 30
0.0
 10
5.3626329418
 20
8.011920908
 30
0.0
 10
5.3624358222
 20
8.0117553407
 30
0.0
 10
5.3621429609
 20
8.011615689
 30
0.0
 10
5.3617736385
 20
8.0114814006
 30
0.0
 10
5.3613091508
 20
8.0113509174
 30
0.0
 10
5.3607405793
 20
8.011218036
 30
0.0
 10
5.3600709304
 20
8.0110853065
 30
0.0
 10
5.3589760964
 20
8.0108964215
 30
0.0
 10
5.3573531281
 20
8.0106662671
 30
0.0
 10
5.3551031442
 20
8.0104019771
 30
0.0
 10
5.3524563693
 20
8.0101366757
 30
0.0
 10
5.348154628
 20
8.009760034
 30
0.0
 10
5.3418356404
 20
8.0093011357
 30
0.0
 10
5.3331647648
 20
8.0087735583
 30
0.0
 10
5.3231032292
 20
8.0082438421
 30
0.0
 10
5.311740851
 20
8.0077125293
 30
0.0
 10
5.2991790817
 20
8.0071805441
 30
0.0
 10
5.2855293694
 20
8.0066476966
 30
0.0
 10
5.2709138076
 20
8.0061144815
 30
0.0
 10
5.2554624425
 20
8.0055810123
 30
0.0
 10
5.2393127512
 20
8.0050472123
 30
0.0
 10
5.2168042986
 20
8.0043278878
 30
0.0
 10
5.188037501
 20
8.0034409249
 30
0.0
 10
5.1534802703
 20
8.0023871527
 30
0.0
 10
5.119758916
 20
8.0013342698
 30
0.0
 10
5.0927276313
 20
8.0004387868
 30
0.0
 10
5.072414631
 20
7.9997103927
 30
0.0
 10
5.0584862985
 20
7.9991780785
 30
0.0
 10
5.0456115705
 20
7.9986462187
 30
0.0
 10
5.0339051732
 20
7.9981154706
 30
0.0
 10
5.0234707931
 20
7.9975859907
 30
0.0
 10
5.0144005846
 20
7.9970585013
 30
0.0
 10
5.0067755337
 20
7.9965340424
 30
0.0
 10
5.0013576314
 20
7.9960760653
 30
0.0
 10
4.9977977007
 20
7.9956961754
 30
0.0
 10
4.9957183792
 20
7.9954331317
 30
0.0
 10
4.9940407913
 20
7.9951720288
 30
0.0
 10
4.9930606923
 20
7.9949753116
 30
0.0
 10
4.9926411552
 20
7.99486975
 30
0.0
  0
LINE
  5
386
100
AcDbEntity
  8
ALL_FEATURES
100
AcDbLine
 62
7
  6
CONTINUOUS
 10
4.9926411552
 20
7.99486975
 11
4.9915247018
 21
7.9944779998
  0
SPLINE
  5
387
100
AcDbEntity
  8
ALL_FEATURES
100
AcDbSpline
 62
7
  6
CONTINUOUS
 70
0
 71
3
 72
11
 73
7
 74
0
 42
0.0000001
 43
0.0000001
 44
0.0000000001
 40
0.0
 40
0.0
 40
0.0
 40
0.0
 40
0.2367821899
 40
0.4842156947
 40
0.7396758716
 40
1.0
 40
1.0
 40
1.0
 40
1.0
 10
5.0559965866
 20
2.0546525656
 30
0.0
 10
5.0642049246
 20
2.0500646063
 30
0.0
 10
5.0817108656
 20
2.0419288048
 30
0.0
 10
5.1098237462
 20
2.0331549731
 30
0.0
 10
5.1397165961
 20
2.0277285496
 30
0.0
 10
5.1602158609
 20
2.0264648645
 30
0.0
 10
5.170554225
 20
2.0264204495
 30
0.0
  0
SPLINE
  5
388
100
AcDbEntity
  8
ALL_FEATURES
100
AcDbSpline
 62
7
  6
CONTINUOUS
 70
0
 71
3
 72
12
 73
8
 74
0
 42
0.0000001
 43
0.0000001
 44
0.0000000001
 40
0.0
 40
0.0
 40
0.0
 40
0.0
 40
0.2577545741
 40
0.5120950551
 40
0.6371583341
 40
0.7603645866
 40
1.0
 40
1.0
 40
1.0
 40
1.0
 10
5.1866845831
 20
2.0268350692
 30
0.0
 10
5.196491887
 20
2.0273825007
 30
0.0
 10
5.2159330098
 20
2.0295400135
 30
0.0
 10
5.2396724019
 20
2.034894821
 30
0.0
 10
5.2579234442
 20
2.0407414227
 30
0.0
 10
5.2752658821
 20
2.0474649902
 30
0.0
 10
5.287685862
 20
2.0536576535
 30
0.0
 10
5.2955593544
 20
2.058283994
 30
0.0
  0
SPLINE
  5
389
100
AcDbEntity
  8
ALL_FEATURES
100
AcDbSpline
 62
7
  6
CONTINUOUS
 70
0
 71
3
 72
26
 73
22
 74
0
 42
0.0000001
 43
0.0000001
 44
0.0000000001
 40
0.0
 40
0.0
 40
0.0
 40
0.0
 40
0.0022546616
 40
0.003918093
 40
0.0060339707
 40
0.0117251984
 40
0.0194388904
 40
0.0292060154
 40
0.0410356039
 40
0.0549277271
 40
0.0708781491
 40
0.1089196583
 40
0.1550094265
 40
0.2089294326
 40
0.2704558048
 40
0.339355648
 40
0.4153385845
 40
0.4980849434
 40
0.5872742314
 40
0.7834659625
 40
1.0
 40
1.0
 40
1.0
 40
1.0
 10
5.3635099965
 20
7.9763196348
 30
0.0
 10
5.3635102749
 20
7.9762494065
 30
0.0
 10
5.3634288577
 20
7.9761358895
 30
0.0
 10
5.3632767489
 20
7.9760307738
 30
0.0
 10
5.3630131618
 20
7.9758936135
 30
0.0
 10
5.3625554527
 20
7.9757357327
 30
0.0
 10
5.3618562969
 20
7.9755545377
 30
0.0
 10
5.3609613032
 20
7.9753729087
 30
0.0
 10
5.3598710492
 20
7.9751896357
 30
0.0
 10
5.3585860177
 20
7.975005815
 30
0.0
 10
5.3564876789
 20
7.9747444421
 30
0.0
 10
5.3533862795
 20
7.9744262279
 30
0.0
 10
5.349101699
 20
7.974060495
 30
0.0
 10
5.3440834403
 20
7.9736933436
 30
0.0
 10
5.3383531439
 20
7.9733250891
 30
0.0
 10
5.3319343987
 20
7.9729563668
 30
0.0
 10
5.3248537393
 20
7.9725871604
 30
0.0
 10
5.3171403408
 20
7.9722174618
 30
0.0
 10
5.3056851284
 20
7.9717077257
 30
0.0
 10
5.2900638994
 20
7.9710796693
 30
0.0
 10
5.2772167375
 20
7.9706108834
 30
0.0
 10
5.2704762564
 20
7.9703734875
 30
0.0
  0
SPLINE
  5
38A
100
AcDbEntity
  8
ALL_FEATURES
100
AcDbSpline
 62
7
  6
CONTINUOUS
 70
0
 71
3
 72
16
 73
12
 74
0
 42
0.0000001
 43
0.0000001
 44
0.0000000001
 40
0.0
 40
0.0
 40
0.0
 40
0.0
 40
0.0311394968
 40
0.0543498384
 40
0.0839869087
 40
0.1640227974
 40
0.2728277851
 40
0.4107936002
 40
0.5780089602
 40
0.7744412986
 40
1.0
 40
1.0
 40
1.0
 40
1.0
 10
5.3802976114
 20
8.0368813373
 30
0.0
 10
5.3802978483
 20
8.0368171317
 30
0.0
 10
5.3802211508
 20
8.0367136737
 30
0.0
 10
5.3800800484
 20
8.0366186411
 30
0.0
 10
5.3798338544
 20
8.0364937299
 30
0.0
 10
5.3794062054
 20
8.0363503587
 30
0.0
 10
5.3787523091
 20
8.0361857042
 30
0.0
 10
5.3779145938
 20
8.036020672
 30
0.0
 10
5.3768937011
 20
8.0358540926
 30
0.0
 10
5.3756902824
 20
8.0356870431
 30
0.0
 10
5.3748264447
 20
8.0355825468
 30
0.0
 10
5.3743643878
 20
8.0355296412
 30
0.0
  0
LINE
  5
38B
100
AcDbEntity
  8
ALL_FEATURES
100
AcDbLine
 62
7
  6
CONTINUOUS
 10
5.3743643878
 20
8.0355296412
 11
5.3695640837
 21
8.0350596136
  0
SPLINE
  5
38C
100
AcDbEntity
  8
ALL_FEATURES
100
AcDbSpline
 62
7
  6
CONTINUOUS
 70
0
 71
3
 72
15
 73
11
 74
0
 42
0.0000001
 43
0.0000001
 44
0.0000000001
 40
0.0
 40
0.0
 40
0.0
 40
0.0
 40
0.0294108103
 40
0.0646657686
 40
0.1518374508
 40
0.2594505786
 40
0.3849245943
 40
0.5252016579
 40
0.6769396933
 40
1.0
 40
1.0
 40
1.0
 40
1.0
 10
5.3695640837
 20
8.0350596136
 30
0.0
 10
5.3676834943
 20
8.0348986548
 30
0.0
 10
5.363544989
 20
8.0345874448
 30
0.0
 10
5.3538199014
 20
8.0339739246
 30
0.0
 10
5.3390747508
 20
8.0332377355
 30
0.0
 10
5.3185391508
 20
8.032393042
 30
0.0
 10
5.2945931002
 20
8.0315441792
 30
0.0
 10
5.2678139103
 20
8.0306914814
 30
0.0
 10
5.2283580182
 20
8.029528125
 30
0.0
 10
5.1978988074
 20
8.0286942371
 30
0.0
 10
5.177173913
 20
8.0281259802
 30
0.0
  0
SPLINE
  5
38D
100
AcDbEntity
  8
ALL_FEATURES
100
AcDbSpline
 62
7
  6
CONTINUOUS
 70
0
 71
3
 72
10
 73
6
 74
0
 42
0.0000001
 43
0.0000001
 44
0.0000000001
 40
0.0
 40
0.0
 40
0.0
 40
0.0
 40
0.2441545692
 40
0.618956655
 40
1.0
 40
1.0
 40
1.0
 40
1.0
 10
5.0976050327
 20
1.9143134009
 30
0.0
 10
5.1037699064
 20
1.9123894543
 30
0.0
 10
5.1196129317
 20
1.9081796277
 30
0.0
 10
5.145796952
 20
1.9040155346
 30
0.0
 10
5.165824779
 20
1.9031902422
 30
0.0
 10
5.1759023954
 20
1.9033541173
 30
0.0
  0
SPLINE
  5
38E
100
AcDbEntity
  8
ALL_FEATURES
100
AcDbSpline
 62
7
  6
CONTINUOUS
 70
0
 71
3
 72
9
 73
5
 74
0
 42
0.0000001
 43
0.0000001
 44
0.0000000001
 40
0.0
 40
0.0
 40
0.0
 40
0.0
 40
0.5044860298
 40
1.0
 40
1.0
 40
1.0
 40
1.0
 10
5.1914067842
 20
1.9040658408
 30
0.0
 10
5.201860497
 20
1.9048560144
 30
0.0
 10
5.2225084783
 20
1.9076600894
 30
0.0
 10
5.2426592501
 20
1.9129912506
 30
0.0
 10
5.2524194229
 20
1.9162728767
 30
0.0
  0
SPLINE
  5
38F
100
AcDbEntity
  8
ALL_FEATURES
100
AcDbSpline
 62
7
  6
CONTINUOUS
 70
0
 71
3
 72
11
 73
7
 74
0
 42
0.0000001
 43
0.0000001
 44
0.0000000001
 40
0.0
 40
0.0
 40
0.0
 40
0.0
 40
0.1508742008
 40
0.3669539144
 40
0.6499075492
 40
1.0
 40
1.0
 40
1.0
 40
1.0
 10
5.3639957736
 20
7.9492343386
 30
0.0
 10
5.3638520143
 20
7.9491510047
 30
0.0
 10
5.3634729964
 20
7.9490022557
 30
0.0
 10
5.3627836322
 20
7.9488108606
 30
0.0
 10
5.361867862
 20
7.9486174578
 30
0.0
 10
5.3611806567
 20
7.9484997417
 30
0.0
 10
5.3607998489
 20
7.9484392856
 30
0.0
  0
SPLINE
  5
390
100
AcDbEntity
  8
ALL_FEATURES
100
AcDbSpline
 62
7
  6
CONTINUOUS
 70
0
 71
3
 72
41
 73
37
 74
0
 42
0.0000001
 43
0.0000001
 44
0.0000000001
 40
0.0
 40
0.0
 40
0.0
 40
0.0
 40
0.0050151577
 40
0.0110599499
 40
0.0262009799
 40
0.0453176102
 40
0.0682374706
 40
0.0947757209
 40
0.1247123204
 40
0.1937160854
 40
0.2729185467
 40
0.3596369249
 40
0.4509280042
 40
0.5437029255
 40
0.6348213789
 40
0.6787889922
 40
0.7211969926
 40
0.761688926
 40
0.7999141025
 40
0.8355570103
 40
0.868316409
 40
0.8979066051
 40
0.9240911631
 40
0.946644485
 40
0.9653735774
 40
0.9732603265
 40
0.9801399844
 40
0.9859968669
 40
0.9908190507
 40
0.9928415082
 40
0.9946052614
 40
0.9961112714
 40
0.9973615074
 40
0.9983599725
 40
0.9991153736
 40
1.0
 40
1.0
 40
1.0
 40
1.0
 10
5.3607998489
 20
7.9484392856
 30
0.0
 10
5.3601857021
 20
7.9483417852
 30
0.0
 10
5.3588271802
 20
7.9481529441
 30
0.0
 10
5.3555998468
 20
7.9477796446
 30
0.0
 10
5.3506221715
 20
7.94733136
 30
0.0
 10
5.3435510712
 20
7.9468188252
 30
0.0
 10
5.3350638506
 20
7.9463031903
 30
0.0
 10
5.3252331373
 20
7.94578524
 30
0.0
 10
5.3096917478
 20
7.945058313
 30
0.0
 10
5.2876210489
 20
7.9441733864
 30
0.0
 10
5.2585103367
 20
7.9431483786
 30
0.0
 10
5.2266347287
 20
7.9421203297
 30
0.0
 10
5.1930755033
 20
7.9410903975
 30
0.0
 10
5.1589704662
 20
7.9400601263
 30
0.0
 10
5.1307309112
 20
7.9391923487
 30
0.0
 10
5.1087343544
 20
7.9384889609
 30
0.0
 10
5.0930124558
 20
7.9379678849
 30
0.0
 10
5.0780029639
 20
7.9374472272
 30
0.0
 10
5.0638328076
 20
7.9369268246
 30
0.0
 10
5.0506220862
 20
7.9364069954
 30
0.0
 10
5.0384828827
 20
7.9358880293
 30
0.0
 10
5.0275175769
 20
7.9353697665
 30
0.0
 10
5.0178191955
 20
7.9348532942
 30
0.0
 10
5.0094695862
 20
7.9343388341
 30
0.0
 10
5.0033891614
 20
7.9338914235
 30
0.0
 10
4.9992521753
 20
7.933524289
 30
0.0
 10
4.996708064
 20
7.9332657518
 30
0.0
 10
4.9945460839
 20
7.933008195
 30
0.0
 10
4.9929869954
 20
7.9327839033
 30
0.0
 10
4.9919354339
 20
7.9325998776
 30
0.0
 10
4.9912922332
 20
7.9324705587
 30
0.0
 10
4.9907461499
 20
7.9323411025
 30
0.0
 10
4.9902999501
 20
7.9322139562
 30
0.0
 10
4.98994535
 20
7.9320831501
 30
0.0
 10
4.9896631822
 20
7.9319467329
 30
0.0
 10
4.9894748708
 20
7.9317853098
 30
0.0
 10
4.9894745598
 20
7.9316756239
 30
0.0
  0
LINE
  5
391
100
AcDbEntity
  8
ALL_FEATURES
100
AcDbLine
 62
7
  6
CONTINUOUS
 10
5.3531597236
 20
7.8831893392
 11
5.3717742241
 21
7.8845283577
  0
SPLINE
  5
392
100
AcDbEntity
  8
ALL_FEATURES
100
AcDbSpline
 62
7
  6
CONTINUOUS
 70
0
 71
3
 72
13
 73
9
 74
0
 42
0.0000001
 43
0.0000001
 44
0.0000000001
 40
0.0
 40
0.0
 40
0.0
 40
0.0
 40
0.3776590458
 40
0.670114809
 40
0.7843115053
 40
0.8771864809
 40
0.9489113786
 40
1.0
 40
1.0
 40
1.0
 40
1.0
 10
5.3717742241
 20
7.8845283577
 30
0.0
 10
5.3728291922
 20
7.8846328193
 30
0.0
 10
5.3746994879
 20
7.88483438
 30
0.0
 10
5.3768817348
 20
7.885132426
 30
0.0
 10
5.3782617052
 20
7.8853818045
 30
0.0
 10
5.3790262585
 20
7.8855517264
 30
0.0
 10
5.379607754
 20
7.8857198711
 30
0.0
 10
5.3799295179
 20
7.8858499279
 30
0.0
 10
5.3800536216
 20
7.8859217958
 30
0.0
  0
SPLINE
  5
393
100
AcDbEntity
  8
ALL_FEATURES
100
AcDbSpline
 62
7
  6
CONTINUOUS
 70
0
 71
3
 72
16
 73
12
 74
0
 42
0.0000001
 43
0.0000001
 44
0.0000000001
 40
0.0
 40
0.0
 40
0.0
 40
0.0
 40
0.0355037906
 40
0.0600380084
 40
0.0905277862
 40
0.1711724046
 40
0.2795478211
 40
0.4164166169
 40
0.5821015151
 40
0.7766472468
 40
1.0
 40
1.0
 40
1.0
 40
1.0
 10
5.3802973356
 20
8.001839721
 30
0.0
 10
5.3802973229
 20
8.0017878674
 30
0.0
 10
5.3802477915
 20
8.0017034452
 30
0.0
 10
5.3801463728
 20
8.0016204581
 30
0.0
 10
5.3799761788
 20
8.0015167407
 30
0.0
 10
5.3796782047
 20
8.0013957512
 30
0.0
 10
5.3792223888
 20
8.0012577972
 30
0.0
 10
5.3786381064
 20
8.0011193591
 30
0.0
 10
5.3779255029
 20
8.0009799007
 30
0.0
 10
5.3770846419
 20
8.0008400029
 30
0.0
 10
5.3764805648
 20
8.0007525006
 30
0.0
 10
5.3761573782
 20
8.0007081991
 30
0.0
  0
LINE
  5
394
100
AcDbEntity
  8
ALL_FEATURES
100
AcDbLine
 62
7
  6
CONTINUOUS
 10
5.3761573782
 20
8.0007081991
 11
5.3671005283
 21
7.9998115922
  0
SPLINE
  5
395
100
AcDbEntity
  8
ALL_FEATURES
100
AcDbSpline
 62
7
  6
CONTINUOUS
 70
0
 71
3
 72
15
 73
11
 74
0
 42
0.0000001
 43
0.0000001
 44
0.0000000001
 40
0.0
 40
0.0
 40
0.0
 40
0.0
 40
0.0315234977
 40
0.0685469233
 40
0.1582384883
 40
0.2670677068
 40
0.3925882322
 40
0.5319030039
 40
0.6818787534
 40
1.0
 40
1.0
 40
1.0
 40
1.0
 10
5.3671005283
 20
7.9998115922
 30
0.0
 10
5.3651094401
 20
7.9996568809
 30
0.0
 10
5.3607771516
 20
7.9993555703
 30
0.0
 10
5.3507699403
 20
7.9987605889
 30
0.0
 10
5.3358645568
 20
7.9980423032
 30
0.0
 10
5.3153523096
 20
7.9972162907
 30
0.0
 10
5.2916942202
 20
7.996386479
 30
0.0
 10
5.2654281282
 20
7.9955531765
 30
0.0
 10
5.2269638574
 20
7.9944177263
 30
0.0
 10
5.1973200034
 20
7.9936014293
 30
0.0
 10
5.177173913
 20
7.9930458266
 30
0.0
  0
SPLINE
  5
396
100
AcDbEntity
  8
ALL_FEATURES
100
AcDbSpline
 62
7
  6
CONTINUOUS
 70
0
 71
3
 72
13
 73
9
 74
0
 42
0.0000001
 43
0.0000001
 44
0.0000000001
 40
0.0
 40
0.0
 40
0.0
 40
0.0
 40
0.2988977688
 40
0.577391493
 40
0.7029797554
 40
0.8165155281
 40
0.916119132
 40
1.0
 40
1.0
 40
1.0
 40
1.0
 10
5.177173913
 20
7.8772151925
 30
0.0
 10
5.1947113754
 20
7.8777087621
 30
0.0
 10
5.2285891241
 20
7.8786616097
 30
0.0
 10
5.2698335154
 20
7.8798975621
 30
0.0
 10
5.3001990894
 20
7.8809161314
 30
0.0
 10
5.3200678698
 20
7.8816510553
 30
0.0
 10
5.337486779
 20
7.8823827082
 30
0.0
 10
5.3482438799
 20
7.8829138612
 30
0.0
 10
5.3531597236
 20
7.8831893392
 30
0.0
  0
SPLINE
  5
397
100
AcDbEntity
  8
ALL_FEATURES
100
AcDbSpline
 62
7
  6
CONTINUOUS
 70
0
 71
3
 72
15
 73
11
 74
0
 42
0.0000001
 43
0.0000001
 44
0.0000000001
 40
0.0
 40
0.0
 40
0.0
 40
0.0
 40
0.0305416591
 40
0.053582994
 40
0.083107378
 40
0.163025393
 40
0.2718484137
 40
0.409948523
 40
0.5773879557
 40
1.0
 40
1.0
 40
1.0
 40
1.0
 10
5.3802975615
 20
7.9666310452
 30
0.0
 10
5.3802976992
 20
7.9665638713
 30
0.0
 10
5.3802145335
 20
7.9664561858
 30
0.0
 10
5.380064449
 20
7.9663581688
 30
0.0
 10
5.3798010068
 20
7.9662283209
 30
0.0
 10
5.3793441199
 20
7.9660795472
 30
0.0
 10
5.3786453341
 20
7.9659085676
 30
0.0
 10
5.3777500237
 20
7.9657371827
 30
0.0
 10
5.3761680445
 20
7.9654866458
 30
0.0
 10
5.3748793533
 20
7.96533003
 30
0.0
 10
5.3739555535
 20
7.9652272226
 30
0.0
  0
LINE
  5
398
100
AcDbEntity
  8
ALL_FEATURES
100
AcDbLine
 62
7
  6
CONTINUOUS
 10
5.3739555535
 20
7.9652272226
 11
5.3692586151
 21
7.9647752674
  0
SPLINE
  5
399
100
AcDbEntity
  8
ALL_FEATURES
100
AcDbSpline
 62
7
  6
CONTINUOUS
 70
0
 71
3
 72
13
 73
9
 74
0
 42
0.0000001
 43
0.0000001
 44
0.0000000001
 40
0.0
 40
0.0
 40
0.0
 40
0.0
 40
0.0738876299
 40
0.164085032
 40
0.2698778425
 40
0.3904664272
 40
0.6722168279
 40
1.0
 40
1.0
 40
1.0
 40
1.0
 10
5.3692586151
 20
7.9647752674
 30
0.0
 10
5.3670363408
 20
7.9645867983
 30
0.0
 10
5.362096433
 20
7.9642255533
 30
0.0
 10
5.3539651171
 20
7.9637336083
 30
0.0
 10
5.3444220667
 20
7.9632394758
 30
0.0
 10
5.3291002265
 20
7.962542068
 30
0.0
 10
5.3070779967
 20
7.9616952421
 30
0.0
 10
5.2886897996
 20
7.961081978
 30
0.0
 10
5.2788008798
 20
7.960767138
 30
0.0
  0
SPLINE
  5
39A
100
AcDbEntity
  8
ALL_FEATURES
100
AcDbSpline
 62
7
  6
CONTINUOUS
 70
0
 71
3
 72
13
 73
9
 74
0
 42
0.0000001
 43
0.0000001
 44
0.0000000001
 40
0.0
 40
0.0
 40
0.0
 40
0.0
 40
0.0838808577
 40
0.1834843108
 40
0.2970199095
 40
0.4226080497
 40
0.701101821
 40
1.0
 40
1.0
 40
1.0
 40
1.0
 10
5.3531597236
 20
7.8581543025
 30
0.0
 10
5.348243911
 20
7.8578788263
 30
0.0
 10
5.3374868594
 20
7.8573481658
 30
0.0
 10
5.3200680037
 20
7.8566182638
 30
0.0
 10
5.3001992675
 20
7.8558861727
 30
0.0
 10
5.2698337162
 20
7.8548729894
 30
0.0
 10
5.2285892818
 20
7.853646312
 30
0.0
 10
5.1947114472
 20
7.8527030898
 30
0.0
 10
5.177173913
 20
7.8522151269
 30
0.0
  0
SPLINE
  5
39B
100
AcDbEntity
  8
ALL_FEATURES
100
AcDbSpline
 62
7
  6
CONTINUOUS
 70
0
 71
3
 72
12
 73
8
 74
0
 42
0.0000001
 43
0.0000001
 44
0.0000000001
 40
0.0
 40
0.0
 40
0.0
 40
0.0
 40
0.1133142838
 40
0.2309621868
 40
0.4771670709
 40
0.7351162789
 40
1.0
 40
1.0
 40
1.0
 40
1.0
 10
5.0246141047
 20
1.9035504673
 30
0.0
 10
5.029340557
 20
1.899892964
 30
0.0
 10
5.0393746941
 20
1.8929434117
 30
0.0
 10
5.0613562764
 20
1.880629194
 30
0.0
 10
5.0920432954
 20
1.8685673226
 30
0.0
 10
5.1318141085
 20
1.8598967293
 30
0.0
 10
5.1594489596
 20
1.8580812119
 30
0.0
 10
5.1734189133
 20
1.8581815417
 30
0.0
  0
SPLINE
  5
39C
100
AcDbEntity
  8
ALL_FEATURES
100
AcDbSpline
 62
7
  6
CONTINUOUS
 70
0
 71
3
 72
19
 73
15
 74
0
 42
0.0000001
 43
0.0000001
 44
0.0000000001
 40
0.0
 40
0.0
 40
0.0
 40
0.0
 40
0.1423162273
 40
0.2820396953
 40
0.3503583347
 40
0.4173498798
 40
0.5466035198
 40
0.6690326708
 40
0.7276984738
 40
0.7847158264
 40
0.8402203489
 40
0.8944209909
 40
0.9475779021
 40
1.0
 40
1.0
 40
1.0
 40
1.0
 10
5.1902998453
 20
1.8587982199
 30
0.0
 10
5.2021829302
 20
1.859582007
 30
0.0
 10
5.2256611413
 20
1.8626053617
 30
0.0
 10
5.2541123665
 20
1.8700404901
 30
0.0
 10
5.2756824406
 20
1.8781152232
 30
0.0
 10
5.2958335472
 20
1.8873198585
 30
0.0
 10
5.3188308751
 20
1.9010319677
 30
0.0
 10
5.3387930649
 20
1.9178673579
 30
0.0
 10
5.3520983829
 20
1.9327350352
 30
0.0
 10
5.3605832589
 20
1.944307304
 30
0.0
 10
5.3676336623
 20
1.956376332
 30
0.0
 10
5.3731973374
 20
1.9688484048
 30
0.0
 10
5.3772313946
 20
1.9816256392
 30
0.0
 10
5.3788786194
 20
1.9903310368
 30
0.0
 10
5.3794320025
 20
1.9946826299
 30
0.0
  0
SPLINE
  5
39D
100
AcDbEntity
  8
ALL_FEATURES
100
AcDbSpline
 62
7
  6
CONTINUOUS
 70
0
 71
3
 72
32
 73
28
 74
0
 42
0.0000001
 43
0.0000001
 44
0.0000000001
 40
0.0
 40
0.0
 40
0.0
 40
0.0
 40
0.0007361601
 40
0.0012396737
 40
0.0018628962
 40
0.0035060508
 40
0.0057100138
 40
0.0084909658
 40
0.0118561508
 40
0.0158070034
 40
0.020342672
 40
0.0311604926
 40
0.0442901818
 40
0.0597079029
 40
0.0773869712
 40
0.0972852262
 40
0.1193491663
 40
0.1697572552
 40
0.2281557739
 40
0.2939711185
 40
0.366584708
 40
0.44530094
 40
0.5293386364
 40
0.6179028842
 40
0.7101606566
 40
0.8052642046
 40
1.0
 40
1.0
 40
1.0
 40
1.0
 10
5.3802973343
 20
7.9313460234
 30
0.0
 10
5.3802973213
 20
7.9312960779
 30
0.0
 10
5.3802511666
 20
7.9312147197
 30
0.0
 10
5.380155219
 20
7.9311339882
 30
0.0
 10
5.3799949901
 20
7.9310337576
 30
0.0
 10
5.3797141271
 20
7.9309165971
 30
0.0
 10
5.3792844331
 20
7.9307831356
 30
0.0
 10
5.3787336725
 20
7.9306491854
 30
0.0
 10
5.3780619405
 20
7.9305142971
 30
0.0
 10
5.3772692245
 20
7.9303789731
 30
0.0
 10
5.3759736349
 20
7.9301865934
 30
0.0
 10
5.3740551638
 20
7.9299521204
 30
0.0
 10
5.3713979176
 20
7.9296826886
 30
0.0
 10
5.3682732168
 20
7.9294123013
 30
0.0
 10
5.3646878954
 20
7.9291412381
 30
0.0
 10
5.3606505539
 20
7.9288697058
 30
0.0
 10
5.3543950687
 20
7.9284900826
 30
0.0
 10
5.3455281392
 20
7.9280237891
 30
0.0
 10
5.3336929705
 20
7.9274841196
 30
0.0
 10
5.3203499289
 20
7.9269429425
 30
0.0
 10
5.3056274395
 20
7.9264007937
 30
0.0
 10
5.28966789
 20
7.9258580685
 30
0.0
 10
5.2726255906
 20
7.9253147523
 30
0.0
 10
5.2546641176
 20
7.924771248
 30
0.0
 10
5.2359515553
 20
7.9242273167
 30
0.0
 10
5.2100380854
 20
7.9234960393
 30
0.0
 10
5.1903810076
 20
7.9229572826
 30
0.0
 10
5.177173913
 20
7.9225952145
 30
0.0
  0
SPLINE
  5
39E
100
AcDbEntity
  8
ALL_FEATURES
100
AcDbSpline
 62
7
  6
CONTINUOUS
 70
0
 71
3
 72
12
 73
8
 74
0
 42
0.0000001
 43
0.0000001
 44
0.0000000001
 40
0.0
 40
0.0
 40
0.0
 40
0.0
 40
0.0563891489
 40
0.131785333
 40
0.3414839243
 40
0.6309463669
 40
1.0
 40
1.0
 40
1.0
 40
1.0
 10
5.3679189031
 20
7.8063818388
 30
0.0
 10
5.3678182913
 20
7.8063236526
 30
0.0
 10
5.3675679319
 20
7.8062148863
 30
0.0
 10
5.3668971819
 20
7.8060008482
 30
0.0
 10
5.3657370935
 20
7.8057520739
 30
0.0
 10
5.3639704377
 20
7.8054682558
 30
0.0
 10
5.3626234406
 20
7.8052983132
 30
0.0
 10
5.3618679021
 20
7.805210119
 30
0.0
  0
SPLINE
  5
39F
100
AcDbEntity
  8
ALL_FEATURES
100
AcDbSpline
 62
7
  6
CONTINUOUS
 70
0
 71
3
 72
38
 73
34
 74
0
 42
0.0000001
 43
0.0000001
 44
0.0000000001
 40
0.0
 40
0.0
 40
0.0
 40
0.0
 40
0.0137022076
 40
0.0312628558
 40
0.0525569311
 40
0.0774005338
 40
0.1369288937
 40
0.2079229138
 40
0.2880912502
 40
0.3748343366
 40
0.4653392737
 40
0.5566790862
 40
0.6458937828
 40
0.6887979383
 40
0.730096242
 40
0.7694610185
 40
0.8065683504
 40
0.8411161365
 40
0.8728341904
 40
0.901456898
 40
0.9267556285
 40
0.9485362601
 40
0.9666120957
 40
0.9808497493
 40
0.9864985809
 40
0.9911525362
 40
0.9931037832
 40
0.9948042647
 40
0.9962552822
 40
0.9974591449
 40
0.9984201352
 40
0.9991470943
 40
1.0
 40
1.0
 40
1.0
 40
1.0
 10
5.3618679021
 20
7.805210119
 30
0.0
 10
5.3601587801
 20
7.8050106127
 30
0.0
 10
5.3562499798
 20
7.8046364245
 30
0.0
 10
5.3496687395
 20
7.8041361856
 30
0.0
 10
5.3416851285
 20
7.8036330206
 30
0.0
 10
5.3284349456
 20
7.8029143185
 30
0.0
 10
5.3089429513
 20
7.8020471359
 30
0.0
 10
5.2825031822
 20
7.8010477078
 30
0.0
 10
5.2526437442
 20
7.8000441738
 30
0.0
 10
5.2203330007
 20
7.7990374498
 30
0.0
 10
5.1866187301
 20
7.7980294917
 30
0.0
 10
5.1525939484
 20
7.7970213559
 30
0.0
 10
5.1245448202
 20
7.7961713096
 30
0.0
 10
5.1027779371
 20
7.7954826075
 30
0.0
 10
5.0872686993
 20
7.7949729202
 30
0.0
 10
5.0724878238
 20
7.7944636265
 30
0.0
 10
5.0585551961
 20
7.7939546929
 30
0.0
 10
5.0455835114
 20
7.7934461371
 30
0.0
 10
5.0336781745
 20
7.7929384505
 30
0.0
 10
5.0229354374
 20
7.7924316843
 30
0.0
 10
5.0134421465
 20
7.7919260686
 30
0.0
 10
5.0052752191
 20
7.7914233861
 30
0.0
 10
4.9985003922
 20
7.7909231289
 30
0.0
 10
4.9937525036
 20
7.7904858259
 30
0.0
 10
4.9906921836
 20
7.7901210794
 30
0.0
 10
4.9891687781
 20
7.7899017288
 30
0.0
 10
4.9881412291
 20
7.7897217121
 30
0.0
 10
4.9875131543
 20
7.7895951904
 30
0.0
 10
4.9869803024
 20
7.7894685354
 30
0.0
 10
4.9865451806
 20
7.7893441291
 30
0.0
 10
4.986199691
 20
7.7892161496
 30
0.0
 10
4.9859245486
 20
7.7890825349
 30
0.0
 10
4.9857417057
 20
7.7889245217
 30
0.0
 10
4.9857413366
 20
7.7888174142
 30
0.0
  0
SPLINE
  5
3A0
100
AcDbEntity
  8
ALL_FEATURES
100
AcDbSpline
 62
7
  6
CONTINUOUS
 70
0
 71
3
 72
32
 73
28
 74
0
 42
0.0000001
 43
0.0000001
 44
0.0000000001
 40
0.0
 40
0.0
 40
0.0
 40
0.0
 40
0.0007384831
 40
0.0012428258
 40
0.0018667302
 40
0.0035110268
 40
0.0057160962
 40
0.0084983053
 40
0.011864711
 40
0.0158166085
 40
0.0203532159
 40
0.0311728478
 40
0.0443046582
 40
0.0597252633
 40
0.0774085324
 40
0.097312627
 40
0.1193831871
 40
0.1698030492
 40
0.2282111421
 40
0.2940355669
 40
0.3666484606
 40
0.4453617619
 40
0.5293925827
 40
0.6179436576
 40
0.7101859482
 40
0.8052753923
 40
1.0
 40
1.0
 40
1.0
 40
1.0
 10
5.3802973902
 20
7.8962949161
 30
0.0
 10
5.3802973967
 20
7.8962448121
 30
0.0
 10
5.3802513487
 20
7.8961631719
 30
0.0
 10
5.380155365
 20
7.8960820508
 30
0.0
 10
5.3799951701
 20
7.895981427
 30
0.0
 10
5.3797142809
 20
7.8958637673
 30
0.0
 10
5.3792845034
 20
7.8957297467
 30
0.0
 10
5.3787336167
 20
7.8955952322
 30
0.0
 10
5.3780617447
 20
7.8954597646
 30
0.0
 10
5.3772688946
 20
7.8953238467
 30
0.0
 10
5.3759731475
 20
7.8951306154
 30
0.0
 10
5.3740544376
 20
7.894895074
 30
0.0
 10
5.371396806
 20
7.8946243828
 30
0.0
 10
5.3682715341
 20
7.8943526986
 30
0.0
 10
5.3646853697
 20
7.8940803054
 30
0.0
 10
5.3606469142
 20
7.8938074195
 30
0.0
 10
5.3543897871
 20
7.8934258736
 30
0.0
 10
5.3455209274
 20
7.8929571372
 30
0.0
 10
5.3336836139
 20
7.8924145637
 30
0.0
 10
5.3203392328
 20
7.8918704938
 30
0.0
 10
5.3056162233
 20
7.8913253141
 30
0.0
 10
5.2896572059
 20
7.8907795682
 30
0.0
 10
5.2726162622
 20
7.8902331657
 30
0.0
 10
5.2546569773
 20
7.8896865097
 30
0.0
 10
5.2359470779
 20
7.8891393906
 30
0.0
 10
5.2100360396
 20
7.8884037109
 30
0.0
 10
5.1903804206
 20
7.8878616311
 30
0.0
 10
5.177173913
 20
7.8874972979
 30
0.0
  0
SPLINE
  5
3A1
100
AcDbEntity
  8
ALL_FEATURES
100
AcDbSpline
 62
7
  6
CONTINUOUS
 70
0
 71
3
 72
32
 73
28
 74
0
 42
0.0000001
 43
0.0000001
 44
0.0000000001
 40
0.0
 40
0.0
 40
0.0
 40
0.0
 40
0.0007356708
 40
0.0012389789
 40
0.0018620464
 40
0.0035050777
 40
0.0057092188
 40
0.0084907156
 40
0.0118565446
 40
0.015807956
 40
0.0203441472
 40
0.0311631124
 40
0.0442944343
 40
0.0597147101
 40
0.0773977886
 40
0.0973017564
 40
0.1193722524
 40
0.1697922249
 40
0.2282007416
 40
0.2940257436
 40
0.3666393687
 40
0.4453534669
 40
0.529385272
 40
0.6179376364
 40
0.7101814296
 40
0.8052724655
 40
1.0
 40
1.0
 40
1.0
 40
1.0
 10
5.3802973909
 20
7.8258129298
 30
0.0
 10
5.3802973983
 20
7.8257630175
 30
0.0
 10
5.3802512611
 20
7.8256816941
 30
0.0
 10
5.3801553398
 20
7.8256010238
 30
0.0
 10
5.3799951151
 20
7.8255008476
 30
0.0
 10
5.3797142307
 20
7.825383759
 30
0.0
 10
5.3792844711
 20
7.8252503743
 30
0.0
 10
5.3787335957
 20
7.8251165076
 30
0.0
 10
5.3780617295
 20
7.8249816922
 30
0.0
 10
5.3772688847
 20
7.8248464346
 30
0.0
 10
5.3759731307
 20
7.8246541467
 30
0.0
 10
5.3740544249
 20
7.8244197736
 30
0.0
 10
5.3713968081
 20
7.8241504467
 30
0.0
 10
5.3682715454
 20
7.8238801525
 30
0.0
 10
5.3646853871
 20
7.8236091735
 30
0.0
 10
5.3606469387
 20
7.8233377232
 30
0.0
 10
5.3543898137
 20
7.8229582103
 30
0.0
 10
5.3455209589
 20
7.8224920227
 30
0.0
 10
5.3336836591
 20
7.8219524659
 30
0.0
 10
5.3203392908
 20
7.8214114803
 30
0.0
 10
5.3056163041
 20
7.8208694469
 30
0.0
 10
5.2896573124
 20
7.8203268992
 30
0.0
 10
5.2726163825
 20
7.8197837419
 30
0.0
 10
5.2546570852
 20
7.8192403696
 30
0.0
 10
5.2359471492
 20
7.8186965676
 30
0.0
 10
5.2100360705
 20
7.8179653834
 30
0.0
 10
5.1903804287
 20
7.8174266463
 30
0.0
 10
5.177173913
 20
7.8170645651
 30
0.0
  0
SPLINE
  5
3A2
100
AcDbEntity
  8
ALL_FEATURES
100
AcDbSpline
 62
7
  6
CONTINUOUS
 70
0
 71
3
 72
20
 73
16
 74
0
 42
0.0000001
 43
0.0000001
 44
0.0000000001
 40
0.0
 40
0.0
 40
0.0
 40
0.0
 40
0.0077344963
 40
0.0136801812
 40
0.0213439679
 40
0.0421658611
 40
0.0705527474
 40
0.1065962924
 40
0.1503193537
 40
0.2017170236
 40
0.2607711301
 40
0.40172202
 40
0.5725556732
 40
0.7723104455
 40
1.0
 40
1.0
 40
1.0
 40
1.0
 10
5.3802975922
 20
7.861082645
 30
0.0
 10
5.3802978894
 20
7.8610118711
 30
0.0
 10
5.3802057866
 20
7.8608990075
 30
0.0
 10
5.3800437536
 20
7.8607978805
 30
0.0
 10
5.3797563982
 20
7.8606622386
 30
0.0
 10
5.3792593242
 20
7.860507443
 30
0.0
 10
5.3784992381
 20
7.860329034
 30
0.0
 10
5.3775256667
 20
7.8601503808
 30
0.0
 10
5.3763389421
 20
7.8599699254
 30
0.0
 10
5.3749397436
 20
7.8597889286
 30
0.0
 10
5.3726536615
 20
7.8595314161
 30
0.0
 10
5.3692745386
 20
7.8592179015
 30
0.0
 10
5.3646074892
 20
7.8588576109
 30
0.0
 10
5.3591448057
 20
7.8584960892
 30
0.0
 10
5.3552400306
 20
7.8582691414
 30
0.0
 10
5.3531597236
 20
7.8581543025
 30
0.0
  0
SPLINE
  5
3A3
100
AcDbEntity
  8
ALL_FEATURES
100
AcDbSpline
 62
7
  6
CONTINUOUS
 70
0
 71
3
 72
17
 73
13
 74
0
 42
0.0000001
 43
0.0000001
 44
0.0000000001
 40
0.0
 40
0.0
 40
0.0
 40
0.0
 40
0.1668759446
 40
0.3295905116
 40
0.4836584698
 40
0.625223736
 40
0.7506244639
 40
0.8566135523
 40
0.9014439623
 40
0.940450036
 40
0.9733780028
 40
1.0
 40
1.0
 40
1.0
 40
1.0
 10
5.177173913
 20
7.8409357523
 30
0.0
 10
5.188031624
 20
7.8412457493
 30
0.0
 10
5.2094762879
 20
7.8418580042
 30
0.0
 10
5.2409446509
 20
7.8427797419
 30
0.0
 10
5.2707648152
 20
7.8437002533
 30
0.0
 10
5.2981550638
 20
7.8446179109
 30
0.0
 10
5.3224139577
 20
7.8455320603
 30
0.0
 10
5.3403762544
 20
7.8463243061
 30
0.0
 10
5.3527150044
 20
7.8469775323
 30
0.0
 10
5.3603014905
 20
7.8474380253
 30
0.0
 10
5.3667003557
 20
7.8478959067
 30
0.0
 10
5.370562112
 20
7.8482342282
 30
0.0
 10
5.3722859024
 20
7.8484112356
 30
0.0
  0
SPLINE
  5
3A4
100
AcDbEntity
  8
ALL_FEATURES
100
AcDbSpline
 62
7
  6
CONTINUOUS
 70
0
 71
3
 72
13
 73
9
 74
0
 42
0.0000001
 43
0.0000001
 44
0.0000000001
 40
0.0
 40
0.0
 40
0.0
 40
0.0
 40
0.3756738981
 40
0.6676618133
 40
0.7820755155
 40
0.8754088337
 40
0.9478497416
 40
1.0
 40
1.0
 40
1.0
 40
1.0
 10
5.3722859024
 20
7.8484112356
 30
0.0
 10
5.3732705973
 20
7.8485123491
 30
0.0
 10
5.375019022
 20
7.8487075788
 30
0.0
 10
5.3770603218
 20
7.84899571
 30
0.0
 10
5.3783549798
 20
7.8492366094
 30
0.0
 10
5.3790752526
 20
7.8494010903
 30
0.0
 10
5.3796258139
 20
7.8495640181
 30
0.0
 10
5.379931305
 20
7.8496897203
 30
0.0
 10
5.3800502157
 20
7.8497585848
 30
0.0
  0
ENDSEC
  0
SECTION
  2
OBJECTS
  0
DICTIONARY
  5
C
100
AcDbDictionary
280
0
281
1
  3
ACAD_GROUP
350
D
  3
ACAD_MLINESTYLE
350
17
  3
ACAD_LAYOUT
350
1A
  3
ACAD_PLOTSETTINGS
350
19
  3
ACAD_PLOTSTYLENAME
350
E
  0
DICTIONARY
  5
D
102
{ACAD_REACTORS
330
C
102
}
100
AcDbDictionary
280
0
281
1
  0
ACDBDICTIONARYWDFLT
  5
E
102
{ACAD_REACTORS
330
C
102
}
100
AcDbDictionary
281
1
  3
Normal
350
F
100
AcDbDictionaryWithDefault
340
F
  0
DICTIONARY
  5
17
102
{ACAD_REACTORS
330
C
102
}
100
AcDbDictionary
280
0
281
1
  3
Standard
350
18
  0
DICTIONARY
  5
19
102
{ACAD_REACTORS
330
C
102
}
100
AcDbDictionary
281
1
  0
DICTIONARY
  5
1A
102
{ACAD_REACTORS
330
C
102
}
100
AcDbDictionary
281
1
  3
Model
350
3A5
  3
Layout1
350
3A6
  0
ACDBPLACEHOLDER
  5
F
102
{ACAD_REACTORS
330
E
102
}
  0
MLINESTYLE
  5
18
102
{ACAD_REACTORS
330
17
102
}
100
AcDbMlineStyle
  2
STANDARD
 70
0
  3

 62
256
 51
90.0
 52
90.0
 71
2
 49
0.5
 62
256
  6
BYLAYER
 49
-0.5
 62
256
  6
BYLAYER
  0
LAYOUT
  5
3A5
102
{ACAD_REACTORS
330
1A
102
}
100
AcDbPlotSettings
  1

  2
none_device
  4
ANSI_A_(11.00_x_8.50_Inches)
  6

 40
0.0
 41
0.0
 42
0.0
 43
0.0
 44
279.4
 45
215.9
 46
0.0
 47
0.0
 48
0.0
 49
0.0
140
0.0
141
0.0
142
1.0
143
1.0
 70
1024
 72
0
 73
0
 74
0
  7

 75
0
147
1.0
148
0.0
149
0.0
100
AcDbLayout
  1
Model
 70
0
 71
0
 10
0.0
 20
0.0
 11
11.0
 21
8.5
 12
0.0
 22
0.0
 32
0.0
 14
0.0
 24
0.0
 34
0.0
 15
0.0
 25
0.0
 35
0.0
146
0.0
 13
0.0
 23
0.0
 33
0.0
 16
1.0
 26
0.0
 36
0.0
 17
0.0
 27
1.0
 37
0.0
 76
0
330
20B
345
0
346
0
  0
LAYOUT
  5
3A6
102
{ACAD_REACTORS
330
1A
102
}
100
AcDbPlotSettings
  1

  2
none_device
  4
ANSI_A_(11.00_x_8.50_Inches)
  6

 40
0.0
 41
0.0
 42
0.0
 43
0.0
 44
279.4
 45
215.9
 46
0.0
 47
0.0
 48
0.0
 49
0.0
140
0.0
141
0.0
142
1.0
143
1.0
 70
0
 72
0
 73
0
 74
0
  7

 75
0
147
1.0
148
0.0
149
0.0
100
AcDbLayout
  1
Layout1
 70
0
 71
1
 10
0.0
 20
0.0
 11
11.0
 21
8.5
 12
0.0
 22
0.0
 32
0.0
 14
0.0
 24
0.0
 34
0.0
 15
0.0
 25
0.0
 35
0.0
146
0.0
 13
0.0
 23
0.0
 33
0.0
 16
1.0
 26
0.0
 36
0.0
 17
0.0
 27
1.0
 37
0.0
 76
0
330
20C
345
0
346
0
  0
ENDSEC
  0
EOF
