999
DXF file: 20-550_front.dxf
999
Pro/ENGINEER 2018400 by Parametric Technology Corporation
  0
SECTION
  2
HEADER
  9
$ACADVER
  1
AC1027
  9
$DWGCODEPAGE
  3
ANSI_1252
  9
$EXTMAX
 10
11.0
 20
8.5
 30
0.0
  9
$EXTMIN
 10
0.0
 20
0.0
 30
0.0
  9
$LIMMIN
 10
0.0
 20
0.0
  9
$LIMMAX
 10
11.0
 20
8.5
  9
$VIEWCTR
 10
5.5
 20
4.25
  9
$VIEWSIZE
 40
8.5
  9
$CLAYER
  8
0
  9
$LTSCALE
 40
0.605
  9
$CELTYPE
  6
BYLAYER
  9
$DIMSCALE
 40
1.0
  9
$DIMASZ
 40
0.1
  9
$DIMEXO
 40
0.0625
  9
$DIMDLI
 40
0.418
  9
$DIMEXE
 40
0.125
  9
$DIMCEN
 40
0.099
  9
$DIMLFAC
 40
1.0
  9
$DIMBLK
  1
_FILLED
  9
$DIMALT
 70
1
  9
$DIMALTD
 70
1
  9
$DIMALTTD
 70
2
  9
$DIMALTF
 40
25.4
  9
$DIMTXT
 40
0.08
  9
$DIMTOL
 70
1
  9
$DIMLIM
 70
0
  9
$DIMTFAC
 40
1.0
  9
$DIMTP
 40
0.01
  9
$DIMTM
 40
0.01
  9
$DIMGAP
 40
0.09
  9
$DIMDSEP
 70
46
  9
$AUNITS
 70
0
  9
$PDMODE
 70
3
  9
$PDSIZE
 40
0.3125
  9
$HANDSEED
  5
288
  9
$TILEMODE
 70
1
  9
$MEASUREMENT
 70
0
  9
$INSUNITS
 70
1
  0
ENDSEC
  0
SECTION
  2
CLASSES
  0
CLASS
  1
ACDBDICTIONARYWDFLT
  2
AcDbDictionaryWithDefault
  3
AutoCAD 2000
 90
0
 91
1
280
0
281
0
  0
CLASS
  1
ACDBPLACEHOLDER
  2
AcDbPlaceHolder
  3
AutoCAD 2000
 90
0
 91
1
280
0
281
0
  0
CLASS
  1
LAYOUT
  2
AcDbLayout
  3
AutoCAD 2000
 90
0
 91
0
280
0
281
0
  0
ENDSEC
  0
SECTION
  2
TABLES
  0
TABLE
  2
VPORT
  5
8
100
AcDbSymbolTable
 70
2
  0
VPORT
  5
1F4
100
AcDbSymbolTableRecord
100
AcDbViewportTableRecord
  2
*ACTIVE
 70
0
 10
0.0
 20
0.0
 11
1.0
 21
1.0
 12
5.5
 22
4.25
 13
0.0
 23
0.0
 14
1.0
 24
1.0
 15
0.0
 25
0.0
 16
0.0
 26
0.0
 36
1.0
 17
0.0
 27
0.0
 37
0.0
 40
8.5
 41
1.2941176471
 42
50.0
 43
0.0
 44
0.0
 50
0.0
 51
0.0
 71
0
 72
100
 73
1
 74
1
 75
0
 76
0
 77
0
 78
0
  0
ENDTAB
  0
TABLE
  2
LTYPE
  5
5
100
AcDbSymbolTable
 70
6
  0
LTYPE
  5
14
100
AcDbSymbolTableRecord
100
AcDbLinetypeTableRecord
  2
BYBLOCK
 70
0
  3

 72
65
 73
0
 40
0.0
  0
LTYPE
  5
15
100
AcDbSymbolTableRecord
100
AcDbLinetypeTableRecord
  2
BYLAYER
 70
0
  3

 72
65
 73
0
 40
0.0
  0
LTYPE
  5
16
100
AcDbSymbolTableRecord
100
AcDbLinetypeTableRecord
  2
CONTINUOUS
 70
64
  3
Solid line
 72
65
 73
0
 40
0.0
  0
LTYPE
  5
1F5
100
AcDbSymbolTableRecord
100
AcDbLinetypeTableRecord
  2
CENTER
 70
64
  3
____ _ ____ _ ____ _ ____ _ ____ _ ____ _ ____
 72
65
 73
4
 40
0.6
 49
0.375
 74
0
 49
-0.075
 74
0
 49
0.075
 74
0
 49
-0.075
 74
0
  0
LTYPE
  5
1F6
100
AcDbSymbolTableRecord
100
AcDbLinetypeTableRecord
  2
HIDDEN
 70
64
  3
- - - - - - - - - - - - - - - - - - - -
 72
65
 73
2
 40
0.2
 49
0.1
 74
0
 49
-0.1
 74
0
  0
LTYPE
  5
1F7
100
AcDbSymbolTableRecord
100
AcDbLinetypeTableRecord
  2
PHANTOM
 70
64
  3
_____ _ _ _____ _ _ _____ _ _ _____
 72
65
 73
6
 40
0.8
 49
0.45
 74
0
 49
-0.05
 74
0
 49
0.1
 74
0
 49
-0.05
 74
0
 49
0.1
 74
0
 49
-0.05
 74
0
  0
LTYPE
  5
1F8
100
AcDbSymbolTableRecord
100
AcDbLinetypeTableRecord
  2
DOT
 70
64
  3
. . . . . . . . . . . . . . . . . . . .
 72
65
 73
2
 40
0.2
 49
0.1
 74
0
 49
-0.1
 74
0
  0
LTYPE
  5
1F9
100
AcDbSymbolTableRecord
100
AcDbLinetypeTableRecord
  2
DASHED
 70
64
  3
- - - - - - - - - - - - - - - - - - - -
 72
65
 73
2
 40
0.2
 49
0.1
 74
0
 49
-0.1
 74
0
  0
ENDTAB
  0
TABLE
  2
LAYER
  5
2
100
AcDbSymbolTable
 70
36
  0
LAYER
  5
10
100
AcDbSymbolTableRecord
100
AcDbLayerTableRecord
  2
0
 70
0
 62
7
  6
CONTINUOUS
370
-3
390
F
  0
LAYER
  5
1FA
100
AcDbSymbolTableRecord
100
AcDbLayerTableRecord
  2
DEFAULT_1
 70
0
 62
7
  6
CENTER
370
-3
390
F
  0
LAYER
  5
1FB
100
AcDbSymbolTableRecord
100
AcDbLayerTableRecord
  2
DEFAULT_2
 70
0
 62
8
  6
HIDDEN
370
-3
390
F
  0
LAYER
  5
1FC
100
AcDbSymbolTableRecord
100
AcDbLayerTableRecord
  2
DEFAULT_3
 70
0
 62
7
  6
PHANTOM
370
-3
390
F
  0
LAYER
  5
1FD
100
AcDbSymbolTableRecord
100
AcDbLayerTableRecord
  2
DEFAULT_COORDINATE_SYSTEM
 70
0
 62
7
  6
CONTINUOUS
370
-3
390
F
  0
LAYER
  5
1FE
100
AcDbSymbolTableRecord
100
AcDbLayerTableRecord
  2
DEFAULT_DATUM_AXES
 70
0
 62
7
  6
CONTINUOUS
370
-3
390
F
  0
LAYER
  5
1FF
100
AcDbSymbolTableRecord
100
AcDbLayerTableRecord
  2
DEFAULT_DATUM_PLANES
 70
0
 62
7
  6
CONTINUOUS
370
-3
390
F
  0
ENDTAB
  0
TABLE
  2
STYLE
  5
3
100
AcDbSymbolTable
 70
1
  0
STYLE
  5
11
100
AcDbSymbolTableRecord
100
AcDbTextStyleTableRecord
  2
STANDARD
 70
0
 40
0.0
 41
0.8
 50
0.0
 71
0
 42
0.2
  3
txt
  4

  0
STYLE
  5
200
100
AcDbSymbolTableRecord
100
AcDbTextStyleTableRecord
  2
TEXTSTYLE_1
 70
0
 40
0.0
 41
0.8
 50
0.0
 71
0
 42
0.2
  3
gdt
  4

  0
ENDTAB
  0
TABLE
  2
VIEW
  5
6
100
AcDbSymbolTable
 70
0
  0
ENDTAB
  0
TABLE
  2
UCS
  5
7
100
AcDbSymbolTable
 70
0
  0
ENDTAB
  0
TABLE
  2
APPID
  5
9
100
AcDbSymbolTable
 70
1
  0
APPID
  5
201
100
AcDbSymbolTableRecord
100
AcDbRegAppTableRecord
  2
ACAD
 70
0
  0
ENDTAB
  0
TABLE
  2
BLOCK_RECORD
  5
1
100
AcDbSymbolTable
 70
0
  0
BLOCK_RECORD
  5
202
100
AcDbSymbolTableRecord
100
AcDbBlockTableRecord
  2
*Model_Space
  0
BLOCK_RECORD
  5
203
100
AcDbSymbolTableRecord
100
AcDbBlockTableRecord
  2
*Paper_Space
  0
BLOCK_RECORD
  5
204
100
AcDbSymbolTableRecord
100
AcDbBlockTableRecord
  2
_FILLED
  0
ENDTAB
  0
TABLE
  2
DIMSTYLE
  5
A
100
AcDbSymbolTable
 70
1
100
AcDbDimStyleTable
 71
0
  0
DIMSTYLE
105
205
100
AcDbSymbolTableRecord
100
AcDbDimStyleTableRecord
  2
STANDARD
 70
0
  3

  4

 40
1.0
 41
0.1
 42
0.0625
 43
0.38
 44
0.125
 45
0.0
 46
0.0
 47
0.01
 48
0.01
140
0.08
141
0.09
142
0.0
143
25.4
144
1.0
145
0.0
146
1.0
147
0.09
 71
1.0
 72
0.0
 73
1
 74
1
 75
0
 76
0
 77
0
 78
4
 79
1
170
1
171
1
172
0
173
0
174
0
175
0
176
0
177
0
178
0
270
2
179
2
271
2
272
2
273
2
274
2
275
0
280
0
281
0
282
0
283
1
284
4
285
0
286
0
287
3
288
0
340
11
278
46
341
204
342
204
343
204
344
204
  0
ENDTAB
  0
ENDSEC
  0
SECTION
  2
BLOCKS
  0
BLOCK
  5
20
100
AcDbEntity
  8
0
100
AcDbBlockBegin
  2
*Model_Space
 70
0
 10
0.0
 20
0.0
 30
0.0
  3
*Model_Space
  1

  0
ENDBLK
  5
21
100
AcDbEntity
  8
0
100
AcDbBlockEnd
  0
BLOCK
  5
1C
100
AcDbEntity
  8
0
100
AcDbBlockBegin
  2
*Paper_Space
 70
0
 10
0.0
 20
0.0
 30
0.0
  3
*Paper_Space
  1

  0
ENDBLK
  5
1D
100
AcDbEntity
  8
0
100
AcDbBlockEnd
  0
BLOCK
  5
206
100
AcDbEntity
  8
0
100
AcDbBlockBegin
  2
_FILLED
 70
64
 10
0.0
 20
0.0
  3
_FILLED
  1

  0
SOLID
  5
207
100
AcDbEntity
  8
0
  6
BYBLOCK
 62
0
100
AcDbTrace
 10
0.0
 20
0.0
 11
-1.0
 21
0.2
 12
-1.0
 22
-0.2
 13
-1.0
 23
-0.2
  0
ENDBLK
  5
208
100
AcDbEntity
  8
0
  6
BYBLOCK
 62
0
100
AcDbBlockEnd
  0
ENDSEC
  0
SECTION
  2
ENTITIES
  0
MTEXT
  5
209
100
AcDbEntity
  8
0
100
AcDbMText
 62
2
  6
CONTINUOUS
  7
STANDARD
 71
3
 72
1
 10
5.280939441
 20
3.2724058618
 30
0.0
 11
1.0
 21
0.0
 31
0.0
 73
2
 44
0.9
  1
SCALE  .250
 40
0.08
 41
0.704
  0
LINE
  5
20A
100
AcDbEntity
  8
0
100
AcDbLine
 62
7
  6
CONTINUOUS
 10
0.0
 20
0.0
 11
0.0
 21
8.5
  0
LINE
  5
20B
100
AcDbEntity
  8
0
100
AcDbLine
 62
7
  6
CONTINUOUS
 10
0.0
 20
0.0
 11
11.0
 21
0.0
  0
LINE
  5
20C
100
AcDbEntity
  8
0
100
AcDbLine
 62
7
  6
CONTINUOUS
 10
0.0
 20
8.5
 11
11.0
 21
8.5
  0
LINE
  5
20D
100
AcDbEntity
  8
0
100
AcDbLine
 62
7
  6
CONTINUOUS
 10
11.0
 20
0.0
 11
11.0
 21
8.5
  0
LINE
  5
20E
100
AcDbEntity
  8
0
100
AcDbLine
 62
7
  6
CONTINUOUS
 10
4.9664687435
 20
4.3128251165
 11
4.7883448607
 21
4.3128251165
  0
LINE
  5
20F
100
AcDbEntity
  8
0
100
AcDbLine
 62
7
  6
CONTINUOUS
 10
4.9554943268
 20
4.3253251165
 11
4.9375367722
 21
4.3253251165
  0
LINE
  5
210
100
AcDbEntity
  8
0
100
AcDbLine
 62
7
  6
CONTINUOUS
 10
4.7759633249
 20
4.336083433
 11
4.7901193323
 21
4.3278993213
  0
LINE
  5
211
100
AcDbEntity
  8
0
100
AcDbLine
 62
7
  6
CONTINUOUS
 10
4.7759633249
 20
4.353933433
 11
4.7901193323
 21
4.3457493213
  0
LINE
  5
212
100
AcDbEntity
  8
0
100
AcDbLine
 62
7
  6
CONTINUOUS
 10
4.7759633249
 20
4.371783433
 11
4.7901193323
 21
4.3635993213
  0
LINE
  5
213
100
AcDbEntity
  8
0
100
AcDbLine
 62
7
  6
CONTINUOUS
 10
4.7759633249
 20
4.389633433
 11
4.7901193323
 21
4.3814493213
  0
LINE
  5
214
100
AcDbEntity
  8
0
100
AcDbLine
 62
7
  6
CONTINUOUS
 10
4.7883443323
 20
4.3128251165
 11
4.7798145982
 21
4.3213548506
  0
LINE
  5
215
100
AcDbEntity
  8
0
100
AcDbLine
 62
7
  6
CONTINUOUS
 10
4.7758656185
 20
4.4060736218
 11
4.7874369981
 21
4.399391302
  0
LINE
  5
216
100
AcDbEntity
  8
0
100
AcDbLine
 62
7
  6
CONTINUOUS
 10
4.9693057841
 20
4.3157928347
 11
4.9646943323
 21
4.3184592619
  0
LINE
  5
217
100
AcDbEntity
  8
0
100
AcDbLine
 62
7
  6
CONTINUOUS
 10
4.9788503395
 20
4.3281251502
 11
4.9646943323
 21
4.3363092619
  0
LINE
  5
218
100
AcDbEntity
  8
0
100
AcDbLine
 62
7
  6
CONTINUOUS
 10
4.9788503395
 20
4.3459751502
 11
4.9646943323
 21
4.3541592619
  0
LINE
  5
219
100
AcDbEntity
  8
0
100
AcDbLine
 62
7
  6
CONTINUOUS
 10
4.9788503395
 20
4.3638251502
 11
4.9646943323
 21
4.3720092619
  0
LINE
  5
21A
100
AcDbEntity
  8
0
100
AcDbLine
 62
7
  6
CONTINUOUS
 10
4.9788503395
 20
4.3816751502
 11
4.9646943323
 21
4.3898592619
  0
LINE
  5
21B
100
AcDbEntity
  8
0
100
AcDbLine
 62
7
  6
CONTINUOUS
 10
4.9357607446
 20
4.4017670549
 11
4.9326373328
 21
4.4049056263
  0
LINE
  5
21C
100
AcDbEntity
  8
0
100
AcDbLine
 62
7
  6
CONTINUOUS
 10
4.7758443323
 20
4.9503251165
 11
4.7758443323
 21
4.4060982053
  0
LINE
  5
21D
100
AcDbEntity
  8
0
100
AcDbLine
 62
7
  6
CONTINUOUS
 10
4.7758443323
 20
4.3919853778
 11
4.7758443323
 21
4.3897709666
  0
LINE
  5
21E
100
AcDbEntity
  8
0
100
AcDbLine
 62
7
  6
CONTINUOUS
 10
4.7758443323
 20
4.3726126165
 11
4.7758443323
 21
4.3719209666
  0
LINE
  5
21F
100
AcDbEntity
  8
0
100
AcDbLine
 62
7
  6
CONTINUOUS
 10
4.7758443323
 20
4.3547626165
 11
4.7758443323
 21
4.3540709666
  0
LINE
  5
220
100
AcDbEntity
  8
0
100
AcDbLine
 62
7
  6
CONTINUOUS
 10
4.7758443323
 20
4.3369126165
 11
4.7758443323
 21
4.3362209666
  0
LINE
  5
221
100
AcDbEntity
  8
0
100
AcDbLine
 62
7
  6
CONTINUOUS
 10
4.7874369981
 20
4.3994689228
 11
4.7874369981
 21
4.3988711042
  0
LINE
  5
222
100
AcDbEntity
  8
0
100
AcDbLine
 62
7
  6
CONTINUOUS
 10
4.7901193323
 20
4.3815292916
 11
4.7901193323
 21
4.3809342619
  0
LINE
  5
223
100
AcDbEntity
  8
0
100
AcDbLine
 62
7
  6
CONTINUOUS
 10
4.7901193323
 20
4.3636792916
 11
4.7901193323
 21
4.3630842619
  0
LINE
  5
224
100
AcDbEntity
  8
0
100
AcDbLine
 62
7
  6
CONTINUOUS
 10
4.7901193323
 20
4.3458292916
 11
4.7901193323
 21
4.3452342619
  0
LINE
  5
225
100
AcDbEntity
  8
0
100
AcDbLine
 62
7
  6
CONTINUOUS
 10
4.7901193323
 20
4.3279792916
 11
4.7901193323
 21
4.3273842619
  0
LINE
  5
226
100
AcDbEntity
  8
0
100
AcDbLine
 62
7
  6
CONTINUOUS
 10
4.9326373328
 20
4.4049056263
 11
4.9326373328
 21
4.4055806263
  0
LINE
  5
227
100
AcDbEntity
  8
0
100
AcDbLine
 62
7
  6
CONTINUOUS
 10
4.9357607446
 20
4.4087191978
 11
4.9357607446
 21
4.4017670549
  0
LINE
  5
228
100
AcDbEntity
  8
0
100
AcDbLine
 62
7
  6
CONTINUOUS
 10
4.9646943323
 20
4.3183792916
 11
4.9646943323
 21
4.3189743213
  0
LINE
  5
229
100
AcDbEntity
  8
0
100
AcDbLine
 62
7
  6
CONTINUOUS
 10
4.9646943323
 20
4.3362292916
 11
4.9646943323
 21
4.3368243213
  0
LINE
  5
22A
100
AcDbEntity
  8
0
100
AcDbLine
 62
7
  6
CONTINUOUS
 10
4.9646943323
 20
4.3540792916
 11
4.9646943323
 21
4.3546743213
  0
LINE
  5
22B
100
AcDbEntity
  8
0
100
AcDbLine
 62
7
  6
CONTINUOUS
 10
4.9646943323
 20
4.3719292916
 11
4.9646943323
 21
4.3725243213
  0
LINE
  5
22C
100
AcDbEntity
  8
0
100
AcDbLine
 62
7
  6
CONTINUOUS
 10
4.9646943323
 20
4.3897792916
 11
4.9646943323
 21
4.3903743213
  0
LINE
  5
22D
100
AcDbEntity
  8
0
100
AcDbLine
 62
7
  6
CONTINUOUS
 10
4.9789693323
 20
4.9503251165
 11
4.9789693323
 21
4.3986959666
  0
LINE
  5
22E
100
AcDbEntity
  8
0
100
AcDbLine
 62
7
  6
CONTINUOUS
 10
4.9789693323
 20
4.3815376165
 11
4.9789693323
 21
4.3808459666
  0
LINE
  5
22F
100
AcDbEntity
  8
0
100
AcDbLine
 62
7
  6
CONTINUOUS
 10
4.9789693323
 20
4.3636876165
 11
4.9789693323
 21
4.3629959666
  0
LINE
  5
230
100
AcDbEntity
  8
0
100
AcDbLine
 62
7
  6
CONTINUOUS
 10
4.9789693323
 20
4.3458376165
 11
4.9789693323
 21
4.3451459666
  0
LINE
  5
231
100
AcDbEntity
  8
0
100
AcDbLine
 62
7
  6
CONTINUOUS
 10
4.9789693323
 20
4.3279876165
 11
4.9789693323
 21
4.3272959666
  0
LINE
  5
232
100
AcDbEntity
  8
0
100
AcDbLine
 62
7
  6
CONTINUOUS
 10
4.7875700901
 20
4.3989482259
 11
4.7761396237
 21
4.3923271726
  0
LINE
  5
233
100
AcDbEntity
  8
0
100
AcDbLine
 62
7
  6
CONTINUOUS
 10
4.7902576914
 20
4.3810142689
 11
4.7759633251
 21
4.3727501502
  0
LINE
  5
234
100
AcDbEntity
  8
0
100
AcDbLine
 62
7
  6
CONTINUOUS
 10
4.7902576914
 20
4.3631642689
 11
4.7759633251
 21
4.3549001502
  0
LINE
  5
235
100
AcDbEntity
  8
0
100
AcDbLine
 62
7
  6
CONTINUOUS
 10
4.9326373328
 20
4.4055806263
 11
4.9357607446
 21
4.4087191978
  0
LINE
  5
236
100
AcDbEntity
  8
0
100
AcDbLine
 62
7
  6
CONTINUOUS
 10
4.7902576914
 20
4.3453142689
 11
4.7759633251
 21
4.3370501502
  0
LINE
  5
237
100
AcDbEntity
  8
0
100
AcDbLine
 62
7
  6
CONTINUOUS
 10
4.7902576914
 20
4.3274642689
 11
4.7798476495
 21
4.3214455009
  0
LINE
  5
238
100
AcDbEntity
  8
0
100
AcDbLine
 62
7
  6
CONTINUOUS
 10
4.9645559735
 20
4.3902943144
 11
4.9788503397
 21
4.398558433
  0
LINE
  5
239
100
AcDbEntity
  8
0
100
AcDbLine
 62
7
  6
CONTINUOUS
 10
4.9664693323
 20
4.3128251165
 11
4.9693408431
 21
4.3156966273
  0
LINE
  5
23A
100
AcDbEntity
  8
0
100
AcDbLine
 62
7
  6
CONTINUOUS
 10
4.9645559735
 20
4.3724443144
 11
4.9788503397
 21
4.380708433
  0
LINE
  5
23B
100
AcDbEntity
  8
0
100
AcDbLine
 62
7
  6
CONTINUOUS
 10
4.9645559735
 20
4.3545943144
 11
4.9788503397
 21
4.362858433
  0
LINE
  5
23C
100
AcDbEntity
  8
0
100
AcDbLine
 62
7
  6
CONTINUOUS
 10
4.9645559735
 20
4.3367443144
 11
4.9788503397
 21
4.345008433
  0
LINE
  5
23D
100
AcDbEntity
  8
0
100
AcDbLine
 62
7
  6
CONTINUOUS
 10
4.9645559735
 20
4.3188943144
 11
4.9788503397
 21
4.327158433
  0
ARC
  5
23E
100
AcDbEntity
  8
0
100
AcDbCircle
 62
7
  6
CONTINUOUS
 10
4.6637360403
 20
23.7006056196
 40
19.2938032947
100
AcDbArc
 50
270.6345396952
 51
270.8078439982
  0
ARC
  5
23F
100
AcDbEntity
  8
0
100
AcDbCircle
 62
7
  6
CONTINUOUS
 10
4.8774068323
 20
4.9503251165
 40
0.1015625
100
AcDbArc
 50
0.0
 51
180.0
  0
LINE
  5
240
100
AcDbEntity
  8
0
100
AcDbLine
 62
7
  6
CONTINUOUS
 10
4.7758443598
 20
4.3362209667
 11
4.7759633458
 21
4.3360834329
  0
LINE
  5
241
100
AcDbEntity
  8
0
100
AcDbLine
 62
7
  6
CONTINUOUS
 10
4.775844406
 20
4.3369126166
 11
4.7759633771
 21
4.3370501503
  0
LINE
  5
242
100
AcDbEntity
  8
0
100
AcDbLine
 62
7
  6
CONTINUOUS
 10
4.9789692827
 20
4.3272959666
 11
4.9788503064
 21
4.3271584331
  0
LINE
  5
243
100
AcDbEntity
  8
0
100
AcDbLine
 62
7
  6
CONTINUOUS
 10
4.9789692858
 20
4.3279876164
 11
4.9788503361
 21
4.3281251503
  0
SPLINE
  5
244
100
AcDbEntity
  8
0
100
AcDbSpline
 62
7
  6
CONTINUOUS
 70
0
 71
3
 72
12
 73
8
 74
0
 42
0.0000001
 43
0.0000001
 44
0.0000000001
 40
0.0
 40
0.0
 40
0.0
 40
0.0
 40
0.2327728672
 40
0.3309975031
 40
0.4299681108
 40
0.6677333187
 40
1.0
 40
1.0
 40
1.0
 40
1.0
 10
4.779814659
 20
4.3213548506
 30
0.0
 10
4.7798082615
 20
4.3213612505
 30
0.0
 10
4.7798000085
 20
4.3213720642
 30
0.0
 10
4.7797973541
 20
4.3213888987
 30
0.0
 10
4.7798008597
 20
4.3214057943
 30
0.0
 10
4.7798179598
 20
4.3214267979
 30
0.0
 10
4.7798364907
 20
4.321439034
 30
0.0
 10
4.7798476723
 20
4.3214455009
 30
0.0
  0
SPLINE
  5
245
100
AcDbEntity
  8
0
100
AcDbSpline
 62
7
  6
CONTINUOUS
 70
0
 71
3
 72
9
 73
5
 74
0
 42
0.0000001
 43
0.0000001
 44
0.0000000001
 40
0.0
 40
0.0
 40
0.0
 40
0.0
 40
0.3366243206
 40
1.0
 40
1.0
 40
1.0
 40
1.0
 10
4.7758656577
 20
4.4060736218
 30
0.0
 10
4.7758624393
 20
4.4060754817
 30
0.0
 10
4.7758533901
 20
4.4060811714
 30
0.0
 10
4.7758443908
 20
4.40609088
 30
0.0
 10
4.7758443943
 20
4.4060982053
 30
0.0
  0
LINE
  5
246
100
AcDbEntity
  8
0
100
AcDbLine
 62
7
  6
CONTINUOUS
 10
4.7761396252
 20
4.3923271727
 11
4.7758443943
 21
4.3919853778
  0
LINE
  5
247
100
AcDbEntity
  8
0
100
AcDbLine
 62
7
  6
CONTINUOUS
 10
4.7759633771
 20
4.389633433
 11
4.7758443323
 21
4.3897709666
  0
LINE
  5
248
100
AcDbEntity
  8
0
100
AcDbLine
 62
7
  6
CONTINUOUS
 10
4.7759633771
 20
4.371783433
 11
4.7758443323
 21
4.3719209666
  0
LINE
  5
249
100
AcDbEntity
  8
0
100
AcDbLine
 62
7
  6
CONTINUOUS
 10
4.9788502875
 20
4.398558433
 11
4.9789693323
 21
4.3986959666
  0
LINE
  5
24A
100
AcDbEntity
  8
0
100
AcDbLine
 62
7
  6
CONTINUOUS
 10
4.9788502875
 20
4.380708433
 11
4.9789693323
 21
4.3808459666
  0
LINE
  5
24B
100
AcDbEntity
  8
0
100
AcDbLine
 62
7
  6
CONTINUOUS
 10
4.9788502875
 20
4.362858433
 11
4.9789693323
 21
4.3629959666
  0
LINE
  5
24C
100
AcDbEntity
  8
0
100
AcDbLine
 62
7
  6
CONTINUOUS
 10
4.7759633773
 20
4.3727501503
 11
4.7758443323
 21
4.3726126165
  0
LINE
  5
24D
100
AcDbEntity
  8
0
100
AcDbLine
 62
7
  6
CONTINUOUS
 10
4.7759633772
 20
4.3549001503
 11
4.7758443323
 21
4.3547626165
  0
LINE
  5
24E
100
AcDbEntity
  8
0
100
AcDbLine
 62
7
  6
CONTINUOUS
 10
4.9788502874
 20
4.3816751503
 11
4.9789693323
 21
4.3815376165
  0
LINE
  5
24F
100
AcDbEntity
  8
0
100
AcDbLine
 62
7
  6
CONTINUOUS
 10
4.9788502873
 20
4.3638251503
 11
4.9789693323
 21
4.3636876165
  0
LINE
  5
250
100
AcDbEntity
  8
0
100
AcDbLine
 62
7
  6
CONTINUOUS
 10
4.9788502874
 20
4.3459751503
 11
4.9789693323
 21
4.3458376165
  0
LINE
  5
251
100
AcDbEntity
  8
0
100
AcDbLine
 62
7
  6
CONTINUOUS
 10
4.7759633301
 20
4.3539334329
 11
4.7758443819
 21
4.3540709668
  0
LINE
  5
252
100
AcDbEntity
  8
0
100
AcDbLine
 62
7
  6
CONTINUOUS
 10
4.9788502875
 20
4.345008433
 11
4.9789693323
 21
4.3451459666
  0
LINE
  5
253
100
AcDbEntity
  8
0
100
AcDbLine
 62
7
  6
CONTINUOUS
 10
4.9693057736
 20
4.3157928347
 11
4.9693407841
 21
4.3156966274
  0
SPLINE
  5
254
100
AcDbEntity
  8
0
100
AcDbSpline
 62
7
  6
CONTINUOUS
 70
0
 71
3
 72
39
 73
35
 74
0
 42
0.0000001
 43
0.0000001
 44
0.0000000001
 40
0.0
 40
0.0
 40
0.0
 40
0.0
 40
0.0003894478
 40
0.0009024885
 40
0.0023312126
 40
0.0043198758
 40
0.0068780294
 40
0.0100087729
 40
0.0137129601
 40
0.0179904105
 40
0.0228403758
 40
0.0342493159
 40
0.0479166696
 40
0.06381597
 40
0.0819123772
 40
0.1021651176
 40
0.1245305685
 40
0.1489560741
 40
0.1753866912
 40
0.2037617045
 40
0.2340139535
 40
0.2998670485
 40
0.3723265782
 40
0.4507060621
 40
0.5342573406
 40
0.6221777755
 40
0.6675131443
 40
0.7136183437
 40
0.7603784437
 40
0.8076795511
 40
0.8554114027
 40
0.9034636909
 40
0.9517082789
 40
1.0
 40
1.0
 40
1.0
 40
1.0
 10
4.9693407841
 20
4.3156966274
 30
0.0
 10
4.9693323385
 20
4.3156881802
 30
0.0
 10
4.9693095803
 20
4.3156719043
 30
0.0
 10
4.9692455103
 20
4.3156399763
 30
0.0
 10
4.9691302893
 20
4.3156028116
 30
0.0
 10
4.9689519699
 20
4.3155606159
 30
0.0
 10
4.968720239
 20
4.3155180751
 30
0.0
 10
4.9684353461
 20
4.3154751319
 30
0.0
 10
4.9680972215
 20
4.3154320088
 30
0.0
 10
4.9677060317
 20
4.3153887276
 30
0.0
 10
4.9670791143
 20
4.3153275305
 30
0.0
 10
4.9661642403
 20
4.3152526365
 30
0.0
 10
4.9649104019
 20
4.3151663114
 30
0.0
 10
4.9634510527
 20
4.3150796521
 30
0.0
 10
4.9617894303
 20
4.3149926893
 30
0.0
 10
4.9599292511
 20
4.3149054998
 30
0.0
 10
4.9578747652
 20
4.3148181344
 30
0.0
 10
4.955630645
 20
4.3147306013
 30
0.0
 10
4.9532020782
 20
4.314642931
 30
0.0
 10
4.9505946925
 20
4.3145551312
 30
0.0
 10
4.9467785859
 20
4.3144344576
 30
0.0
 10
4.9416105886
 20
4.3142848041
 30
0.0
 10
4.9349666064
 20
4.3141093414
 30
0.0
 10
4.927779635
 20
4.3139332196
 30
0.0
 10
4.920118331
 20
4.3137566397
 30
0.0
 10
4.9134701001
 20
4.3136112129
 30
0.0
 10
4.9079700835
 20
4.3134928879
 30
0.0
 10
4.9037321979
 20
4.3134031312
 30
0.0
 10
4.8994339784
 20
4.3133147187
 30
0.0
 10
4.8950858139
 20
4.313228454
 30
0.0
 10
4.8906980528
 20
4.3131398977
 30
0.0
 10
4.8862815194
 20
4.3130430967
 30
0.0
 10
4.8818479351
 20
4.3129408505
 30
0.0
 10
4.8788877134
 20
4.3128762542
 30
0.0
 10
4.8774068315
 20
4.312846316
 30
0.0
  0
SPLINE
  5
255
100
AcDbEntity
  8
0
100
AcDbSpline
 62
7
  6
CONTINUOUS
 70
0
 71
3
 72
30
 73
26
 74
0
 42
0.0000001
 43
0.0000001
 44
0.0000000001
 40
0.0
 40
0.0
 40
0.0
 40
0.0
 40
0.1891791555
 40
0.2816241683
 40
0.3715284648
 40
0.4580734483
 40
0.5404780692
 40
0.617998196
 40
0.6899338821
 40
0.7556359678
 40
0.8145116171
 40
0.8660311293
 40
0.8888859225
 40
0.9097334205
 40
0.9285291089
 40
0.9452304949
 40
0.9598022312
 40
0.9722150063
 40
0.9824440391
 40
0.9867355884
 40
0.9904773768
 40
0.9936697127
 40
0.996314936
 40
0.9984199313
 40
1.0
 40
1.0
 40
1.0
 40
1.0
 10
4.8774068323
 20
4.3942334666
 30
0.0
 10
4.8838105235
 20
4.3944125913
 30
0.0
 10
4.8933434694
 20
4.3946791866
 30
0.0
 10
4.9059193888
 20
4.3950406439
 30
0.0
 10
4.9150210164
 20
4.39530959
 30
0.0
 10
4.9237824953
 20
4.3955784318
 30
0.0
 10
4.9321244066
 20
4.3958471254
 30
0.0
 10
4.9399713387
 20
4.3961156112
 30
0.0
 10
4.947252328
 20
4.3963838146
 30
0.0
 10
4.9539015136
 20
4.3966515907
 30
0.0
 10
4.9598587475
 20
4.3969188254
 30
0.0
 10
4.9643651838
 20
4.3971489697
 30
0.0
 10
4.9675842837
 20
4.3973358529
 30
0.0
 10
4.9696964019
 20
4.3974702441
 30
0.0
 10
4.9715996995
 20
4.397604433
 30
0.0
 10
4.9732899101
 20
4.3977383955
 30
0.0
 10
4.9747632555
 20
4.3978719736
 30
0.0
 10
4.9760164237
 20
4.3980050661
 30
0.0
 10
4.9769212251
 20
4.3981209285
 30
0.0
 10
4.9775323376
 20
4.3982159555
 30
0.0
 10
4.9779065943
 20
4.3982828325
 30
0.0
 10
4.9782241084
 20
4.3983494692
 30
0.0
 10
4.9784849461
 20
4.3984157531
 30
0.0
 10
4.978689026
 20
4.3984815441
 30
0.0
 10
4.9788039616
 20
4.3985316595
 30
0.0
 10
4.9788502875
 20
4.398558433
 30
0.0
  0
SPLINE
  5
256
100
AcDbEntity
  8
0
100
AcDbSpline
 62
7
  6
CONTINUOUS
 70
0
 71
3
 72
22
 73
18
 74
0
 42
0.0000001
 43
0.0000001
 44
0.0000000001
 40
0.0
 40
0.0
 40
0.0
 40
0.0
 40
0.0056565776
 40
0.0129380443
 40
0.0218920044
 40
0.0325401917
 40
0.0589539858
 40
0.0922122121
 40
0.132298615
 40
0.1791612378
 40
0.2327379301
 40
0.2929538543
 40
0.3597085057
 40
0.4328960646
 40
0.5981110232
 40
0.7875868975
 40
1.0
 40
1.0
 40
1.0
 40
1.0
 10
4.9788503064
 20
4.3271584331
 30
0.0
 10
4.9788120098
 20
4.3271362902
 30
0.0
 10
4.9787196175
 20
4.3270941175
 30
0.0
 10
4.9785577662
 20
4.3270380545
 30
0.0
 10
4.9783551039
 20
4.3269816652
 30
0.0
 10
4.9780045054
 20
4.3269002289
 30
0.0
 10
4.9774631489
 20
4.3268019482
 30
0.0
 10
4.9766910596
 20
4.3266895881
 30
0.0
 10
4.9757577009
 20
4.3265767151
 30
0.0
 10
4.9746645489
 20
4.3264633491
 30
0.0
 10
4.9734132651
 20
4.3263497209
 30
0.0
 10
4.9720058718
 20
4.3262359092
 30
0.0
 10
4.9704446757
 20
4.3261219427
 30
0.0
 10
4.9680634543
 20
4.3259633744
 30
0.0
 10
4.9647228873
 20
4.3257680063
 30
0.0
 10
4.9602936248
 20
4.3255412829
 30
0.0
 10
4.9571539169
 20
4.3253977175
 30
0.0
 10
4.9554943268
 20
4.3253251165
 30
0.0
  0
LINE
  5
257
100
AcDbEntity
  8
0
100
AcDbLine
 62
7
  6
CONTINUOUS
 10
4.7758443323
 20
4.3719209666
 11
4.7765851131
 21
4.3722642999
  0
SPLINE
  5
258
100
AcDbEntity
  8
0
100
AcDbSpline
 62
7
  6
CONTINUOUS
 70
0
 71
3
 72
24
 73
20
 74
0
 42
0.0000001
 43
0.0000001
 44
0.0000000001
 40
0.0
 40
0.0
 40
0.0
 40
0.0
 40
0.0030715786
 40
0.0066448098
 40
0.0152962721
 40
0.0259492952
 40
0.0385886513
 40
0.0531904228
 40
0.0697283758
 40
0.1084762572
 40
0.1545232186
 40
0.2074953825
 40
0.2669608285
 40
0.3324340698
 40
0.4033797401
 40
0.4792164427
 40
0.6430419192
 40
0.8185482507
 40
1.0
 40
1.0
 40
1.0
 40
1.0
 10
4.7765851131
 20
4.3722642999
 30
0.0
 10
4.77668578
 20
4.3722876566
 30
0.0
 10
4.7769046499
 20
4.3723334743
 30
0.0
 10
4.7774112352
 20
4.3724243656
 30
0.0
 10
4.778173169
 20
4.3725347522
 30
0.0
 10
4.7792404724
 20
4.3726613097
 30
0.0
 10
4.7805091051
 20
4.3727883547
 30
0.0
 10
4.7819765171
 20
4.3729158709
 30
0.0
 10
4.7843209662
 20
4.3730958379
 30
0.0
 10
4.7877232352
 20
4.3733157783
 30
0.0
 10
4.7923514008
 20
4.373569326
 30
0.0
 10
4.7976774576
 20
4.3738236903
 30
0.0
 10
4.8036577154
 20
4.3740787116
 30
0.0
 10
4.8102431564
 20
4.3743341337
 30
0.0
 10
4.8173797622
 20
4.3745898644
 30
0.0
 10
4.8278240604
 20
4.3749401754
 30
0.0
 10
4.8417854625
 20
4.3753710364
 30
0.0
 10
4.8592995245
 20
4.3758770082
 30
0.0
 10
4.8713044134
 20
4.3762127692
 30
0.0
 10
4.8774068323
 20
4.3763834666
 30
0.0
  0
SPLINE
  5
259
100
AcDbEntity
  8
0
100
AcDbSpline
 62
7
  6
CONTINUOUS
 70
0
 71
3
 72
56
 73
52
 74
0
 42
0.0000001
 43
0.0000001
 44
0.0000000001
 40
0.0
 40
0.0
 40
0.0
 40
0.0
 40
0.0009699752
 40
0.0013479163
 40
0.0017888938
 40
0.0022951973
 40
0.0028683165
 40
0.0042185698
 40
0.0058447473
 40
0.0077487365
 40
0.0099311151
 40
0.012391825
 40
0.015130432
 40
0.0214378264
 40
0.0288415559
 40
0.0373264571
 40
0.0468751961
 40
0.0574656893
 40
0.0816762475
 40
0.1097386888
 40
0.1413970891
 40
0.1763617197
 40
0.2143112651
 40
0.2548969285
 40
0.297745776
 40
0.3424637284
 40
0.388639091
 40
0.4358470072
 40
0.4836531412
 40
0.5792981646
 40
0.6262568371
 40
0.6720611726
 40
0.7162895037
 40
0.7585350859
 40
0.798409486
 40
0.8355458746
 40
0.8696029935
 40
0.9002687312
 40
0.9272623996
 40
0.9393034746
 40
0.9503376171
 40
0.960339181
 40
0.9692861692
 40
0.9771596492
 40
0.9839421112
 40
0.9896214693
 40
0.9941891047
 40
0.996055007
 40
0.9976433898
 40
0.9989567118
 40
1.0
 40
1.0
 40
1.0
 40
1.0
 10
4.7901193366
 20
4.3636792916
 30
0.0
 10
4.7901193542
 20
4.3637357964
 30
0.0
 10
4.7901915753
 20
4.363800773
 30
0.0
 10
4.7902789357
 20
4.3638521011
 30
0.0
 10
4.7903489192
 20
4.3638863263
 30
0.0
 10
4.7904306325
 20
4.3639200627
 30
0.0
 10
4.7905639504
 20
4.3639679658
 30
0.0
 10
4.7907623739
 20
4.364026495
 30
0.0
 10
4.7910386752
 20
4.3640938071
 30
0.0
 10
4.791364586
 20
4.3641612961
 30
0.0
 10
4.7917399621
 20
4.3642289537
 30
0.0
 10
4.7921646234
 20
4.3642967232
 30
0.0
 10
4.7928281903
 20
4.3643917212
 30
0.0
 10
4.7937794048
 20
4.3645084309
 30
0.0
 10
4.7950653961
 20
4.3646432931
 30
0.0
 10
4.7965410758
 20
4.3647784774
 30
0.0
 10
4.7982030527
 20
4.3649139161
 30
0.0
 10
4.8007796688
 20
4.3651032988
 30
0.0
 10
4.8044343959
 20
4.3653358523
 30
0.0
 10
4.8093163329
 20
4.3656051536
 30
0.0
 10
4.814825542
 20
4.3658751096
 30
0.0
 10
4.8209113026
 20
4.3661455857
 30
0.0
 10
4.8275175648
 20
4.3664163998
 30
0.0
 10
4.83458346
 20
4.3666874624
 30
0.0
 10
4.8420439068
 20
4.3669586996
 30
0.0
 10
4.8498301753
 20
4.3672300616
 30
0.0
 10
4.8578705214
 20
4.3675015132
 30
0.0
 10
4.8660908637
 20
4.367773021
 30
0.0
 10
4.8771915812
 20
4.3681351223
 30
0.0
 10
4.8882778469
 20
4.3684949303
 30
0.0
 10
4.899247293
 20
4.3688591388
 30
0.0
 10
4.9072229475
 20
4.369130569
 30
0.0
 10
4.9149238865
 20
4.3694019009
 30
0.0
 10
4.9222791664
 20
4.3696730947
 30
0.0
 10
4.9292210266
 20
4.369944092
 30
0.0
 10
4.935685502
 20
4.3702148255
 30
0.0
 10
4.9416130511
 20
4.3704851637
 30
0.0
 10
4.9469490961
 20
4.370755001
 30
0.0
 10
4.9510028297
 20
4.3709870898
 30
0.0
 10
4.953913462
 20
4.3711754022
 30
0.0
 10
4.9558355424
 20
4.371311075
 30
0.0
 10
4.957576902
 20
4.371446594
 30
0.0
 10
4.9591335467
 20
4.3715819045
 30
0.0
 10
4.9605018995
 20
4.3717169055
 30
0.0
 10
4.9616789242
 20
4.3718514233
 30
0.0
 10
4.9626619408
 20
4.3719853549
 30
0.0
 10
4.9633580616
 20
4.372102307
 30
0.0
 10
4.9638153402
 20
4.372198912
 30
0.0
 10
4.9640849093
 20
4.3722661713
 30
0.0
 10
4.9643048463
 20
4.3723330956
 30
0.0
 10
4.9644330884
 20
4.3723829247
 30
0.0
 10
4.9644880162
 20
4.3724089363
 30
0.0
  0
SPLINE
  5
25A
100
AcDbEntity
  8
0
100
AcDbSpline
 62
7
  6
CONTINUOUS
 70
0
 71
3
 72
9
 73
5
 74
0
 42
0.0000001
 43
0.0000001
 44
0.0000000001
 40
0.0
 40
0.0
 40
0.0
 40
0.0
 40
0.2647391079
 40
1.0
 40
1.0
 40
1.0
 40
1.0
 10
4.9644880162
 20
4.3724089363
 30
0.0
 10
4.9644941271
 20
4.3724118301
 30
0.0
 10
4.9645171141
 20
4.3724229594
 30
0.0
 10
4.9645397097
 20
4.3724349152
 30
0.0
 10
4.9645559668
 20
4.3724443143
 30
0.0
  0
SPLINE
  5
25B
100
AcDbEntity
  8
0
100
AcDbSpline
 62
7
  6
CONTINUOUS
 70
0
 71
3
 72
21
 73
17
 74
0
 42
0.0000001
 43
0.0000001
 44
0.0000000001
 40
0.0
 40
0.0
 40
0.0
 40
0.0
 40
0.0062385481
 40
0.01303101
 40
0.020813971
 40
0.0298820526
 40
0.0525313837
 40
0.0818461813
 40
0.1181811901
 40
0.161709567
 40
0.2125234353
 40
0.270673716
 40
0.4090747566
 40
0.5769349455
 40
0.7740126715
 40
1.0
 40
1.0
 40
1.0
 40
1.0
 10
4.7901194258
 20
4.3458292917
 30
0.0
 10
4.7901194256
 20
4.3458389091
 30
0.0
 10
4.7901226848
 20
4.345859104
 30
0.0
 10
4.790136756
 20
4.3458883083
 30
0.0
 10
4.7901595466
 20
4.3459170364
 30
0.0
 10
4.7902048266
 20
4.3459580395
 30
0.0
 10
4.7902855618
 20
4.3460075566
 30
0.0
 10
4.7904098349
 20
4.3460634043
 30
0.0
 10
4.7905686918
 20
4.3461195051
 30
0.0
 10
4.7907621752
 20
4.3461758225
 30
0.0
 10
4.7909904252
 20
4.3462323099
 30
0.0
 10
4.7913632811
 20
4.3463125052
 30
0.0
 10
4.7919166414
 20
4.346410346
 30
0.0
 10
4.7926844705
 20
4.3465227275
 30
0.0
 10
4.7935884943
 20
4.346635493
 30
0.0
 10
4.7942368869
 20
4.3467060653
 30
0.0
 10
4.794583434
 20
4.3467417916
 30
0.0
  0
LINE
  5
25C
100
AcDbEntity
  8
0
100
AcDbLine
 62
7
  6
CONTINUOUS
 10
4.9357607446
 20
4.4017670549
 11
4.8774068323
 21
4.3990243034
  0
SPLINE
  5
25D
100
AcDbEntity
  8
0
100
AcDbSpline
 62
7
  6
CONTINUOUS
 70
0
 71
3
 72
56
 73
52
 74
0
 42
0.0000001
 43
0.0000001
 44
0.0000000001
 40
0.0
 40
0.0
 40
0.0
 40
0.0
 40
0.0009695589
 40
0.0013472765
 40
0.0017879861
 40
0.0022939813
 40
0.0028667554
 40
0.0042162236
 40
0.0058414277
 40
0.0077442173
 40
0.0099251988
 40
0.0123843432
 40
0.0151212455
 40
0.0214247322
 40
0.0288237812
 40
0.037303434
 40
0.0468462677
 40
0.0574302167
 40
0.0816261202
 40
0.1096719217
 40
0.1413119972
 40
0.1762570294
 40
0.2141861143
 40
0.2547508483
 40
0.2975787449
 40
0.3422762103
 40
0.3884320045
 40
0.4356217255
 40
0.48341151
 40
0.5790312042
 40
0.6259816955
 40
0.6717813328
 40
0.7160088042
 40
0.7582576608
 40
0.7981396786
 40
0.8352881633
 40
0.86936203
 40
0.9000492496
 40
0.9270690801
 40
0.9391249416
 40
0.9501749878
 40
0.9601936483
 40
0.9691587099
 40
0.9770513528
 40
0.9838540176
 40
0.9895544108
 40
0.9941440238
 40
0.9960211592
 40
0.9976208478
 40
0.9989454984
 40
1.0
 40
1.0
 40
1.0
 40
1.0
 10
4.7901193416
 20
4.3279792916
 30
0.0
 10
4.7901193653
 20
4.3280357699
 30
0.0
 10
4.7901915193
 20
4.3281007259
 30
0.0
 10
4.790278826
 20
4.3281520423
 30
0.0
 10
4.7903487587
 20
4.3281862558
 30
0.0
 10
4.7904304151
 20
4.328219981
 30
0.0
 10
4.7905636435
 20
4.3282678683
 30
0.0
 10
4.7907619371
 20
4.3283263762
 30
0.0
 10
4.7910380549
 20
4.3283936651
 30
0.0
 10
4.7913637443
 20
4.328461132
 30
0.0
 10
4.7917388627
 20
4.328528767
 30
0.0
 10
4.7921632349
 20
4.3285965139
 30
0.0
 10
4.792826357
 20
4.328691479
 30
0.0
 10
4.793776934
 20
4.3288081478
 30
0.0
 10
4.7950620675
 20
4.3289429667
 30
0.0
 10
4.796536766
 20
4.3290781034
 30
0.0
 10
4.7981976454
 20
4.3292134964
 30
0.0
 10
4.8007725796
 20
4.3294028162
 30
0.0
 10
4.8044249567
 20
4.3296352905
 30
0.0
 10
4.8093038085
 20
4.3299045007
 30
0.0
 10
4.8148096194
 20
4.3301743655
 30
0.0
 10
4.8208917363
 20
4.33044475
 30
0.0
 10
4.8274941825
 20
4.3307154723
 30
0.0
 10
4.8345561646
 20
4.3309864431
 30
0.0
 10
4.8420126813
 20
4.3312575887
 30
0.0
 10
4.8497950858
 20
4.3315288589
 30
0.0
 10
4.8578317186
 20
4.3318002188
 30
0.0
 10
4.8660485816
 20
4.3320716349
 30
0.0
 10
4.8771453696
 20
4.3324336232
 30
0.0
 10
4.8882282901
 20
4.3327933121
 30
0.0
 10
4.8991950754
 20
4.3331573872
 30
0.0
 10
4.9071696135
 20
4.3334287266
 30
0.0
 10
4.9148701147
 20
4.333699968
 30
0.0
 10
4.9222256887
 20
4.3339710719
 30
0.0
 10
4.929168615
 20
4.3342419799
 30
0.0
 10
4.9356349613
 20
4.3345126254
 30
0.0
 10
4.9415652118
 20
4.3347828772
 30
0.0
 10
4.9469048031
 20
4.33505263
 30
0.0
 10
4.9509620215
 20
4.3352846334
 30
0.0
 10
4.9538758607
 20
4.3354728675
 30
0.0
 10
4.9558006575
 20
4.3356084982
 30
0.0
 10
4.9575449346
 20
4.3357439732
 30
0.0
 10
4.9591046967
 20
4.3358792446
 30
0.0
 10
4.9604763599
 20
4.3360142082
 30
0.0
 10
4.9616568812
 20
4.3361486909
 30
0.0
 10
4.962643577
 20
4.336282599
 30
0.0
 10
4.9633428754
 20
4.3363995103
 30
0.0
 10
4.9638027975
 20
4.3364960507
 30
0.0
 10
4.9640743878
 20
4.3365632998
 30
0.0
 10
4.9642963756
 20
4.3366302199
 30
0.0
 10
4.9644260269
 20
4.3366800001
 30
0.0
 10
4.9644816943
 20
4.3367059679
 30
0.0
  0
SPLINE
  5
25E
100
AcDbEntity
  8
0
100
AcDbSpline
 62
7
  6
CONTINUOUS
 70
0
 71
3
 72
9
 73
5
 74
0
 42
0.0000001
 43
0.0000001
 44
0.0000000001
 40
0.0
 40
0.0
 40
0.0
 40
0.0
 40
0.265899623
 40
1.0
 40
1.0
 40
1.0
 40
1.0
 10
4.9644816943
 20
4.3367059679
 30
0.0
 10
4.9644884092
 20
4.3367091002
 30
0.0
 10
4.9645135534
 20
4.3367211097
 30
0.0
 10
4.9645382525
 20
4.3367340758
 30
0.0
 10
4.9645559622
 20
4.3367443143
 30
0.0
  0
SPLINE
  5
25F
100
AcDbEntity
  8
0
100
AcDbSpline
 62
7
  6
CONTINUOUS
 70
0
 71
3
 72
17
 73
13
 74
0
 42
0.0000001
 43
0.0000001
 44
0.0000000001
 40
0.0
 40
0.0
 40
0.0
 40
0.0
 40
0.0213175795
 40
0.0478908595
 40
0.0798750828
 40
0.1173501909
 40
0.2089235059
 40
0.3227880252
 40
0.4589725099
 40
0.6173709111
 40
0.7977852335
 40
1.0
 40
1.0
 40
1.0
 40
1.0
 10
4.7759633771
 20
4.3370501503
 30
0.0
 10
4.7759950504
 20
4.3370684653
 30
0.0
 10
4.7760695219
 20
4.3371038094
 30
0.0
 10
4.7761981551
 20
4.3371514291
 30
0.0
 10
4.7763559748
 20
4.3371992446
 30
0.0
 10
4.7766237651
 20
4.3372678381
 30
0.0
 10
4.7770325233
 20
4.337350979
 30
0.0
 10
4.7776111334
 20
4.3374461592
 30
0.0
 10
4.7783056739
 20
4.33754173
 30
0.0
 10
4.77911528
 20
4.3376376498
 30
0.0
 10
4.7800388818
 20
4.3377337661
 30
0.0
 10
4.7806927866
 20
4.3377944861
 30
0.0
 10
4.7810384933
 20
4.3378251165
 30
0.0
  0
SPLINE
  5
260
100
AcDbEntity
  8
0
100
AcDbSpline
 62
7
  6
CONTINUOUS
 70
0
 71
3
 72
40
 73
36
 74
0
 42
0.0000001
 43
0.0000001
 44
0.0000000001
 40
0.0
 40
0.0
 40
0.0
 40
0.0
 40
0.0003519017
 40
0.0007919117
 40
0.0013692121
 40
0.0021057831
 40
0.0030117588
 40
0.0040922843
 40
0.0053501675
 40
0.0067870048
 40
0.0102005876
 40
0.0143357889
 40
0.0191899554
 40
0.0247586428
 40
0.0310365594
 40
0.0380165193
 40
0.0456896647
 40
0.0540468923
 40
0.072773431
 40
0.0941036953
 40
0.1179352326
 40
0.1441518728
 40
0.1726286111
 40
0.2032293379
 40
0.2358095635
 40
0.270216355
 40
0.3438609882
 40
0.4228054536
 40
0.5056127826
 40
0.5907941774
 40
0.6768367419
 40
0.762230126
 40
0.8454939106
 40
0.9251993234
 40
1.0
 40
1.0
 40
1.0
 40
1.0
 10
4.7874370461
 20
4.3994689229
 30
0.0
 10
4.7874370402
 20
4.3994859857
 30
0.0
 10
4.7874491846
 20
4.3995244748
 30
0.0
 10
4.7874946842
 20
4.3995742367
 30
0.0
 10
4.7875649182
 20
4.3996228088
 30
0.0
 10
4.7876613388
 20
4.3996711728
 30
0.0
 10
4.7877842453
 20
4.3997196948
 30
0.0
 10
4.7879339272
 20
4.3997683312
 30
0.0
 10
4.7881104148
 20
4.3998170747
 30
0.0
 10
4.7883984608
 20
4.399886175
 30
0.0
 10
4.7888260795
 20
4.3999704485
 30
0.0
 10
4.7894196972
 20
4.4000671536
 30
0.0
 10
4.7901189454
 20
4.4001640841
 30
0.0
 10
4.7909229072
 20
4.4002611838
 30
0.0
 10
4.7918305942
 20
4.4003583381
 30
0.0
 10
4.7928408357
 20
4.4004555089
 30
0.0
 10
4.7939523167
 20
4.400552679
 30
0.0
 10
4.7956322069
 20
4.4006873576
 30
0.0
 10
4.7979738483
 20
4.4008532892
 30
0.0
 10
4.8010656601
 20
4.4010457682
 30
0.0
 10
4.8045212767
 20
4.4012381521
 30
0.0
 10
4.8083238929
 20
4.4014304104
 30
0.0
 10
4.8124551219
 20
4.4016224416
 30
0.0
 10
4.8168952223
 20
4.4018142165
 30
0.0
 10
4.8216231166
 20
4.4020057045
 30
0.0
 10
4.8284369787
 20
4.4022665421
 30
0.0
 10
4.8374982127
 20
4.4025881976
 30
0.0
 10
4.8489057307
 20
4.402965094
 30
0.0
 10
4.860872959
 20
4.4033408538
 30
0.0
 10
4.8731845552
 20
4.4037153599
 30
0.0
 10
4.8856216402
 20
4.4040884885
 30
0.0
 10
4.8979657479
 20
4.4044601449
 30
0.0
 10
4.9100024918
 20
4.4048302262
 30
0.0
 10
4.9215254259
 20
4.4051986251
 30
0.0
 10
4.9290127175
 20
4.4054524046
 30
0.0
 10
4.9326373328
 20
4.4055806263
 30
0.0
  0
SPLINE
  5
261
100
AcDbEntity
  8
0
100
AcDbSpline
 62
7
  6
CONTINUOUS
 70
0
 71
3
 72
15
 73
11
 74
0
 42
0.0000001
 43
0.0000001
 44
0.0000000001
 40
0.0
 40
0.0
 40
0.0
 40
0.0
 40
0.0237118332
 40
0.0523669075
 40
0.1249806831
 40
0.2184167204
 40
0.3328705056
 40
0.4683898076
 40
0.6248676036
 40
1.0
 40
1.0
 40
1.0
 40
1.0
 10
4.790257698
 20
4.3453142689
 30
0.0
 10
4.7902878328
 20
4.3453317007
 30
0.0
 10
4.79035698
 20
4.3453656954
 30
0.0
 10
4.7905277969
 20
4.3454330067
 30
0.0
 10
4.7908024854
 20
4.345513782
 30
0.0
 10
4.7912039797
 20
4.3456058128
 30
0.0
 10
4.7916997324
 20
4.3456983358
 30
0.0
 10
4.7922892368
 20
4.3457913108
 30
0.0
 10
4.793259765
 20
4.3459237556
 30
0.0
 10
4.794035573
 20
4.3460103114
 30
0.0
 10
4.794583434
 20
4.3460667916
 30
0.0
  0
SPLINE
  5
262
100
AcDbEntity
  8
0
100
AcDbSpline
 62
7
  6
CONTINUOUS
 70
0
 71
3
 72
40
 73
36
 74
0
 42
0.0000001
 43
0.0000001
 44
0.0000000001
 40
0.0
 40
0.0
 40
0.0
 40
0.0
 40
0.0840855568
 40
0.1709762264
 40
0.2593724549
 40
0.3479613359
 40
0.4354214107
 40
0.5204505824
 40
0.6017823362
 40
0.6782057297
 40
0.748583263
 40
0.7811741474
 40
0.8118683869
 40
0.8405533316
 40
0.8671213471
 40
0.891475186
 40
0.9135241893
 40
0.9331880719
 40
0.9503952926
 40
0.9580579174
 40
0.9650847103
 40
0.9714696244
 40
0.9772069788
 40
0.9822929347
 40
0.986725158
 40
0.9905022859
 40
0.9936247585
 40
0.9949420006
 40
0.9960982582
 40
0.997095794
 40
0.9979382596
 40
0.9986318922
 40
0.9991881244
 40
0.9996294132
 40
1.0
 40
1.0
 40
1.0
 40
1.0
 10
4.8446843808
 20
4.3128251165
 30
0.0
 10
4.8480533712
 20
4.3129433913
 30
0.0
 10
4.8549039527
 20
4.3131778946
 30
0.0
 10
4.8652967224
 20
4.3135223524
 30
0.0
 10
4.8758701285
 20
4.313866897
 30
0.0
 10
4.8864663741
 20
4.3142114521
 30
0.0
 10
4.8969275621
 20
4.3145559414
 30
0.0
 10
4.9070976495
 20
4.3149002826
 30
0.0
 10
4.9168250142
 20
4.3152443629
 30
0.0
 10
4.9259646076
 20
4.3155880747
 30
0.0
 10
4.9331506402
 20
4.3158809892
 30
0.0
 10
4.9385040703
 20
4.3161177202
 30
0.0
 10
4.9421871823
 20
4.3162906287
 30
0.0
 10
4.945628555
 20
4.316463424
 30
0.0
 10
4.9488153986
 20
4.3166361073
 30
0.0
 10
4.9517357892
 20
4.3168086173
 30
0.0
 10
4.9543788767
 20
4.3169808995
 30
0.0
 10
4.9567347937
 20
4.3171528897
 30
0.0
 10
4.9585140917
 20
4.3173009544
 30
0.0
 10
4.959787229
 20
4.3174209234
 30
0.0
 10
4.9606277013
 20
4.3175073198
 30
0.0
 10
4.9613905536
 20
4.317593627
 30
0.0
 10
4.9620750632
 20
4.3176798337
 30
0.0
 10
4.9626806156
 20
4.3177659019
 30
0.0
 10
4.9632067355
 20
4.3178517395
 30
0.0
 10
4.9636529693
 20
4.3179373007
 30
0.0
 10
4.9639740238
 20
4.3180117717
 30
0.0
 10
4.9641899731
 20
4.3180727399
 30
0.0
 10
4.9643223566
 20
4.3181157713
 30
0.0
 10
4.9644346171
 20
4.3181587121
 30
0.0
 10
4.9645268281
 20
4.3182015683
 30
0.0
 10
4.9645992044
 20
4.3182443765
 30
0.0
 10
4.9646520209
 20
4.3182874467
 30
0.0
 10
4.9646858008
 20
4.3183317004
 30
0.0
 10
4.9646943337
 20
4.3183644344
 30
0.0
 10
4.964694331
 20
4.3183792916
 30
0.0
  0
SPLINE
  5
263
100
AcDbEntity
  8
0
100
AcDbSpline
 62
7
  6
CONTINUOUS
 70
0
 71
3
 72
34
 73
30
 74
0
 42
0.0000001
 43
0.0000001
 44
0.0000000001
 40
0.0
 40
0.0
 40
0.0
 40
0.0
 40
0.0007384619
 40
0.0016390606
 40
0.0039421282
 40
0.0069272869
 40
0.0105998412
 40
0.0149593772
 40
0.0200024132
 40
0.0257244514
 40
0.0321200967
 40
0.0469011115
 40
0.0642781558
 40
0.0841703751
 40
0.1064861867
 40
0.1311219412
 40
0.157965715
 40
0.1868944489
 40
0.2177785095
 40
0.2848494504
 40
0.3579893512
 40
0.4359181893
 40
0.5172889469
 40
0.6007118759
 40
0.6847790153
 40
0.7680877127
 40
0.8492645407
 40
0.92698525
 40
1.0
 40
1.0
 40
1.0
 40
1.0
 10
4.7875700953
 20
4.398948226
 30
0.0
 10
4.7876010317
 20
4.3989661503
 30
0.0
 10
4.7876725425
 20
4.399000995
 30
0.0
 10
4.7878506563
 20
4.399069898
 30
0.0
 10
4.7881392663
 20
4.399152269
 30
0.0
 10
4.7885629463
 20
4.3992459822
 30
0.0
 10
4.7890881286
 20
4.3993401039
 30
0.0
 10
4.7897141309
 20
4.3994346238
 30
0.0
 10
4.790440309
 20
4.3995293117
 30
0.0
 10
4.7912657727
 20
4.3996241127
 30
0.0
 10
4.7925613433
 20
4.3997570392
 30
0.0
 10
4.7944209651
 20
4.399919865
 30
0.0
 10
4.7969341107
 20
4.4001075493
 30
0.0
 10
4.7998129402
 20
4.4002953496
 30
0.0
 10
4.8030438635
 20
4.4004831542
 30
0.0
 10
4.8066118737
 20
4.4006708439
 30
0.0
 10
4.8105004713
 20
4.4008583319
 30
0.0
 10
4.8146919246
 20
4.4010456006
 30
0.0
 10
4.8208298731
 20
4.4013020176
 30
0.0
 10
4.829107734
 20
4.4016177686
 30
0.0
 10
4.8396629195
 20
4.4019863875
 30
0.0
 10
4.850910879
 20
4.4023540471
 30
0.0
 10
4.8626569935
 20
4.4027206144
 30
0.0
 10
4.8747004814
 20
4.4030859498
 30
0.0
 10
4.8868378799
 20
4.40344996
 30
0.0
 10
4.8988665231
 20
4.4038125591
 30
0.0
 10
4.9105877976
 20
4.4041736572
 30
0.0
 10
4.9218104788
 20
4.4045331582
 30
0.0
 10
4.9291044074
 20
4.4047806481
 30
0.0
 10
4.9326373328
 20
4.4049056263
 30
0.0
  0
SPLINE
  5
264
100
AcDbEntity
  8
0
100
AcDbSpline
 62
7
  6
CONTINUOUS
 70
0
 71
3
 72
37
 73
33
 74
0
 42
0.0000001
 43
0.0000001
 44
0.0000000001
 40
0.0
 40
0.0
 40
0.0
 40
0.0
 40
0.0004724895
 40
0.0011153616
 40
0.0019335224
 40
0.0029289963
 40
0.0054548339
 40
0.0086953822
 40
0.0126495898
 40
0.0173135161
 40
0.0226815376
 40
0.0287477235
 40
0.0355055222
 40
0.0429463349
 40
0.0598401761
 40
0.0793498737
 40
0.101381321
 40
0.1258308903
 40
0.1525826055
 40
0.1815111114
 40
0.2124811402
 40
0.2453483642
 40
0.27996089
 40
0.3537754846
 40
0.4325726066
 40
0.514919629
 40
0.5993304317
 40
0.6842928147
 40
0.7682952135
 40
0.8498546681
 40
0.9275393185
 40
1.0
 40
1.0
 40
1.0
 40
1.0
 10
4.7798476723
 20
4.3214455009
 30
0.0
 10
4.7798691817
 20
4.321457941
 30
0.0
 10
4.7799234889
 20
4.3214809466
 30
0.0
 10
4.7800206631
 20
4.3215109255
 30
0.0
 10
4.7801463495
 20
4.3215411629
 30
0.0
 10
4.7803702785
 20
4.321585291
 30
0.0
 10
4.7807220778
 20
4.3216381635
 30
0.0
 10
4.7812297226
 20
4.3216985082
 30
0.0
 10
4.7818504468
 20
4.321759129
 30
0.0
 10
4.7825834542
 20
4.3218200208
 30
0.0
 10
4.7834278506
 20
4.3218810376
 30
0.0
 10
4.7843826047
 20
4.3219421374
 30
0.0
 10
4.7854465609
 20
4.322003278
 30
0.0
 10
4.7870794661
 20
4.3220884816
 30
0.0
 10
4.7893828368
 20
4.3221932922
 30
0.0
 10
4.7924534894
 20
4.3223146126
 30
0.0
 10
4.7959217588
 20
4.3224360457
 30
0.0
 10
4.7997710837
 20
4.3225575255
 30
0.0
 10
4.8039832818
 20
4.3226789961
 30
0.0
 10
4.808538516
 20
4.3228004196
 30
0.0
 10
4.8134154664
 20
4.3229217705
 30
0.0
 10
4.8185914222
 20
4.3230430376
 30
0.0
 10
4.8260201163
 20
4.3232081441
 30
0.0
 10
4.8358639431
 20
4.3234121003
 30
0.0
 10
4.8482178654
 20
4.3236516948
 30
0.0
 10
4.8611291376
 20
4.3238909253
 30
0.0
 10
4.8743646961
 20
4.3241297134
 30
0.0
 10
4.8876873325
 20
4.3243679762
 30
0.0
 10
4.9008600061
 20
4.3246056445
 30
0.0
 10
4.9136499002
 20
4.3248426401
 30
0.0
 10
4.9258327331
 20
4.3250788785
 30
0.0
 10
4.9337270366
 20
4.3252423627
 30
0.0
 10
4.9375367722
 20
4.3253251165
 30
0.0
  0
SPLINE
  5
265
100
AcDbEntity
  8
0
100
AcDbSpline
 62
7
  6
CONTINUOUS
 70
0
 71
3
 72
9
 73
5
 74
0
 42
0.0000001
 43
0.0000001
 44
0.0000000001
 40
0.0
 40
0.0
 40
0.0
 40
0.0
 40
0.2395575611
 40
1.0
 40
1.0
 40
1.0
 40
1.0
 10
4.7902577473
 20
4.3274642689
 30
0.0
 10
4.7902613843
 20
4.3274663725
 30
0.0
 10
4.7902766412
 20
4.3274750238
 30
0.0
 10
4.7902921776
 20
4.3274831785
 30
0.0
 10
4.7903041036
 20
4.3274891493
 30
0.0
  0
SPLINE
  5
266
100
AcDbEntity
  8
0
100
AcDbSpline
 62
7
  6
CONTINUOUS
 70
0
 71
3
 72
56
 73
52
 74
0
 42
0.0000001
 43
0.0000001
 44
0.0000000001
 40
0.0
 40
0.0
 40
0.0
 40
0.0
 40
0.0010033361
 40
0.0022764222
 40
0.003825037
 40
0.0056515668
 40
0.0101411415
 40
0.0157457458
 40
0.0224572851
 40
0.030262236
 40
0.0391453606
 40
0.0490866598
 40
0.060063827
 40
0.0720530007
 40
0.0989535838
 40
0.1295432644
 40
0.1635413055
 40
0.200634619
 40
0.240481752
 40
0.2827158406
 40
0.3269473393
 40
0.3727681298
 40
0.4197556828
 40
0.5154905484
 40
0.5633545275
 40
0.6106270139
 40
0.6568717126
 40
0.7016620973
 40
0.7445852786
 40
0.7852453808
 40
0.8232672906
 40
0.8583011011
 40
0.8900247009
 40
0.9181464418
 40
0.9424086638
 40
0.953022621
 40
0.9625916924
 40
0.9710957481
 40
0.97851592
 40
0.9848368589
 40
0.9875818498
 40
0.9900483564
 40
0.9922355643
 40
0.9941433934
 40
0.995772873
 40
0.9971262152
 40
0.9977007276
 40
0.9982082598
 40
0.998650256
 40
0.9990289663
 40
1.0
 40
1.0
 40
1.0
 40
1.0
 10
4.7903041036
 20
4.3274891493
 30
0.0
 10
4.7903563747
 20
4.327515319
 30
0.0
 10
4.7904795811
 20
4.3275653363
 30
0.0
 10
4.7906922354
 20
4.3276322725
 30
0.0
 10
4.790954674
 20
4.3276995577
 30
0.0
 10
4.7914026105
 20
4.327796374
 30
0.0
 10
4.792087461
 20
4.3279134929
 30
0.0
 10
4.793057447
 20
4.3280475113
 30
0.0
 10
4.7942220654
 20
4.3281821237
 30
0.0
 10
4.7955786886
 20
4.3283172851
 30
0.0
 10
4.7971242708
 20
4.3284527211
 30
0.0
 10
4.7988552754
 20
4.3285883881
 30
0.0
 10
4.8007677297
 20
4.3287242268
 30
0.0
 10
4.8036669541
 20
4.3289127966
 30
0.0
 10
4.8077083273
 20
4.3291452049
 30
0.0
 10
4.8130317765
 20
4.3294153339
 30
0.0
 10
4.8189497313
 20
4.3296859754
 30
0.0
 10
4.8254075329
 20
4.3299570216
 30
0.0
 10
4.8323455606
 20
4.3302283367
 30
0.0
 10
4.8396997616
 20
4.330499847
 30
0.0
 10
4.8474022184
 20
4.3307714975
 30
0.0
 10
4.855381782
 20
4.3310432503
 30
0.0
 10
4.8663605952
 20
4.3314079307
 30
0.0
 10
4.8774586584
 20
4.3317681592
 30
0.0
 10
4.8885732565
 20
4.332130661
 30
0.0
 10
4.896805892
 20
4.3324024917
 30
0.0
 10
4.9048593572
 20
4.3326742676
 30
0.0
 10
4.9126592791
 20
4.3329459557
 30
0.0
 10
4.9201336326
 20
4.3332175169
 30
0.0
 10
4.9272133771
 20
4.3334889015
 30
0.0
 10
4.9338331255
 20
4.3337600413
 30
0.0
 10
4.9399317631
 20
4.334030844
 30
0.0
 10
4.9454530096
 20
4.3343011225
 30
0.0
 10
4.9503458786
 20
4.334570737
 30
0.0
 10
4.9540089366
 20
4.3348035866
 30
0.0
 10
4.9565914689
 20
4.3349931731
 30
0.0
 10
4.9582573395
 20
4.3351287954
 30
0.0
 10
4.9597364813
 20
4.3352641289
 30
0.0
 10
4.9610255132
 20
4.3353991461
 30
0.0
 10
4.9619789749
 20
4.3355160171
 30
0.0
 10
4.9626441335
 20
4.3356111186
 30
0.0
 10
4.9630698459
 20
4.3356789636
 30
0.0
 10
4.9634461174
 20
4.3357467
 30
0.0
 10
4.9637727688
 20
4.335814277
 30
0.0
 10
4.9640497015
 20
4.33588168
 30
0.0
 10
4.9642486074
 20
4.3359402744
 30
0.0
 10
4.9643822805
 20
4.3359882311
 30
0.0
 10
4.9644642197
 20
4.3360220055
 30
0.0
 10
4.9645343939
 20
4.3360562716
 30
0.0
 10
4.9646219351
 20
4.3361076244
 30
0.0
 10
4.9646942963
 20
4.3361727174
 30
0.0
 10
4.9646942763
 20
4.3362292916
 30
0.0
  0
LINE
  5
267
100
AcDbEntity
  8
0
100
AcDbLine
 62
7
  6
CONTINUOUS
 10
4.7902576944
 20
4.381014269
 11
4.7904889602
 21
4.3811158107
  0
SPLINE
  5
268
100
AcDbEntity
  8
0
100
AcDbSpline
 62
7
  6
CONTINUOUS
 70
0
 71
3
 72
54
 73
50
 74
0
 42
0.0000001
 43
0.0000001
 44
0.0000000001
 40
0.0
 40
0.0
 40
0.0
 40
0.0
 40
0.0012955867
 40
0.0028622228
 40
0.0047023549
 40
0.0068171675
 40
0.0118704379
 40
0.0180161888
 40
0.0252446062
 40
0.0335414686
 40
0.0428885473
 40
0.053266574
 40
0.0770195603
 40
0.1045892761
 40
0.1357274954
 40
0.1701531501
 40
0.2075553844
 40
0.2475958901
 40
0.289911693
 40
0.3341194673
 40
0.4265956169
 40
0.5216788776
 40
0.569123565
 40
0.6159294603
 40
0.6616723929
 40
0.7059378258
 40
0.7483243771
 40
0.7884481189
 40
0.8259459969
 40
0.8604785762
 40
0.891733244
 40
0.9194283585
 40
0.9433152774
 40
0.9537623288
 40
0.9631808324
 40
0.9715493303
 40
0.9788509976
 40
0.9850712528
 40
0.987771998
 40
0.9901986929
 40
0.9923509587
 40
0.9942287924
 40
0.9958328261
 40
0.9971649463
 40
0.9977304908
 40
0.9982302182
 40
0.9986656186
 40
0.9990389781
 40
1.0
 40
1.0
 40
1.0
 40
1.0
 10
4.7904889602
 20
4.3811158107
 30
0.0
 10
4.7905600349
 20
4.3811409716
 30
0.0
 10
4.7907194371
 20
4.3811897973
 30
0.0
 10
4.7909848869
 20
4.3812565474
 30
0.0
 10
4.7912992181
 20
4.3813235262
 30
0.0
 10
4.7918147728
 20
4.3814187727
 30
0.0
 10
4.7925810097
 20
4.3815348131
 30
0.0
 10
4.79364514
 20
4.3816681076
 30
0.0
 10
4.7948992343
 20
4.3818018602
 30
0.0
 10
4.7963404852
 20
4.3819360033
 30
0.0
 10
4.7979657018
 20
4.382070418
 30
0.0
 10
4.8004889425
 20
4.3822584178
 30
0.0
 10
4.804072278
 20
4.3824892639
 30
0.0
 10
4.8088636905
 20
4.382756493
 30
0.0
 10
4.8142770159
 20
4.3830243898
 30
0.0
 10
4.8202631427
 20
4.3832928135
 30
0.0
 10
4.8267677997
 20
4.3835615754
 30
0.0
 10
4.8337319773
 20
4.3838305822
 30
0.0
 10
4.8410924745
 20
4.3840997745
 30
0.0
 10
4.8515030102
 20
4.3844643351
 30
0.0
 10
4.8649832605
 20
4.3849134578
 30
0.0
 10
4.8786521649
 20
4.3853568848
 30
0.0
 10
4.8896646056
 20
4.3857164578
 30
0.0
 10
4.8978070903
 20
4.3859859241
 30
0.0
 10
4.905764457
 20
4.3862553309
 30
0.0
 10
4.9134644912
 20
4.3865246478
 30
0.0
 10
4.9208373133
 20
4.3867938394
 30
0.0
 10
4.9278160283
 20
4.3870628572
 30
0.0
 10
4.9343373313
 20
4.3873316279
 30
0.0
 10
4.9403420412
 20
4.3876000623
 30
0.0
 10
4.9457756867
 20
4.3878679801
 30
0.0
 10
4.9505889989
 20
4.3881352483
 30
0.0
 10
4.954191483
 20
4.3883660568
 30
0.0
 10
4.9567307384
 20
4.388554018
 30
0.0
 10
4.9583683369
 20
4.3886884314
 30
0.0
 10
4.9598222332
 20
4.3888225918
 30
0.0
 10
4.9610891389
 20
4.3889564346
 30
0.0
 10
4.9620261756
 20
4.3890722612
 30
0.0
 10
4.9626798145
 20
4.3891665396
 30
0.0
 10
4.9630981082
 20
4.3892337962
 30
0.0
 10
4.963467847
 20
4.3893009421
 30
0.0
 10
4.9637888606
 20
4.3893679216
 30
0.0
 10
4.9640610107
 20
4.3894347254
 30
0.0
 10
4.9642564454
 20
4.3894928111
 30
0.0
 10
4.9643877434
 20
4.3895403486
 30
0.0
 10
4.9644682286
 20
4.3895738323
 30
0.0
 10
4.9645371473
 20
4.389607798
 30
0.0
 10
4.9646233592
 20
4.3896588299
 30
0.0
 10
4.964694301
 20
4.3897233647
 30
0.0
 10
4.9646943237
 20
4.3897792915
 30
0.0
  0
SPLINE
  5
269
100
AcDbEntity
  8
0
100
AcDbSpline
 62
7
  6
CONTINUOUS
 70
0
 71
3
 72
33
 73
29
 74
0
 42
0.0000001
 43
0.0000001
 44
0.0000000001
 40
0.0
 40
0.0
 40
0.0
 40
0.0
 40
0.071673431
 40
0.1486177532
 40
0.2294670011
 40
0.3127826799
 40
0.3970836362
 40
0.4808706578
 40
0.5626539266
 40
0.6409792527
 40
0.7144542829
 40
0.7817735391
 40
0.8127464896
 40
0.8417418645
 40
0.8686316771
 40
0.8932961863
 40
0.9156273702
 40
0.9355260991
 40
0.9529067814
 40
0.9676936138
 40
0.9798268837
 40
0.9848831715
 40
0.9892603518
 40
0.9929569566
 40
0.9959734607
 40
0.9983147763
 40
0.9992374007
 40
1.0
 40
1.0
 40
1.0
 40
1.0
 10
4.8265570963
 20
4.3128251165
 30
0.0
 10
4.8298560278
 20
4.3129572157
 30
0.0
 10
4.8366970326
 20
4.31321774
 30
0.0
 10
4.8472605742
 20
4.3135930597
 30
0.0
 10
4.8583607134
 20
4.3139687376
 30
0.0
 10
4.8697999083
 20
4.3143446259
 30
0.0
 10
4.8813744981
 20
4.3147205915
 30
0.0
 10
4.8928784631
 20
4.3150965161
 30
0.0
 10
4.9041070223
 20
4.3154722796
 30
0.0
 10
4.9148603064
 20
4.3158477194
 30
0.0
 10
4.924946907
 20
4.3162226845
 30
0.0
 10
4.9328527693
 20
4.3165426985
 30
0.0
 10
4.9387104424
 20
4.3168017947
 30
0.0
 10
4.9427070391
 20
4.3169905823
 30
0.0
 10
4.9464127043
 20
4.3171792123
 30
0.0
 10
4.9498109696
 20
4.317367667
 30
0.0
 10
4.9528866749
 20
4.3175558424
 30
0.0
 10
4.9556261827
 20
4.317743682
 30
0.0
 10
4.9580173093
 20
4.3179309013
 30
0.0
 10
4.9600495047
 20
4.3181174353
 30
0.0
 10
4.9615136671
 20
4.318279856
 30
0.0
 10
4.9624981632
 20
4.3184133867
 30
0.0
 10
4.963095727
 20
4.3185071187
 30
0.0
 10
4.9635981359
 20
4.318600368
 30
0.0
 10
4.964004855
 20
4.3186931107
 30
0.0
 10
4.9642829434
 20
4.3187745454
 30
0.0
 10
4.9644556644
 20
4.3188424406
 30
0.0
 10
4.9645255002
 20
4.3188767282
 30
0.0
 10
4.9645559097
 20
4.3188943144
 30
0.0
  0
SPLINE
  5
26A
100
AcDbEntity
  8
0
100
AcDbSpline
 62
7
  6
CONTINUOUS
 70
0
 71
3
 72
45
 73
41
 74
0
 42
0.0000001
 43
0.0000001
 44
0.0000000001
 40
0.0
 40
0.0
 40
0.0
 40
0.0
 40
0.0161835103
 40
0.0360056228
 40
0.0593101699
 40
0.0859233557
 40
0.1156393893
 40
0.1482283424
 40
0.2209985077
 40
0.3019839979
 40
0.3886793711
 40
0.4784010697
 40
0.5683714703
 40
0.6125773083
 40
0.6558050109
 40
0.6977194584
 40
0.7379954122
 40
0.7763210796
 40
0.8123995517
 40
0.8459509615
 40
0.8767162923
 40
0.9044580146
 40
0.9289616496
 40
0.9500398949
 40
0.967533143
 40
0.9748932884
 40
0.9813118279
 40
0.9867779333
 40
0.9891512196
 40
0.9912840588
 40
0.9931763907
 40
0.9948285347
 40
0.9962414499
 40
0.9974172883
 40
0.9983608912
 40
0.9990825121
 40
0.9993671732
 40
0.9996077528
 40
0.9998137366
 40
1.0
 40
1.0
 40
1.0
 40
1.0
 10
4.794583434
 20
4.3460667916
 30
0.0
 10
4.7954980233
 20
4.3461610785
 30
0.0
 10
4.7975358039
 20
4.3463417867
 30
0.0
 10
4.8008964872
 20
4.3465875136
 30
0.0
 10
4.804850996
 20
4.3468343426
 30
0.0
 10
4.8093684864
 20
4.3470820097
 30
0.0
 10
4.81441413
 20
4.3473302126
 30
0.0
 10
4.8220804729
 20
4.3476743975
 30
0.0
 10
4.8326589581
 20
4.3480960465
 30
0.0
 10
4.8463109157
 20
4.3485874776
 30
0.0
 10
4.8609264865
 20
4.3490799257
 30
0.0
 10
4.8760527714
 20
4.349572951
 30
0.0
 10
4.8887664106
 20
4.3499861852
 30
0.0
 10
4.8988397415
 20
4.3503206414
 30
0.0
 10
4.906184181
 20
4.3505699777
 30
0.0
 10
4.913305222
 20
4.3508192445
 30
0.0
 10
4.9201475897
 20
4.3510684227
 30
0.0
 10
4.9266581726
 20
4.3513174754
 30
0.0
 10
4.9327864256
 20
4.3515663557
 30
0.0
 10
4.9384847844
 20
4.3518150118
 30
0.0
 10
4.9437090368
 20
4.3520633407
 30
0.0
 10
4.9484186427
 20
4.3523112231
 30
0.0
 10
4.9525771005
 20
4.3525583746
 30
0.0
 10
4.956152181
 20
4.3528046309
 30
0.0
 10
4.9587530646
 20
4.353018692
 30
0.0
 10
4.960521058
 20
4.3531944334
 30
0.0
 10
4.9616074236
 20
4.3533182445
 30
0.0
 10
4.9624104337
 20
4.3534253865
 30
0.0
 10
4.9629702593
 20
4.3535125872
 30
0.0
 10
4.963328437
 20
4.3535747967
 30
0.0
 10
4.9636449782
 20
4.353636903
 30
0.0
 10
4.9639197759
 20
4.353698874
 30
0.0
 10
4.9641527192
 20
4.3537606556
 30
0.0
 10
4.9643439271
 20
4.3538221646
 30
0.0
 10
4.9644934061
 20
4.3538833621
 30
0.0
 10
4.9645907758
 20
4.3539375978
 30
0.0
 10
4.9646456402
 20
4.3539827469
 30
0.0
 10
4.9646731572
 20
4.3540142107
 30
0.0
 10
4.9646902736
 20
4.3540462965
 30
0.0
 10
4.9646942993
 20
4.3540687093
 30
0.0
 10
4.9646943049
 20
4.3540792915
 30
0.0
  0
SPLINE
  5
26B
100
AcDbEntity
  8
0
100
AcDbSpline
 62
7
  6
CONTINUOUS
 70
0
 71
3
 72
40
 73
36
 74
0
 42
0.0000001
 43
0.0000001
 44
0.0000000001
 40
0.0
 40
0.0
 40
0.0
 40
0.0
 40
0.0001633976
 40
0.0002821567
 40
0.000432461
 40
0.0008355689
 40
0.0013816858
 40
0.0020739316
 40
0.0029137903
 40
0.0039020105
 40
0.0050388715
 40
0.0077586974
 40
0.0110729799
 40
0.0149806042
 40
0.0194801141
 40
0.0245695658
 40
0.0302457037
 40
0.043343495
 40
0.0587439113
 40
0.0764106507
 40
0.0963001346
 40
0.1183666257
 40
0.142555545
 40
0.1688093044
 40
0.1970654177
 40
0.2272544535
 40
0.2931399516
 40
0.3658311076
 40
0.4446282101
 40
0.5287727544
 40
0.6174549816
 40
0.7098220511
 40
0.8049778445
 40
0.9020244648
 40
1.0
 40
1.0
 40
1.0
 40
1.0
 10
4.7758443943
 20
4.4060982053
 30
0.0
 10
4.775844397
 20
4.4061037394
 30
0.0
 10
4.77585057
 20
4.4061126855
 30
0.0
 10
4.7758623045
 20
4.4061210932
 30
0.0
 10
4.7758824915
 20
4.4061319539
 30
0.0
 10
4.7759176302
 20
4.4061444958
 30
0.0
 10
4.7759713735
 20
4.4061588626
 30
0.0
 10
4.7760402951
 20
4.4061732681
 30
0.0
 10
4.7761244209
 20
4.4061877984
 30
0.0
 10
4.7762237856
 20
4.4062023717
 30
0.0
 10
4.7763865677
 20
4.4062231166
 30
0.0
 10
4.7766281483
 20
4.4062483919
 30
0.0
 10
4.7769636198
 20
4.4062774179
 30
0.0
 10
4.7773595503
 20
4.4063065476
 30
0.0
 10
4.7778157352
 20
4.4063357639
 30
0.0
 10
4.7783319222
 20
4.4063650323
 30
0.0
 10
4.7791391087
 20
4.4064060958
 30
0.0
 10
4.7802954712
 20
4.40645653
 30
0.0
 10
4.7818579485
 20
4.4065147857
 30
0.0
 10
4.783650587
 20
4.4065731823
 30
0.0
 10
4.7856690988
 20
4.4066317033
 30
0.0
 10
4.7879085908
 20
4.4066902929
 30
0.0
 10
4.7903636991
 20
4.4067489454
 30
0.0
 10
4.7930284969
 20
4.4068076397
 30
0.0
 10
4.7958965569
 20
4.4068663668
 30
0.0
 10
4.8001067287
 20
4.4069470797
 30
0.0
 10
4.8058217708
 20
4.4070469703
 30
0.0
 10
4.813183059
 20
4.4071638376
 30
0.0
 10
4.8211628305
 20
4.4072808432
 30
0.0
 10
4.8296842547
 20
4.4073979576
 30
0.0
 10
4.8386653189
 20
4.4075151464
 30
0.0
 10
4.8480193517
 20
4.4076323868
 30
0.0
 10
4.8576566984
 20
4.4077496681
 30
0.0
 10
4.8674840113
 20
4.4078669688
 30
0.0
 10
4.8740887389
 20
4.4079450519
 30
0.0
 10
4.8774068323
 20
4.4079842797
 30
0.0
  0
SPLINE
  5
26C
100
AcDbEntity
  8
0
100
AcDbSpline
 62
7
  6
CONTINUOUS
 70
0
 71
3
 72
40
 73
36
 74
0
 42
0.0000001
 43
0.0000001
 44
0.0000000001
 40
0.0
 40
0.0
 40
0.0
 40
0.0
 40
0.0158447839
 40
0.0351917353
 40
0.0578940491
 40
0.0837893704
 40
0.1126853816
 40
0.1443674765
 40
0.2151313348
 40
0.2939796627
 40
0.3785692258
 40
0.4663851784
 40
0.5548160575
 40
0.6412320618
 40
0.6828769093
 40
0.7230634514
 40
0.7614926719
 40
0.7978780155
 40
0.8319492248
 40
0.8634532175
 40
0.8921553815
 40
0.9178435634
 40
0.9403282109
 40
0.9503161564
 40
0.9594436814
 40
0.9676942738
 40
0.975052659
 40
0.9815072117
 40
0.9870475682
 40
0.9916654998
 40
0.9953583387
 40
0.9968586987
 40
0.998129828
 40
0.9991747564
 40
1.0
 40
1.0
 40
1.0
 40
1.0
 10
4.794583434
 20
4.3467417916
 30
0.0
 10
4.7954777236
 20
4.3468339857
 30
0.0
 10
4.797466812
 20
4.347010947
 30
0.0
 10
4.8007429133
 20
4.3472518938
 30
0.0
 10
4.8045905311
 20
4.3474938839
 30
0.0
 10
4.8089808217
 20
4.3477366642
 30
0.0
 10
4.8138812886
 20
4.3479799605
 30
0.0
 10
4.8213259763
 20
4.3483173581
 30
0.0
 10
4.8316043147
 20
4.3487308351
 30
0.0
 10
4.8448841432
 20
4.3492126751
 30
0.0
 10
4.8591320569
 20
4.3496955261
 30
0.0
 10
4.873923956
 20
4.3501789559
 30
0.0
 10
4.8888195374
 20
4.3506624929
 30
0.0
 10
4.9010964708
 20
4.3510699929
 30
0.0
 10
4.9106370894
 20
4.3513998698
 30
0.0
 10
4.9174562764
 20
4.3516441597
 30
0.0
 10
4.9239768456
 20
4.3518883399
 30
0.0
 10
4.9301501826
 20
4.3521323884
 30
0.0
 10
4.9359302669
 20
4.3523762494
 30
0.0
 10
4.9412740054
 20
4.3526198566
 30
0.0
 10
4.9461415779
 20
4.3528630987
 30
0.0
 10
4.950496712
 20
4.3531058773
 30
0.0
 10
4.9537901699
 20
4.353314911
 30
0.0
 10
4.956144461
 20
4.3534845523
 30
0.0
 10
4.9576924159
 20
4.3536065961
 30
0.0
 10
4.9590906762
 20
4.3537284815
 30
0.0
 10
4.9603366567
 20
4.3538501827
 30
0.0
 10
4.9614280611
 20
4.3539716079
 30
0.0
 10
4.9623629641
 20
4.3540925426
 30
0.0
 10
4.9631396646
 20
4.3542129651
 30
0.0
 10
4.9636865887
 20
4.3543182202
 30
0.0
 10
4.9640429707
 20
4.3544052495
 30
0.0
 10
4.9642510179
 20
4.3544657233
 30
0.0
 10
4.9644188846
 20
4.3545259061
 30
0.0
 10
4.9645153871
 20
4.3545708705
 30
0.0
 10
4.9645559196
 20
4.3545943144
 30
0.0
  0
SPLINE
  5
26D
100
AcDbEntity
  8
0
100
AcDbSpline
 62
7
  6
CONTINUOUS
 70
0
 71
3
 72
30
 73
26
 74
0
 42
0.0000001
 43
0.0000001
 44
0.0000000001
 40
0.0
 40
0.0
 40
0.0
 40
0.0
 40
0.1891791584
 40
0.2816241743
 40
0.3715284761
 40
0.458073464
 40
0.5404780841
 40
0.6179982124
 40
0.689933898
 40
0.755635977
 40
0.8145116236
 40
0.8660311338
 40
0.8888859255
 40
0.909733422
 40
0.9285291093
 40
0.9452304947
 40
0.9598022321
 40
0.9722150079
 40
0.9824440405
 40
0.9867355897
 40
0.9904773777
 40
0.9936697131
 40
0.9963149361
 40
0.9984199314
 40
1.0
 40
1.0
 40
1.0
 40
1.0
 10
4.8774068323
 20
4.3763834666
 30
0.0
 10
4.8838105236
 20
4.3765625913
 30
0.0
 10
4.8933434697
 20
4.3768291866
 30
0.0
 10
4.9059193895
 20
4.3771906439
 30
0.0
 10
4.9150210176
 20
4.3774595901
 30
0.0
 10
4.9237824967
 20
4.3777284318
 30
0.0
 10
4.9321244082
 20
4.3779971255
 30
0.0
 10
4.9399713403
 20
4.3782656112
 30
0.0
 10
4.9472523294
 20
4.3785338146
 30
0.0
 10
4.9539015148
 20
4.3788015907
 30
0.0
 10
4.9598587483
 20
4.3790688254
 30
0.0
 10
4.9643651843
 20
4.3792989697
 30
0.0
 10
4.9675842841
 20
4.379485853
 30
0.0
 10
4.9696964022
 20
4.3796202441
 30
0.0
 10
4.9715996996
 20
4.379754433
 30
0.0
 10
4.9732899102
 20
4.3798883956
 30
0.0
 10
4.9747632557
 20
4.3800219736
 30
0.0
 10
4.9760164239
 20
4.3801550661
 30
0.0
 10
4.9769212253
 20
4.3802709285
 30
0.0
 10
4.9775323378
 20
4.3803659555
 30
0.0
 10
4.9779065944
 20
4.3804328325
 30
0.0
 10
4.9782241085
 20
4.3804994692
 30
0.0
 10
4.9784849461
 20
4.3805657531
 30
0.0
 10
4.9786890261
 20
4.3806315441
 30
0.0
 10
4.9788039617
 20
4.3806816595
 30
0.0
 10
4.9788502875
 20
4.380708433
 30
0.0
  0
SPLINE
  5
26E
100
AcDbEntity
  8
0
100
AcDbSpline
 62
7
  6
CONTINUOUS
 70
0
 71
3
 72
30
 73
26
 74
0
 42
0.0000001
 43
0.0000001
 44
0.0000000001
 40
0.0
 40
0.0
 40
0.0
 40
0.0
 40
0.1891791551
 40
0.2816241673
 40
0.3715284629
 40
0.4580734465
 40
0.5404780679
 40
0.6179981946
 40
0.6899338803
 40
0.7556359663
 40
0.8145116161
 40
0.8660311284
 40
0.8888859215
 40
0.9097334194
 40
0.9285291079
 40
0.945230494
 40
0.9598022307
 40
0.9722150061
 40
0.982444039
 40
0.9867355884
 40
0.9904773768
 40
0.9936697127
 40
0.9963149359
 40
0.9984199313
 40
1.0
 40
1.0
 40
1.0
 40
1.0
 10
4.8774068323
 20
4.3585334666
 30
0.0
 10
4.8838105234
 20
4.3587125913
 30
0.0
 10
4.8933434694
 20
4.3589791866
 30
0.0
 10
4.9059193887
 20
4.3593406439
 30
0.0
 10
4.9150210163
 20
4.35960959
 30
0.0
 10
4.9237824951
 20
4.3598784317
 30
0.0
 10
4.9321244064
 20
4.3601471254
 30
0.0
 10
4.9399713385
 20
4.3604156111
 30
0.0
 10
4.9472523278
 20
4.3606838146
 30
0.0
 10
4.9539015135
 20
4.3609515907
 30
0.0
 10
4.9598587474
 20
4.3612188254
 30
0.0
 10
4.9643651837
 20
4.3614489697
 30
0.0
 10
4.9675842836
 20
4.3616358529
 30
0.0
 10
4.9696964018
 20
4.3617702441
 30
0.0
 10
4.9715996994
 20
4.361904433
 30
0.0
 10
4.97328991
 20
4.3620383955
 30
0.0
 10
4.9747632555
 20
4.3621719736
 30
0.0
 10
4.9760164237
 20
4.3623050661
 30
0.0
 10
4.9769212251
 20
4.3624209285
 30
0.0
 10
4.9775323376
 20
4.3625159555
 30
0.0
 10
4.9779065942
 20
4.3625828325
 30
0.0
 10
4.9782241084
 20
4.3626494692
 30
0.0
 10
4.978484946
 20
4.3627157531
 30
0.0
 10
4.978689026
 20
4.3627815441
 30
0.0
 10
4.9788039616
 20
4.3628316595
 30
0.0
 10
4.9788502875
 20
4.362858433
 30
0.0
  0
SPLINE
  5
26F
100
AcDbEntity
  8
0
100
AcDbSpline
 62
7
  6
CONTINUOUS
 70
0
 71
3
 72
30
 73
26
 74
0
 42
0.0000001
 43
0.0000001
 44
0.0000000001
 40
0.0
 40
0.0
 40
0.0
 40
0.0
 40
0.1891791583
 40
0.2816241741
 40
0.3715284757
 40
0.4580734637
 40
0.5404780839
 40
0.6179982122
 40
0.6899338978
 40
0.7556359769
 40
0.8145116236
 40
0.8660311338
 40
0.8888859254
 40
0.9097334219
 40
0.9285291092
 40
0.9452304946
 40
0.9598022321
 40
0.9722150079
 40
0.9824440405
 40
0.9867355897
 40
0.9904773777
 40
0.9936697131
 40
0.9963149361
 40
0.9984199314
 40
1.0
 40
1.0
 40
1.0
 40
1.0
 10
4.8774068323
 20
4.3406834666
 30
0.0
 10
4.8838105236
 20
4.3408625913
 30
0.0
 10
4.8933434697
 20
4.3411291866
 30
0.0
 10
4.9059193895
 20
4.3414906439
 30
0.0
 10
4.9150210175
 20
4.3417595901
 30
0.0
 10
4.9237824967
 20
4.3420284318
 30
0.0
 10
4.9321244082
 20
4.3422971255
 30
0.0
 10
4.9399713403
 20
4.3425656112
 30
0.0
 10
4.9472523294
 20
4.3428338146
 30
0.0
 10
4.9539015148
 20
4.3431015907
 30
0.0
 10
4.9598587483
 20
4.3433688254
 30
0.0
 10
4.9643651843
 20
4.3435989697
 30
0.0
 10
4.9675842841
 20
4.343785853
 30
0.0
 10
4.9696964022
 20
4.3439202441
 30
0.0
 10
4.9715996996
 20
4.344054433
 30
0.0
 10
4.9732899102
 20
4.3441883956
 30
0.0
 10
4.9747632557
 20
4.3443219736
 30
0.0
 10
4.9760164239
 20
4.3444550661
 30
0.0
 10
4.9769212253
 20
4.3445709285
 30
0.0
 10
4.9775323378
 20
4.3446659555
 30
0.0
 10
4.9779065944
 20
4.3447328325
 30
0.0
 10
4.9782241085
 20
4.3447994692
 30
0.0
 10
4.9784849461
 20
4.3448657531
 30
0.0
 10
4.9786890261
 20
4.3449315441
 30
0.0
 10
4.9788039617
 20
4.3449816595
 30
0.0
 10
4.9788502875
 20
4.345008433
 30
0.0
  0
LINE
  5
270
100
AcDbEntity
  8
0
100
AcDbLine
 62
7
  6
CONTINUOUS
 10
4.7902577552
 20
4.3631642689
 11
4.7903793167
 21
4.3632235906
  0
SPLINE
  5
271
100
AcDbEntity
  8
0
100
AcDbSpline
 62
7
  6
CONTINUOUS
 70
0
 71
3
 72
56
 73
52
 74
0
 42
0.0000001
 43
0.0000001
 44
0.0000000001
 40
0.0
 40
0.0
 40
0.0
 40
0.0
 40
0.0011338306
 40
0.0025387455
 40
0.0042187416
 40
0.0061753116
 40
0.0109190363
 40
0.0167679861
 40
0.0237131638
 40
0.031740187
 40
0.0408331882
 40
0.0509719566
 40
0.0621336614
 40
0.0742942427
 40
0.1014975396
 40
0.1323357075
 40
0.1665277435
 40
0.2037612915
 40
0.2436963361
 40
0.2859680352
 40
0.330189435
 40
0.3759557917
 40
0.4228484498
 40
0.5182894658
 40
0.5659640776
 40
0.6130257857
 40
0.6590436832
 40
0.7035966878
 40
0.7462772727
 40
0.7866948483
 40
0.8244795832
 40
0.8592865253
 40
0.8907981064
 40
0.9187268497
 40
0.9428190273
 40
0.9533576365
 40
0.9628582869
 40
0.9713011406
 40
0.9786677429
 40
0.9849428633
 40
0.9876679329
 40
0.9901165681
 40
0.9922879924
 40
0.9941820937
 40
0.9957999101
 40
0.9971436828
 40
0.9977142038
 40
0.9982182772
 40
0.9986573483
 40
0.9990336657
 40
1.0
 40
1.0
 40
1.0
 40
1.0
 10
4.7903793167
 20
4.3632235906
 30
0.0
 10
4.790440147
 20
4.3632492682
 30
0.0
 10
4.7905797142
 20
4.363298721
 30
0.0
 10
4.7908161898
 20
4.3633655973
 30
0.0
 10
4.7911020772
 20
4.3634327546
 30
0.0
 10
4.791580602
 20
4.3635288399
 30
0.0
 10
4.7923022495
 20
4.3636454969
 30
0.0
 10
4.7933148295
 20
4.3637792013
 30
0.0
 10
4.7945199505
 20
4.3639134328
 30
0.0
 10
4.7959149129
 20
4.3640481513
 30
0.0
 10
4.7974965869
 20
4.3641831211
 30
0.0
 10
4.7992613762
 20
4.3643182971
 30
0.0
 10
4.8012052634
 20
4.364453635
 30
0.0
 10
4.8041416055
 20
4.3646412976
 30
0.0
 10
4.8082232645
 20
4.3648727151
 30
0.0
 10
4.8135876904
 20
4.3651418657
 30
0.0
 10
4.8195368562
 20
4.3654115045
 30
0.0
 10
4.8260162471
 20
4.3656815276
 30
0.0
 10
4.8329665186
 20
4.3659518075
 30
0.0
 10
4.8403240035
 20
4.366222274
 30
0.0
 10
4.8480212834
 20
4.3664928751
 30
0.0
 10
4.8559878176
 20
4.3667635736
 30
0.0
 10
4.8669356651
 20
4.3671267073
 30
0.0
 10
4.8779948387
 20
4.3674855525
 30
0.0
 10
4.8890637851
 20
4.3678467436
 30
0.0
 10
4.8972560309
 20
4.3681175109
 30
0.0
 10
4.9052663932
 20
4.3683882227
 30
0.0
 10
4.9130214777
 20
4.3686588463
 30
0.0
 10
4.9204502305
 20
4.3689293427
 30
0.0
 10
4.9274845714
 20
4.3691996631
 30
0.0
 10
4.9340600485
 20
4.3694697392
 30
0.0
 10
4.9401164364
 20
4.3697394791
 30
0.0
 10
4.9455982777
 20
4.3700086965
 30
0.0
 10
4.9504553465
 20
4.3702772531
 30
0.0
 10
4.9540911432
 20
4.3705091944
 30
0.0
 10
4.9566541787
 20
4.3706980407
 30
0.0
 10
4.9583073244
 20
4.3708331286
 30
0.0
 10
4.9597750971
 20
4.3709679311
 30
0.0
 10
4.9610541659
 20
4.3711024154
 30
0.0
 10
4.9620002264
 20
4.3712188276
 30
0.0
 10
4.9626601991
 20
4.3713135552
 30
0.0
 10
4.9630825882
 20
4.3713811337
 30
0.0
 10
4.9634559204
 20
4.3714486027
 30
0.0
 10
4.9637800173
 20
4.3715159139
 30
0.0
 10
4.96405478
 20
4.3715830525
 30
0.0
 10
4.9642521208
 20
4.3716414169
 30
0.0
 10
4.9643847364
 20
4.3716891832
 30
0.0
 10
4.9644660341
 20
4.371722826
 30
0.0
 10
4.964535654
 20
4.3717569574
 30
0.0
 10
4.9646225987
 20
4.3718081542
 30
0.0
 10
4.9646943017
 20
4.3718730179
 30
0.0
 10
4.9646942799
 20
4.3719292916
 30
0.0
  0
SPLINE
  5
272
100
AcDbEntity
  8
0
100
AcDbSpline
 62
7
  6
CONTINUOUS
 70
0
 71
3
 72
29
 73
25
 74
0
 42
0.0000001
 43
0.0000001
 44
0.0000000001
 40
0.0
 40
0.0
 40
0.0
 40
0.0
 40
0.1858743323
 40
0.2767820309
 40
0.3652868682
 40
0.4506127782
 40
0.532018434
 40
0.6087974938
 40
0.6802828715
 40
0.745854423
 40
0.80494558
 40
0.8570478917
 40
0.8803361585
 40
0.9017163858
 40
0.9211423124
 40
0.9385759185
 40
0.9539826809
 40
0.9673335745
 40
0.9786099916
 40
0.9878004531
 40
0.9916153483
 40
0.994914428
 40
0.9977049059
 40
1.0
 40
1.0
 40
1.0
 40
1.0
 10
4.8774068323
 20
4.3990243034
 30
0.0
 10
4.8711188964
 20
4.3987468684
 30
0.0
 10
4.8617556417
 20
4.3983338325
 30
0.0
 10
4.8493990087
 20
4.3977741805
 30
0.0
 10
4.8404441482
 20
4.3973576365
 30
0.0
 10
4.831811396
 20
4.3969412377
 30
0.0
 10
4.8235761703
 20
4.3965250481
 30
0.0
 10
4.8158102234
 20
4.3961091527
 30
0.0
 10
4.8085812442
 20
4.3956936517
 30
0.0
 10
4.8019522347
 20
4.3952787324
 30
0.0
 10
4.7959809365
 20
4.3948645476
 30
0.0
 10
4.7914409725
 20
4.3945084322
 30
0.0
 10
4.7881768553
 20
4.3942196454
 30
0.0
 10
4.786016482
 20
4.3940114235
 30
0.0
 10
4.7840553398
 20
4.3938034051
 30
0.0
 10
4.7822976804
 20
4.3935956945
 30
0.0
 10
4.7807472844
 20
4.3933883941
 30
0.0
 10
4.7794073587
 20
4.3931817187
 30
0.0
 10
4.7782807406
 20
4.3929758514
 30
0.0
 10
4.7774779077
 20
4.3927962817
 30
0.0
 10
4.7769457986
 20
4.3926486314
 30
0.0
 10
4.7766266338
 20
4.3925450932
 30
0.0
 10
4.7763619713
 20
4.3924418747
 30
0.0
 10
4.7762068819
 20
4.3923661129
 30
0.0
 10
4.7761396252
 20
4.3923271727
 30
0.0
  0
SPLINE
  5
273
100
AcDbEntity
  8
0
100
AcDbSpline
 62
7
  6
CONTINUOUS
 70
0
 71
3
 72
30
 73
26
 74
0
 42
0.0000001
 43
0.0000001
 44
0.0000000001
 40
0.0
 40
0.0
 40
0.0
 40
0.0
 40
0.1891791511
 40
0.2816241611
 40
0.3715284546
 40
0.4580734371
 40
0.5404780576
 40
0.6179981835
 40
0.6899338687
 40
0.7556359544
 40
0.8145116046
 40
0.8660311176
 40
0.888885911
 40
0.9097334094
 40
0.9285290985
 40
0.9452304854
 40
0.9598022235
 40
0.9722150003
 40
0.9824440346
 40
0.9867355847
 40
0.9904773737
 40
0.9936697103
 40
0.9963149344
 40
0.9984199305
 40
1.0
 40
1.0
 40
1.0
 40
1.0
 10
4.8774068323
 20
4.3770751165
 30
0.0
 10
4.8710031413
 20
4.3768959918
 30
0.0
 10
4.8614701956
 20
4.3766293965
 30
0.0
 10
4.8488942766
 20
4.3762679392
 30
0.0
 10
4.8397926492
 20
4.3759989931
 30
0.0
 10
4.8310311706
 20
4.3757301514
 30
0.0
 10
4.8226892593
 20
4.3754614577
 30
0.0
 10
4.8148423273
 20
4.375192972
 30
0.0
 10
4.8075613381
 20
4.3749247686
 30
0.0
 10
4.8009121524
 20
4.3746569925
 30
0.0
 10
4.7949549185
 20
4.3743897578
 30
0.0
 10
4.7904484822
 20
4.3741596135
 30
0.0
 10
4.7872293822
 20
4.3739727303
 30
0.0
 10
4.785117264
 20
4.3738383391
 30
0.0
 10
4.7832139663
 20
4.3737041502
 30
0.0
 10
4.7815237557
 20
4.3735701877
 30
0.0
 10
4.78005041
 20
4.3734366096
 30
0.0
 10
4.7787972417
 20
4.3733035171
 30
0.0
 10
4.7778924402
 20
4.3731876547
 30
0.0
 10
4.7772813276
 20
4.3730926277
 30
0.0
 10
4.7769070709
 20
4.3730257507
 30
0.0
 10
4.7765895566
 20
4.3729591141
 30
0.0
 10
4.7763287189
 20
4.3728928302
 30
0.0
 10
4.7761246389
 20
4.3728270391
 30
0.0
 10
4.7760097032
 20
4.3727769237
 30
0.0
 10
4.7759633773
 20
4.3727501503
 30
0.0
  0
SPLINE
  5
274
100
AcDbEntity
  8
0
100
AcDbSpline
 62
7
  6
CONTINUOUS
 70
0
 71
3
 72
37
 73
33
 74
0
 42
0.0000001
 43
0.0000001
 44
0.0000000001
 40
0.0
 40
0.0
 40
0.0
 40
0.0
 40
0.0003507003
 40
0.000760837
 40
0.001269325
 40
0.0018969665
 40
0.0026547483
 40
0.0035488164
 40
0.005758652
 40
0.0085434734
 40
0.011910172
 40
0.0158608745
 40
0.0203957011
 40
0.0255138079
 40
0.0312137836
 40
0.0443490527
 40
0.0597732326
 40
0.0774535484
 40
0.0973489169
 40
0.1194122634
 40
0.1435928218
 40
0.1698314554
 40
0.2282309748
 40
0.2940518107
 40
0.3666624286
 40
0.4453655618
 40
0.5294048996
 40
0.6179720625
 40
0.7102163849
 40
0.8052445602
 40
0.9021571967
 40
1.0
 40
1.0
 40
1.0
 40
1.0
 10
4.7758443323
 20
4.3897709666
 30
0.0
 10
4.7758443323
 20
4.3897828646
 30
0.0
 10
4.7758505901
 20
4.3898088368
 30
0.0
 10
4.77587584
 20
4.3898444881
 30
0.0
 10
4.7759155603
 20
4.3898791989
 30
0.0
 10
4.7759699845
 20
4.3899136613
 30
0.0
 10
4.7760393112
 20
4.3899481382
 30
0.0
 10
4.7761606664
 20
4.3899977281
 30
0.0
 10
4.7763515316
 20
4.3900576799
 30
0.0
 10
4.7766268997
 20
4.3901261023
 30
0.0
 10
4.7769627551
 20
4.3901948182
 30
0.0
 10
4.7773589306
 20
4.3902638098
 30
0.0
 10
4.7778152712
 20
4.3903329602
 30
0.0
 10
4.778331529
 20
4.390402239
 30
0.0
 10
4.7791383703
 20
4.3904993695
 30
0.0
 10
4.7802945994
 20
4.3906186833
 30
0.0
 10
4.7818573047
 20
4.390756556
 30
0.0
 10
4.7836501025
 20
4.3908947434
 30
0.0
 10
4.7856687049
 20
4.3910332046
 30
0.0
 10
4.7879082875
 20
4.3911718484
 30
0.0
 10
4.7903634379
 20
4.3913106221
 30
0.0
 10
4.7940502552
 20
4.3915027245
 30
0.0
 10
4.7991492938
 20
4.3917397521
 30
0.0
 10
4.8058213386
 20
4.3920157754
 30
0.0
 10
4.8131827213
 20
4.3922922612
 30
0.0
 10
4.8211625724
 20
4.3925691122
 30
0.0
 10
4.8296840633
 20
4.3928462067
 30
0.0
 10
4.8386651785
 20
4.3931234809
 30
0.0
 10
4.8480192691
 20
4.3934008768
 30
0.0
 10
4.8576566075
 20
4.393678367
 30
0.0
 10
4.8674839567
 20
4.3939559044
 30
0.0
 10
4.8740886922
 20
4.3941406513
 30
0.0
 10
4.8774068323
 20
4.3942334666
 30
0.0
  0
SPLINE
  5
275
100
AcDbEntity
  8
0
100
AcDbSpline
 62
7
  6
CONTINUOUS
 70
0
 71
3
 72
30
 73
26
 74
0
 42
0.0000001
 43
0.0000001
 44
0.0000000001
 40
0.0
 40
0.0
 40
0.0
 40
0.0
 40
0.189179155
 40
0.2816241695
 40
0.3715284705
 40
0.458073456
 40
0.5404780741
 40
0.6179982017
 40
0.6899338869
 40
0.7556359653
 40
0.8145116118
 40
0.8660311229
 40
0.8888859154
 40
0.9097334128
 40
0.928529101
 40
0.9452304873
 40
0.9598022254
 40
0.9722150021
 40
0.9824440359
 40
0.9867355858
 40
0.9904773746
 40
0.9936697108
 40
0.9963149346
 40
0.9984199306
 40
1.0
 40
1.0
 40
1.0
 40
1.0
 10
4.8774068323
 20
4.3592251165
 30
0.0
 10
4.8710031412
 20
4.3590459918
 30
0.0
 10
4.8614701952
 20
4.3587793965
 30
0.0
 10
4.8488942756
 20
4.3584179392
 30
0.0
 10
4.8397926477
 20
4.3581489931
 30
0.0
 10
4.8310311688
 20
4.3578801513
 30
0.0
 10
4.8226892575
 20
4.3576114577
 30
0.0
 10
4.8148423255
 20
4.3573429719
 30
0.0
 10
4.8075613365
 20
4.3570747685
 30
0.0
 10
4.8009121512
 20
4.3568069924
 30
0.0
 10
4.7949549177
 20
4.3565397577
 30
0.0
 10
4.7904484816
 20
4.3563096135
 30
0.0
 10
4.7872293817
 20
4.3561227302
 30
0.0
 10
4.7851172636
 20
4.3559883391
 30
0.0
 10
4.783213966
 20
4.3558541502
 30
0.0
 10
4.7815237554
 20
4.3557201876
 30
0.0
 10
4.7800504098
 20
4.3555866096
 30
0.0
 10
4.7787972415
 20
4.3554535171
 30
0.0
 10
4.77789244
 20
4.3553376547
 30
0.0
 10
4.7772813274
 20
4.3552426277
 30
0.0
 10
4.7769070707
 20
4.3551757507
 30
0.0
 10
4.7765895565
 20
4.355109114
 30
0.0
 10
4.7763287188
 20
4.3550428301
 30
0.0
 10
4.7761246388
 20
4.3549770391
 30
0.0
 10
4.7760097031
 20
4.3549269237
 30
0.0
 10
4.7759633772
 20
4.3549001503
 30
0.0
  0
SPLINE
  5
276
100
AcDbEntity
  8
0
100
AcDbSpline
 62
7
  6
CONTINUOUS
 70
0
 71
3
 72
18
 73
14
 74
0
 42
0.0000001
 43
0.0000001
 44
0.0000000001
 40
0.0
 40
0.0
 40
0.0
 40
0.0
 40
0.0290738339
 40
0.0640546763
 40
0.1047219789
 40
0.1508373288
 40
0.2021210712
 40
0.2582624063
 40
0.3837243208
 40
0.5241763843
 40
0.676204673
 40
0.8361046167
 40
1.0
 40
1.0
 40
1.0
 40
1.0
 10
4.7810384933
 20
4.3549834666
 30
0.0
 10
4.7819694781
 20
4.3550659538
 30
0.0
 10
4.7840225706
 20
4.3552253239
 30
0.0
 10
4.7873820037
 20
4.3554436996
 30
0.0
 10
4.7912902174
 20
4.3556628684
 30
0.0
 10
4.7957231927
 20
4.3558826339
 30
0.0
 10
4.8006541349
 20
4.3561028172
 30
0.0
 10
4.8081345003
 20
4.3564081622
 30
0.0
 10
4.8184808221
 20
4.3567829711
 30
0.0
 10
4.8319092662
 20
4.3572195348
 30
0.0
 10
4.846445292
 20
4.3576570157
 30
0.0
 10
4.8617352454
 20
4.3580951155
 30
0.0
 10
4.8721401734
 20
4.3583861472
 30
0.0
 10
4.8774068323
 20
4.3585334666
 30
0.0
  0
SPLINE
  5
277
100
AcDbEntity
  8
0
100
AcDbSpline
 62
7
  6
CONTINUOUS
 70
0
 71
3
 72
37
 73
33
 74
0
 42
0.0000001
 43
0.0000001
 44
0.0000000001
 40
0.0
 40
0.0
 40
0.0
 40
0.0
 40
0.0978422185
 40
0.1947557761
 40
0.2897836263
 40
0.3820280461
 40
0.4705952743
 40
0.5546345089
 40
0.6333376549
 40
0.7059483705
 40
0.7717693633
 40
0.8301688669
 40
0.8564074119
 40
0.8805877708
 40
0.9026515169
 40
0.9225464483
 40
0.9402271458
 40
0.9556511804
 40
0.9687862176
 40
0.9744866198
 40
0.9796048129
 40
0.9841393711
 40
0.9880897891
 40
0.991456522
 40
0.9942417967
 40
0.9964517079
 40
0.9973456585
 40
0.9981032832
 40
0.9987307755
 40
0.999239165
 40
0.9996492789
 40
1.0
 40
1.0
 40
1.0
 40
1.0
 10
4.8774068323
 20
4.3406834666
 30
0.0
 10
4.8740887129
 20
4.3405906519
 30
0.0
 10
4.8674839676
 20
4.3404059047
 30
0.0
 10
4.8576566205
 20
4.3401283673
 30
0.0
 10
4.848019261
 20
4.3398508765
 30
0.0
 10
4.8386651782
 20
4.339573481
 30
0.0
 10
4.8296840633
 20
4.3392962069
 30
0.0
 10
4.8211625754
 20
4.3390191119
 30
0.0
 10
4.8131827261
 20
4.338742261
 30
0.0
 10
4.8058213361
 20
4.3384657752
 30
0.0
 10
4.7991492848
 20
4.3381897527
 30
0.0
 10
4.7940502457
 20
4.3379527243
 30
0.0
 10
4.7903634396
 20
4.337760623
 30
0.0
 10
4.7879082863
 20
4.3376218453
 30
0.0
 10
4.7856687119
 20
4.337483209
 30
0.0
 10
4.7836500989
 20
4.3373447391
 30
0.0
 10
4.7818573079
 20
4.3372065584
 30
0.0
 10
4.7802946027
 20
4.3370686859
 30
0.0
 10
4.7791383733
 20
4.3369493625
 30
0.0
 10
4.7783315215
 20
4.3368522411
 30
0.0
 10
4.7778152553
 20
4.3367829629
 30
0.0
 10
4.7773589312
 20
4.3367138102
 30
0.0
 10
4.7769627741
 20
4.336644816
 30
0.0
 10
4.7766269129
 20
4.3365760953
 30
0.0
 10
4.7763515226
 20
4.3365076841
 30
0.0
 10
4.776160642
 20
4.3364477331
 30
0.0
 10
4.7760392956
 20
4.3363981395
 30
0.0
 10
4.7759699852
 20
4.3363636619
 30
0.0
 10
4.775915578
 20
4.3363291983
 30
0.0
 10
4.7758758711
 20
4.3362944859
 30
0.0
 10
4.7758506293
 20
4.3362588341
 30
0.0
 10
4.7758443662
 20
4.3362328654
 30
0.0
 10
4.7758443598
 20
4.3362209667
 30
0.0
  0
SPLINE
  5
278
100
AcDbEntity
  8
0
100
AcDbSpline
 62
7
  6
CONTINUOUS
 70
0
 71
3
 72
19
 73
15
 74
0
 42
0.0000001
 43
0.0000001
 44
0.0000000001
 40
0.0
 40
0.0
 40
0.0
 40
0.0
 40
0.1966667086
 40
0.3760374224
 40
0.5362191182
 40
0.675588057
 40
0.7927009088
 40
0.8425292843
 40
0.8863695962
 40
0.9241096821
 40
0.9556665686
 40
0.9809724297
 40
0.991270643
 40
1.0
 40
1.0
 40
1.0
 40
1.0
 10
4.9375367722
 20
4.3253251165
 30
0.0
 10
4.940206973
 20
4.3254177966
 30
0.0
 10
4.9453123295
 20
4.3256012653
 30
0.0
 10
4.9525914997
 20
4.3258876779
 30
0.0
 10
4.9590916307
 20
4.3261733311
 30
0.0
 10
4.9647450748
 20
4.3264580069
 30
0.0
 10
4.968899218
 20
4.3267049937
 30
0.0
 10
4.971755656
 20
4.3269073877
 30
0.0
 10
4.9735351849
 20
4.3270505672
 30
0.0
 10
4.9750656445
 20
4.3271931923
 30
0.0
 10
4.9763430597
 20
4.3273351628
 30
0.0
 10
4.9772472378
 20
4.327459171
 30
0.0
 10
4.9778407877
 20
4.3275617201
 30
0.0
 10
4.9780941286
 20
4.3276134673
 30
0.0
 10
4.9782097255
 20
4.3276399532
 30
0.0
  0
LINE
  5
279
100
AcDbEntity
  8
0
100
AcDbLine
 62
7
  6
CONTINUOUS
 10
4.9782097255
 20
4.3276399532
 11
4.9789692858
 21
4.3279876164
  0
SPLINE
  5
27A
100
AcDbEntity
  8
0
100
AcDbSpline
 62
7
  6
CONTINUOUS
 70
0
 71
3
 72
18
 73
14
 74
0
 42
0.0000001
 43
0.0000001
 44
0.0000000001
 40
0.0
 40
0.0
 40
0.0
 40
0.0
 40
0.1638953833
 40
0.323795327
 40
0.4758236157
 40
0.6162756792
 40
0.7417375937
 40
0.7978789288
 40
0.8491626712
 40
0.8952780211
 40
0.9359453237
 40
0.9709261661
 40
1.0
 40
1.0
 40
1.0
 40
1.0
 10
4.8774068323
 20
4.3413751165
 30
0.0
 10
4.8721401734
 20
4.341227797
 30
0.0
 10
4.8617352454
 20
4.3409367653
 30
0.0
 10
4.846445292
 20
4.3404986655
 30
0.0
 10
4.8319092662
 20
4.3400611846
 30
0.0
 10
4.8184808221
 20
4.3396246209
 30
0.0
 10
4.8081345003
 20
4.339249812
 30
0.0
 10
4.8006541349
 20
4.3389444671
 30
0.0
 10
4.7957231927
 20
4.3387242838
 30
0.0
 10
4.7912902174
 20
4.3385045182
 30
0.0
 10
4.7873820037
 20
4.3382853494
 30
0.0
 10
4.7840225706
 20
4.3380669737
 30
0.0
 10
4.7819694781
 20
4.3379076037
 30
0.0
 10
4.7810384933
 20
4.3378251165
 30
0.0
  0
LINE
  5
27B
100
AcDbEntity
  8
0
100
AcDbLine
 62
7
  6
CONTINUOUS
 10
4.7758443819
 20
4.3540709668
 11
4.7766256379
 21
4.3544235778
  0
LINE
  5
27C
100
AcDbEntity
  8
0
100
AcDbLine
 62
7
  6
CONTINUOUS
 10
4.7766256379
 20
4.3544235778
 11
4.7810384933
 21
4.3549834666
  0
LINE
  5
27D
100
AcDbEntity
  8
0
100
AcDbLine
 62
7
  6
CONTINUOUS
 10
4.9789693323
 20
4.3458376165
 11
4.9782286538
 21
4.345494307
  0
SPLINE
  5
27E
100
AcDbEntity
  8
0
100
AcDbSpline
 62
7
  6
CONTINUOUS
 70
0
 71
3
 72
24
 73
20
 74
0
 42
0.0000001
 43
0.0000001
 44
0.0000000001
 40
0.0
 40
0.0
 40
0.0
 40
0.0
 40
0.0030714099
 40
0.0066444773
 40
0.0152956279
 40
0.0259483619
 40
0.0385874528
 40
0.0531889838
 40
0.0697267222
 40
0.1084742507
 40
0.1545209592
 40
0.2074929686
 40
0.2669583578
 40
0.3324316323
 40
0.4033774108
 40
0.4792142998
 40
0.6430403366
 40
0.8185474082
 40
1.0
 40
1.0
 40
1.0
 40
1.0
 10
4.9782286538
 20
4.345494307
 30
0.0
 10
4.9781279927
 20
4.34547095
 30
0.0
 10
4.9779091341
 20
4.3454251319
 30
0.0
 10
4.9774025703
 20
4.3453342398
 30
0.0
 10
4.9766406618
 20
4.3452238525
 30
0.0
 10
4.9755733867
 20
4.3450972945
 30
0.0
 10
4.9743047796
 20
4.3449702489
 30
0.0
 10
4.9728373904
 20
4.344842732
 30
0.0
 10
4.9704929663
 20
4.3446627638
 30
0.0
 10
4.9670907215
 20
4.344442822
 30
0.0
 10
4.9624625767
 20
4.344189273
 30
0.0
 10
4.95713653
 20
4.3439349072
 30
0.0
 10
4.9511562721
 20
4.3436798846
 30
0.0
 10
4.9445708213
 20
4.343424461
 30
0.0
 10
4.9374341971
 20
4.3431687289
 30
0.0
 10
4.9269898594
 20
4.3428184157
 30
0.0
 10
4.9130283928
 20
4.3423875524
 30
0.0
 10
4.8955142405
 20
4.3418815777
 30
0.0
 10
4.8835092859
 20
4.3415458149
 30
0.0
 10
4.8774068323
 20
4.3413751165
 30
0.0
  0
LINE
  5
27F
100
AcDbEntity
  8
0
100
AcDbLine
 62
7
  6
CONTINUOUS
 10
4.9789693323
 20
4.3636876165
 11
4.978228526
 21
4.3633442773
  0
SPLINE
  5
280
100
AcDbEntity
  8
0
100
AcDbSpline
 62
7
  6
CONTINUOUS
 70
0
 71
3
 72
24
 73
20
 74
0
 42
0.0000001
 43
0.0000001
 44
0.0000000001
 40
0.0
 40
0.0
 40
0.0
 40
0.0
 40
0.0030716205
 40
0.0066448924
 40
0.0152964323
 40
0.0259495274
 40
0.0385889497
 40
0.0531907812
 40
0.0697287877
 40
0.1084767571
 40
0.1545237816
 40
0.2074959845
 40
0.2669614465
 40
0.3324346814
 40
0.4033803238
 40
0.4792169802
 40
0.6430423182
 40
0.8185484617
 40
1.0
 40
1.0
 40
1.0
 40
1.0
 10
4.978228526
 20
4.3633442773
 30
0.0
 10
4.9781278578
 20
4.3633209206
 30
0.0
 10
4.977908985
 20
4.3632751031
 30
0.0
 10
4.9774023943
 20
4.363184212
 30
0.0
 10
4.9766404543
 20
4.3630738255
 30
0.0
 10
4.9755731438
 20
4.3629472682
 30
0.0
 10
4.9743045048
 20
4.3628202234
 30
0.0
 10
4.972837087
 20
4.3626927073
 30
0.0
 10
4.9704926318
 20
4.3625127406
 30
0.0
 10
4.9670903567
 20
4.3622928005
 30
0.0
 10
4.9624621859
 20
4.3620392531
 30
0.0
 10
4.9571361264
 20
4.3617848892
 30
0.0
 10
4.9511558686
 20
4.3615298683
 30
0.0
 10
4.9445704298
 20
4.3612744465
 30
0.0
 10
4.9374338286
 20
4.3610187162
 30
0.0
 10
4.9269895403
 20
4.3606684056
 30
0.0
 10
4.9130281543
 20
4.3602375453
 30
0.0
 10
4.8955141149
 20
4.3597315742
 30
0.0
 10
4.8835092426
 20
4.3593958137
 30
0.0
 10
4.8774068323
 20
4.3592251165
 30
0.0
  0
SPLINE
  5
281
100
AcDbEntity
  8
0
100
AcDbSpline
 62
7
  6
CONTINUOUS
 70
0
 71
3
 72
24
 73
20
 74
0
 42
0.0000001
 43
0.0000001
 44
0.0000000001
 40
0.0
 40
0.0
 40
0.0
 40
0.0
 40
0.0531145899
 40
0.1113873223
 40
0.1741401973
 40
0.2406319592
 40
0.3100505881
 40
0.381529287
 40
0.5269693557
 40
0.5990009173
 40
0.6692568095
 40
0.7367469472
 40
0.8004962518
 40
0.8595601728
 40
0.9130404294
 40
0.9374221627
 40
0.9601040542
 40
0.9809945265
 40
1.0
 40
1.0
 40
1.0
 40
1.0
 10
4.9554943268
 20
4.3253251165
 30
0.0
 10
4.9528028793
 20
4.3250670735
 30
0.0
 10
4.9471557267
 20
4.3245559016
 30
0.0
 10
4.9383216334
 20
4.323820819
 30
0.0
 10
4.9288048836
 20
4.3230795654
 30
0.0
 10
4.9187195994
 20
4.3223322365
 30
0.0
 10
4.9081893972
 20
4.3215789167
 30
0.0
 10
4.8936490496
 20
4.3205606585
 30
0.0
 10
4.8789751512
 20
4.3195454886
 30
0.0
 10
4.8643653644
 20
4.318505874
 30
0.0
 10
4.853715414
 20
4.317722698
 30
0.0
 10
4.8434886939
 20
4.3169336376
 30
0.0
 10
4.8338339261
 20
4.3161388849
 30
0.0
 10
4.8248954021
 20
4.315338603
 30
0.0
 10
4.8179592903
 20
4.3146481807
 30
0.0
 10
4.8128721567
 20
4.3140849324
 30
0.0
 10
4.8094373992
 20
4.3136740265
 30
0.0
 10
4.8062786287
 20
4.3132616073
 30
0.0
 10
4.8042684215
 20
4.3129717855
 30
0.0
 10
4.8033121332
 20
4.3128251165
 30
0.0
  0
LINE
  5
282
100
AcDbEntity
  8
0
100
AcDbLine
 62
7
  6
CONTINUOUS
 10
4.9789693323
 20
4.3815376165
 11
4.9782286617
 21
4.3811943088
  0
SPLINE
  5
283
100
AcDbEntity
  8
0
100
AcDbSpline
 62
7
  6
CONTINUOUS
 70
0
 71
3
 72
24
 73
20
 74
0
 42
0.0000001
 43
0.0000001
 44
0.0000000001
 40
0.0
 40
0.0
 40
0.0
 40
0.0
 40
0.0030713968
 40
0.0066444514
 40
0.0152955778
 40
0.0259482891
 40
0.038587359
 40
0.0531888711
 40
0.0697265927
 40
0.1084740937
 40
0.1545207825
 40
0.2074927793
 40
0.2669581633
 40
0.33243144
 40
0.4033772274
 40
0.4792141306
 40
0.6430402108
 40
0.8185473421
 40
1.0
 40
1.0
 40
1.0
 40
1.0
 10
4.9782286617
 20
4.3811943088
 30
0.0
 10
4.9781280011
 20
4.3811709518
 30
0.0
 10
4.9779091433
 20
4.3811251337
 30
0.0
 10
4.9774025813
 20
4.3810342416
 30
0.0
 10
4.9766406748
 20
4.3809238542
 30
0.0
 10
4.9755734019
 20
4.3807972962
 30
0.0
 10
4.9743047968
 20
4.3806702505
 30
0.0
 10
4.9728374094
 20
4.3805427336
 30
0.0
 10
4.9704929872
 20
4.3803627652
 30
0.0
 10
4.9670907443
 20
4.3801428234
 30
0.0
 10
4.9624626011
 20
4.3798892742
 30
0.0
 10
4.9571365553
 20
4.3796349084
 30
0.0
 10
4.9511562974
 20
4.3793798856
 30
0.0
 10
4.944570846
 20
4.379124462
 30
0.0
 10
4.9374342203
 20
4.3788687297
 30
0.0
 10
4.9269898795
 20
4.3785184164
 30
0.0
 10
4.9130284078
 20
4.3780875528
 30
0.0
 10
4.8955142484
 20
4.3775815779
 30
0.0
 10
4.8835092886
 20
4.3772458149
 30
0.0
 10
4.8774068323
 20
4.3770751165
 30
0.0
  0
SPLINE
  5
284
100
AcDbEntity
  8
0
100
AcDbSpline
 62
7
  6
CONTINUOUS
 70
0
 71
3
 72
56
 73
52
 74
0
 42
0.0000001
 43
0.0000001
 44
0.0000000001
 40
0.0
 40
0.0
 40
0.0
 40
0.0
 40
0.0009679049
 40
0.0013450122
 40
0.0017850623
 40
0.0022903028
 40
0.0028621764
 40
0.0042091973
 40
0.005830961
 40
0.0077296775
 40
0.0099063826
 40
0.0123610348
 40
0.015092833
 40
0.0213834102
 40
0.0287680085
 40
0.0372315053
 40
0.0467552027
 40
0.0573191779
 40
0.0814686612
 40
0.1094624475
 40
0.1410454243
 40
0.1759287877
 40
0.2137934697
 40
0.2542927993
 40
0.2970551197
 40
0.3416881108
 40
0.3877824787
 40
0.4349152958
 40
0.4826537821
 40
0.5781939243
 40
0.6251186809
 40
0.6709035067
 40
0.7151284029
 40
0.7573875088
 40
0.7972930406
 40
0.8344794568
 40
0.86860622
 40
0.8993607115
 40
0.9264620362
 40
0.9385648663
 40
0.9496643905
 40
0.959736629
 40
0.9687588777
 40
0.9767110381
 40
0.983577437
 40
0.9893439462
 40
0.9940019248
 40
0.9959145928
 40
0.997550187
 40
0.9989104745
 40
1.0
 40
1.0
 40
1.0
 40
1.0
 10
4.7901193889
 20
4.3815292915
 30
0.0
 10
4.7901193708
 20
4.3815856662
 30
0.0
 10
4.7901912894
 20
4.3816506068
 30
0.0
 10
4.7902784332
 20
4.3817018584
 30
0.0
 10
4.7903482391
 20
4.381736035
 30
0.0
 10
4.7904297539
 20
4.3817697222
 30
0.0
 10
4.7905627289
 20
4.3818175528
 30
0.0
 10
4.7907606016
 20
4.3818759947
 30
0.0
 10
4.7910360994
 20
4.3819432225
 30
0.0
 10
4.7913610577
 20
4.3820106237
 30
0.0
 10
4.7917353797
 20
4.3820781842
 30
0.0
 10
4.7921588903
 20
4.3821458524
 30
0.0
 10
4.7928206171
 20
4.3822407061
 30
0.0
 10
4.7937691773
 20
4.3823572726
 30
0.0
 10
4.7950516115
 20
4.3824919389
 30
0.0
 10
4.7965232235
 20
4.3826269195
 30
0.0
 10
4.7981806684
 20
4.3827621886
 30
0.0
 10
4.800750291
 20
4.3829512857
 30
0.0
 10
4.8043953
 20
4.383183534
 30
0.0
 10
4.8092644662
 20
4.3834524481
 30
0.0
 10
4.8147596223
 20
4.3837220246
 30
0.0
 10
4.820830289
 20
4.3839921239
 30
0.0
 10
4.8274207346
 20
4.3842625598
 30
0.0
 10
4.8344704299
 20
4.38453324
 30
0.0
 10
4.8419146051
 20
4.3848040966
 30
0.0
 10
4.8496848584
 20
4.3850750802
 30
0.0
 10
4.8577098127
 20
4.3853461519
 30
0.0
 10
4.8659157419
 20
4.3856172789
 30
0.0
 10
4.8770001713
 20
4.3859789135
 30
0.0
 10
4.8880725521
 20
4.3863382266
 30
0.0
 10
4.8990309403
 20
4.3867018832
 30
0.0
 10
4.9070019481
 20
4.3869729384
 30
0.0
 10
4.9147010517
 20
4.3872438944
 30
0.0
 10
4.9220575065
 20
4.3875147139
 30
0.0
 10
4.9290037281
 20
4.387785344
 30
0.0
 10
4.9354759182
 20
4.3880557135
 30
0.0
 10
4.9414146343
 20
4.3883256918
 30
0.0
 10
4.9467653111
 20
4.3885951736
 30
0.0
 10
4.9508334382
 20
4.3888269261
 30
0.0
 10
4.9537573033
 20
4.3890148948
 30
0.0
 10
4.9556906193
 20
4.3891504026
 30
0.0
 10
4.9574440416
 20
4.3892857447
 30
0.0
 10
4.9590135681
 20
4.3894208734
 30
0.0
 10
4.9603956215
 20
4.3895557427
 30
0.0
 10
4.9615870993
 20
4.3896901044
 30
0.0
 10
4.9625853276
 20
4.3898239189
 30
0.0
 10
4.9632945729
 20
4.3899407343
 30
0.0
 10
4.9637627908
 20
4.390037062
 30
0.0
 10
4.9640407675
 20
4.3901042653
 30
0.0
 10
4.9642692017
 20
4.3901711674
 30
0.0
 10
4.9644032543
 20
4.3902208042
 30
0.0
 10
4.964461215
 20
4.3902466405
 30
0.0
  0
LINE
  5
285
100
AcDbEntity
  8
0
100
AcDbLine
 62
7
  6
CONTINUOUS
 10
4.964461215
 20
4.3902466405
 11
4.9645559102
 21
4.3902943144
  0
ENDSEC
  0
SECTION
  2
OBJECTS
  0
DICTIONARY
  5
C
100
AcDbDictionary
280
0
281
1
  3
ACAD_GROUP
350
D
  3
ACAD_MLINESTYLE
350
17
  3
ACAD_LAYOUT
350
1A
  3
ACAD_PLOTSETTINGS
350
19
  3
ACAD_PLOTSTYLENAME
350
E
  0
DICTIONARY
  5
D
102
{ACAD_REACTORS
330
C
102
}
100
AcDbDictionary
280
0
281
1
  0
ACDBDICTIONARYWDFLT
  5
E
102
{ACAD_REACTORS
330
C
102
}
100
AcDbDictionary
281
1
  3
Normal
350
F
100
AcDbDictionaryWithDefault
340
F
  0
DICTIONARY
  5
17
102
{ACAD_REACTORS
330
C
102
}
100
AcDbDictionary
280
0
281
1
  3
Standard
350
18
  0
DICTIONARY
  5
19
102
{ACAD_REACTORS
330
C
102
}
100
AcDbDictionary
281
1
  0
DICTIONARY
  5
1A
102
{ACAD_REACTORS
330
C
102
}
100
AcDbDictionary
281
1
  3
Model
350
286
  3
Layout1
350
287
  0
ACDBPLACEHOLDER
  5
F
102
{ACAD_REACTORS
330
E
102
}
  0
MLINESTYLE
  5
18
102
{ACAD_REACTORS
330
17
102
}
100
AcDbMlineStyle
  2
STANDARD
 70
0
  3

 62
256
 51
90.0
 52
90.0
 71
2
 49
0.5
 62
256
  6
BYLAYER
 49
-0.5
 62
256
  6
BYLAYER
  0
LAYOUT
  5
286
102
{ACAD_REACTORS
330
1A
102
}
100
AcDbPlotSettings
  1

  2
none_device
  4
ANSI_A_(11.00_x_8.50_Inches)
  6

 40
0.0
 41
0.0
 42
0.0
 43
0.0
 44
279.4
 45
215.9
 46
0.0
 47
0.0
 48
0.0
 49
0.0
140
0.0
141
0.0
142
1.0
143
1.0
 70
1024
 72
0
 73
0
 74
0
  7

 75
0
147
1.0
148
0.0
149
0.0
100
AcDbLayout
  1
Model
 70
0
 71
0
 10
0.0
 20
0.0
 11
11.0
 21
8.5
 12
0.0
 22
0.0
 32
0.0
 14
0.0
 24
0.0
 34
0.0
 15
0.0
 25
0.0
 35
0.0
146
0.0
 13
0.0
 23
0.0
 33
0.0
 16
1.0
 26
0.0
 36
0.0
 17
0.0
 27
1.0
 37
0.0
 76
0
330
202
345
0
346
0
  0
LAYOUT
  5
287
102
{ACAD_REACTORS
330
1A
102
}
100
AcDbPlotSettings
  1

  2
none_device
  4
ANSI_A_(11.00_x_8.50_Inches)
  6

 40
0.0
 41
0.0
 42
0.0
 43
0.0
 44
279.4
 45
215.9
 46
0.0
 47
0.0
 48
0.0
 49
0.0
140
0.0
141
0.0
142
1.0
143
1.0
 70
0
 72
0
 73
0
 74
0
  7

 75
0
147
1.0
148
0.0
149
0.0
100
AcDbLayout
  1
Layout1
 70
0
 71
1
 10
0.0
 20
0.0
 11
11.0
 21
8.5
 12
0.0
 22
0.0
 32
0.0
 14
0.0
 24
0.0
 34
0.0
 15
0.0
 25
0.0
 35
0.0
146
0.0
 13
0.0
 23
0.0
 33
0.0
 16
1.0
 26
0.0
 36
0.0
 17
0.0
 27
1.0
 37
0.0
 76
0
330
203
345
0
346
0
  0
ENDSEC
  0
EOF
