999
DXF file: 20-550_right.dxf
999
Pro/ENGINEER 2018400 by Parametric Technology Corporation
  0
SECTION
  2
HEADER
  9
$ACADVER
  1
AC1027
  9
$DWGCODEPAGE
  3
ANSI_1252
  9
$EXTMAX
 10
11.0
 20
8.5
 30
0.0
  9
$EXTMIN
 10
0.0
 20
0.0
 30
0.0
  9
$LIMMIN
 10
0.0
 20
0.0
  9
$LIMMAX
 10
11.0
 20
8.5
  9
$VIEWCTR
 10
5.5
 20
4.25
  9
$VIEWSIZE
 40
8.5
  9
$CLAYER
  8
0
  9
$LTSCALE
 40
0.605
  9
$CELTYPE
  6
BYLAYER
  9
$DIMSCALE
 40
1.0
  9
$DIMASZ
 40
0.1
  9
$DIMEXO
 40
0.0625
  9
$DIMDLI
 40
0.418
  9
$DIMEXE
 40
0.125
  9
$DIMCEN
 40
0.099
  9
$DIMLFAC
 40
1.0
  9
$DIMBLK
  1
_FILLED
  9
$DIMALT
 70
1
  9
$DIMALTD
 70
1
  9
$DIMALTTD
 70
2
  9
$DIMALTF
 40
25.4
  9
$DIMTXT
 40
0.08
  9
$DIMTOL
 70
1
  9
$DIMLIM
 70
0
  9
$DIMTFAC
 40
1.0
  9
$DIMTP
 40
0.01
  9
$DIMTM
 40
0.01
  9
$DIMGAP
 40
0.09
  9
$DIMDSEP
 70
46
  9
$AUNITS
 70
0
  9
$PDMODE
 70
3
  9
$PDSIZE
 40
0.3125
  9
$HANDSEED
  5
368
  9
$TILEMODE
 70
1
  9
$MEASUREMENT
 70
0
  9
$INSUNITS
 70
1
  0
ENDSEC
  0
SECTION
  2
CLASSES
  0
CLASS
  1
ACDBDICTIONARYWDFLT
  2
AcDbDictionaryWithDefault
  3
AutoCAD 2000
 90
0
 91
1
280
0
281
0
  0
CLASS
  1
ACDBPLACEHOLDER
  2
AcDbPlaceHolder
  3
AutoCAD 2000
 90
0
 91
1
280
0
281
0
  0
CLASS
  1
LAYOUT
  2
AcDbLayout
  3
AutoCAD 2000
 90
0
 91
0
280
0
281
0
  0
ENDSEC
  0
SECTION
  2
TABLES
  0
TABLE
  2
VPORT
  5
8
100
AcDbSymbolTable
 70
2
  0
VPORT
  5
1F4
100
AcDbSymbolTableRecord
100
AcDbViewportTableRecord
  2
*ACTIVE
 70
0
 10
0.0
 20
0.0
 11
1.0
 21
1.0
 12
5.5
 22
4.25
 13
0.0
 23
0.0
 14
1.0
 24
1.0
 15
0.0
 25
0.0
 16
0.0
 26
0.0
 36
1.0
 17
0.0
 27
0.0
 37
0.0
 40
8.5
 41
1.2941176471
 42
50.0
 43
0.0
 44
0.0
 50
0.0
 51
0.0
 71
0
 72
100
 73
1
 74
1
 75
0
 76
0
 77
0
 78
0
  0
ENDTAB
  0
TABLE
  2
LTYPE
  5
5
100
AcDbSymbolTable
 70
6
  0
LTYPE
  5
14
100
AcDbSymbolTableRecord
100
AcDbLinetypeTableRecord
  2
BYBLOCK
 70
0
  3

 72
65
 73
0
 40
0.0
  0
LTYPE
  5
15
100
AcDbSymbolTableRecord
100
AcDbLinetypeTableRecord
  2
BYLAYER
 70
0
  3

 72
65
 73
0
 40
0.0
  0
LTYPE
  5
16
100
AcDbSymbolTableRecord
100
AcDbLinetypeTableRecord
  2
CONTINUOUS
 70
64
  3
Solid line
 72
65
 73
0
 40
0.0
  0
LTYPE
  5
1F5
100
AcDbSymbolTableRecord
100
AcDbLinetypeTableRecord
  2
CENTER
 70
64
  3
____ _ ____ _ ____ _ ____ _ ____ _ ____ _ ____
 72
65
 73
4
 40
0.6
 49
0.375
 74
0
 49
-0.075
 74
0
 49
0.075
 74
0
 49
-0.075
 74
0
  0
LTYPE
  5
1F6
100
AcDbSymbolTableRecord
100
AcDbLinetypeTableRecord
  2
HIDDEN
 70
64
  3
- - - - - - - - - - - - - - - - - - - -
 72
65
 73
2
 40
0.2
 49
0.1
 74
0
 49
-0.1
 74
0
  0
LTYPE
  5
1F7
100
AcDbSymbolTableRecord
100
AcDbLinetypeTableRecord
  2
PHANTOM
 70
64
  3
_____ _ _ _____ _ _ _____ _ _ _____
 72
65
 73
6
 40
0.8
 49
0.45
 74
0
 49
-0.05
 74
0
 49
0.1
 74
0
 49
-0.05
 74
0
 49
0.1
 74
0
 49
-0.05
 74
0
  0
LTYPE
  5
1F8
100
AcDbSymbolTableRecord
100
AcDbLinetypeTableRecord
  2
DOT
 70
64
  3
. . . . . . . . . . . . . . . . . . . .
 72
65
 73
2
 40
0.2
 49
0.1
 74
0
 49
-0.1
 74
0
  0
LTYPE
  5
1F9
100
AcDbSymbolTableRecord
100
AcDbLinetypeTableRecord
  2
DASHED
 70
64
  3
- - - - - - - - - - - - - - - - - - - -
 72
65
 73
2
 40
0.2
 49
0.1
 74
0
 49
-0.1
 74
0
  0
ENDTAB
  0
TABLE
  2
LAYER
  5
2
100
AcDbSymbolTable
 70
36
  0
LAYER
  5
10
100
AcDbSymbolTableRecord
100
AcDbLayerTableRecord
  2
0
 70
0
 62
7
  6
CONTINUOUS
370
-3
390
F
  0
LAYER
  5
1FA
100
AcDbSymbolTableRecord
100
AcDbLayerTableRecord
  2
DEFAULT_1
 70
0
 62
7
  6
CENTER
370
-3
390
F
  0
LAYER
  5
1FB
100
AcDbSymbolTableRecord
100
AcDbLayerTableRecord
  2
DEFAULT_2
 70
0
 62
8
  6
HIDDEN
370
-3
390
F
  0
LAYER
  5
1FC
100
AcDbSymbolTableRecord
100
AcDbLayerTableRecord
  2
DEFAULT_3
 70
0
 62
7
  6
PHANTOM
370
-3
390
F
  0
LAYER
  5
1FD
100
AcDbSymbolTableRecord
100
AcDbLayerTableRecord
  2
DEFAULT_COORDINATE_SYSTEM
 70
0
 62
7
  6
CONTINUOUS
370
-3
390
F
  0
LAYER
  5
1FE
100
AcDbSymbolTableRecord
100
AcDbLayerTableRecord
  2
DEFAULT_DATUM_AXES
 70
0
 62
7
  6
CONTINUOUS
370
-3
390
F
  0
LAYER
  5
1FF
100
AcDbSymbolTableRecord
100
AcDbLayerTableRecord
  2
DEFAULT_DATUM_PLANES
 70
0
 62
7
  6
CONTINUOUS
370
-3
390
F
  0
ENDTAB
  0
TABLE
  2
STYLE
  5
3
100
AcDbSymbolTable
 70
1
  0
STYLE
  5
11
100
AcDbSymbolTableRecord
100
AcDbTextStyleTableRecord
  2
STANDARD
 70
0
 40
0.0
 41
0.8
 50
0.0
 71
0
 42
0.2
  3
txt
  4

  0
STYLE
  5
200
100
AcDbSymbolTableRecord
100
AcDbTextStyleTableRecord
  2
TEXTSTYLE_1
 70
0
 40
0.0
 41
0.8
 50
0.0
 71
0
 42
0.2
  3
gdt
  4

  0
ENDTAB
  0
TABLE
  2
VIEW
  5
6
100
AcDbSymbolTable
 70
0
  0
ENDTAB
  0
TABLE
  2
UCS
  5
7
100
AcDbSymbolTable
 70
0
  0
ENDTAB
  0
TABLE
  2
APPID
  5
9
100
AcDbSymbolTable
 70
1
  0
APPID
  5
201
100
AcDbSymbolTableRecord
100
AcDbRegAppTableRecord
  2
ACAD
 70
0
  0
ENDTAB
  0
TABLE
  2
BLOCK_RECORD
  5
1
100
AcDbSymbolTable
 70
0
  0
BLOCK_RECORD
  5
202
100
AcDbSymbolTableRecord
100
AcDbBlockTableRecord
  2
*Model_Space
  0
BLOCK_RECORD
  5
203
100
AcDbSymbolTableRecord
100
AcDbBlockTableRecord
  2
*Paper_Space
  0
BLOCK_RECORD
  5
204
100
AcDbSymbolTableRecord
100
AcDbBlockTableRecord
  2
_FILLED
  0
ENDTAB
  0
TABLE
  2
DIMSTYLE
  5
A
100
AcDbSymbolTable
 70
1
100
AcDbDimStyleTable
 71
0
  0
DIMSTYLE
105
205
100
AcDbSymbolTableRecord
100
AcDbDimStyleTableRecord
  2
STANDARD
 70
0
  3

  4

 40
1.0
 41
0.1
 42
0.0625
 43
0.38
 44
0.125
 45
0.0
 46
0.0
 47
0.01
 48
0.01
140
0.08
141
0.09
142
0.0
143
25.4
144
1.0
145
0.0
146
1.0
147
0.09
 71
1.0
 72
0.0
 73
1
 74
1
 75
0
 76
0
 77
0
 78
4
 79
1
170
1
171
1
172
0
173
0
174
0
175
0
176
0
177
0
178
0
270
2
179
2
271
2
272
2
273
2
274
2
275
0
280
0
281
0
282
0
283
1
284
4
285
0
286
0
287
3
288
0
340
11
278
46
341
204
342
204
343
204
344
204
  0
ENDTAB
  0
ENDSEC
  0
SECTION
  2
BLOCKS
  0
BLOCK
  5
20
100
AcDbEntity
  8
0
100
AcDbBlockBegin
  2
*Model_Space
 70
0
 10
0.0
 20
0.0
 30
0.0
  3
*Model_Space
  1

  0
ENDBLK
  5
21
100
AcDbEntity
  8
0
100
AcDbBlockEnd
  0
BLOCK
  5
1C
100
AcDbEntity
  8
0
100
AcDbBlockBegin
  2
*Paper_Space
 70
0
 10
0.0
 20
0.0
 30
0.0
  3
*Paper_Space
  1

  0
ENDBLK
  5
1D
100
AcDbEntity
  8
0
100
AcDbBlockEnd
  0
BLOCK
  5
206
100
AcDbEntity
  8
0
100
AcDbBlockBegin
  2
_FILLED
 70
64
 10
0.0
 20
0.0
  3
_FILLED
  1

  0
SOLID
  5
207
100
AcDbEntity
  8
0
  6
BYBLOCK
 62
0
100
AcDbTrace
 10
0.0
 20
0.0
 11
-1.0
 21
0.2
 12
-1.0
 22
-0.2
 13
-1.0
 23
-0.2
  0
ENDBLK
  5
208
100
AcDbEntity
  8
0
  6
BYBLOCK
 62
0
100
AcDbBlockEnd
  0
ENDSEC
  0
SECTION
  2
ENTITIES
  0
MTEXT
  5
209
100
AcDbEntity
  8
0
100
AcDbMText
 62
2
  6
CONTINUOUS
  7
STANDARD
 71
3
 72
1
 10
7.530158191
 20
3.2724058618
 30
0.0
 11
1.0
 21
0.0
 31
0.0
 73
2
 44
0.9
  1
SCALE  .250
 40
0.08
 41
0.704
  0
LINE
  5
20A
100
AcDbEntity
  8
0
100
AcDbLine
 62
7
  6
CONTINUOUS
 10
0.0
 20
0.0
 11
0.0
 21
8.5
  0
LINE
  5
20B
100
AcDbEntity
  8
0
100
AcDbLine
 62
7
  6
CONTINUOUS
 10
0.0
 20
0.0
 11
11.0
 21
0.0
  0
LINE
  5
20C
100
AcDbEntity
  8
0
100
AcDbLine
 62
7
  6
CONTINUOUS
 10
0.0
 20
8.5
 11
11.0
 21
8.5
  0
LINE
  5
20D
100
AcDbEntity
  8
0
100
AcDbLine
 62
7
  6
CONTINUOUS
 10
11.0
 20
0.0
 11
11.0
 21
8.5
  0
LINE
  5
20E
100
AcDbEntity
  8
0
100
AcDbLine
 62
7
  6
CONTINUOUS
 10
2.5266255823
 20
5.0518876165
 11
2.5266255823
 21
4.4079842797
  0
LINE
  5
20F
100
AcDbEntity
  8
0
100
AcDbLine
 62
7
  6
CONTINUOUS
 10
2.5266255823
 20
4.3990243034
 11
2.5266255823
 21
4.3942334666
  0
LINE
  5
210
100
AcDbEntity
  8
0
100
AcDbLine
 62
7
  6
CONTINUOUS
 10
2.5266255823
 20
4.3770751165
 11
2.5266255823
 21
4.3763834666
  0
LINE
  5
211
100
AcDbEntity
  8
0
100
AcDbLine
 62
7
  6
CONTINUOUS
 10
2.5266255823
 20
4.3592251165
 11
2.5266255823
 21
4.3585334666
  0
LINE
  5
212
100
AcDbEntity
  8
0
100
AcDbLine
 62
7
  6
CONTINUOUS
 10
2.5266255823
 20
4.3413751165
 11
2.5266255823
 21
4.3406834666
  0
LINE
  5
213
100
AcDbEntity
  8
0
100
AcDbLine
 62
7
  6
CONTINUOUS
 10
2.5337578642
 20
4.4039271956
 11
2.5337578642
 21
4.4033257754
  0
LINE
  5
214
100
AcDbEntity
  8
0
100
AcDbLine
 62
7
  6
CONTINUOUS
 10
2.5409005823
 20
4.3859917916
 11
2.5409005823
 21
4.3853967619
  0
LINE
  5
215
100
AcDbEntity
  8
0
100
AcDbLine
 62
7
  6
CONTINUOUS
 10
2.5409005823
 20
4.3681417916
 11
2.5409005823
 21
4.3675467619
  0
LINE
  5
216
100
AcDbEntity
  8
0
100
AcDbLine
 62
7
  6
CONTINUOUS
 10
2.5409005823
 20
4.3502917916
 11
2.5409005823
 21
4.3496967619
  0
LINE
  5
217
100
AcDbEntity
  8
0
100
AcDbLine
 62
7
  6
CONTINUOUS
 10
2.5409005823
 20
4.3324417916
 11
2.5409005823
 21
4.3318467619
  0
LINE
  5
218
100
AcDbEntity
  8
0
100
AcDbLine
 62
7
  6
CONTINUOUS
 10
2.5409005823
 20
4.3145917916
 11
2.5409005823
 21
4.3139967619
  0
LINE
  5
219
100
AcDbEntity
  8
0
100
AcDbLine
 62
7
  6
CONTINUOUS
 10
2.5450631022
 20
4.4087191978
 11
2.5450631022
 21
4.4017670549
  0
LINE
  5
21A
100
AcDbEntity
  8
0
100
AcDbLine
 62
7
  6
CONTINUOUS
 10
2.7154755823
 20
4.3228417916
 11
2.7154755823
 21
4.3234368213
  0
LINE
  5
21B
100
AcDbEntity
  8
0
100
AcDbLine
 62
7
  6
CONTINUOUS
 10
2.7154755823
 20
4.3406917916
 11
2.7154755823
 21
4.3412868213
  0
LINE
  5
21C
100
AcDbEntity
  8
0
100
AcDbLine
 62
7
  6
CONTINUOUS
 10
2.7154755823
 20
4.3585417916
 11
2.7154755823
 21
4.3591368213
  0
LINE
  5
21D
100
AcDbEntity
  8
0
100
AcDbLine
 62
7
  6
CONTINUOUS
 10
2.7154755823
 20
4.3763917916
 11
2.7154755823
 21
4.3769868213
  0
LINE
  5
21E
100
AcDbEntity
  8
0
100
AcDbLine
 62
7
  6
CONTINUOUS
 10
2.7154755823
 20
4.3942417916
 11
2.7154755823
 21
4.3948368213
  0
LINE
  5
21F
100
AcDbEntity
  8
0
100
AcDbLine
 62
7
  6
CONTINUOUS
 10
2.7297505823
 20
4.3324501165
 11
2.7297505823
 21
4.3317584666
  0
LINE
  5
220
100
AcDbEntity
  8
0
100
AcDbLine
 62
7
  6
CONTINUOUS
 10
2.7297505823
 20
4.3496084666
 11
2.7297505823
 21
4.3503001165
  0
LINE
  5
221
100
AcDbEntity
  8
0
100
AcDbLine
 62
7
  6
CONTINUOUS
 10
2.7297505823
 20
4.3674584666
 11
2.7297505823
 21
4.3681501165
  0
LINE
  5
222
100
AcDbEntity
  8
0
100
AcDbLine
 62
7
  6
CONTINUOUS
 10
2.7297505823
 20
4.3853084666
 11
2.7297505823
 21
4.3860001165
  0
LINE
  5
223
100
AcDbEntity
  8
0
100
AcDbLine
 62
7
  6
CONTINUOUS
 10
2.7297505823
 20
4.4031584666
 11
2.7297505823
 21
4.8487626165
  0
LINE
  5
224
100
AcDbEntity
  8
0
100
AcDbLine
 62
7
  6
CONTINUOUS
 10
2.5391255823
 20
4.3128251165
 11
2.5390831831
 21
4.3128675156
  0
LINE
  5
225
100
AcDbEntity
  8
0
100
AcDbLine
 62
7
  6
CONTINUOUS
 10
2.5325208891
 20
4.3194298097
 11
2.5277667366
 21
4.3241839622
  0
LINE
  5
226
100
AcDbEntity
  8
0
100
AcDbLine
 62
7
  6
CONTINUOUS
 10
2.5266468686
 20
4.4079596962
 11
2.5337258346
 21
4.4038717321
  0
LINE
  5
227
100
AcDbEntity
  8
0
100
AcDbLine
 62
7
  6
CONTINUOUS
 10
2.540865927
 20
4.3145318609
 11
2.5409005823
 21
4.3145118213
  0
LINE
  5
228
100
AcDbEntity
  8
0
100
AcDbLine
 62
7
  6
CONTINUOUS
 10
2.5329943148
 20
4.3190831346
 11
2.540865927
 21
4.3145318609
  0
LINE
  5
229
100
AcDbEntity
  8
0
100
AcDbLine
 62
7
  6
CONTINUOUS
 10
2.540865927
 20
4.3323818609
 11
2.5409005823
 21
4.3323618213
  0
LINE
  5
22A
100
AcDbEntity
  8
0
100
AcDbLine
 62
7
  6
CONTINUOUS
 10
2.5267445749
 20
4.340545933
 11
2.540865927
 21
4.3323818609
  0
LINE
  5
22B
100
AcDbEntity
  8
0
100
AcDbLine
 62
7
  6
CONTINUOUS
 10
2.540865927
 20
4.3502318609
 11
2.5409005823
 21
4.3502118213
  0
LINE
  5
22C
100
AcDbEntity
  8
0
100
AcDbLine
 62
7
  6
CONTINUOUS
 10
2.5267445749
 20
4.358395933
 11
2.540865927
 21
4.3502318609
  0
LINE
  5
22D
100
AcDbEntity
  8
0
100
AcDbLine
 62
7
  6
CONTINUOUS
 10
2.540865927
 20
4.3680818609
 11
2.5409005823
 21
4.3680618213
  0
LINE
  5
22E
100
AcDbEntity
  8
0
100
AcDbLine
 62
7
  6
CONTINUOUS
 10
2.5267445749
 20
4.376245933
 11
2.540865927
 21
4.3680818609
  0
LINE
  5
22F
100
AcDbEntity
  8
0
100
AcDbLine
 62
7
  6
CONTINUOUS
 10
2.540865927
 20
4.3859318609
 11
2.5409005823
 21
4.3859118213
  0
LINE
  5
230
100
AcDbEntity
  8
0
100
AcDbLine
 62
7
  6
CONTINUOUS
 10
2.5267445749
 20
4.394095933
 11
2.540865927
 21
4.3859318609
  0
LINE
  5
231
100
AcDbEntity
  8
0
100
AcDbLine
 62
7
  6
CONTINUOUS
 10
2.7172505823
 20
4.3128251165
 11
2.7229512048
 21
4.3185257389
  0
LINE
  5
232
100
AcDbEntity
  8
0
100
AcDbLine
 62
7
  6
CONTINUOUS
 10
2.7155102376
 20
4.3229017222
 11
2.7154755823
 21
4.3229217619
  0
LINE
  5
233
100
AcDbEntity
  8
0
100
AcDbLine
 62
7
  6
CONTINUOUS
 10
2.7229171811
 20
4.3186190841
 11
2.7155102376
 21
4.3229017222
  0
LINE
  5
234
100
AcDbEntity
  8
0
100
AcDbLine
 62
7
  6
CONTINUOUS
 10
2.7155102376
 20
4.3407517222
 11
2.7154755823
 21
4.3407717619
  0
LINE
  5
235
100
AcDbEntity
  8
0
100
AcDbLine
 62
7
  6
CONTINUOUS
 10
2.7296315895
 20
4.3325876502
 11
2.7155102376
 21
4.3407517222
  0
LINE
  5
236
100
AcDbEntity
  8
0
100
AcDbLine
 62
7
  6
CONTINUOUS
 10
2.7155102376
 20
4.3586017222
 11
2.7154755823
 21
4.3586217619
  0
LINE
  5
237
100
AcDbEntity
  8
0
100
AcDbLine
 62
7
  6
CONTINUOUS
 10
2.7296315895
 20
4.3504376502
 11
2.7155102376
 21
4.3586017222
  0
LINE
  5
238
100
AcDbEntity
  8
0
100
AcDbLine
 62
7
  6
CONTINUOUS
 10
2.7155102376
 20
4.3764517222
 11
2.7154755823
 21
4.3764717619
  0
LINE
  5
239
100
AcDbEntity
  8
0
100
AcDbLine
 62
7
  6
CONTINUOUS
 10
2.7296315895
 20
4.3682876502
 11
2.7155102376
 21
4.3764517222
  0
LINE
  5
23A
100
AcDbEntity
  8
0
100
AcDbLine
 62
7
  6
CONTINUOUS
 10
2.7155102376
 20
4.3943017222
 11
2.7154755823
 21
4.3943217619
  0
LINE
  5
23B
100
AcDbEntity
  8
0
100
AcDbLine
 62
7
  6
CONTINUOUS
 10
2.7296315895
 20
4.3861376502
 11
2.7155102376
 21
4.3943017222
  0
LINE
  5
23C
100
AcDbEntity
  8
0
100
AcDbLine
 62
7
  6
CONTINUOUS
 10
2.5338847973
 20
4.4033993037
 11
2.5269208627
 21
4.3993660918
  0
LINE
  5
23D
100
AcDbEntity
  8
0
100
AcDbLine
 62
7
  6
CONTINUOUS
 10
2.5410389414
 20
4.3140767689
 11
2.5391193335
 21
4.312966761
  0
LINE
  5
23E
100
AcDbEntity
  8
0
100
AcDbLine
 62
7
  6
CONTINUOUS
 10
2.5410389414
 20
4.3854767689
 11
2.5267445751
 21
4.3772126502
  0
LINE
  5
23F
100
AcDbEntity
  8
0
100
AcDbLine
 62
7
  6
CONTINUOUS
 10
2.5410389414
 20
4.3676267689
 11
2.5267445751
 21
4.3593626502
  0
LINE
  5
240
100
AcDbEntity
  8
0
100
AcDbLine
 62
7
  6
CONTINUOUS
 10
2.5410389414
 20
4.3497767689
 11
2.5267445751
 21
4.3415126502
  0
LINE
  5
241
100
AcDbEntity
  8
0
100
AcDbLine
 62
7
  6
CONTINUOUS
 10
2.5410389414
 20
4.3319267689
 11
2.5277988685
 21
4.3242720683
  0
LINE
  5
242
100
AcDbEntity
  8
0
100
AcDbLine
 62
7
  6
CONTINUOUS
 10
2.7153372235
 20
4.3947568144
 11
2.7296315897
 21
4.403020933
  0
LINE
  5
243
100
AcDbEntity
  8
0
100
AcDbLine
 62
7
  6
CONTINUOUS
 10
2.7153372235
 20
4.3769068144
 11
2.7296315897
 21
4.385170933
  0
LINE
  5
244
100
AcDbEntity
  8
0
100
AcDbLine
 62
7
  6
CONTINUOUS
 10
2.7153372235
 20
4.3590568144
 11
2.7296315897
 21
4.367320933
  0
LINE
  5
245
100
AcDbEntity
  8
0
100
AcDbLine
 62
7
  6
CONTINUOUS
 10
2.7153372235
 20
4.3412068144
 11
2.7296315897
 21
4.349470933
  0
LINE
  5
246
100
AcDbEntity
  8
0
100
AcDbLine
 62
7
  6
CONTINUOUS
 10
2.7153372235
 20
4.3233568144
 11
2.7296315897
 21
4.331620933
  0
LINE
  5
247
100
AcDbEntity
  8
0
100
AcDbLine
 62
7
  6
CONTINUOUS
 10
2.7172505823
 20
4.3128251165
 11
2.5390693133
 21
4.3128251165
  0
LINE
  5
248
100
AcDbEntity
  8
0
100
AcDbLine
 62
7
  6
CONTINUOUS
 10
2.5632474586
 20
4.3253251165
 11
2.5463386368
 21
4.3253251165
  0
LINE
  5
249
100
AcDbEntity
  8
0
100
AcDbLine
 62
7
  6
CONTINUOUS
 10
7.0708646534
 20
4.8487626165
 11
2.7297505823
 21
4.8487626165
  0
LINE
  5
24A
100
AcDbEntity
  8
0
100
AcDbLine
 62
7
  6
CONTINUOUS
 10
7.0719380823
 20
4.8487721055
 11
7.0708810669
 21
4.8487721055
  0
LINE
  5
24B
100
AcDbEntity
  8
0
100
AcDbLine
 62
7
  6
CONTINUOUS
 10
7.0719380823
 20
4.8514251165
 11
7.0724018485
 21
4.8514251165
  0
LINE
  5
24C
100
AcDbEntity
  8
0
100
AcDbLine
 62
7
  6
CONTINUOUS
 10
7.0865159659
 20
4.8514251165
 11
7.0886922321
 21
4.8514251165
  0
LINE
  5
24D
100
AcDbEntity
  8
0
100
AcDbLine
 62
7
  6
CONTINUOUS
 10
7.1059255823
 20
4.8514251165
 11
7.1065422321
 21
4.8514251165
  0
LINE
  5
24E
100
AcDbEntity
  8
0
100
AcDbLine
 62
7
  6
CONTINUOUS
 10
7.1237755823
 20
4.8514251165
 11
7.1243922321
 21
4.8514251165
  0
LINE
  5
24F
100
AcDbEntity
  8
0
100
AcDbLine
 62
7
  6
CONTINUOUS
 10
7.1416255823
 20
4.8514251165
 11
7.1422422321
 21
4.8514251165
  0
LINE
  5
250
100
AcDbEntity
  8
0
100
AcDbLine
 62
7
  6
CONTINUOUS
 10
7.1594755823
 20
4.8514251165
 11
7.1600922321
 21
4.8514251165
  0
LINE
  5
251
100
AcDbEntity
  8
0
100
AcDbLine
 62
7
  6
CONTINUOUS
 10
7.1773255823
 20
4.8514251165
 11
7.1779422321
 21
4.8514251165
  0
LINE
  5
252
100
AcDbEntity
  8
0
100
AcDbLine
 62
7
  6
CONTINUOUS
 10
7.1951755823
 20
4.8514251165
 11
7.1957922321
 21
4.8514251165
  0
LINE
  5
253
100
AcDbEntity
  8
0
100
AcDbLine
 62
7
  6
CONTINUOUS
 10
7.2130255823
 20
4.8514251165
 11
7.2131880823
 21
4.8514251165
  0
LINE
  5
254
100
AcDbEntity
  8
0
100
AcDbLine
 62
7
  6
CONTINUOUS
 10
7.0789916161
 20
4.8629526158
 11
7.0796621713
 21
4.8629526158
  0
LINE
  5
255
100
AcDbEntity
  8
0
100
AcDbLine
 62
7
  6
CONTINUOUS
 10
7.0969339072
 20
4.8657001165
 11
7.0976014276
 21
4.8657001165
  0
LINE
  5
256
100
AcDbEntity
  8
0
100
AcDbLine
 62
7
  6
CONTINUOUS
 10
7.1147839072
 20
4.8657001165
 11
7.1154514276
 21
4.8657001165
  0
LINE
  5
257
100
AcDbEntity
  8
0
100
AcDbLine
 62
7
  6
CONTINUOUS
 10
7.1326339072
 20
4.8657001165
 11
7.1333014276
 21
4.8657001165
  0
LINE
  5
258
100
AcDbEntity
  8
0
100
AcDbLine
 62
7
  6
CONTINUOUS
 10
7.1504839072
 20
4.8657001165
 11
7.1511514276
 21
4.8657001165
  0
LINE
  5
259
100
AcDbEntity
  8
0
100
AcDbLine
 62
7
  6
CONTINUOUS
 10
7.1683339072
 20
4.8657001165
 11
7.1690014276
 21
4.8657001165
  0
LINE
  5
25A
100
AcDbEntity
  8
0
100
AcDbLine
 62
7
  6
CONTINUOUS
 10
7.1861839072
 20
4.8657001165
 11
7.1868514276
 21
4.8657001165
  0
LINE
  5
25B
100
AcDbEntity
  8
0
100
AcDbLine
 62
7
  6
CONTINUOUS
 10
7.2040339072
 20
4.8657001165
 11
7.2047014276
 21
4.8657001165
  0
LINE
  5
25C
100
AcDbEntity
  8
0
100
AcDbLine
 62
7
  6
CONTINUOUS
 10
7.2218839072
 20
4.8657001165
 11
7.2225514276
 21
4.8657001165
  0
LINE
  5
25D
100
AcDbEntity
  8
0
100
AcDbLine
 62
7
  6
CONTINUOUS
 10
7.0736964072
 20
5.0022935748
 11
7.0729464072
 21
5.0022935748
  0
LINE
  5
25E
100
AcDbEntity
  8
0
100
AcDbLine
 62
7
  6
CONTINUOUS
 10
7.0719380823
 20
5.0053162319
 11
7.0768349787
 21
5.0053162319
  0
LINE
  5
25F
100
AcDbEntity
  8
0
100
AcDbLine
 62
7
  6
CONTINUOUS
 10
7.0719380823
 20
5.006796655
 11
7.0682706407
 21
5.006796655
  0
LINE
  5
260
100
AcDbEntity
  8
0
100
AcDbLine
 62
7
  6
CONTINUOUS
 10
7.2137089072
 20
5.0349501165
 11
7.2130413867
 21
5.0349501165
  0
LINE
  5
261
100
AcDbEntity
  8
0
100
AcDbLine
 62
7
  6
CONTINUOUS
 10
7.1958589072
 20
5.0349501165
 11
7.1951913867
 21
5.0349501165
  0
LINE
  5
262
100
AcDbEntity
  8
0
100
AcDbLine
 62
7
  6
CONTINUOUS
 10
7.1780089072
 20
5.0349501165
 11
7.1773413867
 21
5.0349501165
  0
LINE
  5
263
100
AcDbEntity
  8
0
100
AcDbLine
 62
7
  6
CONTINUOUS
 10
7.1601589072
 20
5.0349501165
 11
7.1594913867
 21
5.0349501165
  0
LINE
  5
264
100
AcDbEntity
  8
0
100
AcDbLine
 62
7
  6
CONTINUOUS
 10
7.1423089072
 20
5.0349501165
 11
7.1416413867
 21
5.0349501165
  0
LINE
  5
265
100
AcDbEntity
  8
0
100
AcDbLine
 62
7
  6
CONTINUOUS
 10
7.1244589072
 20
5.0349501165
 11
7.1237913867
 21
5.0349501165
  0
LINE
  5
266
100
AcDbEntity
  8
0
100
AcDbLine
 62
7
  6
CONTINUOUS
 10
7.1066089072
 20
5.0349501165
 11
7.1059413867
 21
5.0349501165
  0
LINE
  5
267
100
AcDbEntity
  8
0
100
AcDbLine
 62
7
  6
CONTINUOUS
 10
7.0887589072
 20
5.0349501165
 11
7.0880913867
 21
5.0349501165
  0
LINE
  5
268
100
AcDbEntity
  8
0
100
AcDbLine
 62
7
  6
CONTINUOUS
 10
7.0719380823
 20
5.0492251165
 11
7.0797672321
 21
5.0492251165
  0
LINE
  5
269
100
AcDbEntity
  8
0
100
AcDbLine
 62
7
  6
CONTINUOUS
 10
7.0970005823
 20
5.0492251165
 11
7.0976172321
 21
5.0492251165
  0
LINE
  5
26A
100
AcDbEntity
  8
0
100
AcDbLine
 62
7
  6
CONTINUOUS
 10
7.1148505823
 20
5.0492251165
 11
7.1154672321
 21
5.0492251165
  0
LINE
  5
26B
100
AcDbEntity
  8
0
100
AcDbLine
 62
7
  6
CONTINUOUS
 10
7.1327005823
 20
5.0492251165
 11
7.1333172321
 21
5.0492251165
  0
LINE
  5
26C
100
AcDbEntity
  8
0
100
AcDbLine
 62
7
  6
CONTINUOUS
 10
7.1505505823
 20
5.0492251165
 11
7.1511672321
 21
5.0492251165
  0
LINE
  5
26D
100
AcDbEntity
  8
0
100
AcDbLine
 62
7
  6
CONTINUOUS
 10
7.1684005823
 20
5.0492251165
 11
7.1690172321
 21
5.0492251165
  0
LINE
  5
26E
100
AcDbEntity
  8
0
100
AcDbLine
 62
7
  6
CONTINUOUS
 10
7.1862505823
 20
5.0492251165
 11
7.1868672321
 21
5.0492251165
  0
LINE
  5
26F
100
AcDbEntity
  8
0
100
AcDbLine
 62
7
  6
CONTINUOUS
 10
7.2041005823
 20
5.0492251165
 11
7.2047172321
 21
5.0492251165
  0
LINE
  5
270
100
AcDbEntity
  8
0
100
AcDbLine
 62
7
  6
CONTINUOUS
 10
7.0719380823
 20
5.0518876165
 11
2.5266255823
 21
5.0518876165
  0
LINE
  5
271
100
AcDbEntity
  8
0
100
AcDbLine
 62
7
  6
CONTINUOUS
 10
7.0768349787
 20
5.0053162319
 11
7.0736964072
 21
5.0022935748
  0
LINE
  5
272
100
AcDbEntity
  8
0
100
AcDbLine
 62
7
  6
CONTINUOUS
 10
7.2281880823
 20
4.8664251165
 11
7.224401508
 21
4.8626385421
  0
LINE
  5
273
100
AcDbEntity
  8
0
100
AcDbLine
 62
7
  6
CONTINUOUS
 10
7.2142626123
 20
4.8524996465
 11
7.2131880823
 21
4.8514251165
  0
LINE
  5
274
100
AcDbEntity
  8
0
100
AcDbLine
 62
7
  6
CONTINUOUS
 10
7.0886970992
 20
5.0349858609
 11
7.0886764276
 21
5.0349501165
  0
LINE
  5
275
100
AcDbEntity
  8
0
100
AcDbLine
 62
7
  6
CONTINUOUS
 10
7.0968593519
 20
5.0491029318
 11
7.0886970992
 21
5.0349858609
  0
LINE
  5
276
100
AcDbEntity
  8
0
100
AcDbLine
 62
7
  6
CONTINUOUS
 10
7.1065470992
 20
5.0349858609
 11
7.1065264276
 21
5.0349501165
  0
LINE
  5
277
100
AcDbEntity
  8
0
100
AcDbLine
 62
7
  6
CONTINUOUS
 10
7.1147093519
 20
5.0491029318
 11
7.1065470992
 21
5.0349858609
  0
LINE
  5
278
100
AcDbEntity
  8
0
100
AcDbLine
 62
7
  6
CONTINUOUS
 10
7.0729464072
 20
5.0022935748
 11
7.0682706407
 21
5.006796655
  0
LINE
  5
279
100
AcDbEntity
  8
0
100
AcDbLine
 62
7
  6
CONTINUOUS
 10
7.0724270936
 20
4.8514469753
 11
7.0790715402
 21
4.8629526158
  0
LINE
  5
27A
100
AcDbEntity
  8
0
100
AcDbLine
 62
7
  6
CONTINUOUS
 10
7.0709004084
 20
4.8488032483
 11
7.0719380823
 21
4.8506001685
  0
LINE
  5
27B
100
AcDbEntity
  8
0
100
AcDbLine
 62
7
  6
CONTINUOUS
 10
7.1243970992
 20
5.0349858609
 11
7.1243764276
 21
5.0349501165
  0
LINE
  5
27C
100
AcDbEntity
  8
0
100
AcDbLine
 62
7
  6
CONTINUOUS
 10
7.1325593519
 20
5.0491029318
 11
7.1243970992
 21
5.0349858609
  0
LINE
  5
27D
100
AcDbEntity
  8
0
100
AcDbLine
 62
7
  6
CONTINUOUS
 10
7.1422470992
 20
5.0349858609
 11
7.1422264276
 21
5.0349501165
  0
LINE
  5
27E
100
AcDbEntity
  8
0
100
AcDbLine
 62
7
  6
CONTINUOUS
 10
7.1504093519
 20
5.0491029318
 11
7.1422470992
 21
5.0349858609
  0
LINE
  5
27F
100
AcDbEntity
  8
0
100
AcDbLine
 62
7
  6
CONTINUOUS
 10
7.1600970992
 20
5.0349858609
 11
7.1600764276
 21
5.0349501165
  0
LINE
  5
280
100
AcDbEntity
  8
0
100
AcDbLine
 62
7
  6
CONTINUOUS
 10
7.1682593519
 20
5.0491029318
 11
7.1600970992
 21
5.0349858609
  0
LINE
  5
281
100
AcDbEntity
  8
0
100
AcDbLine
 62
7
  6
CONTINUOUS
 10
7.1779470992
 20
5.0349858609
 11
7.1779264276
 21
5.0349501165
  0
LINE
  5
282
100
AcDbEntity
  8
0
100
AcDbLine
 62
7
  6
CONTINUOUS
 10
7.1861093519
 20
5.0491029318
 11
7.1779470992
 21
5.0349858609
  0
LINE
  5
283
100
AcDbEntity
  8
0
100
AcDbLine
 62
7
  6
CONTINUOUS
 10
7.0969957152
 20
4.865664372
 11
7.0970163867
 21
4.8657001165
  0
LINE
  5
284
100
AcDbEntity
  8
0
100
AcDbLine
 62
7
  6
CONTINUOUS
 10
7.0888334624
 20
4.8515473009
 11
7.0969957152
 21
4.865664372
  0
LINE
  5
285
100
AcDbEntity
  8
0
100
AcDbLine
 62
7
  6
CONTINUOUS
 10
7.1957970992
 20
5.0349858609
 11
7.1957764276
 21
5.0349501165
  0
LINE
  5
286
100
AcDbEntity
  8
0
100
AcDbLine
 62
7
  6
CONTINUOUS
 10
7.2039593519
 20
5.0491029318
 11
7.1957970992
 21
5.0349858609
  0
LINE
  5
287
100
AcDbEntity
  8
0
100
AcDbLine
 62
7
  6
CONTINUOUS
 10
7.1148457152
 20
4.865664372
 11
7.1148663867
 21
4.8657001165
  0
LINE
  5
288
100
AcDbEntity
  8
0
100
AcDbLine
 62
7
  6
CONTINUOUS
 10
7.1066834624
 20
4.8515473009
 11
7.1148457152
 21
4.865664372
  0
LINE
  5
289
100
AcDbEntity
  8
0
100
AcDbLine
 62
7
  6
CONTINUOUS
 10
7.2136470992
 20
5.0349858609
 11
7.2136264276
 21
5.0349501165
  0
LINE
  5
28A
100
AcDbEntity
  8
0
100
AcDbLine
 62
7
  6
CONTINUOUS
 10
7.2186485268
 20
5.0436353802
 11
7.2136470992
 21
5.0349858609
  0
LINE
  5
28B
100
AcDbEntity
  8
0
100
AcDbLine
 62
7
  6
CONTINUOUS
 10
7.1326957152
 20
4.865664372
 11
7.1327163867
 21
4.8657001165
  0
LINE
  5
28C
100
AcDbEntity
  8
0
100
AcDbLine
 62
7
  6
CONTINUOUS
 10
7.1245334624
 20
4.8515473009
 11
7.1326957152
 21
4.865664372
  0
LINE
  5
28D
100
AcDbEntity
  8
0
100
AcDbLine
 62
7
  6
CONTINUOUS
 10
7.1505457152
 20
4.865664372
 11
7.1505663867
 21
4.8657001165
  0
LINE
  5
28E
100
AcDbEntity
  8
0
100
AcDbLine
 62
7
  6
CONTINUOUS
 10
7.1423834624
 20
4.8515473009
 11
7.1505457152
 21
4.865664372
  0
LINE
  5
28F
100
AcDbEntity
  8
0
100
AcDbLine
 62
7
  6
CONTINUOUS
 10
7.1683957152
 20
4.865664372
 11
7.1684163867
 21
4.8657001165
  0
LINE
  5
290
100
AcDbEntity
  8
0
100
AcDbLine
 62
7
  6
CONTINUOUS
 10
7.1602334624
 20
4.8515473009
 11
7.1683957152
 21
4.865664372
  0
LINE
  5
291
100
AcDbEntity
  8
0
100
AcDbLine
 62
7
  6
CONTINUOUS
 10
7.1862457152
 20
4.865664372
 11
7.1862663867
 21
4.8657001165
  0
LINE
  5
292
100
AcDbEntity
  8
0
100
AcDbLine
 62
7
  6
CONTINUOUS
 10
7.1780834624
 20
4.8515473009
 11
7.1862457152
 21
4.865664372
  0
LINE
  5
293
100
AcDbEntity
  8
0
100
AcDbLine
 62
7
  6
CONTINUOUS
 10
7.2040957152
 20
4.865664372
 11
7.2041163867
 21
4.8657001165
  0
LINE
  5
294
100
AcDbEntity
  8
0
100
AcDbLine
 62
7
  6
CONTINUOUS
 10
7.1959334624
 20
4.8515473009
 11
7.2040957152
 21
4.865664372
  0
LINE
  5
295
100
AcDbEntity
  8
0
100
AcDbLine
 62
7
  6
CONTINUOUS
 10
7.0709004084
 20
4.8488032483
 11
7.0708810669
 21
4.8487721055
  0
LINE
  5
296
100
AcDbEntity
  8
0
100
AcDbLine
 62
7
  6
CONTINUOUS
 10
7.2281880823
 20
5.0342251165
 11
7.2187432847
 21
5.0436699141
  0
LINE
  5
297
100
AcDbEntity
  8
0
100
AcDbLine
 62
7
  6
CONTINUOUS
 10
7.2219457152
 20
4.865664372
 11
7.2219663867
 21
4.8657001165
  0
LINE
  5
298
100
AcDbEntity
  8
0
100
AcDbLine
 62
7
  6
CONTINUOUS
 10
7.2146016092
 20
4.8529625968
 11
7.2219457152
 21
4.865664372
  0
LINE
  5
299
100
AcDbEntity
  8
0
100
AcDbLine
 62
7
  6
CONTINUOUS
 10
7.0795827919
 20
4.8630895743
 11
7.0861650063
 21
4.851728286
  0
LINE
  5
29A
100
AcDbEntity
  8
0
100
AcDbLine
 62
7
  6
CONTINUOUS
 10
7.097518908
 20
4.8658428065
 11
7.1057843519
 21
4.8515473011
  0
LINE
  5
29B
100
AcDbEntity
  8
0
100
AcDbLine
 62
7
  6
CONTINUOUS
 10
7.115368908
 20
4.8658428065
 11
7.1236343519
 21
4.8515473011
  0
LINE
  5
29C
100
AcDbEntity
  8
0
100
AcDbLine
 62
7
  6
CONTINUOUS
 10
7.133218908
 20
4.8658428065
 11
7.1414843519
 21
4.8515473011
  0
LINE
  5
29D
100
AcDbEntity
  8
0
100
AcDbLine
 62
7
  6
CONTINUOUS
 10
7.151068908
 20
4.8658428065
 11
7.1593343519
 21
4.8515473011
  0
LINE
  5
29E
100
AcDbEntity
  8
0
100
AcDbLine
 62
7
  6
CONTINUOUS
 10
7.168918908
 20
4.8658428065
 11
7.1771843519
 21
4.8515473011
  0
LINE
  5
29F
100
AcDbEntity
  8
0
100
AcDbLine
 62
7
  6
CONTINUOUS
 10
7.0719380823
 20
4.858710974
 11
7.0719380823
 21
4.8487721055
  0
LINE
  5
2A0
100
AcDbEntity
  8
0
100
AcDbLine
 62
7
  6
CONTINUOUS
 10
7.0719380823
 20
5.0053162319
 11
7.0719380823
 21
5.0518876165
  0
LINE
  5
2A1
100
AcDbEntity
  8
0
100
AcDbLine
 62
7
  6
CONTINUOUS
 10
7.2131880823
 20
4.8514251165
 11
7.2131880823
 21
4.8526861389
  0
LINE
  5
2A2
100
AcDbEntity
  8
0
100
AcDbLine
 62
7
  6
CONTINUOUS
 10
7.2281880823
 20
5.0342251165
 11
7.2281880823
 21
4.8664251165
  0
LINE
  5
2A3
100
AcDbEntity
  8
0
100
AcDbLine
 62
7
  6
CONTINUOUS
 10
7.222468908
 20
4.8658428065
 11
7.224300663
 21
4.8626752714
  0
LINE
  5
2A4
100
AcDbEntity
  8
0
100
AcDbLine
 62
7
  6
CONTINUOUS
 10
7.0881739062
 20
5.0348074268
 11
7.0799084624
 21
5.049102932
  0
LINE
  5
2A5
100
AcDbEntity
  8
0
100
AcDbLine
 62
7
  6
CONTINUOUS
 10
7.186768908
 20
4.8658428065
 11
7.1950343519
 21
4.8515473011
  0
LINE
  5
2A6
100
AcDbEntity
  8
0
100
AcDbLine
 62
7
  6
CONTINUOUS
 10
7.1060239062
 20
5.0348074268
 11
7.0977584624
 21
5.049102932
  0
LINE
  5
2A7
100
AcDbEntity
  8
0
100
AcDbLine
 62
7
  6
CONTINUOUS
 10
7.204618908
 20
4.8658428065
 11
7.2128843519
 21
4.8515473011
  0
LINE
  5
2A8
100
AcDbEntity
  8
0
100
AcDbLine
 62
7
  6
CONTINUOUS
 10
7.1238739062
 20
5.0348074268
 11
7.1156084624
 21
5.049102932
  0
LINE
  5
2A9
100
AcDbEntity
  8
0
100
AcDbLine
 62
7
  6
CONTINUOUS
 10
7.1417239062
 20
5.0348074268
 11
7.1334584624
 21
5.049102932
  0
LINE
  5
2AA
100
AcDbEntity
  8
0
100
AcDbLine
 62
7
  6
CONTINUOUS
 10
7.1595739062
 20
5.0348074268
 11
7.1513084624
 21
5.049102932
  0
LINE
  5
2AB
100
AcDbEntity
  8
0
100
AcDbLine
 62
7
  6
CONTINUOUS
 10
7.1774239062
 20
5.0348074268
 11
7.1691584624
 21
5.049102932
  0
LINE
  5
2AC
100
AcDbEntity
  8
0
100
AcDbLine
 62
7
  6
CONTINUOUS
 10
7.1952739062
 20
5.0348074268
 11
7.1870084624
 21
5.049102932
  0
LINE
  5
2AD
100
AcDbEntity
  8
0
100
AcDbLine
 62
7
  6
CONTINUOUS
 10
7.2131239062
 20
5.0348074268
 11
7.2048584624
 21
5.049102932
  0
ARC
  5
2AE
100
AcDbEntity
  8
0
100
AcDbCircle
 62
7
  6
CONTINUOUS
 10
2.7149119406
 20
4.3776444991
 40
0.0008514942
100
AcDbArc
 50
297.4553337952
 51
299.9637727095
  0
SPLINE
  5
2AF
100
AcDbEntity
  8
0
100
AcDbSpline
 62
7
  6
CONTINUOUS
 70
0
 71
3
 72
9
 73
5
 74
0
 42
0.0000001
 43
0.0000001
 44
0.0000000001
 40
0.0
 40
0.0
 40
0.0
 40
0.0
 40
0.4670540493
 40
1.0
 40
1.0
 40
1.0
 40
1.0
 10
7.2130255823
 20
4.8514251351
 30
0.0
 10
7.213014592
 20
4.8514251324
 30
0.0
 10
7.2129909208
 20
4.8514301797
 30
0.0
 10
7.2129707239
 20
4.851442965
 30
0.0
 10
7.2129608948
 20
4.8514507537
 30
0.0
  0
LINE
  5
2B0
100
AcDbEntity
  8
0
100
AcDbLine
 62
7
  6
CONTINUOUS
 10
7.2129608948
 20
4.8514507537
 11
7.2128843518
 21
4.8515472995
  0
LINE
  5
2B1
100
AcDbEntity
  8
0
100
AcDbLine
 62
7
  6
CONTINUOUS
 10
2.7297505242
 20
4.3317584667
 11
2.7296315885
 21
4.331620933
  0
LINE
  5
2B2
100
AcDbEntity
  8
0
100
AcDbLine
 62
7
  6
CONTINUOUS
 10
2.7297505233
 20
4.3324501165
 11
2.7296315839
 21
4.3325876502
  0
LINE
  5
2B3
100
AcDbEntity
  8
0
100
AcDbLine
 62
7
  6
CONTINUOUS
 10
7.2142626123
 20
4.8524996462
 11
7.2146016091
 21
4.8529626103
  0
LINE
  5
2B4
100
AcDbEntity
  8
0
100
AcDbLine
 62
7
  6
CONTINUOUS
 10
7.0861650063
 20
4.8517282871
 11
7.0865159659
 21
4.8514251165
  0
LINE
  5
2B5
100
AcDbEntity
  8
0
100
AcDbLine
 62
7
  6
CONTINUOUS
 10
7.0888334624
 20
4.8515473245
 11
7.0886922321
 21
4.8514251165
  0
LINE
  5
2B6
100
AcDbEntity
  8
0
100
AcDbLine
 62
7
  6
CONTINUOUS
 10
7.1066834624
 20
4.8515473245
 11
7.1065422321
 21
4.8514251165
  0
LINE
  5
2B7
100
AcDbEntity
  8
0
100
AcDbLine
 62
7
  6
CONTINUOUS
 10
7.1245334624
 20
4.85154732
 11
7.1243922321
 21
4.8514251165
  0
LINE
  5
2B8
100
AcDbEntity
  8
0
100
AcDbLine
 62
7
  6
CONTINUOUS
 10
7.0799084624
 20
5.0491029085
 11
7.0797672321
 21
5.0492251165
  0
LINE
  5
2B9
100
AcDbEntity
  8
0
100
AcDbLine
 62
7
  6
CONTINUOUS
 10
7.0977584624
 20
5.0491029085
 11
7.0976172321
 21
5.0492251165
  0
LINE
  5
2BA
100
AcDbEntity
  8
0
100
AcDbLine
 62
7
  6
CONTINUOUS
 10
7.1156084624
 20
5.0491029085
 11
7.1154672321
 21
5.0492251165
  0
SPLINE
  5
2BB
100
AcDbEntity
  8
0
100
AcDbSpline
 62
7
  6
CONTINUOUS
 70
0
 71
3
 72
12
 73
8
 74
0
 42
0.0000001
 43
0.0000001
 44
0.0000000001
 40
0.0
 40
0.0
 40
0.0
 40
0.0
 40
0.2325339664
 40
0.330673745
 40
0.4296225319
 40
0.667521325
 40
1.0
 40
1.0
 40
1.0
 40
1.0
 10
2.7229512048
 20
4.3185257389
 30
0.0
 10
2.7229577905
 20
4.3185323247
 30
0.0
 10
2.7229662859
 20
4.3185434597
 30
0.0
 10
2.7229689927
 20
4.3185607958
 30
0.0
 10
2.7229653466
 20
4.3185781972
 30
0.0
 10
2.7229476898
 20
4.3185998185
 30
0.0
 10
2.7229285806
 20
4.318612422
 30
0.0
 10
2.72291705
 20
4.3186190841
 30
0.0
  0
LINE
  5
2BC
100
AcDbEntity
  8
0
100
AcDbLine
 62
7
  6
CONTINUOUS
 10
7.1057843519
 20
4.8515473247
 11
7.1059255823
 21
4.8514251165
  0
LINE
  5
2BD
100
AcDbEntity
  8
0
100
AcDbLine
 62
7
  6
CONTINUOUS
 10
7.1236343519
 20
4.8515473247
 11
7.1237755823
 21
4.8514251165
  0
LINE
  5
2BE
100
AcDbEntity
  8
0
100
AcDbLine
 62
7
  6
CONTINUOUS
 10
7.1414843519
 20
4.8515473247
 11
7.1416255823
 21
4.8514251165
  0
LINE
  5
2BF
100
AcDbEntity
  8
0
100
AcDbLine
 62
7
  6
CONTINUOUS
 10
7.0968593519
 20
5.0491029114
 11
7.0970005823
 21
5.0492251165
  0
LINE
  5
2C0
100
AcDbEntity
  8
0
100
AcDbLine
 62
7
  6
CONTINUOUS
 10
7.1147093519
 20
5.0491029083
 11
7.1148505823
 21
5.0492251165
  0
LINE
  5
2C1
100
AcDbEntity
  8
0
100
AcDbLine
 62
7
  6
CONTINUOUS
 10
7.1325593519
 20
5.0491029083
 11
7.1327005823
 21
5.0492251165
  0
LINE
  5
2C2
100
AcDbEntity
  8
0
100
AcDbLine
 62
7
  6
CONTINUOUS
 10
7.1423834624
 20
4.8515473245
 11
7.1422422321
 21
4.8514251165
  0
LINE
  5
2C3
100
AcDbEntity
  8
0
100
AcDbLine
 62
7
  6
CONTINUOUS
 10
7.1602334624
 20
4.8515473245
 11
7.1600922321
 21
4.8514251165
  0
LINE
  5
2C4
100
AcDbEntity
  8
0
100
AcDbLine
 62
7
  6
CONTINUOUS
 10
7.1780834624
 20
4.851547324
 11
7.1779422321
 21
4.8514251165
  0
LINE
  5
2C5
100
AcDbEntity
  8
0
100
AcDbLine
 62
7
  6
CONTINUOUS
 10
7.1334584624
 20
5.0491029085
 11
7.1333172321
 21
5.0492251165
  0
LINE
  5
2C6
100
AcDbEntity
  8
0
100
AcDbLine
 62
7
  6
CONTINUOUS
 10
2.5266255823
 20
4.3406834666
 11
2.5267446944
 21
4.3405459331
  0
LINE
  5
2C7
100
AcDbEntity
  8
0
100
AcDbLine
 62
7
  6
CONTINUOUS
 10
7.1513084624
 20
5.0491029085
 11
7.1511672321
 21
5.0492251165
  0
LINE
  5
2C8
100
AcDbEntity
  8
0
100
AcDbLine
 62
7
  6
CONTINUOUS
 10
7.1691584624
 20
5.0491029085
 11
7.1690172321
 21
5.0492251165
  0
LINE
  5
2C9
100
AcDbEntity
  8
0
100
AcDbLine
 62
7
  6
CONTINUOUS
 10
7.1593343519
 20
4.8515473247
 11
7.1594755823
 21
4.8514251165
  0
LINE
  5
2CA
100
AcDbEntity
  8
0
100
AcDbLine
 62
7
  6
CONTINUOUS
 10
7.1771843519
 20
4.8515473247
 11
7.1773255823
 21
4.8514251165
  0
LINE
  5
2CB
100
AcDbEntity
  8
0
100
AcDbLine
 62
7
  6
CONTINUOUS
 10
7.1950343519
 20
4.8515473247
 11
7.1951755823
 21
4.8514251165
  0
LINE
  5
2CC
100
AcDbEntity
  8
0
100
AcDbLine
 62
7
  6
CONTINUOUS
 10
7.1504093519
 20
5.0491029099
 11
7.1505505823
 21
5.0492251165
  0
LINE
  5
2CD
100
AcDbEntity
  8
0
100
AcDbLine
 62
7
  6
CONTINUOUS
 10
7.1682593519
 20
5.0491029083
 11
7.1684005823
 21
5.0492251165
  0
LINE
  5
2CE
100
AcDbEntity
  8
0
100
AcDbLine
 62
7
  6
CONTINUOUS
 10
7.1861093519
 20
5.0491029083
 11
7.1862505823
 21
5.0492251165
  0
LINE
  5
2CF
100
AcDbEntity
  8
0
100
AcDbLine
 62
7
  6
CONTINUOUS
 10
2.5391338431
 20
4.3129523736
 11
2.539104363
 21
4.3128463358
  0
LINE
  5
2D0
100
AcDbEntity
  8
0
100
AcDbLine
 62
7
  6
CONTINUOUS
 10
7.1959334624
 20
4.8515473245
 11
7.1957922321
 21
4.8514251165
  0
LINE
  5
2D1
100
AcDbEntity
  8
0
100
AcDbLine
 62
7
  6
CONTINUOUS
 10
7.1870084624
 20
5.0491029085
 11
7.1868672321
 21
5.0492251165
  0
LINE
  5
2D2
100
AcDbEntity
  8
0
100
AcDbLine
 62
7
  6
CONTINUOUS
 10
7.2048584624
 20
5.0491029084
 11
7.2047172321
 21
5.0492251165
  0
LINE
  5
2D3
100
AcDbEntity
  8
0
100
AcDbLine
 62
7
  6
CONTINUOUS
 10
2.7296314764
 20
4.3494709331
 11
2.7297505823
 21
4.3496084666
  0
LINE
  5
2D4
100
AcDbEntity
  8
0
100
AcDbLine
 62
7
  6
CONTINUOUS
 10
2.7296314762
 20
4.3504376502
 11
2.7297505823
 21
4.3503001165
  0
LINE
  5
2D5
100
AcDbEntity
  8
0
100
AcDbLine
 62
7
  6
CONTINUOUS
 10
2.7296314762
 20
4.3682876502
 11
2.7297505823
 21
4.3681501165
  0
LINE
  5
2D6
100
AcDbEntity
  8
0
100
AcDbLine
 62
7
  6
CONTINUOUS
 10
2.7296315142
 20
4.3861376502
 11
2.7297505823
 21
4.3860001165
  0
LINE
  5
2D7
100
AcDbEntity
  8
0
100
AcDbLine
 62
7
  6
CONTINUOUS
 10
2.5267446884
 20
4.3415126502
 11
2.5266255823
 21
4.3413751165
  0
LINE
  5
2D8
100
AcDbEntity
  8
0
100
AcDbLine
 62
7
  6
CONTINUOUS
 10
2.5267446884
 20
4.3593626502
 11
2.5266255823
 21
4.3592251165
  0
LINE
  5
2D9
100
AcDbEntity
  8
0
100
AcDbLine
 62
7
  6
CONTINUOUS
 10
2.5267446884
 20
4.3772126502
 11
2.5266255823
 21
4.3770751165
  0
LINE
  5
2DA
100
AcDbEntity
  8
0
100
AcDbLine
 62
7
  6
CONTINUOUS
 10
7.224300663
 20
4.8626752903
 11
7.224401508
 21
4.8626385421
  0
LINE
  5
2DB
100
AcDbEntity
  8
0
100
AcDbLine
 62
7
  6
CONTINUOUS
 10
7.2039593519
 20
5.0491029079
 11
7.2041005823
 21
5.0492251165
  0
LINE
  5
2DC
100
AcDbEntity
  8
0
100
AcDbLine
 62
7
  6
CONTINUOUS
 10
7.2186485268
 20
5.0436353574
 11
7.2187432847
 21
5.0436699141
  0
SPLINE
  5
2DD
100
AcDbEntity
  8
0
100
AcDbSpline
 62
7
  6
CONTINUOUS
 70
0
 71
3
 72
10
 73
6
 74
0
 42
0.0000001
 43
0.0000001
 44
0.0000000001
 40
0.0
 40
0.0
 40
0.0
 40
0.0
 40
0.1862033896
 40
0.5287104837
 40
1.0
 40
1.0
 40
1.0
 40
1.0
 10
7.0724018485
 20
4.8514251176
 30
0.0
 10
7.0724040009
 20
4.8514251171
 30
0.0
 10
7.0724101481
 20
4.8514265886
 30
0.0
 10
7.0724191664
 20
4.851434392
 30
0.0
 10
7.0724243696
 20
4.8514422606
 30
0.0
 10
7.0724270936
 20
4.8514469785
 30
0.0
  0
LINE
  5
2DE
100
AcDbEntity
  8
0
100
AcDbLine
 62
7
  6
CONTINUOUS
 10
2.7296314764
 20
4.3673209331
 11
2.7297505823
 21
4.3674584666
  0
LINE
  5
2DF
100
AcDbEntity
  8
0
100
AcDbLine
 62
7
  6
CONTINUOUS
 10
2.7296314764
 20
4.3851709331
 11
2.7297505823
 21
4.3853084666
  0
LINE
  5
2E0
100
AcDbEntity
  8
0
100
AcDbLine
 62
7
  6
CONTINUOUS
 10
2.7296314764
 20
4.4030209331
 11
2.7297505823
 21
4.4031584666
  0
LINE
  5
2E1
100
AcDbEntity
  8
0
100
AcDbLine
 62
7
  6
CONTINUOUS
 10
2.5267447009
 20
4.3583959331
 11
2.5266255823
 21
4.3585334666
  0
LINE
  5
2E2
100
AcDbEntity
  8
0
100
AcDbLine
 62
7
  6
CONTINUOUS
 10
2.5267446882
 20
4.3762459331
 11
2.5266255823
 21
4.3763834666
  0
LINE
  5
2E3
100
AcDbEntity
  8
0
100
AcDbLine
 62
7
  6
CONTINUOUS
 10
2.5267446882
 20
4.3940959331
 11
2.5266255823
 21
4.3942334666
  0
SPLINE
  5
2E4
100
AcDbEntity
  8
0
100
AcDbSpline
 62
7
  6
CONTINUOUS
 70
0
 71
3
 72
12
 73
8
 74
0
 42
0.0000001
 43
0.0000001
 44
0.0000000001
 40
0.0
 40
0.0
 40
0.0
 40
0.0
 40
0.2326764862
 40
0.3308399593
 40
0.4297807725
 40
0.6676089033
 40
1.0
 40
1.0
 40
1.0
 40
1.0
 10
2.5277667407
 20
4.3241839622
 30
0.0
 10
2.5277605194
 20
4.3241901804
 30
0.0
 10
2.5277524914
 20
4.3242006896
 30
0.0
 10
2.5277499222
 20
4.3242170561
 30
0.0
 10
2.5277533517
 20
4.3242334811
 30
0.0
 10
2.5277700081
 20
4.3242538896
 30
0.0
 10
2.5277880393
 20
4.3242657821
 30
0.0
 10
2.5277989195
 20
4.3242720684
 30
0.0
  0
LINE
  5
2E5
100
AcDbEntity
  8
0
100
AcDbLine
 62
7
  6
CONTINUOUS
 10
2.526920993
 20
4.3993660916
 11
2.5266255823
 21
4.3990243034
  0
LINE
  5
2E6
100
AcDbEntity
  8
0
100
AcDbLine
 62
7
  6
CONTINUOUS
 10
2.5325209023
 20
4.3194298098
 11
2.532994372
 21
4.3190831355
  0
SPLINE
  5
2E7
100
AcDbEntity
  8
0
100
AcDbSpline
 62
7
  6
CONTINUOUS
 70
0
 71
3
 72
43
 73
39
 74
0
 42
0.0000001
 43
0.0000001
 44
0.0000000001
 40
0.0
 40
0.0
 40
0.0
 40
0.0
 40
0.0270241055
 40
0.0566228481
 40
0.122775344
 40
0.196843304
 40
0.277011567
 40
0.3613168526
 40
0.4476936605
 40
0.5340257213
 40
0.6181978578
 40
0.6588261697
 40
0.6981479654
 40
0.7359225241
 40
0.7719179977
 40
0.8059136327
 40
0.8377016327
 40
0.8670867727
 40
0.8938895762
 40
0.9179467496
 40
0.9391110368
 40
0.9572549674
 40
0.9722700866
 40
0.978575991
 40
0.9840690541
 40
0.9887427178
 40
0.9907705574
 40
0.9925918831
 40
0.9942068486
 40
0.9956159226
 40
0.9968200853
 40
0.9978212462
 40
0.9986231769
 40
0.9992340291
 40
0.9994736586
 40
0.9996750154
 40
0.9998461648
 40
1.0
 40
1.0
 40
1.0
 40
1.0
 10
2.5463386368
 20
4.3253251165
 30
0.0
 10
2.5479913214
 20
4.3254031997
 30
0.0
 10
2.5514545725
 20
4.3255577967
 30
0.0
 10
2.5589651525
 20
4.3258642538
 30
0.0
 10
2.5693554342
 20
4.3262403541
 30
0.0
 10
2.5828414498
 20
4.3266784229
 30
0.0
 10
2.5974393641
 20
4.3271174123
 30
0.0
 10
2.6127911756
 20
4.3275570188
 30
0.0
 10
2.6285205028
 20
4.327996875
 30
0.0
 10
2.6442416741
 20
4.3284367405
 30
0.0
 10
2.657162776
 20
4.3288072766
 30
0.0
 10
2.6672065632
 20
4.3291066449
 30
0.0
 10
2.674410744
 20
4.3293284784
 30
0.0
 10
2.6813311463
 20
4.3295502378
 30
0.0
 10
2.6879252873
 20
4.3297719088
 30
0.0
 10
2.6941526926
 20
4.3299934655
 30
0.0
 10
2.6999751205
 20
4.3302148608
 30
0.0
 10
2.7053568406
 20
4.3304360512
 30
0.0
 10
2.7102648283
 20
4.3306569492
 30
0.0
 10
2.7146689594
 20
4.3308774439
 30
0.0
 10
2.7185422624
 20
4.3310972876
 30
0.0
 10
2.7218609898
 20
4.3313163291
 30
0.0
 10
2.7242698142
 20
4.3315068235
 30
0.0
 10
2.7259040613
 20
4.3316632065
 30
0.0
 10
2.7269065909
 20
4.3317733165
 30
0.0
 10
2.7276471632
 20
4.3318686106
 30
0.0
 10
2.7281631899
 20
4.3319461664
 30
0.0
 10
2.7284931418
 20
4.332001485
 30
0.0
 10
2.7287846357
 20
4.3320567113
 30
0.0
 10
2.7290376188
 20
4.3321118155
 30
0.0
 10
2.729252031
 20
4.3321667506
 30
0.0
 10
2.7294280024
 20
4.3322214226
 30
0.0
 10
2.7295655266
 20
4.3322757978
 30
0.0
 10
2.7296551595
 20
4.3323239906
 30
0.0
 10
2.7297057176
 20
4.3323641876
 30
0.0
 10
2.7297310261
 20
4.3323921416
 30
0.0
 10
2.7297468014
 20
4.3324206813
 30
0.0
 10
2.7297505228
 20
4.332440698
 30
0.0
 10
2.7297505233
 20
4.3324501165
 30
0.0
  0
SPLINE
  5
2E8
100
AcDbEntity
  8
0
100
AcDbSpline
 62
7
  6
CONTINUOUS
 70
0
 71
3
 72
56
 73
52
 74
0
 42
0.0000001
 43
0.0000001
 44
0.0000000001
 40
0.0
 40
0.0
 40
0.0
 40
0.0
 40
0.0009696126
 40
0.0013475702
 40
0.0017885862
 40
0.002294922
 40
0.0028680367
 40
0.0042180458
 40
0.0058435928
 40
0.0077470181
 40
0.0099291132
 40
0.0123896005
 40
0.0151278023
 40
0.0214334394
 40
0.0288359862
 40
0.0373193919
 40
0.0468658386
 40
0.0574547071
 40
0.0816603166
 40
0.1097175085
 40
0.1413705141
 40
0.1763289069
 40
0.2142718001
 40
0.2548509465
 40
0.2976933814
 40
0.3424048083
 40
0.3885739765
 40
0.4357762532
 40
0.4835772254
 40
0.5792143616
 40
0.6261704761
 40
0.6719731956
 40
0.7162013281
 40
0.7584481277
 40
0.7983247884
 40
0.835464817
 40
0.8695274299
 40
0.9002001207
 40
0.9272016827
 40
0.9392477672
 40
0.9502864395
 40
0.9602937178
 40
0.9692464172
 40
0.9771254984
 40
0.9839148775
 40
0.9896005303
 40
0.994174926
 40
0.9960447253
 40
0.9976367952
 40
0.9989534657
 40
1.0
 40
1.0
 40
1.0
 40
1.0
 10
2.540900612
 20
4.3145917915
 30
0.0
 10
2.5409005802
 20
4.3146482744
 30
0.0
 10
2.5409727762
 20
4.3147132808
 30
0.0
 10
2.5410601262
 20
4.3147645818
 30
0.0
 10
2.5411301164
 20
4.3147988042
 30
0.0
 10
2.5412118345
 20
4.3148325356
 30
0.0
 10
2.5413451402
 20
4.31488043
 30
0.0
 10
2.5415435097
 20
4.3149389503
 30
0.0
 10
2.54181972
 20
4.3150062672
 30
0.0
 10
2.5421455399
 20
4.3150737501
 30
0.0
 10
2.54252085
 20
4.3151413956
 30
0.0
 10
2.5429454536
 20
4.3152091549
 30
0.0
 10
2.5436088738
 20
4.3153041364
 30
0.0
 10
2.5445598787
 20
4.3154208544
 30
0.0
 10
2.545845597
 20
4.3155556865
 30
0.0
 10
2.5473209684
 20
4.3156908548
 30
0.0
 10
2.5489826078
 20
4.3158262922
 30
0.0
 10
2.551558676
 20
4.3160156367
 30
0.0
 10
2.5552126668
 20
4.316248181
 30
0.0
 10
2.5600936338
 20
4.3165174488
 30
0.0
 10
2.5656017896
 20
4.3167873734
 30
0.0
 10
2.5716864077
 20
4.3170578226
 30
0.0
 10
2.5782914555
 20
4.3173286094
 30
0.0
 10
2.5853561203
 20
4.3175996422
 30
0.0
 10
2.5928153393
 20
4.317870849
 30
0.0
 10
2.6006003944
 20
4.3181421836
 30
0.0
 10
2.6086395691
 20
4.3184136068
 30
0.0
 10
2.6168588172
 20
4.3186850848
 30
0.0
 10
2.6279583054
 20
4.3190471511
 30
0.0
 10
2.6390435215
 20
4.3194069216
 30
0.0
 10
2.6500121265
 20
4.3197710877
 30
0.0
 10
2.6579874256
 20
4.3200424906
 30
0.0
 10
2.6656882328
 20
4.3203137936
 30
0.0
 10
2.6730436114
 20
4.3205849573
 30
0.0
 10
2.6799857992
 20
4.3208559279
 30
0.0
 10
2.6864508577
 20
4.3211266354
 30
0.0
 10
2.6923792706
 20
4.321396946
 30
0.0
 10
2.6977164358
 20
4.3216667495
 30
0.0
 10
2.7017712769
 20
4.321898826
 30
0.0
 10
2.7046828922
 20
4.3220870981
 30
0.0
 10
2.7066058388
 20
4.3222227721
 30
0.0
 10
2.70834811
 20
4.3223582686
 30
0.0
 10
2.709905732
 20
4.3224935614
 30
0.0
 10
2.7112751332
 20
4.3226285712
 30
0.0
 10
2.7124532494
 20
4.322763053
 30
0.0
 10
2.7134374278
 20
4.322896986
 30
0.0
 10
2.7141345377
 20
4.323013944
 30
0.0
 10
2.7145926722
 20
4.3231105088
 30
0.0
 10
2.7148628954
 20
4.3231777596
 30
0.0
 10
2.7150834545
 20
4.3232446873
 30
0.0
 10
2.7152121071
 20
4.3232945061
 30
0.0
 10
2.7152672501
 20
4.3233205031
 30
0.0
  0
SPLINE
  5
2E9
100
AcDbEntity
  8
0
100
AcDbSpline
 62
7
  6
CONTINUOUS
 70
0
 71
3
 72
9
 73
5
 74
0
 42
0.0000001
 43
0.0000001
 44
0.0000000001
 40
0.0
 40
0.0
 40
0.0
 40
0.0
 40
0.265092009
 40
1.0
 40
1.0
 40
1.0
 40
1.0
 10
2.7152672501
 20
4.3233205031
 30
0.0
 10
2.7152735476
 20
4.323323472
 30
0.0
 10
2.7152972038
 20
4.3233348794
 30
0.0
 10
2.7153204518
 20
4.3233471529
 30
0.0
 10
2.715337161
 20
4.3233568143
 30
0.0
  0
SPLINE
  5
2EA
100
AcDbEntity
  8
0
100
AcDbSpline
 62
7
  6
CONTINUOUS
 70
0
 71
3
 72
43
 73
39
 74
0
 42
0.0000001
 43
0.0000001
 44
0.0000000001
 40
0.0
 40
0.0
 40
0.0
 40
0.0
 40
0.0001575051
 40
0.0002886358
 40
0.0004611201
 40
0.000676719
 40
0.0009363096
 40
0.001589169
 40
0.0024218664
 40
0.0034351956
 40
0.0060042204
 40
0.0092957146
 40
0.0133071127
 40
0.0180341902
 40
0.0234721433
 40
0.0296147938
 40
0.036455414
 40
0.0439863128
 40
0.0521988932
 40
0.0610840487
 40
0.070631483
 40
0.0916695577
 40
0.1152174896
 40
0.1411681517
 40
0.1694034404
 40
0.1997948252
 40
0.2322039388
 40
0.2664831918
 40
0.3024764342
 40
0.3400197107
 40
0.4190660418
 40
0.5021835863
 40
0.5878595096
 40
0.6745343813
 40
0.7606306193
 40
0.844581087
 40
0.9248576121
 40
1.0
 40
1.0
 40
1.0
 40
1.0
 10
7.0708646534
 20
4.8487626165
 30
0.0
 10
7.0708563538
 20
4.8487626165
 30
0.0
 10
7.0708437942
 20
4.8487759601
 30
0.0
 10
7.0708330896
 20
4.8487967819
 30
0.0
 10
7.0708229565
 20
4.8488225819
 30
0.0
 10
7.0708130902
 20
4.8488551533
 30
0.0
 10
7.0707985892
 20
4.8489128702
 30
0.0
 10
7.0707812299
 20
4.8490031986
 30
0.0
 10
7.0707613633
 20
4.8491333942
 30
0.0
 10
7.0707324342
 20
4.8493642521
 30
0.0
 10
7.0706977117
 20
4.8497248537
 30
0.0
 10
7.0706580631
 20
4.8502435437
 30
0.0
 10
7.0706181955
 20
4.8508762137
 30
0.0
 10
7.0705781254
 20
4.8516221587
 30
0.0
 10
7.0705379553
 20
4.8524805435
 30
0.0
 10
7.0704977047
 20
4.8534504019
 30
0.0
 10
7.0704574022
 20
4.8545306287
 30
0.0
 10
7.07041706
 20
4.8557199954
 30
0.0
 10
7.0703766875
 20
4.8570171525
 30
0.0
 10
7.0703362919
 20
4.8584206158
 30
0.0
 10
7.0702805864
 20
4.8604997421
 30
0.0
 10
7.0702116305
 20
4.8633514264
 30
0.0
 10
7.070131178
 20
4.8670674249
 30
0.0
 10
7.0700506268
 20
4.8711627523
 30
0.0
 10
7.0699699949
 20
4.8756187513
 30
0.0
 10
7.0698893054
 20
4.8804151229
 30
0.0
 10
7.0698085711
 20
4.8855300171
 30
0.0
 10
7.0697278027
 20
4.8909401302
 30
0.0
 10
7.0696470056
 20
4.8966208115
 30
0.0
 10
7.0695373604
 20
4.9046602809
 30
0.0
 10
7.0694014964
 20
4.9151827946
 30
0.0
 10
7.0692409603
 20
4.9282415044
 30
0.0
 10
7.0690803388
 20
4.9417022216
 30
0.0
 10
7.0689196819
 20
4.9553199089
 30
0.0
 10
7.0687590446
 20
4.9688466687
 30
0.0
 10
7.0685984837
 20
4.9820362504
 30
0.0
 10
7.0684380611
 20
4.994648586
 30
0.0
 10
7.0683269554
 20
5.0028374946
 30
0.0
 10
7.0682706407
 20
5.006796655
 30
0.0
  0
SPLINE
  5
2EB
100
AcDbEntity
  8
0
100
AcDbSpline
 62
7
  6
CONTINUOUS
 70
0
 71
3
 72
56
 73
52
 74
0
 42
0.0000001
 43
0.0000001
 44
0.0000000001
 40
0.0
 40
0.0
 40
0.0
 40
0.0
 40
0.00097084
 40
0.0013492038
 40
0.0017907215
 40
0.0022977
 40
0.0028716453
 40
0.0042240124
 40
0.0058525973
 40
0.0077592527
 40
0.0099446707
 40
0.0124089098
 40
0.0151516478
 40
0.0214683531
 40
0.0288826237
 40
0.0373800552
 40
0.0469424798
 40
0.0575479788
 40
0.0817927821
 40
0.1098941154
 40
0.1415950624
 40
0.1766051548
 40
0.2146024554
 40
0.2552368986
 40
0.2981343826
 40
0.3428999613
 40
0.3891209556
 40
0.4363712153
 40
0.4842152992
 40
0.5799192786
 40
0.6268969567
 40
0.6727122143
 40
0.7169425272
 40
0.7591804258
 40
0.7990370682
 40
0.8361453594
 40
0.8701634725
 40
0.9007791371
 40
0.9277119154
 40
0.9397186592
 40
0.9507157887
 40
0.9606775313
 40
0.9695825216
 40
0.9774113341
 40
0.9841468397
 40
0.9897772974
 40
0.9942937614
 40
0.9961335872
 40
0.9976957211
 40
0.9989827375
 40
1.0
 40
1.0
 40
1.0
 40
1.0
 10
2.540900611
 20
4.3324417916
 30
0.0
 10
2.5409006417
 20
4.3324983519
 30
0.0
 10
2.5409729571
 20
4.3325633766
 30
0.0
 10
2.541060427
 20
4.3326147395
 30
0.0
 10
2.5411305125
 20
4.3326489919
 30
0.0
 10
2.5412123518
 20
4.3326827549
 30
0.0
 10
2.5413458931
 20
4.3327306978
 30
0.0
 10
2.5415446497
 20
4.3327892651
 30
0.0
 10
2.5418213949
 20
4.3328566324
 30
0.0
 10
2.5421478077
 20
4.3329241768
 30
0.0
 10
2.5425237557
 20
4.3329918894
 30
0.0
 10
2.542949079
 20
4.3330597138
 30
0.0
 10
2.5436136962
 20
4.333154781
 30
0.0
 10
2.5445663948
 20
4.3332715819
 30
0.0
 10
2.5458543888
 20
4.3334065598
 30
0.0
 10
2.5473323451
 20
4.3335418412
 30
0.0
 10
2.5489968741
 20
4.333677391
 30
0.0
 10
2.5515773907
 20
4.3338669237
 30
0.0
 10
2.5552375847
 20
4.334099657
 30
0.0
 10
2.5601267042
 20
4.3343691693
 30
0.0
 10
2.5656438058
 20
4.3346393382
 30
0.0
 10
2.5717380273
 20
4.3349100286
 30
0.0
 10
2.5783531606
 20
4.3351810546
 30
0.0
 10
2.5854281534
 20
4.33545233
 30
0.0
 10
2.5928977258
 20
4.3357237808
 30
0.0
 10
2.6006929656
 20
4.3359953562
 30
0.0
 10
2.6087419393
 20
4.3362670205
 30
0.0
 10
2.6169703614
 20
4.3365387413
 30
0.0
 10
2.6280801953
 20
4.3369011052
 30
0.0
 10
2.6391742152
 20
4.3372611896
 30
0.0
 10
2.6501498285
 20
4.3376257086
 30
0.0
 10
2.6581280602
 20
4.3378973497
 30
0.0
 10
2.6658299956
 20
4.3381688912
 30
0.0
 10
2.6731845684
 20
4.3384402941
 30
0.0
 10
2.6801239298
 20
4.3387114996
 30
0.0
 10
2.6865840359
 20
4.3389824368
 30
0.0
 10
2.6925052813
 20
4.3392529754
 30
0.0
 10
2.6978330537
 20
4.3395230088
 30
0.0
 10
2.7018786669
 20
4.3397552971
 30
0.0
 10
2.7047818327
 20
4.3399437906
 30
0.0
 10
2.7066975892
 20
4.3400795612
 30
0.0
 10
2.7084321558
 20
4.3402151839
 30
0.0
 10
2.7099815389
 20
4.340350582
 30
0.0
 10
2.711342186
 20
4.3404856726
 30
0.0
 10
2.7125110716
 20
4.3406202702
 30
0.0
 10
2.7134855272
 20
4.3407542529
 30
0.0
 10
2.7141742541
 20
4.3408713039
 30
0.0
 10
2.714625382
 20
4.3409680576
 30
0.0
 10
2.7148902544
 20
4.3410353396
 30
0.0
 10
2.715105423
 20
4.341102272
 30
0.0
 10
2.7152303849
 20
4.3411522171
 30
0.0
 10
2.7152835854
 20
4.3411783328
 30
0.0
  0
SPLINE
  5
2EC
100
AcDbEntity
  8
0
100
AcDbSpline
 62
7
  6
CONTINUOUS
 70
0
 71
3
 72
9
 73
5
 74
0
 42
0.0000001
 43
0.0000001
 44
0.0000000001
 40
0.0
 40
0.0
 40
0.0
 40
0.0
 40
0.2619992487
 40
1.0
 40
1.0
 40
1.0
 40
1.0
 10
2.7152835854
 20
4.3411783328
 30
0.0
 10
2.7152883469
 20
4.3411806702
 30
0.0
 10
2.7153064545
 20
4.3411897254
 30
0.0
 10
2.7153242888
 20
4.3411993349
 30
0.0
 10
2.7153372234
 20
4.3412068144
 30
0.0
  0
LINE
  5
2ED
100
AcDbEntity
  8
0
100
AcDbLine
 62
7
  6
CONTINUOUS
 10
7.0970005823
 20
5.0492251165
 11
7.0972294283
 21
5.0489044147
  0
LINE
  5
2EE
100
AcDbEntity
  8
0
100
AcDbLine
 62
7
  6
CONTINUOUS
 10
7.0972294283
 20
5.0489044147
 11
7.0973819923
 21
5.0483351347
  0
SPLINE
  5
2EF
100
AcDbEntity
  8
0
100
AcDbSpline
 62
7
  6
CONTINUOUS
 70
0
 71
3
 72
46
 73
42
 74
0
 42
0.0000001
 43
0.0000001
 44
0.0000000001
 40
0.0
 40
0.0
 40
0.0
 40
0.0
 40
0.0036951534
 40
0.0084311542
 40
0.0142029655
 40
0.0210008958
 40
0.0288122623
 40
0.0376212859
 40
0.0581580861
 40
0.082440072
 40
0.1102622901
 40
0.1413887807
 40
0.1755549389
 40
0.2124699457
 40
0.2518193401
 40
0.3364617725
 40
0.4266017207
 40
0.5191707557
 40
0.6110174241
 40
0.6556888519
 40
0.6990149731
 40
0.7406263426
 40
0.7801681988
 40
0.817303513
 40
0.8517159172
 40
0.8831124731
 40
0.9112262455
 40
0.9358187428
 40
0.9467283879
 40
0.9566823679
 40
0.9656599384
 40
0.9736427358
 40
0.980614577
 40
0.9865623041
 40
0.991475538
 40
0.9935423264
 40
0.9953486937
 40
0.9968951254
 40
0.9981830736
 40
0.9992156631
 40
1.0
 40
1.0
 40
1.0
 40
1.0
 10
7.0973819923
 20
5.0483351347
 30
0.0
 10
7.0974329181
 20
5.0480978322
 30
0.0
 10
7.0975289405
 20
5.0475521301
 30
0.0
 10
7.097657286
 20
5.0466280585
 30
0.0
 10
7.097786411
 20
5.0454986409
 30
0.0
 10
7.0979161519
 20
5.0441662329
 30
0.0
 10
7.0980462508
 20
5.042633548
 30
0.0
 10
7.0982295563
 20
5.0401998532
 30
0.0
 10
7.0984537715
 20
5.0366845082
 30
0.0
 10
7.0987124879
 20
5.0319202771
 30
0.0
 10
7.0989719902
 20
5.0264596405
 30
0.0
 10
7.0992321285
 20
5.0203491793
 30
0.0
 10
7.0994926577
 20
5.0136410122
 30
0.0
 10
7.0997534896
 20
5.0063923863
 30
0.0
 10
7.1001102445
 20
4.9958297058
 30
0.0
 10
7.1005490478
 20
4.9817719116
 30
0.0
 10
7.1010648904
 20
4.964219288
 30
0.0
 10
7.1015811525
 20
4.9461932906
 30
0.0
 10
7.1020151535
 20
4.9311526279
 30
0.0
 10
7.1023668901
 20
4.9193453207
 30
0.0
 10
7.1026281877
 20
4.9108363457
 30
0.0
 10
7.1028893756
 20
4.9026644522
 30
0.0
 10
7.1031504186
 20
4.8948993959
 30
0.0
 10
7.1034112588
 20
4.887607457
 30
0.0
 10
7.1036718259
 20
4.8808508737
 30
0.0
 10
7.1039319813
 20
4.8746873013
 30
0.0
 10
7.1041916174
 20
4.8691693331
 30
0.0
 10
7.1044152195
 20
4.8649968426
 30
0.0
 10
7.1045967741
 20
4.8620167014
 30
0.0
 10
7.1047273226
 20
4.8600610086
 30
0.0
 10
7.1048576944
 20
4.8582980124
 30
0.0
 10
7.1049878405
 20
4.8567314665
 30
0.0
 10
7.105117624
 20
4.8553646557
 30
0.0
 10
7.1052469623
 20
4.8542004729
 30
0.0
 10
7.105359505
 20
4.8533587017
 30
0.0
 10
7.1054517454
 20
4.8527889764
 30
0.0
 10
7.1055167382
 20
4.852438943
 30
0.0
 10
7.1055815162
 20
4.8521410443
 30
0.0
 10
7.1056459742
 20
4.8518952114
 30
0.0
 10
7.1057099956
 20
4.8517015103
 30
0.0
 10
7.1057585684
 20
4.8515919251
 30
0.0
 10
7.1057843519
 20
4.8515473247
 30
0.0
  0
LINE
  5
2F0
100
AcDbEntity
  8
0
100
AcDbLine
 62
7
  6
CONTINUOUS
 10
7.1065422321
 20
4.8514251165
 11
7.1063133861
 21
4.8517458183
  0
LINE
  5
2F1
100
AcDbEntity
  8
0
100
AcDbLine
 62
7
  6
CONTINUOUS
 10
7.1063133861
 20
4.8517458183
 11
7.106160822
 21
4.8523150987
  0
SPLINE
  5
2F2
100
AcDbEntity
  8
0
100
AcDbSpline
 62
7
  6
CONTINUOUS
 70
0
 71
3
 72
46
 73
42
 74
0
 42
0.0000001
 43
0.0000001
 44
0.0000000001
 40
0.0
 40
0.0
 40
0.0
 40
0.0
 40
0.0036951543
 40
0.008431156
 40
0.0142029681
 40
0.0210008994
 40
0.0288122667
 40
0.0376212912
 40
0.0581580931
 40
0.0824400806
 40
0.1102623002
 40
0.1413887923
 40
0.1755549517
 40
0.2124699599
 40
0.2518193554
 40
0.3364617895
 40
0.4266017388
 40
0.5191707741
 40
0.6110174422
 40
0.6556888696
 40
0.6990149903
 40
0.740626359
 40
0.7801682143
 40
0.8173035275
 40
0.8517159305
 40
0.8831124851
 40
0.911226256
 40
0.9358187518
 40
0.946728396
 40
0.9566823752
 40
0.9656599448
 40
0.9736427414
 40
0.9806145816
 40
0.9865623078
 40
0.9914755408
 40
0.9935423287
 40
0.9953486956
 40
0.9968951267
 40
0.9981830744
 40
0.9992156635
 40
1.0
 40
1.0
 40
1.0
 40
1.0
 10
7.106160822
 20
4.8523150987
 30
0.0
 10
7.1061098962
 20
4.8525524013
 30
0.0
 10
7.1060138738
 20
4.8530981035
 30
0.0
 10
7.1058855283
 20
4.8540221753
 30
0.0
 10
7.1057564033
 20
4.8551515931
 30
0.0
 10
7.1056266624
 20
4.8564840013
 30
0.0
 10
7.1054965635
 20
4.8580166864
 30
0.0
 10
7.105313258
 20
4.8604503814
 30
0.0
 10
7.1050890428
 20
4.8639657266
 30
0.0
 10
7.1048303264
 20
4.868729958
 30
0.0
 10
7.1045708241
 20
4.8741905949
 30
0.0
 10
7.1043106858
 20
4.8803010564
 30
0.0
 10
7.1040501566
 20
4.8870092238
 30
0.0
 10
7.1037893247
 20
4.8942578499
 30
0.0
 10
7.1034325698
 20
4.9048205306
 30
0.0
 10
7.1029937665
 20
4.9188783251
 30
0.0
 10
7.1024779239
 20
4.9364309488
 30
0.0
 10
7.1019616618
 20
4.9544569463
 30
0.0
 10
7.1015276608
 20
4.9694976089
 30
0.0
 10
7.1011759242
 20
4.981304916
 30
0.0
 10
7.1009146266
 20
4.989813891
 30
0.0
 10
7.1006534387
 20
4.9979857842
 30
0.0
 10
7.1003923957
 20
5.0057508404
 30
0.0
 10
7.1001315555
 20
5.0130427791
 30
0.0
 10
7.0998709884
 20
5.0197993621
 30
0.0
 10
7.099610833
 20
5.0259629343
 30
0.0
 10
7.0993511969
 20
5.0314809021
 30
0.0
 10
7.0991275948
 20
5.0356533924
 30
0.0
 10
7.0989460402
 20
5.0386335333
 30
0.0
 10
7.0988154917
 20
5.0405892261
 30
0.0
 10
7.0986851199
 20
5.042352222
 30
0.0
 10
7.0985549738
 20
5.0439187677
 30
0.0
 10
7.0984251902
 20
5.0452855783
 30
0.0
 10
7.098295852
 20
5.046449761
 30
0.0
 10
7.0981833093
 20
5.047291532
 30
0.0
 10
7.0980910689
 20
5.0478612572
 30
0.0
 10
7.0980260761
 20
5.0482112905
 30
0.0
 10
7.0979612981
 20
5.0485091891
 30
0.0
 10
7.0978968401
 20
5.0487550219
 30
0.0
 10
7.0978328187
 20
5.048948723
 30
0.0
 10
7.0977842459
 20
5.0490583081
 30
0.0
 10
7.0977584624
 20
5.0491029085
 30
0.0
  0
LINE
  5
2F3
100
AcDbEntity
  8
0
100
AcDbLine
 62
7
  6
CONTINUOUS
 10
7.1148505823
 20
5.0492251165
 11
7.1150794282
 21
5.048904415
  0
LINE
  5
2F4
100
AcDbEntity
  8
0
100
AcDbLine
 62
7
  6
CONTINUOUS
 10
7.1150794282
 20
5.048904415
 11
7.1152319923
 21
5.0483351347
  0
SPLINE
  5
2F5
100
AcDbEntity
  8
0
100
AcDbSpline
 62
7
  6
CONTINUOUS
 70
0
 71
3
 72
46
 73
42
 74
0
 42
0.0000001
 43
0.0000001
 44
0.0000000001
 40
0.0
 40
0.0
 40
0.0
 40
0.0
 40
0.0036951535
 40
0.0084311543
 40
0.0142029657
 40
0.0210008961
 40
0.0288122627
 40
0.0376212864
 40
0.0581580867
 40
0.0824400726
 40
0.1102622908
 40
0.1413887815
 40
0.1755549397
 40
0.2124699465
 40
0.251819341
 40
0.3364617734
 40
0.4266017214
 40
0.5191707563
 40
0.6110174246
 40
0.6556888524
 40
0.6990149736
 40
0.740626343
 40
0.7801681992
 40
0.8173035134
 40
0.8517159176
 40
0.8831124734
 40
0.9112262458
 40
0.935818743
 40
0.9467283881
 40
0.9566823681
 40
0.9656599385
 40
0.9736427359
 40
0.980614577
 40
0.9865623042
 40
0.991475538
 40
0.9935423264
 40
0.9953486937
 40
0.9968951254
 40
0.9981830736
 40
0.9992156631
 40
1.0
 40
1.0
 40
1.0
 40
1.0
 10
7.1152319923
 20
5.0483351347
 30
0.0
 10
7.1152829181
 20
5.0480978322
 30
0.0
 10
7.1153789405
 20
5.0475521301
 30
0.0
 10
7.115507286
 20
5.0466280585
 30
0.0
 10
7.115636411
 20
5.0454986408
 30
0.0
 10
7.1157661519
 20
5.0441662328
 30
0.0
 10
7.1158962508
 20
5.0426335478
 30
0.0
 10
7.1160795563
 20
5.040199853
 30
0.0
 10
7.1163037715
 20
5.0366845081
 30
0.0
 10
7.1165624879
 20
5.031920277
 30
0.0
 10
7.1168219902
 20
5.0264596403
 30
0.0
 10
7.1170821285
 20
5.0203491791
 30
0.0
 10
7.1173426577
 20
5.013641012
 30
0.0
 10
7.1176034896
 20
5.0063923861
 30
0.0
 10
7.1179602445
 20
4.9958297056
 30
0.0
 10
7.1183990478
 20
4.9817719114
 30
0.0
 10
7.1189148904
 20
4.9642192879
 30
0.0
 10
7.1194311525
 20
4.9461932905
 30
0.0
 10
7.1198651535
 20
4.9311526278
 30
0.0
 10
7.1202168901
 20
4.9193453206
 30
0.0
 10
7.1204781877
 20
4.9108363456
 30
0.0
 10
7.1207393756
 20
4.9026644521
 30
0.0
 10
7.1210004186
 20
4.8948993958
 30
0.0
 10
7.1212612588
 20
4.8876074569
 30
0.0
 10
7.1215218259
 20
4.8808508736
 30
0.0
 10
7.1217819813
 20
4.8746873012
 30
0.0
 10
7.1220416174
 20
4.8691693331
 30
0.0
 10
7.1222652195
 20
4.8649968425
 30
0.0
 10
7.1224467741
 20
4.8620167014
 30
0.0
 10
7.1225773226
 20
4.8600610085
 30
0.0
 10
7.1227076944
 20
4.8582980124
 30
0.0
 10
7.1228378405
 20
4.8567314665
 30
0.0
 10
7.122967624
 20
4.8553646557
 30
0.0
 10
7.1230969623
 20
4.8542004728
 30
0.0
 10
7.123209505
 20
4.8533587017
 30
0.0
 10
7.1233017454
 20
4.8527889764
 30
0.0
 10
7.1233667382
 20
4.852438943
 30
0.0
 10
7.1234315162
 20
4.8521410443
 30
0.0
 10
7.1234959742
 20
4.8518952114
 30
0.0
 10
7.1235599956
 20
4.8517015103
 30
0.0
 10
7.1236085684
 20
4.8515919251
 30
0.0
 10
7.1236343519
 20
4.8515473247
 30
0.0
  0
SPLINE
  5
2F6
100
AcDbEntity
  8
0
100
AcDbSpline
 62
7
  6
CONTINUOUS
 70
0
 71
3
 72
37
 73
33
 74
0
 42
0.0000001
 43
0.0000001
 44
0.0000000001
 40
0.0
 40
0.0
 40
0.0
 40
0.0
 40
0.0006706971
 40
0.0015090985
 40
0.0025199917
 40
0.0037059102
 40
0.0066076266
 40
0.0102199163
 40
0.0145428206
 40
0.0195728766
 40
0.0253055824
 40
0.0317357209
 40
0.0388559446
 40
0.0466578267
 40
0.0642713224
 40
0.0844936959
 40
0.1072302713
 40
0.1323720348
 40
0.1598002908
 40
0.1893831529
 40
0.2209799776
 40
0.2544392882
 40
0.2896010528
 40
0.3643515669
 40
0.4438016245
 40
0.5264310015
 40
0.6106583311
 40
0.6948716372
 40
0.7774590959
 40
0.8568410344
 40
0.931495946
 40
1.0
 40
1.0
 40
1.0
 40
1.0
 10
2.7296315885
 20
4.331620933
 30
0.0
 10
2.7295993504
 20
4.3316022967
 30
0.0
 10
2.7295233795
 20
4.3315663783
 30
0.0
 10
2.729392004
 20
4.3315180411
 30
0.0
 10
2.7292305437
 20
4.3314694925
 30
0.0
 10
2.7289561262
 20
4.3313998083
 30
0.0
 10
2.7285368212
 20
4.3313153762
 30
0.0
 10
2.727942903
 20
4.3312187525
 30
0.0
 10
2.7272295717
 20
4.3311217278
 30
0.0
 10
2.726397665
 20
4.3310243323
 30
0.0
 10
2.7254480917
 20
4.330926726
 30
0.0
 10
2.7243819499
 20
4.3308289755
 30
0.0
 10
2.7232005061
 20
4.3307311071
 30
0.0
 10
2.7213992554
 20
4.330594929
 30
0.0
 10
2.7188709599
 20
4.3304270832
 30
0.0
 10
2.7155135946
 20
4.3302323038
 30
0.0
 10
2.7117376568
 20
4.3300371715
 30
0.0
 10
2.7075611879
 20
4.3298417273
 30
0.0
 10
2.7030042427
 20
4.3296460947
 30
0.0
 10
2.6980886155
 20
4.3294502977
 30
0.0
 10
2.692837901
 20
4.329254393
 30
0.0
 10
2.6872772466
 20
4.3290583907
 30
0.0
 10
2.6793217191
 20
4.3287914996
 30
0.0
 10
2.6688134894
 20
4.3284611803
 30
0.0
 10
2.6556704353
 20
4.3280718928
 30
0.0
 10
2.6420010162
 20
4.3276823167
 30
0.0
 10
2.6280670417
 20
4.3272925913
 30
0.0
 10
2.6141353952
 20
4.3269028689
 30
0.0
 10
2.6004728672
 20
4.3265132906
 30
0.0
 10
2.5873412329
 20
4.326124031
 30
0.0
 10
2.5749918563
 20
4.3257352889
 30
0.0
 10
2.5670482937
 20
4.3254633954
 30
0.0
 10
2.5632474586
 20
4.3253251165
 30
0.0
  0
LINE
  5
2F7
100
AcDbEntity
  8
0
100
AcDbLine
 62
7
  6
CONTINUOUS
 10
7.1243922321
 20
4.8514251165
 11
7.1241633862
 21
4.8517458181
  0
LINE
  5
2F8
100
AcDbEntity
  8
0
100
AcDbLine
 62
7
  6
CONTINUOUS
 10
7.1241633862
 20
4.8517458181
 11
7.1240108221
 21
4.8523150983
  0
SPLINE
  5
2F9
100
AcDbEntity
  8
0
100
AcDbSpline
 62
7
  6
CONTINUOUS
 70
0
 71
3
 72
46
 73
42
 74
0
 42
0.0000001
 43
0.0000001
 44
0.0000000001
 40
0.0
 40
0.0
 40
0.0
 40
0.0
 40
0.0036951536
 40
0.0084311545
 40
0.014202966
 40
0.0210008966
 40
0.0288122633
 40
0.0376212872
 40
0.058158088
 40
0.0824400746
 40
0.1102622934
 40
0.1413887848
 40
0.1755549438
 40
0.2124699515
 40
0.2518193468
 40
0.3364617807
 40
0.4266017304
 40
0.5191707664
 40
0.6110174356
 40
0.6556888636
 40
0.6990149849
 40
0.7406263542
 40
0.7801682102
 40
0.8173035241
 40
0.8517159277
 40
0.8831124828
 40
0.9112262543
 40
0.9358187505
 40
0.946728395
 40
0.9566823744
 40
0.9656599441
 40
0.9736427409
 40
0.9806145812
 40
0.9865623076
 40
0.9914755406
 40
0.9935423286
 40
0.9953486955
 40
0.9968951267
 40
0.9981830744
 40
0.9992156635
 40
1.0
 40
1.0
 40
1.0
 40
1.0
 10
7.1240108221
 20
4.8523150983
 30
0.0
 10
7.1239598963
 20
4.8525524008
 30
0.0
 10
7.1238638739
 20
4.8530981029
 30
0.0
 10
7.1237355284
 20
4.8540221745
 30
0.0
 10
7.1236064034
 20
4.8551515922
 30
0.0
 10
7.1234766625
 20
4.8564840003
 30
0.0
 10
7.1233465636
 20
4.8580166852
 30
0.0
 10
7.1231632581
 20
4.8604503801
 30
0.0
 10
7.1229390428
 20
4.8639657251
 30
0.0
 10
7.1226803264
 20
4.8687299564
 30
0.0
 10
7.1224208241
 20
4.8741905932
 30
0.0
 10
7.1221606859
 20
4.8803010545
 30
0.0
 10
7.1219001567
 20
4.8870092218
 30
0.0
 10
7.1216393248
 20
4.8942578479
 30
0.0
 10
7.1212825699
 20
4.9048205286
 30
0.0
 10
7.1208437666
 20
4.9188783231
 30
0.0
 10
7.120327924
 20
4.9364309469
 30
0.0
 10
7.1198116619
 20
4.9544569446
 30
0.0
 10
7.1193776608
 20
4.9694976074
 30
0.0
 10
7.1190259243
 20
4.9813049147
 30
0.0
 10
7.1187646266
 20
4.9898138898
 30
0.0
 10
7.1185034387
 20
4.9979857832
 30
0.0
 10
7.1182423957
 20
5.0057508395
 30
0.0
 10
7.1179815555
 20
5.0130427783
 30
0.0
 10
7.1177209884
 20
5.0197993615
 30
0.0
 10
7.1174608331
 20
5.0259629338
 30
0.0
 10
7.1172011969
 20
5.0314809017
 30
0.0
 10
7.1169775948
 20
5.0356533921
 30
0.0
 10
7.1167960402
 20
5.0386335331
 30
0.0
 10
7.1166654917
 20
5.0405892259
 30
0.0
 10
7.11653512
 20
5.0423522219
 30
0.0
 10
7.1164049738
 20
5.0439187676
 30
0.0
 10
7.1162751903
 20
5.0452855782
 30
0.0
 10
7.116145852
 20
5.046449761
 30
0.0
 10
7.1160333093
 20
5.047291532
 30
0.0
 10
7.1159410689
 20
5.0478612572
 30
0.0
 10
7.1158760761
 20
5.0482112905
 30
0.0
 10
7.1158112981
 20
5.0485091891
 30
0.0
 10
7.1157468401
 20
5.0487550219
 30
0.0
 10
7.1156828187
 20
5.048948723
 30
0.0
 10
7.1156342459
 20
5.0490583081
 30
0.0
 10
7.1156084624
 20
5.0491029085
 30
0.0
  0
LINE
  5
2FA
100
AcDbEntity
  8
0
100
AcDbLine
 62
7
  6
CONTINUOUS
 10
7.1422422321
 20
4.8514251165
 11
7.1420133862
 21
4.8517458179
  0
LINE
  5
2FB
100
AcDbEntity
  8
0
100
AcDbLine
 62
7
  6
CONTINUOUS
 10
7.1420133862
 20
4.8517458179
 11
7.1418608221
 21
4.8523150984
  0
SPLINE
  5
2FC
100
AcDbEntity
  8
0
100
AcDbSpline
 62
7
  6
CONTINUOUS
 70
0
 71
3
 72
46
 73
42
 74
0
 42
0.0000001
 43
0.0000001
 44
0.0000000001
 40
0.0
 40
0.0
 40
0.0
 40
0.0
 40
0.0036951537
 40
0.0084311548
 40
0.0142029665
 40
0.0210008972
 40
0.028812264
 40
0.037621288
 40
0.058158089
 40
0.0824400758
 40
0.1102622948
 40
0.1413887863
 40
0.1755549453
 40
0.2124699531
 40
0.2518193484
 40
0.3364617825
 40
0.426601732
 40
0.5191707679
 40
0.6110174369
 40
0.6556888648
 40
0.699014986
 40
0.7406263552
 40
0.7801682111
 40
0.8173035249
 40
0.8517159284
 40
0.8831124834
 40
0.9112262548
 40
0.9358187509
 40
0.9467283953
 40
0.9566823746
 40
0.9656599443
 40
0.973642741
 40
0.9806145813
 40
0.9865623077
 40
0.9914755406
 40
0.9935423286
 40
0.9953486955
 40
0.9968951267
 40
0.9981830744
 40
0.9992156635
 40
1.0
 40
1.0
 40
1.0
 40
1.0
 10
7.1418608221
 20
4.8523150984
 30
0.0
 10
7.1418098963
 20
4.8525524009
 30
0.0
 10
7.1417138739
 20
4.853098103
 30
0.0
 10
7.1415855283
 20
4.8540221747
 30
0.0
 10
7.1414564034
 20
4.8551515924
 30
0.0
 10
7.1413266625
 20
4.8564840005
 30
0.0
 10
7.1411965636
 20
4.8580166855
 30
0.0
 10
7.1410132581
 20
4.8604503804
 30
0.0
 10
7.1407890428
 20
4.8639657254
 30
0.0
 10
7.1405303264
 20
4.8687299567
 30
0.0
 10
7.1402708241
 20
4.8741905935
 30
0.0
 10
7.1400106858
 20
4.8803010549
 30
0.0
 10
7.1397501567
 20
4.8870092222
 30
0.0
 10
7.1394893248
 20
4.8942578483
 30
0.0
 10
7.1391325699
 20
4.904820529
 30
0.0
 10
7.1386937666
 20
4.9188783235
 30
0.0
 10
7.138177924
 20
4.9364309473
 30
0.0
 10
7.1376616618
 20
4.9544569449
 30
0.0
 10
7.1372276608
 20
4.9694976077
 30
0.0
 10
7.1368759243
 20
4.981304915
 30
0.0
 10
7.1366146266
 20
4.98981389
 30
0.0
 10
7.1363534387
 20
4.9979857834
 30
0.0
 10
7.1360923957
 20
5.0057508397
 30
0.0
 10
7.1358315555
 20
5.0130427785
 30
0.0
 10
7.1355709884
 20
5.0197993616
 30
0.0
 10
7.1353108331
 20
5.0259629339
 30
0.0
 10
7.1350511969
 20
5.0314809018
 30
0.0
 10
7.1348275948
 20
5.0356533922
 30
0.0
 10
7.1346460402
 20
5.0386335332
 30
0.0
 10
7.1345154917
 20
5.0405892259
 30
0.0
 10
7.1343851199
 20
5.0423522219
 30
0.0
 10
7.1342549738
 20
5.0439187676
 30
0.0
 10
7.1341251903
 20
5.0452855783
 30
0.0
 10
7.133995852
 20
5.046449761
 30
0.0
 10
7.1338833093
 20
5.047291532
 30
0.0
 10
7.1337910689
 20
5.0478612572
 30
0.0
 10
7.1337260761
 20
5.0482112905
 30
0.0
 10
7.1336612981
 20
5.0485091891
 30
0.0
 10
7.1335968401
 20
5.0487550219
 30
0.0
 10
7.1335328187
 20
5.048948723
 30
0.0
 10
7.1334842459
 20
5.0490583081
 30
0.0
 10
7.1334584624
 20
5.0491029085
 30
0.0
  0
LINE
  5
2FD
100
AcDbEntity
  8
0
100
AcDbLine
 62
7
  6
CONTINUOUS
 10
7.1327005823
 20
5.0492251165
 11
7.1329294283
 21
5.0489044146
  0
LINE
  5
2FE
100
AcDbEntity
  8
0
100
AcDbLine
 62
7
  6
CONTINUOUS
 10
7.1329294283
 20
5.0489044146
 11
7.1330819928
 21
5.0483351322
  0
SPLINE
  5
2FF
100
AcDbEntity
  8
0
100
AcDbSpline
 62
7
  6
CONTINUOUS
 70
0
 71
3
 72
46
 73
42
 74
0
 42
0.0000001
 43
0.0000001
 44
0.0000000001
 40
0.0
 40
0.0
 40
0.0
 40
0.0
 40
0.0036951574
 40
0.008431162
 40
0.0142029771
 40
0.021000911
 40
0.0288122809
 40
0.0376213077
 40
0.0581581138
 40
0.0824401048
 40
0.1102623272
 40
0.1413888214
 40
0.1755549823
 40
0.2124699912
 40
0.2518193869
 40
0.3364618196
 40
0.4266017656
 40
0.5191707963
 40
0.611017459
 40
0.6556888836
 40
0.6990150014
 40
0.7406263674
 40
0.7801682202
 40
0.817303531
 40
0.851715932
 40
0.8831124848
 40
0.9112262544
 40
0.9358187492
 40
0.9467283932
 40
0.9566823722
 40
0.9656599417
 40
0.9736427384
 40
0.9806145788
 40
0.9865623054
 40
0.9914755387
 40
0.993542327
 40
0.9953486941
 40
0.9968951256
 40
0.9981830737
 40
0.9992156631
 40
1.0
 40
1.0
 40
1.0
 40
1.0
 10
7.1330819928
 20
5.0483351322
 30
0.0
 10
7.1331329186
 20
5.0480978295
 30
0.0
 10
7.133228941
 20
5.0475521269
 30
0.0
 10
7.1333572865
 20
5.0466280545
 30
0.0
 10
7.1334864115
 20
5.0454986361
 30
0.0
 10
7.1336161524
 20
5.0441662274
 30
0.0
 10
7.1337462513
 20
5.0426335419
 30
0.0
 10
7.1339295567
 20
5.0401998463
 30
0.0
 10
7.134153772
 20
5.0366845005
 30
0.0
 10
7.1344124884
 20
5.0319202684
 30
0.0
 10
7.1346719907
 20
5.026459631
 30
0.0
 10
7.1349321289
 20
5.0203491692
 30
0.0
 10
7.135192658
 20
5.0136410016
 30
0.0
 10
7.13545349
 20
5.0063923754
 30
0.0
 10
7.1358102448
 20
4.9958296948
 30
0.0
 10
7.1362490481
 20
4.9817719008
 30
0.0
 10
7.1367648907
 20
4.9642192779
 30
0.0
 10
7.1372811528
 20
4.9461932815
 30
0.0
 10
7.1377151537
 20
4.9311526199
 30
0.0
 10
7.1380668903
 20
4.9193453136
 30
0.0
 10
7.1383281879
 20
4.9108363393
 30
0.0
 10
7.1385893758
 20
4.9026644467
 30
0.0
 10
7.1388504188
 20
4.8948993911
 30
0.0
 10
7.139111259
 20
4.887607453
 30
0.0
 10
7.139371826
 20
4.8808508704
 30
0.0
 10
7.1396319814
 20
4.8746872987
 30
0.0
 10
7.1398916175
 20
4.8691693311
 30
0.0
 10
7.1401152196
 20
4.8649968411
 30
0.0
 10
7.1402967741
 20
4.8620167002
 30
0.0
 10
7.1404273227
 20
4.8600610076
 30
0.0
 10
7.1405576944
 20
4.8582980117
 30
0.0
 10
7.1406878405
 20
4.856731466
 30
0.0
 10
7.1408176241
 20
4.8553646553
 30
0.0
 10
7.1409469624
 20
4.8542004726
 30
0.0
 10
7.141059505
 20
4.8533587016
 30
0.0
 10
7.1411517454
 20
4.8527889763
 30
0.0
 10
7.1412167382
 20
4.8524389429
 30
0.0
 10
7.1412815162
 20
4.8521410443
 30
0.0
 10
7.1413459742
 20
4.8518952114
 30
0.0
 10
7.1414099956
 20
4.8517015103
 30
0.0
 10
7.1414585684
 20
4.8515919251
 30
0.0
 10
7.1414843519
 20
4.8515473247
 30
0.0
  0
LINE
  5
300
100
AcDbEntity
  8
0
100
AcDbLine
 62
7
  6
CONTINUOUS
 10
7.1505505823
 20
5.0492251165
 11
7.1507794283
 21
5.0489044146
  0
LINE
  5
301
100
AcDbEntity
  8
0
100
AcDbLine
 62
7
  6
CONTINUOUS
 10
7.1507794283
 20
5.0489044146
 11
7.1509319924
 21
5.0483351341
  0
SPLINE
  5
302
100
AcDbEntity
  8
0
100
AcDbSpline
 62
7
  6
CONTINUOUS
 70
0
 71
3
 72
46
 73
42
 74
0
 42
0.0000001
 43
0.0000001
 44
0.0000000001
 40
0.0
 40
0.0
 40
0.0
 40
0.0
 40
0.0036951544
 40
0.0084311561
 40
0.0142029683
 40
0.0210008995
 40
0.0288122667
 40
0.0376212911
 40
0.0581580927
 40
0.0824400798
 40
0.1102622989
 40
0.1413887904
 40
0.1755549492
 40
0.2124699566
 40
0.2518193514
 40
0.3364617839
 40
0.4266017315
 40
0.5191707654
 40
0.6110174325
 40
0.6556888595
 40
0.6990149799
 40
0.7406263485
 40
0.7801682039
 40
0.8173035174
 40
0.8517159208
 40
0.8831124759
 40
0.9112262476
 40
0.9358187444
 40
0.9467283892
 40
0.956682369
 40
0.9656599392
 40
0.9736427365
 40
0.9806145774
 40
0.9865623044
 40
0.9914755382
 40
0.9935423266
 40
0.9953486938
 40
0.9968951254
 40
0.9981830736
 40
0.9992156631
 40
1.0
 40
1.0
 40
1.0
 40
1.0
 10
7.1509319924
 20
5.0483351341
 30
0.0
 10
7.1509829182
 20
5.0480978316
 30
0.0
 10
7.1510789406
 20
5.0475521293
 30
0.0
 10
7.1512072862
 20
5.0466280576
 30
0.0
 10
7.1513364111
 20
5.0454986397
 30
0.0
 10
7.151466152
 20
5.0441662316
 30
0.0
 10
7.1515962509
 20
5.0426335465
 30
0.0
 10
7.1517795564
 20
5.0401998515
 30
0.0
 10
7.1520037716
 20
5.0366845064
 30
0.0
 10
7.152262488
 20
5.0319202751
 30
0.0
 10
7.1525219903
 20
5.0264596382
 30
0.0
 10
7.1527821286
 20
5.0203491769
 30
0.0
 10
7.1530426577
 20
5.0136410096
 30
0.0
 10
7.1533034897
 20
5.0063923837
 30
0.0
 10
7.1536602445
 20
4.9958297031
 30
0.0
 10
7.1540990478
 20
4.981771909
 30
0.0
 10
7.1546148904
 20
4.9642192856
 30
0.0
 10
7.1551311526
 20
4.9461932884
 30
0.0
 10
7.1555651536
 20
4.931152626
 30
0.0
 10
7.1559168901
 20
4.919345319
 30
0.0
 10
7.1561781878
 20
4.9108363441
 30
0.0
 10
7.1564393757
 20
4.9026644509
 30
0.0
 10
7.1567004187
 20
4.8948993947
 30
0.0
 10
7.1569612589
 20
4.887607456
 30
0.0
 10
7.1572218259
 20
4.8808508729
 30
0.0
 10
7.1574819813
 20
4.8746873007
 30
0.0
 10
7.1577416175
 20
4.8691693326
 30
0.0
 10
7.1579652196
 20
4.8649968422
 30
0.0
 10
7.1581467741
 20
4.8620167011
 30
0.0
 10
7.1582773226
 20
4.8600610083
 30
0.0
 10
7.1584076944
 20
4.8582980122
 30
0.0
 10
7.1585378405
 20
4.8567314664
 30
0.0
 10
7.1586676241
 20
4.8553646556
 30
0.0
 10
7.1587969623
 20
4.8542004728
 30
0.0
 10
7.158909505
 20
4.8533587017
 30
0.0
 10
7.1590017454
 20
4.8527889764
 30
0.0
 10
7.1590667382
 20
4.852438943
 30
0.0
 10
7.1591315162
 20
4.8521410443
 30
0.0
 10
7.1591959742
 20
4.8518952114
 30
0.0
 10
7.1592599956
 20
4.8517015103
 30
0.0
 10
7.1593085684
 20
4.8515919251
 30
0.0
 10
7.1593343519
 20
4.8515473247
 30
0.0
  0
SPLINE
  5
303
100
AcDbEntity
  8
0
100
AcDbSpline
 62
7
  6
CONTINUOUS
 70
0
 71
3
 72
55
 73
51
 74
0
 42
0.0000001
 43
0.0000001
 44
0.0000000001
 40
0.0
 40
0.0
 40
0.0
 40
0.0
 40
0.0009899896
 40
0.0013713297
 40
0.0018153641
 40
0.0023244585
 40
0.0029001445
 40
0.0042549179
 40
0.0058849386
 40
0.0077925367
 40
0.0099784736
 40
0.0124427923
 40
0.015185103
 40
0.0214993409
 40
0.0289103215
 40
0.0374030313
 40
0.0575582237
 40
0.0817864812
 40
0.1098683468
 40
0.141547388
 40
0.1765332317
 40
0.2145045615
 40
0.2551122492
 40
0.2979826674
 40
0.34272118
 40
0.3889158354
 40
0.4361412069
 40
0.4839623322
 40
0.5796285049
 40
0.6265923669
 40
0.6723977734
 40
0.716622909
 40
0.7588605969
 40
0.7987220806
 40
0.8358406495
 40
0.8698750869
 40
0.900512937
 40
0.9274736258
 40
0.9394968801
 40
0.9505115353
 40
0.9604929904
 40
0.9694188893
 40
0.9772700866
 40
0.9840301135
 40
0.9896863418
 40
0.9942306733
 40
0.9960854371
 40
0.9976629522
 40
0.9989659521
 40
1.0
 40
1.0
 40
1.0
 40
1.0
 10
7.2040339072
 20
4.8657001253
 30
0.0
 10
7.2039779853
 20
4.8657001311
 30
0.0
 10
7.2039127668
 20
4.8657694419
 30
0.0
 10
7.2038610507
 20
4.8658548848
 30
0.0
 10
7.2038268127
 20
4.8659227747
 30
0.0
 10
7.2037930521
 20
4.866002101
 30
0.0
 10
7.2037451452
 20
4.8661314358
 30
0.0
 10
7.2036865904
 20
4.8663239589
 30
0.0
 10
7.2036192339
 20
4.866592065
 30
0.0
 10
7.2035517113
 20
4.866908295
 30
0.0
 10
7.2034840223
 20
4.8672725279
 30
0.0
 10
7.2034162229
 20
4.8676845979
 30
0.0
 10
7.2033211982
 20
4.8683284302
 30
0.0
 10
7.2032044309
 20
4.8692513712
 30
0.0
 10
7.2030694954
 20
4.8704991714
 30
0.0
 10
7.2028780751
 20
4.8725270794
 30
0.0
 10
7.2026449008
 20
4.8755049593
 30
0.0
 10
7.2023765807
 20
4.879589587
 30
0.0
 10
7.2021072783
 20
4.8843263167
 30
0.0
 10
7.2018371758
 20
4.8896715185
 30
0.0
 10
7.2015665962
 20
4.8955759671
 30
0.0
 10
7.2012956663
 20
4.9019852378
 30
0.0
 10
7.2010244934
 20
4.9088402464
 30
0.0
 10
7.2007531441
 20
4.9160777896
 30
0.0
 10
7.2004816691
 20
4.9236311325
 30
0.0
 10
7.2002101055
 20
4.931430625
 30
0.0
 10
7.1999384863
 20
4.939404347
 30
0.0
 10
7.1995762465
 20
4.9501711193
 30
0.0
 10
7.1992162932
 20
4.9609231886
 30
0.0
 10
7.1988519218
 20
4.9715611806
 30
0.0
 10
7.1985803799
 20
4.979294875
 30
0.0
 10
7.1983089382
 20
4.9867614345
 30
0.0
 10
7.198037635
 20
4.9938920121
 30
0.0
 10
7.1977665274
 20
5.0006208613
 30
0.0
 10
7.1974956854
 20
5.0068859415
 30
0.0
 10
7.1972252422
 20
5.0126294994
 30
0.0
 10
7.1969553043
 20
5.0177985904
 30
0.0
 10
7.1967231019
 20
5.021724538
 30
0.0
 10
7.1965347059
 20
5.0245425522
 30
0.0
 10
7.1963989716
 20
5.0264027993
 30
0.0
 10
7.1962634034
 20
5.0280875892
 30
0.0
 10
7.1961280475
 20
5.0295930674
 30
0.0
 10
7.1959929869
 20
5.0309157774
 30
0.0
 10
7.1958584334
 20
5.0320527801
 30
0.0
 10
7.1957244654
 20
5.033001498
 30
0.0
 10
7.1956074427
 20
5.0336726124
 30
0.0
 10
7.1955107805
 20
5.0341127687
 30
0.0
 10
7.1954434968
 20
5.0343717629
 30
0.0
 10
7.1953765479
 20
5.0345825994
 30
0.0
 10
7.1953266691
 20
5.0347051732
 30
0.0
 10
7.1953006392
 20
5.0347574633
 30
0.0
  0
SPLINE
  5
304
100
AcDbEntity
  8
0
100
AcDbSpline
 62
7
  6
CONTINUOUS
 70
0
 71
3
 72
9
 73
5
 74
0
 42
0.0000001
 43
0.0000001
 44
0.0000000001
 40
0.0
 40
0.0
 40
0.0
 40
0.0
 40
0.26095607
 40
1.0
 40
1.0
 40
1.0
 40
1.0
 10
7.1953006392
 20
5.0347574633
 30
0.0
 10
7.1952984424
 20
5.0347618762
 30
0.0
 10
7.1952899086
 20
5.0347787282
 30
0.0
 10
7.1952808957
 20
5.0347953404
 30
0.0
 10
7.1952739062
 20
5.034807425
 30
0.0
  0
LINE
  5
305
100
AcDbEntity
  8
0
100
AcDbLine
 62
7
  6
CONTINUOUS
 10
7.1600922321
 20
4.8514251165
 11
7.1598633861
 21
4.8517458182
  0
LINE
  5
306
100
AcDbEntity
  8
0
100
AcDbLine
 62
7
  6
CONTINUOUS
 10
7.1598633861
 20
4.8517458182
 11
7.1597108222
 21
4.8523150982
  0
SPLINE
  5
307
100
AcDbEntity
  8
0
100
AcDbSpline
 62
7
  6
CONTINUOUS
 70
0
 71
3
 72
46
 73
42
 74
0
 42
0.0000001
 43
0.0000001
 44
0.0000000001
 40
0.0
 40
0.0
 40
0.0
 40
0.0
 40
0.0036951534
 40
0.0084311542
 40
0.0142029655
 40
0.021000896
 40
0.0288122626
 40
0.0376212863
 40
0.0581580869
 40
0.0824400732
 40
0.1102622919
 40
0.1413887832
 40
0.175554942
 40
0.2124699496
 40
0.2518193448
 40
0.3364617789
 40
0.4266017285
 40
0.5191707649
 40
0.6110174343
 40
0.6556888625
 40
0.6990149839
 40
0.7406263534
 40
0.7801682095
 40
0.8173035234
 40
0.8517159271
 40
0.8831124824
 40
0.911226254
 40
0.9358187503
 40
0.9467283948
 40
0.9566823742
 40
0.965659944
 40
0.9736427408
 40
0.9806145812
 40
0.9865623075
 40
0.9914755406
 40
0.9935423286
 40
0.9953486955
 40
0.9968951267
 40
0.9981830744
 40
0.9992156635
 40
1.0
 40
1.0
 40
1.0
 40
1.0
 10
7.1597108222
 20
4.8523150982
 30
0.0
 10
7.1596598963
 20
4.8525524007
 30
0.0
 10
7.1595638739
 20
4.8530981028
 30
0.0
 10
7.1594355284
 20
4.8540221744
 30
0.0
 10
7.1593064034
 20
4.855151592
 30
0.0
 10
7.1591766625
 20
4.8564840001
 30
0.0
 10
7.1590465636
 20
4.858016685
 30
0.0
 10
7.1588632581
 20
4.8604503798
 30
0.0
 10
7.1586390429
 20
4.8639657248
 30
0.0
 10
7.1583803265
 20
4.868729956
 30
0.0
 10
7.1581208242
 20
4.8741905928
 30
0.0
 10
7.1578606859
 20
4.8803010541
 30
0.0
 10
7.1576001567
 20
4.8870092214
 30
0.0
 10
7.1573393248
 20
4.8942578474
 30
0.0
 10
7.1569825699
 20
4.9048205282
 30
0.0
 10
7.1565437666
 20
4.9188783227
 30
0.0
 10
7.156027924
 20
4.9364309465
 30
0.0
 10
7.1555116619
 20
4.9544569442
 30
0.0
 10
7.1550776609
 20
4.9694976071
 30
0.0
 10
7.1547259243
 20
4.9813049144
 30
0.0
 10
7.1544646266
 20
4.9898138895
 30
0.0
 10
7.1542034387
 20
4.997985783
 30
0.0
 10
7.1539423957
 20
5.0057508393
 30
0.0
 10
7.1536815555
 20
5.0130427782
 30
0.0
 10
7.1534209884
 20
5.0197993613
 30
0.0
 10
7.1531608331
 20
5.0259629337
 30
0.0
 10
7.1529011969
 20
5.0314809017
 30
0.0
 10
7.1526775948
 20
5.0356533921
 30
0.0
 10
7.1524960402
 20
5.0386335331
 30
0.0
 10
7.1523654917
 20
5.0405892258
 30
0.0
 10
7.15223512
 20
5.0423522218
 30
0.0
 10
7.1521049738
 20
5.0439187676
 30
0.0
 10
7.1519751903
 20
5.0452855782
 30
0.0
 10
7.151845852
 20
5.046449761
 30
0.0
 10
7.1517333093
 20
5.047291532
 30
0.0
 10
7.1516410689
 20
5.0478612572
 30
0.0
 10
7.1515760761
 20
5.0482112905
 30
0.0
 10
7.1515112981
 20
5.0485091891
 30
0.0
 10
7.1514468401
 20
5.0487550219
 30
0.0
 10
7.1513828187
 20
5.048948723
 30
0.0
 10
7.1513342459
 20
5.0490583081
 30
0.0
 10
7.1513084624
 20
5.0491029085
 30
0.0
  0
LINE
  5
308
100
AcDbEntity
  8
0
100
AcDbLine
 62
7
  6
CONTINUOUS
 10
7.1684005823
 20
5.0492251165
 11
7.1686294286
 21
5.0489044138
  0
LINE
  5
309
100
AcDbEntity
  8
0
100
AcDbLine
 62
7
  6
CONTINUOUS
 10
7.1686294286
 20
5.0489044138
 11
7.1687819931
 21
5.0483351306
  0
SPLINE
  5
30A
100
AcDbEntity
  8
0
100
AcDbSpline
 62
7
  6
CONTINUOUS
 70
0
 71
3
 72
46
 73
42
 74
0
 42
0.0000001
 43
0.0000001
 44
0.0000000001
 40
0.0
 40
0.0
 40
0.0
 40
0.0
 40
0.0036951601
 40
0.0084311672
 40
0.0142029847
 40
0.021000921
 40
0.0288122931
 40
0.0376213221
 40
0.058158132
 40
0.0824401264
 40
0.1102623517
 40
0.1413888482
 40
0.1755550109
 40
0.2124700211
 40
0.2518194176
 40
0.3364618506
 40
0.4266017952
 40
0.5191708232
 40
0.6110174822
 40
0.6556889046
 40
0.6990150203
 40
0.740626384
 40
0.7801682344
 40
0.817303543
 40
0.8517159418
 40
0.8831124926
 40
0.9112262603
 40
0.9358187534
 40
0.9467283967
 40
0.956682375
 40
0.9656599439
 40
0.97364274
 40
0.98061458
 40
0.9865623061
 40
0.9914755392
 40
0.9935423273
 40
0.9953486943
 40
0.9968951257
 40
0.9981830738
 40
0.9992156632
 40
1.0
 40
1.0
 40
1.0
 40
1.0
 10
7.1687819931
 20
5.0483351306
 30
0.0
 10
7.168832919
 20
5.0480978277
 30
0.0
 10
7.1689289413
 20
5.0475521247
 30
0.0
 10
7.1690572869
 20
5.0466280519
 30
0.0
 10
7.1691864118
 20
5.045498633
 30
0.0
 10
7.1693161527
 20
5.0441662238
 30
0.0
 10
7.1694462516
 20
5.0426335379
 30
0.0
 10
7.1696295571
 20
5.0401998417
 30
0.0
 10
7.1698537723
 20
5.0366844953
 30
0.0
 10
7.1701124887
 20
5.0319202627
 30
0.0
 10
7.1703719909
 20
5.0264596247
 30
0.0
 10
7.1706321292
 20
5.0203491625
 30
0.0
 10
7.1708926583
 20
5.0136409946
 30
0.0
 10
7.1711534902
 20
5.0063923682
 30
0.0
 10
7.171510245
 20
4.9958296875
 30
0.0
 10
7.1719490483
 20
4.9817718937
 30
0.0
 10
7.1724648909
 20
4.9642192712
 30
0.0
 10
7.1729811529
 20
4.9461932754
 30
0.0
 10
7.1734151539
 20
4.9311526145
 30
0.0
 10
7.1737668904
 20
4.9193453089
 30
0.0
 10
7.1740281881
 20
4.9108363351
 30
0.0
 10
7.1742893759
 20
4.902664443
 30
0.0
 10
7.1745504189
 20
4.8948993879
 30
0.0
 10
7.1748112591
 20
4.8876074503
 30
0.0
 10
7.1750718261
 20
4.8808508682
 30
0.0
 10
7.1753319814
 20
4.8746872969
 30
0.0
 10
7.1755916176
 20
4.8691693298
 30
0.0
 10
7.1758152197
 20
4.8649968401
 30
0.0
 10
7.1759967742
 20
4.8620166995
 30
0.0
 10
7.1761273227
 20
4.860061007
 30
0.0
 10
7.1762576945
 20
4.8582980112
 30
0.0
 10
7.1763878406
 20
4.8567314656
 30
0.0
 10
7.1765176241
 20
4.8553646551
 30
0.0
 10
7.1766469624
 20
4.8542004724
 30
0.0
 10
7.176759505
 20
4.8533587014
 30
0.0
 10
7.1768517455
 20
4.8527889762
 30
0.0
 10
7.1769167382
 20
4.8524389428
 30
0.0
 10
7.1769815162
 20
4.8521410442
 30
0.0
 10
7.1770459742
 20
4.8518952114
 30
0.0
 10
7.1771099956
 20
4.8517015102
 30
0.0
 10
7.1771585684
 20
4.8515919251
 30
0.0
 10
7.1771843519
 20
4.8515473247
 30
0.0
  0
SPLINE
  5
30B
100
AcDbEntity
  8
0
100
AcDbSpline
 62
7
  6
CONTINUOUS
 70
0
 71
3
 72
55
 73
51
 74
0
 42
0.0000001
 43
0.0000001
 44
0.0000000001
 40
0.0
 40
0.0
 40
0.0
 40
0.0
 40
0.0009874926
 40
0.001367588
 40
0.0018100935
 40
0.0023173748
 40
0.0028909672
 40
0.0042407329
 40
0.0058646808
 40
0.0077650871
 40
0.0099427308
 40
0.0123977045
 40
0.0151296198
 40
0.0214198636
 40
0.0288028067
 40
0.0372634925
 40
0.0573434467
 40
0.0814827288
 40
0.1094636227
 40
0.1410316935
 40
0.175898793
 40
0.2137460249
 40
0.2542268422
 40
0.2969703202
 40
0.3415846105
 40
0.3876606033
 40
0.4347757165
 40
0.4824977929
 40
0.5780102673
 40
0.6249245182
 40
0.6707015227
 40
0.7149214609
 40
0.7571788767
 40
0.7970864268
 40
0.8342784779
 40
0.8684145295
 40
0.8991824591
 40
0.9263016174
 40
0.9384146106
 40
0.9495258659
 40
0.9596106494
 40
0.968646423
 40
0.9766138134
 40
0.9834960659
 40
0.9892801448
 40
0.9939573347
 40
0.9958800441
 40
0.9975261876
 40
0.998897995
 40
1.0
 40
1.0
 40
1.0
 40
1.0
 10
7.2218839072
 20
4.8657001268
 30
0.0
 10
7.2218281401
 20
4.8657001301
 30
0.0
 10
7.221763042
 20
4.865769107
 30
0.0
 10
7.2217114099
 20
4.8658542456
 30
0.0
 10
7.2216772422
 20
4.8659218547
 30
0.0
 10
7.2216435504
 20
4.8660008551
 30
0.0
 10
7.2215957428
 20
4.8661296527
 30
0.0
 10
7.2215373079
 20
4.866321383
 30
0.0
 10
7.2214700914
 20
4.8665883897
 30
0.0
 10
7.2214027072
 20
4.8669033225
 30
0.0
 10
7.2213351571
 20
4.8672660618
 30
0.0
 10
7.2212674976
 20
4.8676764457
 30
0.0
 10
7.2211726698
 20
4.8683176477
 30
0.0
 10
7.2210561413
 20
4.8692368335
 30
0.0
 10
7.2209214852
 20
4.8704795771
 30
0.0
 10
7.2207304559
 20
4.8724993412
 30
0.0
 10
7.2204977595
 20
4.8754654015
 30
0.0
 10
7.2202299906
 20
4.8795340428
 30
0.0
 10
7.2199612419
 20
4.8842526075
 30
0.0
 10
7.2196916947
 20
4.8895778133
 30
0.0
 10
7.2194216712
 20
4.8954608222
 30
0.0
 10
7.219151298
 20
4.901847631
 30
0.0
 10
7.2188806821
 20
4.9086796053
 30
0.0
 10
7.2186098899
 20
4.9158940132
 30
0.0
 10
7.218338972
 20
4.923424607
 30
0.0
 10
7.2180679654
 20
4.9312022325
 30
0.0
 10
7.2177969027
 20
4.9391554669
 30
0.0
 10
7.2174353486
 20
4.9498990849
 30
0.0
 10
7.2170761193
 20
4.9606314316
 30
0.0
 10
7.2167125574
 20
4.9712537242
 30
0.0
 10
7.2164415671
 20
4.9789808209
 30
0.0
 10
7.2161706747
 20
4.9864447675
 30
0.0
 10
7.2158999177
 20
4.9935770244
 30
0.0
 10
7.2156293518
 20
5.0003121002
 30
0.0
 10
7.2153590452
 20
5.0065881524
 30
0.0
 10
7.2150891269
 20
5.0123475642
 30
0.0
 10
7.2148197007
 20
5.017537463
 30
0.0
 10
7.2145880168
 20
5.0214838651
 30
0.0
 10
7.2144000959
 20
5.0243207261
 30
0.0
 10
7.214264624
 20
5.0261969306
 30
0.0
 10
7.2141293116
 20
5.0278988725
 30
0.0
 10
7.2139942009
 20
5.0294226717
 30
0.0
 10
7.2138593715
 20
5.0307648431
 30
0.0
 10
7.2137250164
 20
5.0319224036
 30
0.0
 10
7.2135912151
 20
5.0328927386
 30
0.0
 10
7.2134744335
 20
5.0335825278
 30
0.0
 10
7.2133781535
 20
5.0340382109
 30
0.0
 10
7.2133109386
 20
5.0343091043
 30
0.0
 10
7.2132440253
 20
5.034532027
 30
0.0
 10
7.2131944414
 20
5.0346629128
 30
0.0
 10
7.2131686631
 20
5.0347195569
 30
0.0
  0
SPLINE
  5
30C
100
AcDbEntity
  8
0
100
AcDbSpline
 62
7
  6
CONTINUOUS
 70
0
 71
3
 72
9
 73
5
 74
0
 42
0.0000001
 43
0.0000001
 44
0.0000000001
 40
0.0
 40
0.0
 40
0.0
 40
0.0
 40
0.2678562697
 40
1.0
 40
1.0
 40
1.0
 40
1.0
 10
7.2131686631
 20
5.0347195569
 30
0.0
 10
7.2131650155
 20
5.034727572
 30
0.0
 10
7.2131511029
 20
5.0347573578
 30
0.0
 10
7.2131359574
 20
5.0347865867
 30
0.0
 10
7.2131239062
 20
5.0348074227
 30
0.0
  0
LINE
  5
30D
100
AcDbEntity
  8
0
100
AcDbLine
 62
7
  6
CONTINUOUS
 10
7.1779422321
 20
4.8514251165
 11
7.1777133861
 21
4.8517458183
  0
LINE
  5
30E
100
AcDbEntity
  8
0
100
AcDbLine
 62
7
  6
CONTINUOUS
 10
7.1777133861
 20
4.8517458183
 11
7.177560822
 21
4.852315099
  0
SPLINE
  5
30F
100
AcDbEntity
  8
0
100
AcDbSpline
 62
7
  6
CONTINUOUS
 70
0
 71
3
 72
46
 73
42
 74
0
 42
0.0000001
 43
0.0000001
 44
0.0000000001
 40
0.0
 40
0.0
 40
0.0
 40
0.0
 40
0.0036951548
 40
0.0084311568
 40
0.0142029694
 40
0.021000901
 40
0.0288122688
 40
0.0376212936
 40
0.0581580961
 40
0.0824400842
 40
0.1102623043
 40
0.1413887968
 40
0.1755549565
 40
0.2124699648
 40
0.2518193604
 40
0.3364617947
 40
0.4266017437
 40
0.5191707785
 40
0.611017446
 40
0.655688873
 40
0.6990149933
 40
0.7406263616
 40
0.7801682166
 40
0.8173035294
 40
0.8517159321
 40
0.8831124864
 40
0.911226257
 40
0.9358187525
 40
0.9467283966
 40
0.9566823757
 40
0.9656599452
 40
0.9736427416
 40
0.9806145818
 40
0.986562308
 40
0.9914755408
 40
0.9935423288
 40
0.9953486956
 40
0.9968951267
 40
0.9981830745
 40
0.9992156635
 40
1.0
 40
1.0
 40
1.0
 40
1.0
 10
7.177560822
 20
4.852315099
 30
0.0
 10
7.1775098962
 20
4.8525524016
 30
0.0
 10
7.1774138738
 20
4.8530981039
 30
0.0
 10
7.1772855282
 20
4.8540221757
 30
0.0
 10
7.1771564033
 20
4.8551515936
 30
0.0
 10
7.1770266623
 20
4.8564840019
 30
0.0
 10
7.1768965634
 20
4.858016687
 30
0.0
 10
7.176713258
 20
4.8604503821
 30
0.0
 10
7.1764890427
 20
4.8639657274
 30
0.0
 10
7.1762303263
 20
4.8687299589
 30
0.0
 10
7.175970824
 20
4.874190596
 30
0.0
 10
7.1757106857
 20
4.8803010575
 30
0.0
 10
7.1754501566
 20
4.8870092249
 30
0.0
 10
7.1751893247
 20
4.8942578511
 30
0.0
 10
7.1748325698
 20
4.9048205318
 30
0.0
 10
7.1743937665
 20
4.9188783263
 30
0.0
 10
7.1738779239
 20
4.9364309499
 30
0.0
 10
7.1733616618
 20
4.9544569473
 30
0.0
 10
7.1729276608
 20
4.9694976098
 30
0.0
 10
7.1725759242
 20
4.9813049168
 30
0.0
 10
7.1723146265
 20
4.9898138916
 30
0.0
 10
7.1720534387
 20
4.9979857848
 30
0.0
 10
7.1717923957
 20
5.0057508409
 30
0.0
 10
7.1715315555
 20
5.0130427795
 30
0.0
 10
7.1712709884
 20
5.0197993624
 30
0.0
 10
7.171010833
 20
5.0259629346
 30
0.0
 10
7.1707511968
 20
5.0314809023
 30
0.0
 10
7.1705275947
 20
5.0356533926
 30
0.0
 10
7.1703460402
 20
5.0386335335
 30
0.0
 10
7.1702154917
 20
5.0405892262
 30
0.0
 10
7.1700851199
 20
5.0423522221
 30
0.0
 10
7.1699549738
 20
5.0439187678
 30
0.0
 10
7.1698251902
 20
5.0452855784
 30
0.0
 10
7.1696958519
 20
5.0464497611
 30
0.0
 10
7.1695833093
 20
5.047291532
 30
0.0
 10
7.1694910689
 20
5.0478612572
 30
0.0
 10
7.1694260761
 20
5.0482112905
 30
0.0
 10
7.1693612981
 20
5.0485091891
 30
0.0
 10
7.1692968401
 20
5.0487550219
 30
0.0
 10
7.1692328187
 20
5.048948723
 30
0.0
 10
7.1691842459
 20
5.0490583081
 30
0.0
 10
7.1691584624
 20
5.0491029085
 30
0.0
  0
LINE
  5
310
100
AcDbEntity
  8
0
100
AcDbLine
 62
7
  6
CONTINUOUS
 10
7.1957922321
 20
4.8514251165
 11
7.1955633859
 21
4.8517458188
  0
LINE
  5
311
100
AcDbEntity
  8
0
100
AcDbLine
 62
7
  6
CONTINUOUS
 10
7.1955633859
 20
4.8517458188
 11
7.1954108216
 21
4.852315101
  0
SPLINE
  5
312
100
AcDbEntity
  8
0
100
AcDbSpline
 62
7
  6
CONTINUOUS
 70
0
 71
3
 72
46
 73
42
 74
0
 42
0.0000001
 43
0.0000001
 44
0.0000000001
 40
0.0
 40
0.0
 40
0.0
 40
0.0
 40
0.003695158
 40
0.0084311632
 40
0.0142029788
 40
0.0210009133
 40
0.0288122837
 40
0.0376213111
 40
0.0581581184
 40
0.0824401106
 40
0.1102623343
 40
0.1413888296
 40
0.1755549916
 40
0.2124700014
 40
0.2518193981
 40
0.3364618325
 40
0.4266017797
 40
0.5191708113
 40
0.6110174743
 40
0.6556888987
 40
0.6990150163
 40
0.7406263819
 40
0.780168234
 40
0.8173035441
 40
0.8517159441
 40
0.8831124958
 40
0.9112262642
 40
0.9358187576
 40
0.9467284009
 40
0.9566823791
 40
0.9656599478
 40
0.9736427437
 40
0.9806145832
 40
0.9865623089
 40
0.9914755414
 40
0.9935423292
 40
0.9953486959
 40
0.9968951269
 40
0.9981830746
 40
0.9992156636
 40
1.0
 40
1.0
 40
1.0
 40
1.0
 10
7.1954108216
 20
4.852315101
 30
0.0
 10
7.1953598957
 20
4.8525524038
 30
0.0
 10
7.1952638734
 20
4.8530981065
 30
0.0
 10
7.1951355278
 20
4.8540221789
 30
0.0
 10
7.1950064029
 20
4.8551515974
 30
0.0
 10
7.1948766619
 20
4.8564840063
 30
0.0
 10
7.194746563
 20
4.8580166919
 30
0.0
 10
7.1945632576
 20
4.8604503877
 30
0.0
 10
7.1943390423
 20
4.8639657337
 30
0.0
 10
7.194080326
 20
4.868729966
 30
0.0
 10
7.1938208237
 20
4.8741906036
 30
0.0
 10
7.1935606854
 20
4.8803010656
 30
0.0
 10
7.1933001563
 20
4.8870092335
 30
0.0
 10
7.1930393244
 20
4.8942578599
 30
0.0
 10
7.1926825695
 20
4.9048205407
 30
0.0
 10
7.1922437662
 20
4.9188783349
 30
0.0
 10
7.1917279237
 20
4.9364309581
 30
0.0
 10
7.1912116616
 20
4.9544569546
 30
0.0
 10
7.1907776606
 20
4.9694976163
 30
0.0
 10
7.190425924
 20
4.9813049226
 30
0.0
 10
7.1901646264
 20
4.9898138968
 30
0.0
 10
7.1899034385
 20
4.9979857893
 30
0.0
 10
7.1896423955
 20
5.0057508448
 30
0.0
 10
7.1893815553
 20
5.0130427828
 30
0.0
 10
7.1891209883
 20
5.0197993651
 30
0.0
 10
7.1888608329
 20
5.0259629367
 30
0.0
 10
7.1886011968
 20
5.031480904
 30
0.0
 10
7.1883775947
 20
5.0356533938
 30
0.0
 10
7.1881960402
 20
5.0386335344
 30
0.0
 10
7.1880654916
 20
5.0405892269
 30
0.0
 10
7.1879351199
 20
5.0423522227
 30
0.0
 10
7.1878049738
 20
5.0439187682
 30
0.0
 10
7.1876751902
 20
5.0452855787
 30
0.0
 10
7.1875458519
 20
5.0464497613
 30
0.0
 10
7.1874333093
 20
5.0472915322
 30
0.0
 10
7.1873410689
 20
5.0478612573
 30
0.0
 10
7.1872760761
 20
5.0482112906
 30
0.0
 10
7.1872112981
 20
5.0485091891
 30
0.0
 10
7.1871468401
 20
5.0487550219
 30
0.0
 10
7.1870828187
 20
5.048948723
 30
0.0
 10
7.1870342459
 20
5.0490583081
 30
0.0
 10
7.1870084624
 20
5.0491029085
 30
0.0
  0
LINE
  5
313
100
AcDbEntity
  8
0
100
AcDbLine
 62
7
  6
CONTINUOUS
 10
7.1862505823
 20
5.0492251165
 11
7.1864794284
 21
5.0489044143
  0
LINE
  5
314
100
AcDbEntity
  8
0
100
AcDbLine
 62
7
  6
CONTINUOUS
 10
7.1864794284
 20
5.0489044143
 11
7.1866319927
 21
5.0483351327
  0
SPLINE
  5
315
100
AcDbEntity
  8
0
100
AcDbSpline
 62
7
  6
CONTINUOUS
 70
0
 71
3
 72
46
 73
42
 74
0
 42
0.0000001
 43
0.0000001
 44
0.0000000001
 40
0.0
 40
0.0
 40
0.0
 40
0.0
 40
0.0036951567
 40
0.0084311606
 40
0.0142029749
 40
0.0210009081
 40
0.0288122774
 40
0.0376213036
 40
0.0581581086
 40
0.0824400986
 40
0.1102623203
 40
0.1413888138
 40
0.1755549742
 40
0.2124699827
 40
0.2518193782
 40
0.3364618109
 40
0.4266017572
 40
0.5191707887
 40
0.6110174525
 40
0.6556888777
 40
0.6990149962
 40
0.7406263629
 40
0.7801682163
 40
0.8173035277
 40
0.8517159293
 40
0.8831124827
 40
0.9112262528
 40
0.935818748
 40
0.9467283922
 40
0.9566823714
 40
0.9656599411
 40
0.9736427379
 40
0.9806145785
 40
0.9865623051
 40
0.9914755386
 40
0.9935423269
 40
0.995348694
 40
0.9968951255
 40
0.9981830737
 40
0.9992156631
 40
1.0
 40
1.0
 40
1.0
 40
1.0
 10
7.1866319927
 20
5.0483351327
 30
0.0
 10
7.1866829185
 20
5.04809783
 30
0.0
 10
7.1867789409
 20
5.0475521275
 30
0.0
 10
7.1869072864
 20
5.0466280553
 30
0.0
 10
7.1870364114
 20
5.045498637
 30
0.0
 10
7.1871661523
 20
5.0441662284
 30
0.0
 10
7.1872962512
 20
5.042633543
 30
0.0
 10
7.1874795567
 20
5.0401998476
 30
0.0
 10
7.1877037719
 20
5.0366845019
 30
0.0
 10
7.1879624883
 20
5.0319202701
 30
0.0
 10
7.1882219906
 20
5.0264596328
 30
0.0
 10
7.1884821289
 20
5.0203491711
 30
0.0
 10
7.188742658
 20
5.0136410036
 30
0.0
 10
7.1890034899
 20
5.0063923774
 30
0.0
 10
7.1893602447
 20
4.9958296968
 30
0.0
 10
7.189799048
 20
4.9817719028
 30
0.0
 10
7.1903148906
 20
4.9642192798
 30
0.0
 10
7.1908311527
 20
4.9461932832
 30
0.0
 10
7.1912651537
 20
4.9311526214
 30
0.0
 10
7.1916168902
 20
4.9193453149
 30
0.0
 10
7.1918781879
 20
4.9108363405
 30
0.0
 10
7.1921393758
 20
4.9026644477
 30
0.0
 10
7.1924004188
 20
4.894899392
 30
0.0
 10
7.1926612589
 20
4.8876074537
 30
0.0
 10
7.192921826
 20
4.880850871
 30
0.0
 10
7.1931819813
 20
4.8746872991
 30
0.0
 10
7.1934416175
 20
4.8691693315
 30
0.0
 10
7.1936652196
 20
4.8649968413
 30
0.0
 10
7.1938467741
 20
4.8620167005
 30
0.0
 10
7.1939773226
 20
4.8600610078
 30
0.0
 10
7.1941076944
 20
4.8582980118
 30
0.0
 10
7.1942378405
 20
4.8567314661
 30
0.0
 10
7.1943676241
 20
4.8553646554
 30
0.0
 10
7.1944969624
 20
4.8542004726
 30
0.0
 10
7.194609505
 20
4.8533587016
 30
0.0
 10
7.1947017454
 20
4.8527889763
 30
0.0
 10
7.1947667382
 20
4.8524389429
 30
0.0
 10
7.1948315162
 20
4.8521410443
 30
0.0
 10
7.1948959742
 20
4.8518952114
 30
0.0
 10
7.1949599956
 20
4.8517015103
 30
0.0
 10
7.1950085684
 20
4.8515919251
 30
0.0
 10
7.1950343519
 20
4.8515473247
 30
0.0
  0
LINE
  5
316
100
AcDbEntity
  8
0
100
AcDbLine
 62
7
  6
CONTINUOUS
 10
7.115368908
 20
4.865842815
 11
7.1152877628
 21
4.866017564
  0
SPLINE
  5
317
100
AcDbEntity
  8
0
100
AcDbSpline
 62
7
  6
CONTINUOUS
 70
0
 71
3
 72
53
 73
49
 74
0
 42
0.0000001
 43
0.0000001
 44
0.0000000001
 40
0.0
 40
0.0
 40
0.0
 40
0.0
 40
0.001240258
 40
0.0027511385
 40
0.004535602
 40
0.0065949086
 40
0.0115388882
 40
0.0175793947
 40
0.0247067618
 40
0.0329068842
 40
0.0421628329
 40
0.0524544159
 40
0.0760514717
 40
0.1034875027
 40
0.1345152761
 40
0.1688540333
 40
0.2061923876
 40
0.2461913383
 40
0.288487449
 40
0.3326962196
 40
0.4252299236
 40
0.5204336545
 40
0.5679570705
 40
0.6148511777
 40
0.660689424
 40
0.7050549165
 40
0.7475442336
 40
0.7877711235
 40
0.8253700586
 40
0.8599996223
 40
0.8913457183
 40
0.9191246308
 40
0.9430859244
 40
0.9630153781
 40
0.9714121658
 40
0.9787389219
 40
0.9849812886
 40
0.9876923101
 40
0.990128668
 40
0.9922898087
 40
0.9941757481
 40
0.9957875123
 40
0.9971273827
 40
0.9976968108
 40
0.9982004396
 40
0.998639837
 40
0.9990173972
 40
1.0
 40
1.0
 40
1.0
 40
1.0
 10
7.1152877628
 20
4.866017564
 30
0.0
 10
7.1152624431
 20
4.8660828273
 30
0.0
 10
7.1152134051
 20
4.8662303434
 30
0.0
 10
7.1151465969
 20
4.8664775403
 30
0.0
 10
7.1150795435
 20
4.8667723052
 30
0.0
 10
7.1149839993
 20
4.8672590655
 30
0.0
 10
7.1148677269
 20
4.8679862412
 30
0.0
 10
7.1147342783
 20
4.8689998277
 30
0.0
 10
7.1146003431
 20
4.8701984855
 30
0.0
 10
7.1144659846
 20
4.8715795372
 30
0.0
 10
7.1143313681
 20
4.8731399013
 30
0.0
 10
7.114142929
 20
4.8755677918
 30
0.0
 10
7.1139116528
 20
4.8790214348
 30
0.0
 10
7.1136439952
 20
4.8836454151
 30
0.0
 10
7.1133756611
 20
4.8888765358
 30
0.0
 10
7.1131067874
 20
4.894667189
 30
0.0
 10
7.1128375682
 20
4.9009646758
 30
0.0
 10
7.1125680966
 20
4.9077116606
 30
0.0
 10
7.1122984378
 20
4.9148467087
 30
0.0
 10
7.1119331682
 20
4.9249454163
 30
0.0
 10
7.1114832055
 20
4.9380292119
 30
0.0
 10
7.1110390803
 20
4.9513003906
 30
0.0
 10
7.1106789205
 20
4.9619969449
 30
0.0
 10
7.1104089798
 20
4.9699086672
 30
0.0
 10
7.1101390981
 20
4.9776420466
 30
0.0
 10
7.1098693048
 20
4.9851266583
 30
0.0
 10
7.1095996375
 20
4.9922943451
 30
0.0
 10
7.1093301462
 20
4.9990798376
 30
0.0
 10
7.109060897
 20
5.0054213489
 30
0.0
 10
7.1087919964
 20
5.0112611424
 30
0.0
 10
7.1085235703
 20
5.0165460555
 30
0.0
 10
7.1082559389
 20
5.0212280243
 30
0.0
 10
7.107989285
 20
5.0252644636
 30
0.0
 10
7.1077575477
 20
5.0282067262
 30
0.0
 10
7.1075673159
 20
5.0302100931
 30
0.0
 10
7.1074332156
 20
5.0314426628
 30
0.0
 10
7.1073171784
 20
5.0323542827
 30
0.0
 10
7.1072227404
 20
5.0329901924
 30
0.0
 10
7.1071553658
 20
5.0333971849
 30
0.0
 10
7.1070880999
 20
5.0337569216
 30
0.0
 10
7.1070209916
 20
5.0340692398
 30
0.0
 10
7.1069540532
 20
5.0343340311
 30
0.0
 10
7.1068958663
 20
5.0345241726
 30
0.0
 10
7.1068482598
 20
5.0346518958
 30
0.0
 10
7.106814706
 20
5.0347302357
 30
0.0
 10
7.10678068
 20
5.0347972718
 30
0.0
 10
7.1067292062
 20
5.0348817874
 30
0.0
 10
7.1066643673
 20
5.0349501199
 30
0.0
 10
7.1066089072
 20
5.0349501159
 30
0.0
  0
SPLINE
  5
318
100
AcDbEntity
  8
0
100
AcDbSpline
 62
7
  6
CONTINUOUS
 70
0
 71
3
 72
46
 73
42
 74
0
 42
0.0000001
 43
0.0000001
 44
0.0000000001
 40
0.0
 40
0.0
 40
0.0
 40
0.0
 40
0.0042386238
 40
0.0095005361
 40
0.0157774719
 40
0.0230584333
 40
0.0313295934
 40
0.0405744505
 40
0.0619076753
 40
0.0868826564
 40
0.1152919148
 40
0.1468985112
 40
0.1814382967
 40
0.2186222611
 40
0.2581390533
 40
0.3428301806
 40
0.432679003
 40
0.5246795331
 40
0.6157535013
 40
0.6599867656
 40
0.7028537921
 40
0.7439953496
 40
0.7830667283
 40
0.8197406602
 40
0.8537101182
 40
0.8846909339
 40
0.9124242678
 40
0.9366789455
 40
0.9474376986
 40
0.9572538114
 40
0.9661071443
 40
0.9739799609
 40
0.980856578
 40
0.9867242943
 40
0.9915731166
 40
0.9936136376
 40
0.9953977356
 40
0.9969259203
 40
0.9981996422
 40
0.9992219998
 40
1.0
 40
1.0
 40
1.0
 40
1.0
 10
7.2131880823
 20
4.8526861389
 30
0.0
 10
7.2131387363
 20
4.8529595896
 30
0.0
 10
7.213044284
 20
4.8535753944
 30
0.0
 10
7.2129164926
 20
4.8546018364
 30
0.0
 10
7.2127881084
 20
4.8558289583
 30
0.0
 10
7.2126592704
 20
4.8572542046
 30
0.0
 10
7.2125301388
 20
4.858874685
 30
0.0
 10
7.2123489389
 20
4.8614150564
 30
0.0
 10
7.2121267926
 20
4.8650501992
 30
0.0
 10
7.2118700202
 20
4.8699416814
 30
0.0
 10
7.2116125526
 20
4.8755074234
 30
0.0
 10
7.2113545271
 20
4.8817007624
 30
0.0
 10
7.2110961508
 20
4.8884697752
 30
0.0
 10
7.210837502
 20
4.8957576865
 30
0.0
 10
7.2104842049
 20
4.9063320098
 30
0.0
 10
7.2100494042
 20
4.9203580077
 30
0.0
 10
7.2095378136
 20
4.9378238655
 30
0.0
 10
7.2090258593
 20
4.9557083201
 30
0.0
 10
7.2085953175
 20
4.9706035048
 30
0.0
 10
7.2082464417
 20
4.9822786993
 30
0.0
 10
7.2079873939
 20
4.9906817408
 30
0.0
 10
7.2077284559
 20
4.9987462265
 30
0.0
 10
7.2074696622
 20
5.0064045036
 30
0.0
 10
7.2072110698
 20
5.0135923301
 30
0.0
 10
7.2069527485
 20
5.0202494146
 30
0.0
 10
7.206694835
 20
5.0263199306
 30
0.0
 10
7.2064374354
 20
5.031752971
 30
0.0
 10
7.2062157525
 20
5.035860476
 30
0.0
 10
7.2060357604
 20
5.038793821
 30
0.0
 10
7.2059063402
 20
5.0407186854
 30
0.0
 10
7.2057770938
 20
5.0424539044
 30
0.0
 10
7.2056480709
 20
5.0439958457
 30
0.0
 10
7.2055194054
 20
5.0453413345
 30
0.0
 10
7.2053911791
 20
5.0464875725
 30
0.0
 10
7.2052796098
 20
5.0473165395
 30
0.0
 10
7.2051881774
 20
5.0478777727
 30
0.0
 10
7.2051237427
 20
5.0482227614
 30
0.0
 10
7.2050595189
 20
5.0485165093
 30
0.0
 10
7.2049956073
 20
5.0487590843
 30
0.0
 10
7.204932122
 20
5.0489504256
 30
0.0
 10
7.2048839886
 20
5.0490587532
 30
0.0
 10
7.2048584624
 20
5.0491029084
 30
0.0
  0
SPLINE
  5
319
100
AcDbEntity
  8
0
100
AcDbSpline
 62
7
  6
CONTINUOUS
 70
0
 71
3
 72
55
 73
51
 74
0
 42
0.0000001
 43
0.0000001
 44
0.0000000001
 40
0.0
 40
0.0
 40
0.0
 40
0.0
 40
0.0009869442
 40
0.0013667046
 40
0.0018087809
 40
0.0023155717
 40
0.002888646
 40
0.004237257
 40
0.0058596865
 40
0.0077582072
 40
0.0099338308
 40
0.0123865498
 40
0.0151157946
 40
0.0214001132
 40
0.0287759734
 40
0.0372287937
 40
0.0572899678
 40
0.0814070254
 40
0.109362716
 40
0.140903126
 40
0.1757406532
 40
0.213556976
 40
0.2540061698
 40
0.2967179781
 40
0.3413012668
 40
0.3873476492
 40
0.4344352554
 40
0.4821326182
 40
0.5776067055
 40
0.6245085542
 40
0.6702784534
 40
0.7144970742
 40
0.7567593725
 40
0.7966783476
 40
0.8338886501
 40
0.8680499851
 40
0.8988503394
 40
0.9260090365
 40
0.9381443608
 40
0.9492797843
 40
0.9593902289
 40
0.9684535227
 40
0.9764498051
 40
0.983362613
 40
0.9891785925
 40
0.9938889151
 40
0.9958285936
 40
0.9974919897
 40
0.9988809968
 40
1.0
 40
1.0
 40
1.0
 40
1.0
 10
7.1504839072
 20
4.865700117
 30
0.0
 10
7.1504281747
 20
4.865700113
 30
0.0
 10
7.1503631175
 20
4.8657690344
 30
0.0
 10
7.1503115002
 20
4.8658540903
 30
0.0
 10
7.1502773492
 20
4.8659216222
 30
0.0
 10
7.1502436736
 20
4.8660005354
 30
0.0
 10
7.1501958907
 20
4.8661292025
 30
0.0
 10
7.1501374907
 20
4.8663207414
 30
0.0
 10
7.1500703075
 20
4.8665874724
 30
0.0
 10
7.1500029534
 20
4.8669020772
 30
0.0
 10
7.149935441
 20
4.8672644454
 30
0.0
 10
7.1498678191
 20
4.8676744106
 30
0.0
 10
7.1497730346
 20
4.8683149572
 30
0.0
 10
7.1496565724
 20
4.8692331985
 30
0.0
 10
7.1495219802
 20
4.8704746819
 30
0.0
 10
7.1493310551
 20
4.8724924107
 30
0.0
 10
7.1490984738
 20
4.8754555184
 30
0.0
 10
7.1488308443
 20
4.8795201574
 30
0.0
 10
7.1485622335
 20
4.8842341762
 30
0.0
 10
7.1482928255
 20
4.8895543819
 30
0.0
 10
7.1480229412
 20
4.8954320327
 30
0.0
 10
7.1477527074
 20
4.901813227
 30
0.0
 10
7.1474822309
 20
4.9086394397
 30
0.0
 10
7.1472115781
 20
4.9158480562
 30
0.0
 10
7.1469407996
 20
4.9233729519
 30
0.0
 10
7.1466699323
 20
4.9311450986
 30
0.0
 10
7.1463990089
 20
4.9390931982
 30
0.0
 10
7.1460376266
 20
4.9498310056
 30
0.0
 10
7.1456785785
 20
4.9605583962
 30
0.0
 10
7.145315219
 20
4.9711767354
 30
0.0
 10
7.1450443668
 20
4.9789021589
 30
0.0
 10
7.144773612
 20
4.9863654262
 30
0.0
 10
7.1445029917
 20
4.9934980726
 30
0.0
 10
7.1442325613
 20
5.0002346698
 30
0.0
 10
7.1439623887
 20
5.0065134267
 30
0.0
 10
7.1436926019
 20
5.0122767646
 30
0.0
 10
7.1434233034
 20
5.0174718316
 30
0.0
 10
7.143191751
 20
5.0214233184
 30
0.0
 10
7.1430039462
 20
5.0242648714
 30
0.0
 10
7.1428685435
 20
5.0261450441
 30
0.0
 10
7.1427332906
 20
5.0278512611
 30
0.0
 10
7.1425982468
 20
5.0293796192
 30
0.0
 10
7.1424634708
 20
5.0307266433
 30
0.0
 10
7.1423291694
 20
5.0318893254
 30
0.0
 10
7.1421954099
 20
5.0328650501
 30
0.0
 10
7.1420786905
 20
5.0335594937
 30
0.0
 10
7.1419825007
 20
5.03401905
 30
0.0
 10
7.1419153096
 20
5.0342929178
 30
0.0
 10
7.1418484068
 20
5.0345188582
 30
0.0
 10
7.1417988899
 20
5.0346518083
 30
0.0
 10
7.1417731736
 20
5.0347095286
 30
0.0
  0
LINE
  5
31A
100
AcDbEntity
  8
0
100
AcDbLine
 62
7
  6
CONTINUOUS
 10
7.1417731736
 20
5.0347095286
 11
7.1417239062
 21
5.0348074183
  0
SPLINE
  5
31B
100
AcDbEntity
  8
0
100
AcDbSpline
 62
7
  6
CONTINUOUS
 70
0
 71
3
 72
55
 73
51
 74
0
 42
0.0000001
 43
0.0000001
 44
0.0000000001
 40
0.0
 40
0.0
 40
0.0
 40
0.0
 40
0.0009884393
 40
0.0013689493
 40
0.0018119564
 40
0.0023198687
 40
0.0028942268
 40
0.0042458443
 40
0.0058719301
 40
0.0077748362
 40
0.0099554923
 40
0.0124138351
 40
0.0151493748
 40
0.0214482416
 40
0.0288410883
 40
0.0373132797
 40
0.0574200139
 40
0.0815909625
 40
0.1096078289
 40
0.1412154666
 40
0.176124914
 40
0.2140163964
 40
0.2545424364
 40
0.2973311455
 40
0.3419897017
 40
0.3881079973
 40
0.4352624295
 40
0.4830198312
 40
0.5785871298
 40
0.6255190978
 40
0.6713062712
 40
0.7155281015
 40
0.7577785088
 40
0.7976696497
 40
0.8348355179
 40
0.8689353749
 40
0.8996569932
 40
0.9267197256
 40
0.9388006604
 40
0.9498775772
 40
0.9599254362
 40
0.9689221142
 40
0.976848048
 40
0.9836867158
 40
0.9894252581
 40
0.9940549738
 40
0.9959534794
 40
0.9975751872
 40
0.9989223492
 40
1.0
 40
1.0
 40
1.0
 40
1.0
 10
7.1683339072
 20
4.8657001178
 30
0.0
 10
7.1682780816
 20
4.8657001235
 30
0.0
 10
7.16821295
 20
4.8657692335
 30
0.0
 10
7.1681612817
 20
4.8658544751
 30
0.0
 10
7.1681270876
 20
4.8659221784
 30
0.0
 10
7.1680933714
 20
4.8660012929
 30
0.0
 10
7.1680455292
 20
4.8661302869
 30
0.0
 10
7.1679870544
 20
4.8663223045
 30
0.0
 10
7.1679197856
 20
4.8665897016
 30
0.0
 10
7.1678523491
 20
4.8669050949
 30
0.0
 10
7.1677847525
 20
4.8672683697
 30
0.0
 10
7.1677170442
 20
4.8676793564
 30
0.0
 10
7.167622141
 20
4.868321498
 30
0.0
 10
7.1675055338
 20
4.8692420194
 30
0.0
 10
7.167370772
 20
4.8704865712
 30
0.0
 10
7.1671796087
 20
4.8725092407
 30
0.0
 10
7.1669467377
 20
4.8754795198
 30
0.0
 10
7.1666787732
 20
4.8795538617
 30
0.0
 10
7.1664098264
 20
4.8842789077
 30
0.0
 10
7.1661400811
 20
4.8896112526
 30
0.0
 10
7.165869859
 20
4.8955019183
 30
0.0
 10
7.1655992871
 20
4.9018967487
 30
0.0
 10
7.1653284723
 20
4.9087369475
 30
0.0
 10
7.1650574811
 20
4.915959615
 30
0.0
 10
7.1647863642
 20
4.9234983318
 30
0.0
 10
7.1645151588
 20
4.9312837685
 30
0.0
 10
7.1642438973
 20
4.9392443246
 30
0.0
 10
7.1638820984
 20
4.9499962228
 30
0.0
 10
7.1635226105
 20
4.9607356276
 30
0.0
 10
7.1631587596
 20
4.9713635456
 30
0.0
 10
7.1628875724
 20
4.9790930175
 30
0.0
 10
7.1626164839
 20
4.9865579181
 30
0.0
 10
7.1623455318
 20
4.9936895965
 30
0.0
 10
7.1620747723
 20
5.0004224707
 30
0.0
 10
7.1618042744
 20
5.0066946292
 30
0.0
 10
7.1615341687
 20
5.0124484088
 30
0.0
 10
7.161264559
 20
5.0176309114
 30
0.0
 10
7.1610326923
 20
5.0215700352
 30
0.0
 10
7.1608445986
 20
5.0244001903
 30
0.0
 10
7.1607090365
 20
5.0262707083
 30
0.0
 10
7.1605736289
 20
5.027966545
 30
0.0
 10
7.1604384334
 20
5.029483815
 30
0.0
 10
7.16030352
 20
5.0308190545
 30
0.0
 10
7.160169092
 20
5.0319692899
 30
0.0
 10
7.1600352349
 20
5.0329319191
 30
0.0
 10
7.1599183614
 20
5.0336150511
 30
0.0
 10
7.1598219469
 20
5.0340652008
 30
0.0
 10
7.1597547113
 20
5.034331854
 30
0.0
 10
7.1596877808
 20
5.0345504625
 30
0.0
 10
7.1596380915
 20
5.0346783786
 30
0.0
 10
7.1596122272
 20
5.0347334738
 30
0.0
  0
SPLINE
  5
31C
100
AcDbEntity
  8
0
100
AcDbSpline
 62
7
  6
CONTINUOUS
 70
0
 71
3
 72
9
 73
5
 74
0
 42
0.0000001
 43
0.0000001
 44
0.0000000001
 40
0.0
 40
0.0
 40
0.0
 40
0.0
 40
0.2654293761
 40
1.0
 40
1.0
 40
1.0
 40
1.0
 10
7.1596122272
 20
5.0347334738
 30
0.0
 10
7.1596090952
 20
5.0347401455
 30
0.0
 10
7.159597072
 20
5.0347651741
 30
0.0
 10
7.1595841172
 20
5.034789766
 30
0.0
 10
7.1595739062
 20
5.0348074232
 30
0.0
  0
LINE
  5
31D
100
AcDbEntity
  8
0
100
AcDbLine
 62
7
  6
CONTINUOUS
 10
7.2128843518
 20
4.8515472995
 11
7.2128094365
 21
4.8517112267
  0
SPLINE
  5
31E
100
AcDbEntity
  8
0
100
AcDbSpline
 62
7
  6
CONTINUOUS
 70
0
 71
3
 72
45
 73
41
 74
0
 42
0.0000001
 43
0.0000001
 44
0.0000000001
 40
0.0
 40
0.0
 40
0.0
 40
0.0
 40
0.0010589158
 40
0.0023696567
 40
0.0039349714
 40
0.0057560222
 40
0.0101661904
 40
0.0155971833
 40
0.0220409079
 40
0.0294855173
 40
0.0379167574
 40
0.0473176372
 40
0.0576690627
 40
0.0689497847
 40
0.0942036132
 40
0.1228692765
 40
0.154707601
 40
0.1894524314
 40
0.2268129959
 40
0.266476407
 40
0.3081103561
 40
0.3513659411
 40
0.3958806114
 40
0.4871871692
 40
0.5789746358
 40
0.6681714552
 40
0.7517931025
 40
0.7906291666
 40
0.8270423811
 40
0.8607278754
 40
0.8914038415
 40
0.9188139885
 40
0.9427298665
 40
0.962953129
 40
0.9716268953
 40
0.9793181703
 40
0.9860117152
 40
0.9916953051
 40
0.9963596431
 40
1.0
 40
1.0
 40
1.0
 40
1.0
 10
7.2128094365
 20
4.8517112267
 30
0.0
 10
7.2127848698
 20
4.8517762323
 30
0.0
 10
7.212737586
 20
4.8519245835
 30
0.0
 10
7.2126735997
 20
4.8521748341
 30
0.0
 10
7.2126093306
 20
4.8524763855
 30
0.0
 10
7.2125174143
 20
4.8529797689
 30
0.0
 10
7.2124058063
 20
4.853737127
 30
0.0
 10
7.2122778412
 20
4.8547982133
 30
0.0
 10
7.2121493721
 20
4.8560596054
 30
0.0
 10
7.2120204581
 20
4.8575187033
 30
0.0
 10
7.2118912929
 20
4.8591725101
 30
0.0
 10
7.211761934
 20
4.8610175799
 30
0.0
 10
7.2116324315
 20
4.8630500548
 30
0.0
 10
7.2114527966
 20
4.8661217744
 30
0.0
 10
7.211231274
 20
4.8703949339
 30
0.0
 10
7.2109736754
 20
4.8760170314
 30
0.0
 10
7.210715614
 20
4.8822625537
 30
0.0
 10
7.2104571856
 20
4.889079116
 30
0.0
 10
7.2101985105
 20
4.8964095416
 30
0.0
 10
7.2099396516
 20
4.9041923316
 30
0.0
 10
7.2096806608
 20
4.9123621885
 30
0.0
 10
7.2094215704
 20
4.9208505657
 30
0.0
 10
7.2090730937
 20
4.9325975615
 30
0.0
 10
7.2086429941
 20
4.9475285031
 30
0.0
 10
7.2081310292
 20
4.9653906292
 30
0.0
 10
7.2076195066
 20
4.9827482249
 30
0.0
 10
7.2071842647
 20
4.9966315433
 30
0.0
 10
7.2068304363
 20
5.0070516675
 30
0.0
 10
7.2065718342
 20
5.0141959906
 30
0.0
 10
7.2063135328
 20
5.0208044334
 30
0.0
 10
7.206055619
 20
5.0268215636
 30
0.0
 10
7.2057983356
 20
5.0321969369
 30
0.0
 10
7.2055418307
 20
5.0368854839
 30
0.0
 10
7.205319525
 20
5.0403443686
 30
0.0
 10
7.2051377849
 20
5.0427386652
 30
0.0
 10
7.2050088006
 20
5.044246442
 30
0.0
 10
7.2048801705
 20
5.0455571987
 30
0.0
 10
7.2047521488
 20
5.0466683153
 30
0.0
 10
7.2046248979
 20
5.0475775157
 30
0.0
 10
7.2045297038
 20
5.0481144582
 30
0.0
 10
7.2044792281
 20
5.0483479685
 30
0.0
  0
LINE
  5
31F
100
AcDbEntity
  8
0
100
AcDbLine
 62
7
  6
CONTINUOUS
 10
7.2044792281
 20
5.0483479685
 11
7.2043277698
 21
5.0489090438
  0
LINE
  5
320
100
AcDbEntity
  8
0
100
AcDbLine
 62
7
  6
CONTINUOUS
 10
7.2043277698
 20
5.0489090438
 11
7.2042739168
 21
5.0490410722
  0
LINE
  5
321
100
AcDbEntity
  8
0
100
AcDbLine
 62
7
  6
CONTINUOUS
 10
7.2042739168
 20
5.0490410722
 11
7.2041005823
 21
5.0492251165
  0
LINE
  5
322
100
AcDbEntity
  8
0
100
AcDbLine
 62
7
  6
CONTINUOUS
 10
2.5410389485
 20
4.349776769
 11
2.5412357468
 21
4.3498658107
  0
SPLINE
  5
323
100
AcDbEntity
  8
0
100
AcDbSpline
 62
7
  6
CONTINUOUS
 70
0
 71
3
 72
54
 73
50
 74
0
 42
0.0000001
 43
0.0000001
 44
0.0000000001
 40
0.0
 40
0.0
 40
0.0
 40
0.0
 40
0.0012476647
 40
0.0027664347
 40
0.0045591335
 40
0.0066271524
 40
0.0115891964
 40
0.0176473481
 40
0.024792148
 40
0.0330095944
 40
0.0422816461
 40
0.0525891847
 40
0.07621519
 40
0.1036770989
 40
0.134727008
 40
0.1690838512
 40
0.2064365015
 40
0.2464461562
 40
0.2887490829
 40
0.3329609551
 40
0.4254912901
 40
0.5206801285
 40
0.5681926507
 40
0.6150739572
 40
0.6608979545
 40
0.7052481893
 40
0.7477213679
 40
0.7879316166
 40
0.8255140543
 40
0.8601275413
 40
0.891457813
 40
0.9192216532
 40
0.9431691138
 40
0.9536430533
 40
0.9630859222
 40
0.9714761722
 40
0.9787969849
 40
0.985033498
 40
0.9877413162
 40
0.9901743953
 40
0.9923323223
 40
0.9942150599
 40
0.9958232069
 40
0.9971586879
 40
0.9977256503
 40
0.9982266157
 40
0.9986630709
 40
0.9990372996
 40
1.0
 40
1.0
 40
1.0
 40
1.0
 10
2.5412357468
 20
4.3498658107
 30
0.0
 10
2.5413038191
 20
4.3498911149
 30
0.0
 10
2.5414573815
 20
4.3499401175
 30
0.0
 10
2.5417142792
 20
4.3500069106
 30
0.0
 10
2.5420202108
 20
4.3500739491
 30
0.0
 10
2.5425248529
 20
4.3501694406
 30
0.0
 10
2.5432779542
 20
4.350285659
 30
0.0
 10
2.5443268996
 20
4.3504190823
 30
0.0
 10
2.5455665748
 20
4.3505529817
 30
0.0
 10
2.5469941988
 20
4.3506872898
 30
0.0
 10
2.5486066075
 20
4.3508218781
 30
0.0
 10
2.5511144495
 20
4.3510102264
 30
0.0
 10
2.5546807128
 20
4.3512414312
 30
0.0
 10
2.5594542791
 20
4.3515090025
 30
0.0
 10
2.5648532863
 20
4.3517772545
 30
0.0
 10
2.5708286114
 20
4.3520460444
 30
0.0
 10
2.5773259255
 20
4.3523151785
 30
0.0
 10
2.5842861164
 20
4.3525845617
 30
0.0
 10
2.5916458379
 20
4.3528541333
 30
0.0
 10
2.6020611848
 20
4.3532192715
 30
0.0
 10
2.615553787
 20
4.3536690757
 30
0.0
 10
2.6292387986
 20
4.3541130708
 30
0.0
 10
2.6402680275
 20
4.3544731203
 30
0.0
 10
2.6484252733
 20
4.3547429726
 30
0.0
 10
2.6563983504
 20
4.3550127657
 30
0.0
 10
2.6641146945
 20
4.3552824692
 30
0.0
 10
2.6715040751
 20
4.355552047
 30
0.0
 10
2.6784992523
 20
4.3558214512
 30
0.0
 10
2.685036589
 20
4.3560906082
 30
0.0
 10
2.6910565901
 20
4.3563594283
 30
0.0
 10
2.6965044856
 20
4.3566277309
 30
0.0
 10
2.7013307328
 20
4.3568953831
 30
0.0
 10
2.7049430625
 20
4.3571265223
 30
0.0
 10
2.7074893589
 20
4.357314751
 30
0.0
 10
2.7091315511
 20
4.3574493581
 30
0.0
 10
2.7105895519
 20
4.3575837134
 30
0.0
 10
2.7118600516
 20
4.3577177465
 30
0.0
 10
2.7127997583
 20
4.3578337413
 30
0.0
 10
2.7134552651
 20
4.357928156
 30
0.0
 10
2.7138747604
 20
4.3579955092
 30
0.0
 10
2.7142455645
 20
4.3580627514
 30
0.0
 10
2.7145675012
 20
4.3581298264
 30
0.0
 10
2.7148404302
 20
4.3581967267
 30
0.0
 10
2.7150364238
 20
4.3582548974
 30
0.0
 10
2.7151681012
 20
4.3583025035
 30
0.0
 10
2.715248819
 20
4.3583360348
 30
0.0
 10
2.7153179406
 20
4.3583700495
 30
0.0
 10
2.7154043708
 20
4.3584211362
 30
0.0
 10
2.7154755611
 20
4.3584857553
 30
0.0
 10
2.7154755782
 20
4.3585417915
 30
0.0
  0
SPLINE
  5
324
100
AcDbEntity
  8
0
100
AcDbSpline
 62
7
  6
CONTINUOUS
 70
0
 71
3
 72
40
 73
36
 74
0
 42
0.0000001
 43
0.0000001
 44
0.0000000001
 40
0.0
 40
0.0
 40
0.0
 40
0.0
 40
0.00036195
 40
0.0008087511
 40
0.0013890675
 40
0.002125361
 40
0.0030283714
 40
0.0041037041
 40
0.0053543735
 40
0.0067820404
 40
0.0101714585
 40
0.0142750536
 40
0.019090971
 40
0.0246154019
 40
0.0308426815
 40
0.0377658331
 40
0.0453770528
 40
0.0536671488
 40
0.0722441717
 40
0.0934083689
 40
0.1170589663
 40
0.1430840099
 40
0.1713611777
 40
0.2017585328
 40
0.2341352319
 40
0.2683423463
 40
0.3416164421
 40
0.4202578489
 40
0.5028649704
 40
0.5879841029
 40
0.6741356616
 40
0.7598401822
 40
0.8436434866
 40
0.9241405109
 40
1.0
 40
1.0
 40
1.0
 40
1.0
 10
7.0789916161
 20
4.862952617
 30
0.0
 10
7.0789747724
 20
4.8629526154
 30
0.0
 10
7.0789370068
 20
4.8629639954
 30
0.0
 10
7.0788876005
 20
4.8630072241
 30
0.0
 10
7.0788394427
 20
4.8630741161
 30
0.0
 10
7.0787915138
 20
4.8631658776
 30
0.0
 10
7.0787434662
 20
4.863282828
 30
0.0
 10
7.0786953193
 20
4.8634252496
 30
0.0
 10
7.0786470746
 20
4.8635931822
 30
0.0
 10
7.0785787032
 20
4.8638671935
 30
0.0
 10
7.0784953018
 20
4.8642740237
 30
0.0
 10
7.078399588
 20
4.8648388377
 30
0.0
 10
7.0783036595
 20
4.865504175
 30
0.0
 10
7.0782075779
 20
4.8662691844
 30
0.0
 10
7.0781114372
 20
4.8671329249
 30
0.0
 10
7.0780152769
 20
4.8680943057
 30
0.0
 10
7.0779191299
 20
4.8691521144
 30
0.0
 10
7.0777858661
 20
4.8707510631
 30
0.0
 10
7.0776216672
 20
4.8729802538
 30
0.0
 10
7.0774312308
 20
4.8759241215
 30
0.0
 10
7.0772408791
 20
4.879215238
 30
0.0
 10
7.0770506717
 20
4.8828378653
 30
0.0
 10
7.0768606879
 20
4.8867748644
 30
0.0
 10
7.0766709695
 20
4.8910077725
 30
0.0
 10
7.0764815403
 20
4.8955169065
 30
0.0
 10
7.0762234463
 20
4.9020202058
 30
0.0
 10
7.0759051797
 20
4.9106757577
 30
0.0
 10
7.0755323633
 20
4.9215831171
 30
0.0
 10
7.0751606912
 20
4.9330420366
 30
0.0
 10
7.0747902767
 20
4.9448506627
 30
0.0
 10
7.0744212384
 20
4.9568035409
 30
0.0
 10
7.0740536656
 20
4.9686952017
 30
0.0
 10
7.0736876531
 20
4.980323646
 30
0.0
 10
7.0733232962
 20
4.9914937622
 30
0.0
 10
7.0730728532
 20
4.9987656502
 30
0.0
 10
7.0729464072
 20
5.0022935748
 30
0.0
  0
SPLINE
  5
325
100
AcDbEntity
  8
0
100
AcDbSpline
 62
7
  6
CONTINUOUS
 70
0
 71
3
 72
9
 73
5
 74
0
 42
0.0000001
 43
0.0000001
 44
0.0000000001
 40
0.0
 40
0.0
 40
0.0
 40
0.0
 40
0.2392610956
 40
1.0
 40
1.0
 40
1.0
 40
1.0
 10
2.5410389953
 20
4.3676267689
 30
0.0
 10
2.5410427418
 20
4.3676289359
 30
0.0
 10
2.5410584803
 20
4.367637855
 30
0.0
 10
2.541074515
 20
4.367646247
 30
0.0
 10
2.5410868301
 20
4.3676523881
 30
0.0
  0
SPLINE
  5
326
100
AcDbEntity
  8
0
100
AcDbSpline
 62
7
  6
CONTINUOUS
 70
0
 71
3
 72
56
 73
52
 74
0
 42
0.0000001
 43
0.0000001
 44
0.0000000001
 40
0.0
 40
0.0
 40
0.0
 40
0.0
 40
0.0010061208
 40
0.0022820513
 40
0.0038334905
 40
0.0056628042
 40
0.01015783
 40
0.0157677308
 40
0.0224842693
 40
0.0302940021
 40
0.0391816864
 40
0.0491272077
 40
0.0601083931
 40
0.0721012677
 40
0.0990083959
 40
0.1296033782
 40
0.1636056198
 40
0.2007020177
 40
0.2405510655
 40
0.2827859238
 40
0.3270172166
 40
0.3728368703
 40
0.4198223941
 40
0.5155509224
 40
0.5634108079
 40
0.6106787624
 40
0.6569186195
 40
0.7017038697
 40
0.74462176
 40
0.7852766584
 40
0.8232935404
 40
0.8583224041
 40
0.8900413361
 40
0.9181590008
 40
0.9424176453
 40
0.9530298086
 40
0.9625974653
 40
0.9711003223
 40
0.9785191155
 40
0.9848392305
 40
0.9875838613
 40
0.9900499173
 40
0.9922366239
 40
0.9941441626
 40
0.9957734947
 40
0.9971267319
 40
0.9977011773
 40
0.9982086179
 40
0.9986504882
 40
0.9990290598
 40
1.0
 40
1.0
 40
1.0
 40
1.0
 10
2.5410868301
 20
4.3676523881
 30
0.0
 10
2.5411392875
 20
4.3676785468
 30
0.0
 10
2.5412628481
 20
4.3677285516
 30
0.0
 10
2.5414760168
 20
4.3677954859
 30
0.0
 10
2.5417389608
 20
4.3678627691
 30
0.0
 10
2.5421875553
 20
4.3679595697
 30
0.0
 10
2.5428731992
 20
4.3680766796
 30
0.0
 10
2.543844103
 20
4.3682106895
 30
0.0
 10
2.545009595
 20
4.3683452955
 30
0.0
 10
2.5463670458
 20
4.3684804472
 30
0.0
 10
2.5479134074
 20
4.3686158723
 30
0.0
 10
2.5496451442
 20
4.3687515303
 30
0.0
 10
2.5515582786
 20
4.3688873572
 30
0.0
 10
2.5544583095
 20
4.3690759081
 30
0.0
 10
2.5585005528
 20
4.3693082944
 30
0.0
 10
2.5638248886
 20
4.3695784032
 30
0.0
 10
2.5697435223
 20
4.369849023
 30
0.0
 10
2.5762018001
 20
4.3701200471
 30
0.0
 10
2.5831400993
 20
4.37039134
 30
0.0
 10
2.590494376
 20
4.3706628283
 30
0.0
 10
2.5981967271
 20
4.370934456
 30
0.0
 10
2.6061760194
 20
4.371206186
 30
0.0
 10
2.6171541757
 20
4.3715708336
 30
0.0
 10
2.6282514084
 20
4.3719310322
 30
0.0
 10
2.6393650299
 20
4.3722935059
 30
0.0
 10
2.6475968032
 20
4.372565314
 30
0.0
 10
2.6556493471
 20
4.3728370668
 30
0.0
 10
2.6634483059
 20
4.373108732
 30
0.0
 10
2.6709216782
 20
4.3733802708
 30
0.0
 10
2.6780004514
 20
4.3736516326
 30
0.0
 10
2.684619253
 20
4.3739227488
 30
0.0
 10
2.6907169799
 20
4.374193529
 30
0.0
 10
2.6962373764
 20
4.3744637857
 30
0.0
 10
2.7011294813
 20
4.3747333776
 30
0.0
 10
2.7047919545
 20
4.3749662038
 30
0.0
 10
2.7073740666
 20
4.3751557791
 30
0.0
 10
2.7090396647
 20
4.3752913897
 30
0.0
 10
2.7105185604
 20
4.3754267058
 30
0.0
 10
2.7118073809
 20
4.3755617211
 30
0.0
 10
2.7127606847
 20
4.3756785775
 30
0.0
 10
2.7134257422
 20
4.3757736691
 30
0.0
 10
2.7138513741
 20
4.3758415079
 30
0.0
 10
2.7142275684
 20
4.3759092437
 30
0.0
 10
2.7145541621
 20
4.3759768141
 30
0.0
 10
2.7148310611
 20
4.3760442099
 30
0.0
 10
2.7150299476
 20
4.3761027978
 30
0.0
 10
2.7151636043
 20
4.3761507503
 30
0.0
 10
2.7152455263
 20
4.3761845214
 30
0.0
 10
2.7153156777
 20
4.3762187839
 30
0.0
 10
2.7154031925
 20
4.3762701467
 30
0.0
 10
2.7154755211
 20
4.3763352234
 30
0.0
 10
2.7154755185
 20
4.3763917916
 30
0.0
  0
SPLINE
  5
327
100
AcDbEntity
  8
0
100
AcDbSpline
 62
7
  6
CONTINUOUS
 70
0
 71
3
 72
55
 73
51
 74
0
 42
0.0000001
 43
0.0000001
 44
0.0000000001
 40
0.0
 40
0.0
 40
0.0
 40
0.0
 40
0.0009866191
 40
0.0013662289
 40
0.0018081619
 40
0.0023147942
 40
0.002887651
 40
0.0042356403
 40
0.0058573358
 40
0.007755123
 40
0.0099298103
 40
0.0123813984
 40
0.015109485
 40
0.0213911024
 40
0.028763818
 40
0.0372129456
 40
0.0572655861
 40
0.0813725909
 40
0.1093168826
 40
0.1408447352
 40
0.1756687936
 40
0.213471029
 40
0.2539058238
 40
0.2966032372
 40
0.3411724531
 40
0.3872053922
 40
0.4342804941
 40
0.4819666137
 40
0.5774232489
 40
0.624319458
 40
0.6700861088
 40
0.714304096
 40
0.756568589
 40
0.7964927645
 40
0.8337113925
 40
0.8678842493
 40
0.8986993444
 40
0.925875974
 40
0.9380214369
 40
0.9491677934
 40
0.9592899982
 40
0.9683656709
 40
0.9763752262
 40
0.9833018101
 40
0.9891323671
 40
0.9938577363
 40
0.9958051914
 40
0.9974763273
 40
0.9988731519
 40
1.0
 40
1.0
 40
1.0
 40
1.0
 10
7.1861839072
 20
4.8657001226
 30
0.0
 10
7.1861281947
 20
4.8657001303
 30
0.0
 10
7.1860631481
 20
4.8657689882
 30
0.0
 10
7.1860115394
 20
4.8658540108
 30
0.0
 10
7.1859773977
 20
4.8659215152
 30
0.0
 10
7.1859437314
 20
4.8660003981
 30
0.0
 10
7.1858959608
 20
4.8661290049
 30
0.0
 10
7.1858375715
 20
4.8663204481
 30
0.0
 10
7.1857704023
 20
4.8665870526
 30
0.0
 10
7.1857030688
 20
4.8669015132
 30
0.0
 10
7.1856355712
 20
4.867263712
 30
0.0
 10
7.1855679626
 20
4.8676734823
 30
0.0
 10
7.1854732031
 20
4.8683137282
 30
0.0
 10
7.1853567666
 20
4.8692315462
 30
0.0
 10
7.1852222079
 20
4.870472454
 30
0.0
 10
7.1850313247
 20
4.8724892543
 30
0.0
 10
7.1847987995
 20
4.8754510156
 30
0.0
 10
7.1845312323
 20
4.87951384
 30
0.0
 10
7.184262685
 20
4.8842257979
 30
0.0
 10
7.1839933401
 20
4.8895437317
 30
0.0
 10
7.1837235191
 20
4.8954189422
 30
0.0
 10
7.1834533486
 20
4.9017975773
 30
0.0
 10
7.1831829355
 20
4.9086211653
 30
0.0
 10
7.1829123461
 20
4.9158271466
 30
0.0
 10
7.1826416311
 20
4.9233494518
 30
0.0
 10
7.1823708273
 20
4.9311191074
 30
0.0
 10
7.1820999672
 20
4.9390648705
 30
0.0
 10
7.181738663
 20
4.9498000321
 30
0.0
 10
7.1813796973
 20
4.9605251653
 30
0.0
 10
7.18101643
 20
4.9711417024
 30
0.0
 10
7.1807456407
 20
4.9788663595
 30
0.0
 10
7.1804749483
 20
4.9863293109
 30
0.0
 10
7.1802043902
 20
4.9934621286
 30
0.0
 10
7.1799340216
 20
5.0001994155
 30
0.0
 10
7.17966391
 20
5.0064794032
 30
0.0
 10
7.1793941831
 20
5.0122445268
 30
0.0
 10
7.179124943
 20
5.0174419403
 30
0.0
 10
7.1788934497
 20
5.0213957337
 30
0.0
 10
7.1787056987
 20
5.0242394125
 30
0.0
 10
7.1785703251
 20
5.0261213895
 30
0.0
 10
7.1784351039
 20
5.0278295445
 30
0.0
 10
7.178300084
 20
5.0293599793
 30
0.0
 10
7.17816534
 20
5.0307092035
 30
0.0
 10
7.1780310555
 20
5.0318742178
 30
0.0
 10
7.177897322
 20
5.0328523899
 30
0.0
 10
7.1777806237
 20
5.0335489542
 30
0.0
 10
7.1776844831
 20
5.0340102688
 30
0.0
 10
7.177617297
 20
5.0342854843
 30
0.0
 10
7.1775503966
 20
5.0345127949
 30
0.0
 10
7.177500915
 20
5.0346466909
 30
0.0
 10
7.1774752258
 20
5.0347049057
 30
0.0
  0
LINE
  5
328
100
AcDbEntity
  8
0
100
AcDbLine
 62
7
  6
CONTINUOUS
 10
7.1774752258
 20
5.0347049057
 11
7.1774239062
 21
5.0348074267
  0
SPLINE
  5
329
100
AcDbEntity
  8
0
100
AcDbSpline
 62
7
  6
CONTINUOUS
 70
0
 71
3
 72
28
 73
24
 74
0
 42
0.0000001
 43
0.0000001
 44
0.0000000001
 40
0.0
 40
0.0
 40
0.0
 40
0.0
 40
0.0015991938
 40
0.0030021365
 40
0.0048690259
 40
0.007215546
 40
0.0100492702
 40
0.0171925364
 40
0.0263163324
 40
0.0374268611
 40
0.0505262489
 40
0.0656123231
 40
0.1017234148
 40
0.1457139623
 40
0.197531694
 40
0.2571011718
 40
0.3243295627
 40
0.3991227623
 40
0.4813762808
 40
0.5709723751
 40
0.6677921686
 40
0.7716956797
 40
1.0
 40
1.0
 40
1.0
 40
1.0
 10
2.5266255823
 20
4.4079842797
 30
0.0
 10
2.5266255823
 20
4.407994127
 30
0.0
 10
2.5266435561
 20
4.408008252
 30
0.0
 10
2.5266695396
 20
4.4080200713
 30
0.0
 10
2.5267027598
 20
4.4080315613
 30
0.0
 10
2.5267445158
 20
4.4080427146
 30
0.0
 10
2.5268187048
 20
4.4080591598
 30
0.0
 10
2.5269346644
 20
4.4080788216
 30
0.0
 10
2.5271017725
 20
4.4081013301
 30
0.0
 10
2.5273057883
 20
4.4081239335
 30
0.0
 10
2.5275466991
 20
4.4081466523
 30
0.0
 10
2.527941298
 20
4.4081789803
 30
0.0
 10
2.5285261308
 20
4.4082183583
 30
0.0
 10
2.5293371904
 20
4.4082635827
 30
0.0
 10
2.5302928809
 20
4.4083089674
 30
0.0
 10
2.5313917915
 20
4.4083544916
 30
0.0
 10
2.5326322798
 20
4.408400103
 30
0.0
 10
2.5340125297
 20
4.4084457737
 30
0.0
 10
2.5355305783
 20
4.408491486
 30
0.0
 10
2.5371843134
 20
4.408537237
 30
0.0
 10
2.5389714072
 20
4.4085830189
 30
0.0
 10
2.5416124482
 20
4.4086460856
 30
0.0
 10
2.5436575864
 20
4.4086902774
 30
0.0
 10
2.5450631022
 20
4.4087191978
 30
0.0
  0
LINE
  5
32A
100
AcDbEntity
  8
0
100
AcDbLine
 62
7
  6
CONTINUOUS
 10
2.5410389666
 20
4.385476769
 11
2.5411407344
 21
4.3855275547
  0
SPLINE
  5
32B
100
AcDbEntity
  8
0
100
AcDbSpline
 62
7
  6
CONTINUOUS
 70
0
 71
3
 72
56
 73
52
 74
0
 42
0.0000001
 43
0.0000001
 44
0.0000000001
 40
0.0
 40
0.0
 40
0.0
 40
0.0
 40
0.0011016017
 40
0.0024737897
 40
0.0041209014
 40
0.006045115
 40
0.0107265023
 40
0.016514937
 40
0.0234021418
 40
0.0313748325
 40
0.0404155646
 40
0.0505056906
 40
0.0616221707
 40
0.0737399287
 40
0.1008689111
 40
0.1316458978
 40
0.1657898383
 40
0.2029887916
 40
0.2429024911
 40
0.2851649631
 40
0.3293887873
 40
0.3751687007
 40
0.4220849448
 40
0.5175985405
 40
0.5653200011
 40
0.6124336661
 40
0.6585075505
 40
0.7031193145
 40
0.7458597666
 40
0.7863369596
 40
0.8241803396
 40
0.8590435193
 40
0.8906072429
 40
0.9185833212
 40
0.9427177084
 40
0.9532746808
 40
0.9627927146
 40
0.9712502217
 40
0.9786301514
 40
0.9849168464
 40
0.9876465585
 40
0.9900993754
 40
0.992274778
 40
0.9941726243
 40
0.9957934399
 40
0.997139368
 40
0.9977107315
 40
0.9982155345
 40
0.9986552537
 40
0.9990321657
 40
1.0
 40
1.0
 40
1.0
 40
1.0
 10
2.5411407344
 20
4.3855275547
 30
0.0
 10
2.541199481
 20
4.385553346
 30
0.0
 10
2.5413350254
 20
4.385602926
 30
0.0
 10
2.5415656018
 20
4.3856698237
 30
0.0
 10
2.5418456576
 20
4.3857370271
 30
0.0
 10
2.5423166284
 20
4.385833296
 30
0.0
 10
2.5430292057
 20
4.3859500441
 30
0.0
 10
2.5440312769
 20
4.3860838442
 30
0.0
 10
2.5452264118
 20
4.3862181791
 30
0.0
 10
2.54661191
 20
4.3863529884
 30
0.0
 10
2.5481846952
 20
4.3864880924
 30
0.0
 10
2.5499411589
 20
4.3866233844
 30
0.0
 10
2.5518772991
 20
4.3867588396
 30
0.0
 10
2.5548045145
 20
4.3869467422
 30
0.0
 10
2.5588762647
 20
4.3871783912
 30
0.0
 10
2.5642306366
 20
4.3874477884
 30
0.0
 10
2.5701721396
 20
4.3877176777
 30
0.0
 10
2.5766462573
 20
4.387987955
 30
0.0
 10
2.5835935803
 20
4.3882584888
 30
0.0
 10
2.5909503251
 20
4.3885292151
 30
0.0
 10
2.5986489412
 20
4.3888000774
 30
0.0
 10
2.6066187574
 20
4.3890710367
 30
0.0
 10
2.6175743397
 20
4.3894345526
 30
0.0
 10
2.6286432031
 20
4.3897937422
 30
0.0
 10
2.6397234945
 20
4.390155257
 30
0.0
 10
2.6479257647
 20
4.3904262888
 30
0.0
 10
2.655946823
 20
4.3906972646
 30
0.0
 10
2.6637130332
 20
4.3909681508
 30
0.0
 10
2.6711530832
 20
4.3912389108
 30
0.0
 10
2.678198666
 20
4.3915094974
 30
0.0
 10
2.6847851174
 20
4.3917798363
 30
0.0
 10
2.6908519805
 20
4.3920498372
 30
0.0
 10
2.6963435676
 20
4.3923193172
 30
0.0
 10
2.7012094877
 20
4.3925881443
 30
0.0
 10
2.7048520193
 20
4.3928202968
 30
0.0
 10
2.707419911
 20
4.3930093423
 30
0.0
 10
2.709076198
 20
4.3931445445
 30
0.0
 10
2.7105467933
 20
4.393279494
 30
0.0
 10
2.7118283242
 20
4.3934141094
 30
0.0
 10
2.7127762249
 20
4.3935306215
 30
0.0
 10
2.7134374663
 20
4.3936254513
 30
0.0
 10
2.7138606528
 20
4.3936931001
 30
0.0
 10
2.7142347248
 20
4.3937606373
 30
0.0
 10
2.7145594895
 20
4.3938280045
 30
0.0
 10
2.7148348072
 20
4.393895204
 30
0.0
 10
2.7150325203
 20
4.3939536309
 30
0.0
 10
2.7151653676
 20
4.3940014471
 30
0.0
 10
2.7152468018
 20
4.3940351242
 30
0.0
 10
2.7153165471
 20
4.3940692892
 30
0.0
 10
2.7154036434
 20
4.3941205402
 30
0.0
 10
2.715475592
 20
4.3941854235
 30
0.0
 10
2.7154755808
 20
4.3942417916
 30
0.0
  0
SPLINE
  5
32C
100
AcDbEntity
  8
0
100
AcDbSpline
 62
7
  6
CONTINUOUS
 70
0
 71
3
 72
9
 73
5
 74
0
 42
0.0000001
 43
0.0000001
 44
0.0000000001
 40
0.0
 40
0.0
 40
0.0
 40
0.0
 40
0.2324820284
 40
1.0
 40
1.0
 40
1.0
 40
1.0
 10
7.133218908
 20
4.8658428174
 30
0.0
 10
7.1332151098
 20
4.8658493849
 30
0.0
 10
7.1331991958
 20
4.8658778787
 30
0.0
 10
7.1331848425
 20
4.8659072268
 30
0.0
 10
7.133174455
 20
4.8659300177
 30
0.0
  0
SPLINE
  5
32D
100
AcDbEntity
  8
0
100
AcDbSpline
 62
7
  6
CONTINUOUS
 70
0
 71
3
 72
55
 73
51
 74
0
 42
0.0000001
 43
0.0000001
 44
0.0000000001
 40
0.0
 40
0.0
 40
0.0
 40
0.0
 40
0.0011007709
 40
0.00247143
 40
0.0041164917
 40
0.0060380197
 40
0.0107129787
 40
0.0164948559
 40
0.0233751383
 40
0.0313404788
 40
0.0403745046
 40
0.0504574779
 40
0.0615671467
 40
0.0736786337
 40
0.100795159
 40
0.1315609061
 40
0.1656952233
 40
0.2028860122
 40
0.2427927858
 40
0.2850498884
 40
0.3292699351
 40
0.3750474301
 40
0.4219625171
 40
0.5174775761
 40
0.5652013239
 40
0.6123182902
 40
0.6583962682
 40
0.7030126339
 40
0.7457582437
 40
0.786241216
 40
0.8240905669
 40
0.8589596762
 40
0.8905295946
 40
0.9185121502
 40
0.9426528953
 40
0.9627341102
 40
0.9711954129
 40
0.9785787877
 40
0.9848694317
 40
0.9876014829
 40
0.9900567053
 40
0.9922344796
 40
0.9941349267
 40
0.9957590146
 40
0.9971089309
 40
0.9976825339
 40
0.998189804
 40
0.9986323017
 40
0.9990124152
 40
1.0
 40
1.0
 40
1.0
 40
1.0
 10
7.133174455
 20
4.8659300177
 30
0.0
 10
7.1331486736
 20
4.8659865841
 30
0.0
 10
7.1330990797
 20
4.8661173238
 30
0.0
 10
7.1330321692
 20
4.8663400446
 30
0.0
 10
7.1329649565
 20
4.8666107414
 30
0.0
 10
7.1328686649
 20
4.8670661647
 30
0.0
 10
7.1327518837
 20
4.867755636
 30
0.0
 10
7.1326180751
 20
4.8687256092
 30
0.0
 10
7.1324837219
 20
4.8698828214
 30
0.0
 10
7.1323488831
 20
4.8712246702
 30
0.0
 10
7.132213773
 20
4.8727481582
 30
0.0
 10
7.1320784529
 20
4.8744498153
 30
0.0
 10
7.1319429784
 20
4.8763257501
 30
0.0
 10
7.1317550486
 20
4.8791622986
 30
0.0
 10
7.1315233567
 20
4.8831083596
 30
0.0
 10
7.1312539216
 20
4.8882979098
 30
0.0
 10
7.1309839943
 20
4.894057053
 30
0.0
 10
7.1307136787
 20
4.9003329185
 30
0.0
 10
7.1304431036
 20
4.9070678899
 30
0.0
 10
7.1301723375
 20
4.9142001215
 30
0.0
 10
7.1299014358
 20
4.9216641159
 30
0.0
 10
7.1296304363
 20
4.9293913264
 30
0.0
 10
7.1292668607
 20
4.940013885
 30
0.0
 10
7.1289076191
 20
4.950746565
 30
0.0
 10
7.1285460536
 20
4.9614905737
 30
0.0
 10
7.1282749815
 20
4.9694441532
 30
0.0
 10
7.1280039655
 20
4.9772221459
 30
0.0
 10
7.1277330381
 20
4.9847531215
 30
0.0
 10
7.1274622365
 20
4.9919679195
 30
0.0
 10
7.1271916113
 20
4.9988002847
 30
0.0
 10
7.1269212288
 20
5.0051874756
 30
0.0
 10
7.126651196
 20
5.0110708472
 30
0.0
 10
7.1263816394
 20
5.0163963874
 30
0.0
 10
7.126112881
 20
5.0211152531
 30
0.0
 10
7.1258451036
 20
5.0251841595
 30
0.0
 10
7.1256123967
 20
5.0281504209
 30
0.0
 10
7.1254213643
 20
5.0301703245
 30
0.0
 10
7.1252867008
 20
5.0314131549
 30
0.0
 10
7.1251701712
 20
5.0323323997
 30
0.0
 10
7.1250753359
 20
5.0329736482
 30
0.0
 10
7.125007678
 20
5.0333840636
 30
0.0
 10
7.1249401257
 20
5.0337468283
 30
0.0
 10
7.1248727351
 20
5.0340617792
 30
0.0
 10
7.1248055169
 20
5.0343288058
 30
0.0
 10
7.1247470845
 20
5.0345205556
 30
0.0
 10
7.1246992731
 20
5.0346493616
 30
0.0
 10
7.1246655794
 20
5.0347283609
 30
0.0
 10
7.1246314094
 20
5.0347959698
 30
0.0
 10
7.1245797743
 20
5.0348811101
 30
0.0
 10
7.1245146797
 20
5.0349501195
 30
0.0
 10
7.1244589072
 20
5.0349501116
 30
0.0
  0
LINE
  5
32E
100
AcDbEntity
  8
0
100
AcDbLine
 62
7
  6
CONTINUOUS
 10
7.204618908
 20
4.8658428066
 11
7.2045346667
 21
4.8660255949
  0
SPLINE
  5
32F
100
AcDbEntity
  8
0
100
AcDbSpline
 62
7
  6
CONTINUOUS
 70
0
 71
3
 72
53
 73
49
 74
0
 42
0.0000001
 43
0.0000001
 44
0.0000000001
 40
0.0
 40
0.0
 40
0.0
 40
0.0
 40
0.0012521292
 40
0.0027747645
 40
0.0045709522
 40
0.0066419248
 40
0.0116084246
 40
0.0176707574
 40
0.0248187743
 40
0.0330386692
 40
0.0423132004
 40
0.0526222698
 40
0.07625082
 40
0.1037136294
 40
0.1347633688
 40
0.1691192552
 40
0.2064699511
 40
0.2464765749
 40
0.288775886
 40
0.3329836499
 40
0.4255039566
 40
0.5206815191
 40
0.5681881108
 40
0.6150635188
 40
0.6608816638
 40
0.7052261185
 40
0.747693934
 40
0.7878993336
 40
0.8254772557
 40
0.8600867332
 40
0.8914140924
 40
0.9191759774
 40
0.9431222516
 40
0.9630389764
 40
0.9714303068
 40
0.9787523406
 40
0.9849906861
 40
0.987699956
 40
0.9901346685
 40
0.9922944223
 40
0.9941792175
 40
0.9957899061
 40
0.9971288868
 40
0.9976979848
 40
0.9982013528
 40
0.9986405142
 40
0.9990178511
 40
1.0
 40
1.0
 40
1.0
 40
1.0
 10
7.2045346667
 20
4.8660255949
 30
0.0
 10
7.2045093837
 20
4.8660915866
 30
0.0
 10
7.2044603931
 20
4.8662405086
 30
0.0
 10
7.2043935893
 20
4.8664897581
 30
0.0
 10
7.2043265512
 20
4.8667865431
 30
0.0
 10
7.204231074
 20
4.8672759302
 30
0.0
 10
7.2041148367
 20
4.8680062716
 30
0.0
 10
7.203981428
 20
4.8690235104
 30
0.0
 10
7.2038475224
 20
4.870225644
 30
0.0
 10
7.2037132091
 20
4.871609975
 30
0.0
 10
7.2035786332
 20
4.8731734258
 30
0.0
 10
7.2033902817
 20
4.8756050236
 30
0.0
 10
7.2031590935
 20
4.879062781
 30
0.0
 10
7.2028915209
 20
4.8836910666
 30
0.0
 10
7.2026232747
 20
4.8889256481
 30
0.0
 10
7.2023544918
 20
4.8947189169
 30
0.0
 10
7.2020853647
 20
4.9010181855
 30
0.0
 10
7.2018159863
 20
4.9077661422
 30
0.0
 10
7.2015464213
 20
4.9149013882
 30
0.0
 10
7.2011812948
 20
4.9249989547
 30
0.0
 10
7.200731501
 20
4.9380797997
 30
0.0
 10
7.2002875165
 20
4.951347124
 30
0.0
 10
7.1999274745
 20
4.9620396546
 30
0.0
 10
7.1996576295
 20
4.9699478368
 30
0.0
 10
7.1993878435
 20
4.977677447
 30
0.0
 10
7.199118146
 20
4.9851581439
 30
0.0
 10
7.1988485744
 20
4.9923218535
 30
0.0
 10
7.1985791788
 20
4.9991033894
 30
0.0
 10
7.1983100251
 20
5.0054410465
 30
0.0
 10
7.19804122
 20
5.0112771666
 30
0.0
 10
7.1977728893
 20
5.0165586592
 30
0.0
 10
7.1975053533
 20
5.0212375241
 30
0.0
 10
7.1972387938
 20
5.0252712311
 30
0.0
 10
7.1970071396
 20
5.02821147
 30
0.0
 10
7.1968169734
 20
5.0302134419
 30
0.0
 10
7.1966829217
 20
5.0314451472
 30
0.0
 10
7.1965669253
 20
5.0323561282
 30
0.0
 10
7.1964725228
 20
5.0329915869
 30
0.0
 10
7.1964051698
 20
5.033398288
 30
0.0
 10
7.1963379273
 20
5.0337577704
 30
0.0
 10
7.196270847
 20
5.0340698698
 30
0.0
 10
7.1962039304
 20
5.0343344714
 30
0.0
 10
7.1961457616
 20
5.0345244724
 30
0.0
 10
7.1960981732
 20
5.0346521055
 30
0.0
 10
7.1960646328
 20
5.0347303961
 30
0.0
 10
7.19603062
 20
5.0347973877
 30
0.0
 10
7.1959791588
 20
5.0348818517
 30
0.0
 10
7.1959143389
 20
5.0349501037
 30
0.0
 10
7.1958589072
 20
5.0349501115
 30
0.0
  0
SPLINE
  5
330
100
AcDbEntity
  8
0
100
AcDbSpline
 62
7
  6
CONTINUOUS
 70
0
 71
3
 72
33
 73
29
 74
0
 42
0.0000001
 43
0.0000001
 44
0.0000000001
 40
0.0
 40
0.0
 40
0.0
 40
0.0
 40
0.0007572098
 40
0.001674546
 40
0.0040051388
 40
0.0070096285
 40
0.0106930342
 40
0.0150552792
 40
0.0200935031
 40
0.0321788447
 40
0.0468991802
 40
0.0641888792
 40
0.0839696951
 40
0.106152091
 40
0.1306361324
 40
0.1573121483
 40
0.1860614771
 40
0.2167571934
 40
0.283442698
 40
0.3562130578
 40
0.4338236186
 40
0.5149638152
 40
0.5982800398
 40
0.6823990092
 40
0.765950442
 40
0.8475892453
 40
0.9260161428
 40
1.0
 40
1.0
 40
1.0
 40
1.0
 10
7.0795827919
 20
4.8630895841
 30
0.0
 10
7.0795651483
 20
4.8631200226
 30
0.0
 10
7.0795307736
 20
4.8631900171
 30
0.0
 10
7.0794627601
 20
4.8633633512
 30
0.0
 10
7.0793812989
 20
4.863642693
 30
0.0
 10
7.079288592
 20
4.8640514125
 30
0.0
 10
7.0791954949
 20
4.8645564553
 30
0.0
 10
7.0791020139
 20
4.8651571891
 30
0.0
 10
7.0789689835
 20
4.8661466438
 30
0.0
 10
7.0788074508
 20
4.8676175497
 30
0.0
 10
7.0786223197
 20
4.8696580429
 30
0.0
 10
7.0784368654
 20
4.8720573142
 30
0.0
 10
7.0782512029
 20
4.8748041576
 30
0.0
 10
7.0780655759
 20
4.8778859484
 30
0.0
 10
7.0778800714
 20
4.8812886374
 30
0.0
 10
7.077694767
 20
4.8849968691
 30
0.0
 10
7.0775096966
 20
4.8889940574
 30
0.0
 10
7.0772562571
 20
4.894849015
 30
0.0
 10
7.0769441717
 20
4.9027486718
 30
0.0
 10
7.0765798919
 20
4.9128277103
 30
0.0
 10
7.0762165836
 20
4.9235788006
 30
0.0
 10
7.0758543742
 20
4.9348201844
 30
0.0
 10
7.0754933982
 20
4.9463641596
 30
0.0
 10
7.0751337445
 20
4.9580202629
 30
0.0
 10
7.0747754928
 20
4.969598434
 30
0.0
 10
7.0744187261
 20
4.9809120519
 30
0.0
 10
7.0740635282
 20
4.991780952
 30
0.0
 10
7.0738195342
 20
4.9988582512
 30
0.0
 10
7.0736964072
 20
5.0022935748
 30
0.0
  0
LINE
  5
331
100
AcDbEntity
  8
0
100
AcDbLine
 62
7
  6
CONTINUOUS
 10
2.6281880823
 20
4.9503251165
 11
2.5266255823
 21
5.0518876165
  0
SPLINE
  5
332
100
AcDbEntity
  8
0
100
AcDbSpline
 62
7
  6
CONTINUOUS
 70
0
 71
3
 72
55
 73
51
 74
0
 42
0.0000001
 43
0.0000001
 44
0.0000000001
 40
0.0
 40
0.0
 40
0.0
 40
0.0
 40
0.0009871628
 40
0.0013670919
 40
0.0018093682
 40
0.0023163695
 40
0.0028896452
 40
0.0042387262
 40
0.0058618699
 40
0.0077612245
 40
0.009937674
 40
0.0123913991
 40
0.01512185
 40
0.0214086934
 40
0.0287877089
 40
0.0372439301
 40
0.0573133336
 40
0.0814401139
 40
0.1094068143
 40
0.1409592921
 40
0.1758097201
 40
0.2136395463
 40
0.2541025725
 40
0.2968282312
 40
0.3414250718
 40
0.3874843922
 40
0.4345840144
 40
0.4822921754
 40
0.57778304
 40
0.624690305
 40
0.6704633055
 40
0.7146825027
 40
0.7569426784
 40
0.7968566807
 40
0.8340590177
 40
0.8682092929
 40
0.8989954616
 40
0.9261368685
 40
0.9382624873
 40
0.9493872952
 40
0.9594865645
 40
0.9685378103
 40
0.9765214671
 40
0.9834209511
 40
0.9892229446
 40
0.9939188442
 40
0.9958510652
 40
0.9975069011
 40
0.9988884349
 40
1.0
 40
1.0
 40
1.0
 40
1.0
 10
7.1147839072
 20
4.8657001259
 30
0.0
 10
7.1147281608
 20
4.8657001208
 30
0.0
 10
7.1146630806
 20
4.8657690656
 30
0.0
 10
7.1146114616
 20
4.8658541609
 30
0.0
 10
7.1145773029
 20
4.8659217284
 30
0.0
 10
7.1145436204
 20
4.8660006787
 30
0.0
 10
7.1144958253
 20
4.8661293985
 30
0.0
 10
7.1144374086
 20
4.8663210202
 30
0.0
 10
7.1143702144
 20
4.8665878741
 30
0.0
 10
7.1143028469
 20
4.8669026225
 30
0.0
 10
7.1142353153
 20
4.8672651508
 30
0.0
 10
7.1141676785
 20
4.8676752995
 30
0.0
 10
7.1140728768
 20
4.8683161326
 30
0.0
 10
7.1139563818
 20
4.8692347882
 30
0.0
 10
7.1138217653
 20
4.8704768206
 30
0.0
 10
7.1136307917
 20
4.8724954415
 30
0.0
 10
7.1133981622
 20
4.8754598399
 30
0.0
 10
7.113130471
 20
4.87952623
 30
0.0
 10
7.1128618002
 20
4.8842422353
 30
0.0
 10
7.1125923311
 20
4.8895646241
 30
0.0
 10
7.1123223859
 20
4.8954446146
 30
0.0
 10
7.1120520912
 20
4.9018282626
 30
0.0
 10
7.1117815538
 20
4.9086569952
 30
0.0
 10
7.1115108401
 20
4.9158681451
 30
0.0
 10
7.1112400007
 20
4.9233955326
 30
0.0
 10
7.1109690725
 20
4.9311700745
 30
0.0
 10
7.1106980881
 20
4.9391204188
 30
0.0
 10
7.1103366308
 20
4.9498607666
 30
0.0
 10
7.1099775035
 20
4.9605903245
 30
0.0
 10
7.1096140555
 20
4.9712103926
 30
0.0
 10
7.1093431429
 20
4.9789365481
 30
0.0
 10
7.1090723279
 20
4.9864001138
 30
0.0
 10
7.1088016479
 20
4.9935325928
 30
0.0
 10
7.1085311583
 20
5.0002685285
 30
0.0
 10
7.1082609272
 20
5.0065461057
 30
0.0
 10
7.1079910827
 20
5.0123077278
 30
0.0
 10
7.1077217287
 20
5.017500535
 30
0.0
 10
7.1074901176
 20
5.0214498018
 30
0.0
 10
7.1073022639
 20
5.0242893044
 30
0.0
 10
7.1071668292
 20
5.0261677453
 30
0.0
 10
7.1070315517
 20
5.0278720924
 30
0.0
 10
7.106896478
 20
5.0293984595
 30
0.0
 10
7.106761678
 20
5.0307433636
 30
0.0
 10
7.1066273554
 20
5.0319038073
 30
0.0
 10
7.1064935735
 20
5.0328771786
 30
0.0
 10
7.1063768316
 20
5.0335695875
 30
0.0
 10
7.1062806001
 20
5.0340274507
 30
0.0
 10
7.1062133967
 20
5.0343000174
 30
0.0
 10
7.1061464924
 20
5.0345246411
 30
0.0
 10
7.1060969462
 20
5.0346566918
 30
0.0
 10
7.1060712018
 20
5.0347139413
 30
0.0
  0
LINE
  5
333
100
AcDbEntity
  8
0
100
AcDbLine
 62
7
  6
CONTINUOUS
 10
7.1060712018
 20
5.0347139413
 11
7.1060239062
 21
5.0348074173
  0
LINE
  5
334
100
AcDbEntity
  8
0
100
AcDbLine
 62
7
  6
CONTINUOUS
 10
7.222468908
 20
4.8658428066
 11
7.2223855093
 21
4.8660233993
  0
SPLINE
  5
335
100
AcDbEntity
  8
0
100
AcDbSpline
 62
7
  6
CONTINUOUS
 70
0
 71
3
 72
53
 73
49
 74
0
 42
0.0000001
 43
0.0000001
 44
0.0000000001
 40
0.0
 40
0.0
 40
0.0
 40
0.0
 40
0.0012489122
 40
0.0027683276
 40
0.0045613209
 40
0.0066291399
 40
0.011589488
 40
0.0176459109
 40
0.0247882845
 40
0.0330028188
 40
0.042272285
 40
0.0525765941
 40
0.0761965688
 40
0.1036520957
 40
0.134695867
 40
0.1690471012
 40
0.2063944436
 40
0.2463989783
 40
0.2886974134
 40
0.3329054481
 40
0.4254294035
 40
0.5206140868
 40
0.5681252554
 40
0.6150057526
 40
0.66082937
 40
0.7051795495
 40
0.7476532121
 40
0.787864453
 40
0.8254480865
 40
0.8600630269
 40
0.8913954898
 40
0.9191620173
 40
0.9431123815
 40
0.9630325649
 40
0.9714253678
 40
0.97874869
 40
0.9849881376
 40
0.9876978851
 40
0.9901330279
 40
0.9922931625
 40
0.994178287
 40
0.9957892555
 40
0.9971284665
 40
0.9976976605
 40
0.9982011112
 40
0.9986403422
 40
0.9990177365
 40
1.0
 40
1.0
 40
1.0
 40
1.0
 10
7.2223855093
 20
4.8660233993
 30
0.0
 10
7.2223602166
 20
4.8660891939
 30
0.0
 10
7.2223112139
 20
4.8662377333
 30
0.0
 10
7.2222444072
 20
4.8664864232
 30
0.0
 10
7.2221773652
 20
4.8667826584
 30
0.0
 10
7.2220818713
 20
4.8672713308
 30
0.0
 10
7.2219656221
 20
4.8680008119
 30
0.0
 10
7.2218322048
 20
4.8690170563
 30
0.0
 10
7.2216982893
 20
4.8702182454
 30
0.0
 10
7.2215639649
 20
4.8716016836
 30
0.0
 10
7.2214293774
 20
4.873164295
 30
0.0
 10
7.2212410022
 20
4.8755948833
 30
0.0
 10
7.2210097899
 20
4.8790515212
 30
0.0
 10
7.2207421943
 20
4.883678636
 30
0.0
 10
7.2204739241
 20
4.8889122774
 30
0.0
 10
7.2202051165
 20
4.8947048361
 30
0.0
 10
7.2199359644
 20
4.9010036209
 30
0.0
 10
7.2196665606
 20
4.9077513134
 30
0.0
 10
7.2193969701
 20
4.9148865055
 30
0.0
 10
7.2190318046
 20
4.9249843827
 30
0.0
 10
7.2185819649
 20
4.9380660313
 30
0.0
 10
7.2181379421
 20
4.9513344053
 30
0.0
 10
7.217777868
 20
4.9620280313
 30
0.0
 10
7.217507997
 20
4.9699371774
 30
0.0
 10
7.2172381849
 20
4.9776678138
 30
0.0
 10
7.2169684614
 20
4.9851495764
 30
0.0
 10
7.2166988637
 20
4.992314368
 30
0.0
 10
7.216429442
 20
4.9990969799
 30
0.0
 10
7.2161602624
 20
5.0054356852
 30
0.0
 10
7.2158914313
 20
5.0112728049
 30
0.0
 10
7.2156230746
 20
5.0165552293
 30
0.0
 10
7.2153555127
 20
5.0212349399
 30
0.0
 10
7.2150889275
 20
5.025269391
 30
0.0
 10
7.2148572509
 20
5.02821018
 30
0.0
 10
7.2146670665
 20
5.0302125307
 30
0.0
 10
7.2145330017
 20
5.0314444713
 30
0.0
 10
7.2144169941
 20
5.0323556268
 30
0.0
 10
7.2143225824
 20
5.0329912078
 30
0.0
 10
7.2142552228
 20
5.0333979874
 30
0.0
 10
7.2141879739
 20
5.0337575392
 30
0.0
 10
7.2141208871
 20
5.0340696989
 30
0.0
 10
7.2140539639
 20
5.0343343516
 30
0.0
 10
7.2139957895
 20
5.0345243896
 30
0.0
 10
7.2139481965
 20
5.0346520476
 30
0.0
 10
7.2139146529
 20
5.0347303533
 30
0.0
 10
7.2138806367
 20
5.0347973578
 30
0.0
 10
7.2138291717
 20
5.0348818361
 30
0.0
 10
7.2137643462
 20
5.0349501038
 30
0.0
 10
7.2137089072
 20
5.0349501116
 30
0.0
  0
SPLINE
  5
336
100
AcDbEntity
  8
0
100
AcDbSpline
 62
7
  6
CONTINUOUS
 70
0
 71
3
 72
15
 73
11
 74
0
 42
0.0000001
 43
0.0000001
 44
0.0000000001
 40
0.0
 40
0.0
 40
0.0
 40
0.0
 40
0.1618006346
 40
0.3017136785
 40
0.4233605117
 40
0.5322705641
 40
0.6361044735
 40
0.7436714996
 40
0.8629775346
 40
1.0
 40
1.0
 40
1.0
 40
1.0
 10
7.2131880823
 20
4.8526861389
 30
0.0
 10
7.2132295579
 20
4.852629945
 30
0.0
 10
7.2133119859
 20
4.8525286676
 30
0.0
 10
7.2134460779
 20
4.8524034364
 30
0.0
 10
7.2135819352
 20
4.852316847
 30
0.0
 10
7.2137204591
 20
4.8522703276
 30
0.0
 10
7.213860798
 20
4.8522663073
 30
0.0
 10
7.2140001284
 20
4.8523051221
 30
0.0
 10
7.214137101
 20
4.8523845518
 30
0.0
 10
7.21422079
 20
4.8524578223
 30
0.0
 10
7.2142626123
 20
4.8524996462
 30
0.0
  0
LINE
  5
337
100
AcDbEntity
  8
0
100
AcDbLine
 62
7
  6
CONTINUOUS
 10
2.6281880823
 20
4.9503251165
 11
2.7297505823
 21
4.8487626165
  0
LINE
  5
338
100
AcDbEntity
  8
0
100
AcDbLine
 62
7
  6
CONTINUOUS
 10
7.151068908
 20
4.865842816
 11
7.1509816508
 21
4.8660335052
  0
SPLINE
  5
339
100
AcDbEntity
  8
0
100
AcDbSpline
 62
7
  6
CONTINUOUS
 70
0
 71
3
 72
53
 73
49
 74
0
 42
0.0000001
 43
0.0000001
 44
0.0000000001
 40
0.0
 40
0.0
 40
0.0
 40
0.0
 40
0.0012636805
 40
0.0027979059
 40
0.004605465
 40
0.0066876801
 40
0.0116762792
 40
0.0177596948
 40
0.0249279144
 40
0.0331670095
 40
0.0424595943
 40
0.052785781
 40
0.0764449989
 40
0.1039338178
 40
0.135004866
 40
0.1693773826
 40
0.2067400863
 40
0.246754201
 40
0.289056655
 40
0.3332634444
 40
0.4257706681
 40
0.5209227532
 40
0.5684129666
 40
0.615270159
 40
0.6610687205
 40
0.7053927043
 40
0.747839627
 40
0.7880241525
 40
0.8255816416
 40
0.8601715522
 40
0.8914806216
 40
0.9192258785
 40
0.9431575366
 40
0.9630619346
 40
0.9714479621
 40
0.978765466
 40
0.9849997615
 40
0.9877073846
 40
0.9901406091
 40
0.9922989197
 40
0.9941825168
 40
0.9957922985
 40
0.9971304294
 40
0.9976991393
 40
0.9982021807
 40
0.9986411015
 40
0.9990182745
 40
1.0
 40
1.0
 40
1.0
 40
1.0
 10
7.1509816508
 20
4.8660335052
 30
0.0
 10
7.1509564009
 20
4.8661002033
 30
0.0
 10
7.1509074548
 20
4.8662505007
 30
0.0
 10
7.1508406645
 20
4.8665017551
 30
0.0
 10
7.1507736367
 20
4.8668005039
 30
0.0
 10
7.1506782177
 20
4.867292447
 30
0.0
 10
7.1505620285
 20
4.8680258654
 30
0.0
 10
7.150428646
 20
4.8690466632
 30
0.0
 10
7.1502947776
 20
4.8702521741
 30
0.0
 10
7.1501605046
 20
4.8716396967
 30
0.0
 10
7.1500259683
 20
4.8732061518
 30
0.0
 10
7.1498377042
 20
4.8756413608
 30
0.0
 10
7.1496066003
 20
4.8791031236
 30
0.0
 10
7.1493391107
 20
4.8837355905
 30
0.0
 10
7.1490709499
 20
4.8889735277
 30
0.0
 10
7.1488022554
 20
4.8947693323
 30
0.0
 10
7.1485332182
 20
4.9010703302
 30
0.0
 10
7.1482639306
 20
4.9078192316
 30
0.0
 10
7.1479944572
 20
4.9149546696
 30
0.0
 10
7.1476294701
 20
4.9250511195
 30
0.0
 10
7.1471798406
 20
4.9381290832
 30
0.0
 10
7.1467359931
 20
4.9513926462
 30
0.0
 10
7.1463760662
 20
4.9620812537
 30
0.0
 10
7.1461063142
 20
4.9699859841
 30
0.0
 10
7.1458366214
 20
4.9777119203
 30
0.0
 10
7.1455670171
 20
4.9851888045
 30
0.0
 10
7.1452975388
 20
4.9923486442
 30
0.0
 10
7.1450282365
 20
4.9991263313
 30
0.0
 10
7.144759176
 20
5.0054602366
 30
0.0
 10
7.1444904639
 20
5.0112927756
 30
0.0
 10
7.1442222259
 20
5.0165709295
 30
0.0
 10
7.1439547828
 20
5.021246765
 30
0.0
 10
7.1436883145
 20
5.0252778113
 30
0.0
 10
7.1434567431
 20
5.0282160835
 30
0.0
 10
7.1432666385
 20
5.030216704
 30
0.0
 10
7.1431326387
 20
5.0314475647
 30
0.0
 10
7.1430166765
 20
5.0323579219
 30
0.0
 10
7.1429223093
 20
5.0329929434
 30
0.0
 10
7.1428549822
 20
5.0333993661
 30
0.0
 10
7.1427877599
 20
5.0337585966
 30
0.0
 10
7.1427207005
 20
5.0340704793
 30
0.0
 10
7.1426538131
 20
5.0343349022
 30
0.0
 10
7.1425956634
 20
5.0345247723
 30
0.0
 10
7.1425480895
 20
5.0346523092
 30
0.0
 10
7.1425145597
 20
5.0347305413
 30
0.0
 10
7.1424805578
 20
5.0347974873
 30
0.0
 10
7.1424291186
 20
5.0348819055
 30
0.0
 10
7.1423643122
 20
5.0349501121
 30
0.0
 10
7.1423089072
 20
5.034950107
 30
0.0
  0
SPLINE
  5
33A
100
AcDbEntity
  8
0
100
AcDbSpline
 62
7
  6
CONTINUOUS
 70
0
 71
3
 72
56
 73
52
 74
0
 42
0.0000001
 43
0.0000001
 44
0.0000000001
 40
0.0
 40
0.0
 40
0.0
 40
0.0
 40
0.0009683927
 40
0.0013457618
 40
0.0017861124
 40
0.0022916947
 40
0.0028639546
 40
0.004211895
 40
0.0058347977
 40
0.007734902
 40
0.0099132381
 40
0.0123696757
 40
0.015103431
 40
0.0213985457
 40
0.0287885688
 40
0.03725812
 40
0.0467886598
 40
0.0573601986
 40
0.0815266563
 40
0.1095396583
 40
0.1411438361
 40
0.1760498952
 40
0.2139382483
 40
0.2544617664
 40
0.2972483403
 40
0.3419050609
 40
0.3880220716
 40
0.435175941
 40
0.4829333529
 40
0.5785028609
 40
0.6254371222
 40
0.6712273802
 40
0.7154532728
 40
0.7577086688
 40
0.7976054522
 40
0.8347778377
 40
0.868885206
 40
0.8996149509
 40
0.926686055
 40
0.9387717268
 40
0.9498528074
 40
0.9599053931
 40
0.9689065884
 40
0.9768366093
 40
0.9836797089
 40
0.9894217142
 40
0.9940543763
 40
0.9959540697
 40
0.9975764873
 40
0.9989235318
 40
1.0
 40
1.0
 40
1.0
 40
1.0
 10
2.5409006344
 20
4.3502917915
 30
0.0
 10
2.5409006122
 20
4.3503481973
 30
0.0
 10
2.5409726068
 20
4.3504131616
 30
0.0
 10
2.5410598139
 20
4.350464426
 30
0.0
 10
2.5411296769
 20
4.3504986166
 30
0.0
 10
2.5412112552
 20
4.3505323172
 30
0.0
 10
2.5413443327
 20
4.350580167
 30
0.0
 10
2.5415423572
 20
4.3506386324
 30
0.0
 10
2.5418180691
 20
4.350705887
 30
0.0
 10
2.5421432855
 20
4.3507733146
 30
0.0
 10
2.5425179059
 20
4.3508409001
 30
0.0
 10
2.5429417499
 20
4.3509085957
 30
0.0
 10
2.5436039909
 20
4.3510034874
 30
0.0
 10
2.544553291
 20
4.3511201009
 30
0.0
 10
2.5458367202
 20
4.3512548174
 30
0.0
 10
2.54730947
 20
4.3513898538
 30
0.0
 10
2.5489681864
 20
4.3515251753
 30
0.0
 10
2.5515397603
 20
4.351714346
 30
0.0
 10
2.5551874929
 20
4.3519466854
 30
0.0
 10
2.5600602355
 20
4.3522157059
 30
0.0
 10
2.5655593313
 20
4.352485388
 30
0.0
 10
2.5716342247
 20
4.3527555935
 30
0.0
 10
2.5782290958
 20
4.3530261359
 30
0.0
 10
2.5852833294
 20
4.3532969228
 30
0.0
 10
2.592732065
 20
4.3535678856
 30
0.0
 10
2.6005068041
 20
4.3538389755
 30
0.0
 10
2.6085360699
 20
4.3541101538
 30
0.0
 10
2.6167460394
 20
4.3543813872
 30
0.0
 10
2.6278350382
 20
4.3547431527
 30
0.0
 10
2.6389113147
 20
4.3551026043
 30
0.0
 10
2.6498728062
 20
4.3554664154
 30
0.0
 10
2.657845122
 20
4.355737576
 30
0.0
 10
2.6655447504
 20
4.3560086372
 30
0.0
 10
2.6729008868
 20
4.3562795609
 30
0.0
 10
2.6798458943
 20
4.3565502944
 30
0.0
 10
2.6863159326
 20
4.3568207664
 30
0.0
 10
2.6922515381
 20
4.3570908455
 30
0.0
 10
2.6975981307
 20
4.3573604244
 30
0.0
 10
2.7016622405
 20
4.3575922759
 30
0.0
 10
2.7045823989
 20
4.3577803357
 30
0.0
 10
2.7065125783
 20
4.3579158945
 30
0.0
 10
2.7082626263
 20
4.3580512832
 30
0.0
 10
2.7098285505
 20
4.3581864615
 30
0.0
 10
2.7112067754
 20
4.3583213743
 30
0.0
 10
2.7123942086
 20
4.3584557715
 30
0.0
 10
2.7133881837
 20
4.358589623
 30
0.0
 10
2.7140937546
 20
4.3587064819
 30
0.0
 10
2.7145589212
 20
4.3588028811
 30
0.0
 10
2.7148345505
 20
4.3588700978
 30
0.0
 10
2.7150605981
 20
4.3589370094
 30
0.0
 10
2.7151930142
 20
4.3589867005
 30
0.0
 10
2.715250123
 20
4.3590125846
 30
0.0
  0
SPLINE
  5
33B
100
AcDbEntity
  8
0
100
AcDbSpline
 62
7
  6
CONTINUOUS
 70
0
 71
3
 72
9
 73
5
 74
0
 42
0.0000001
 43
0.0000001
 44
0.0000000001
 40
0.0
 40
0.0
 40
0.0
 40
0.0
 40
0.2681611063
 40
1.0
 40
1.0
 40
1.0
 40
1.0
 10
2.715250123
 20
4.3590125846
 30
0.0
 10
2.7152580732
 20
4.359016188
 30
0.0
 10
2.7152875831
 20
4.3590299208
 30
0.0
 10
2.7153165377
 20
4.3590448892
 30
0.0
 10
2.7153371595
 20
4.3590568144
 30
0.0
  0
SPLINE
  5
33C
100
AcDbEntity
  8
0
100
AcDbSpline
 62
7
  6
CONTINUOUS
 70
0
 71
3
 72
55
 73
51
 74
0
 42
0.0000001
 43
0.0000001
 44
0.0000000001
 40
0.0
 40
0.0
 40
0.0
 40
0.0
 40
0.0009875876
 40
0.0013677025
 40
0.0018102019
 40
0.002317474
 40
0.0028910794
 40
0.0042410013
 40
0.0058650959
 40
0.0077655511
 40
0.0099433346
 40
0.0123985675
 40
0.0151306304
 40
0.0214213011
 40
0.0288047074
 40
0.0372660459
 40
0.057347345
 40
0.0814881896
 40
0.1094708582
 40
0.1410409008
 40
0.1759101429
 40
0.2137596326
 40
0.254242747
 40
0.2969884989
 40
0.3416050036
 40
0.3876831144
 40
0.4348002042
 40
0.4825240629
 40
0.5780392941
 40
0.6249544368
 40
0.6707319637
 40
0.7149520164
 40
0.757209097
 40
0.7971158192
 40
0.834306526
 40
0.8684407296
 40
0.8992063312
 40
0.9263226792
 40
0.9384340659
 40
0.9495436266
 40
0.9596264842
 40
0.9686603871
 40
0.9766255974
 40
0.983505743
 40
0.989287477
 40
0.9939622872
 40
0.9958837391
 40
0.9975287238
 40
0.9988993057
 40
1.0
 40
1.0
 40
1.0
 40
1.0
 10
7.1326339072
 20
4.8657001213
 30
0.0
 10
7.1325781345
 20
4.8657001134
 30
0.0
 10
7.1325130398
 20
4.8657691232
 30
0.0
 10
7.1324614046
 20
4.8658542639
 30
0.0
 10
7.1324272346
 20
4.8659218731
 30
0.0
 10
7.1323935408
 20
4.8660008727
 30
0.0
 10
7.1323457293
 20
4.8661296794
 30
0.0
 10
7.1322872967
 20
4.86632143
 30
0.0
 10
7.1322200784
 20
4.8665884579
 30
0.0
 10
7.1321526876
 20
4.8669034102
 30
0.0
 10
7.1320851351
 20
4.8672661765
 30
0.0
 10
7.1320174771
 20
4.8676765939
 30
0.0
 10
7.1319226415
 20
4.8683178453
 30
0.0
 10
7.1318061117
 20
4.8692370943
 30
0.0
 10
7.1316714479
 20
4.8704799304
 30
0.0
 10
7.1314804151
 20
4.8724998431
 30
0.0
 10
7.1312477076
 20
4.8754661178
 30
0.0
 10
7.1309799296
 20
4.8795350421
 30
0.0
 10
7.1307111705
 20
4.8842539282
 30
0.0
 10
7.1304416134
 20
4.8895794908
 30
0.0
 10
7.1301715799
 20
4.8954628864
 30
0.0
 10
7.1299011968
 20
4.9018501026
 30
0.0
 10
7.1296305709
 20
4.9086824936
 30
0.0
 10
7.1293597687
 20
4.9158973176
 30
0.0
 10
7.1290888407
 20
4.9234283187
 30
0.0
 10
7.1288178241
 20
4.9312063359
 30
0.0
 10
7.1285467514
 20
4.9391599384
 30
0.0
 10
7.1281851851
 20
4.9499039732
 30
0.0
 10
7.1278259427
 20
4.9606366754
 30
0.0
 10
7.1274623662
 20
4.9712592517
 30
0.0
 10
7.127191366
 20
4.9789864697
 30
0.0
 10
7.1269204638
 20
4.9864504672
 30
0.0
 10
7.126649697
 20
4.993582697
 30
0.0
 10
7.1263791214
 20
5.0003176615
 30
0.0
 10
7.1261088051
 20
5.0065935147
 30
0.0
 10
7.1258388772
 20
5.0123526403
 30
0.0
 10
7.1255694416
 20
5.0175421673
 30
0.0
 10
7.1253377491
 20
5.0214882055
 30
0.0
 10
7.1251498187
 20
5.0243247329
 30
0.0
 10
7.125014344
 20
5.0262006499
 30
0.0
 10
7.1248790235
 20
5.0279022878
 30
0.0
 10
7.1247439132
 20
5.0294257553
 30
0.0
 10
7.1246090742
 20
5.0307675824
 30
0.0
 10
7.1244747207
 20
5.0319247716
 30
0.0
 10
7.1243409119
 20
5.0328947206
 30
0.0
 10
7.1242241304
 20
5.033584171
 30
0.0
 10
7.1241278384
 20
5.0340395769
 30
0.0
 10
7.1240606256
 20
5.0343102604
 30
0.0
 10
7.123993715
 20
5.0345329676
 30
0.0
 10
7.1239441208
 20
5.034663698
 30
0.0
 10
7.1239183392
 20
5.0347202596
 30
0.0
  0
SPLINE
  5
33D
100
AcDbEntity
  8
0
100
AcDbSpline
 62
7
  6
CONTINUOUS
 70
0
 71
3
 72
9
 73
5
 74
0
 42
0.0000001
 43
0.0000001
 44
0.0000000001
 40
0.0
 40
0.0
 40
0.0
 40
0.0
 40
0.2677248115
 40
1.0
 40
1.0
 40
1.0
 40
1.0
 10
7.1239183392
 20
5.0347202596
 30
0.0
 10
7.1239147174
 20
5.0347282053
 30
0.0
 10
7.1239008986
 20
5.034757748
 30
0.0
 10
7.1238858635
 20
5.0347867404
 30
0.0
 10
7.1238739062
 20
5.0348074159
 30
0.0
  0
SPLINE
  5
33E
100
AcDbEntity
  8
0
100
AcDbSpline
 62
7
  6
CONTINUOUS
 70
0
 71
3
 72
56
 73
52
 74
0
 42
0.0000001
 43
0.0000001
 44
0.0000000001
 40
0.0
 40
0.0
 40
0.0
 40
0.0
 40
0.0009723003
 40
0.0013514084
 40
0.0017938319
 40
0.0023018791
 40
0.002877056
 40
0.0042323744
 40
0.0058645586
 40
0.0077754581
 40
0.0099657619
 40
0.0124355253
 40
0.0151844217
 40
0.0215152818
 40
0.0289461181
 40
0.037462475
 40
0.0470460371
 40
0.0576748249
 40
0.0819721637
 40
0.1101331354
 40
0.1418996221
 40
0.1769798071
 40
0.2150503602
 40
0.2557596987
 40
0.2987321093
 40
0.3435709891
 40
0.3898619981
 40
0.4371772748
 40
0.4850797323
 40
0.5808742993
 40
0.6278811295
 40
0.6737129925
 40
0.7179462835
 40
0.7601724214
 40
0.8000017139
 40
0.8370665213
 40
0.8710246133
 40
0.9015633762
 40
0.9284025168
 40
0.9403564133
 40
0.9512964883
 40
0.9611971962
 40
0.9700374922
 40
0.977797609
 40
0.9844610924
 40
0.9900162681
 40
0.9944542444
 40
0.9962540936
 40
0.9977759205
 40
0.9990225548
 40
1.0
 40
1.0
 40
1.0
 40
1.0
 10
2.54090061
 20
4.3681417916
 30
0.0
 10
2.5409006404
 20
4.3681984446
 30
0.0
 10
2.5409731608
 20
4.3682635395
 30
0.0
 10
2.5410608148
 20
4.3683149498
 30
0.0
 10
2.5411310712
 20
4.3683492437
 30
0.0
 10
2.5412131078
 20
4.3683830471
 30
0.0
 10
2.5413469738
 20
4.3684310484
 30
0.0
 10
2.541546211
 20
4.3684896864
 30
0.0
 10
2.5418236231
 20
4.368557135
 30
0.0
 10
2.542150822
 20
4.3686247609
 30
0.0
 10
2.5425276749
 20
4.3686925554
 30
0.0
 10
2.5429540211
 20
4.3687604618
 30
0.0
 10
2.5436202336
 20
4.3688556436
 30
0.0
 10
2.5445752093
 20
4.3689725858
 30
0.0
 10
2.5458662692
 20
4.3691077271
 30
0.0
 10
2.5473477236
 20
4.3692431715
 30
0.0
 10
2.5490161672
 20
4.3693788858
 30
0.0
 10
2.5516026797
 20
4.3695686454
 30
0.0
 10
2.5552712572
 20
4.3698016577
 30
0.0
 10
2.5601713864
 20
4.3700714947
 30
0.0
 10
2.5657006045
 20
4.3703419893
 30
0.0
 10
2.5718078127
 20
4.3706130064
 30
0.0
 10
2.5784365474
 20
4.3708843588
 30
0.0
 10
2.5855254844
 20
4.3711559608
 30
0.0
 10
2.5930090563
 20
4.3714277385
 30
0.0
 10
2.6008180545
 20
4.3716996411
 30
0.0
 10
2.6088802427
 20
4.371971632
 30
0.0
 10
2.617121033
 20
4.3722436791
 30
0.0
 10
2.6282448185
 20
4.3726064454
 30
0.0
 10
2.6393506962
 20
4.3729669542
 30
0.0
 10
2.6503357147
 20
4.3733319486
 30
0.0
 10
2.6583178471
 20
4.3736039133
 30
0.0
 10
2.6660212605
 20
4.3738757765
 30
0.0
 10
2.6733747015
 20
4.3741475
 30
0.0
 10
2.6803101656
 20
4.3744190235
 30
0.0
 10
2.6867634946
 20
4.3746902745
 30
0.0
 10
2.6926749987
 20
4.3749611199
 30
0.0
 10
2.6979900207
 20
4.3752314525
 30
0.0
 10
2.7020231236
 20
4.3754640478
 30
0.0
 10
2.7049147776
 20
4.3756528181
 30
0.0
 10
2.7068207964
 20
4.3757887428
 30
0.0
 10
2.7085449024
 20
4.3759245178
 30
0.0
 10
2.7100831116
 20
4.376060053
 30
0.0
 10
2.7114319017
 20
4.376195283
 30
0.0
 10
2.7125882672
 20
4.3763299935
 30
0.0
 10
2.7135495634
 20
4.3764640612
 30
0.0
 10
2.7142269248
 20
4.3765812591
 30
0.0
 10
2.7146686035
 20
4.3766782411
 30
0.0
 10
2.7149262569
 20
4.3767455564
 30
0.0
 10
2.715134092
 20
4.3768124985
 30
0.0
 10
2.7152540013
 20
4.3768626277
 30
0.0
 10
2.715304528
 20
4.3768889082
 30
0.0
  0
SPLINE
  5
33F
100
AcDbEntity
  8
0
100
AcDbSpline
 62
7
  6
CONTINUOUS
 70
0
 71
3
 72
51
 73
47
 74
0
 42
0.0000001
 43
0.0000001
 44
0.0000000001
 40
0.0
 40
0.0
 40
0.0
 40
0.0
 40
0.0001860997
 40
0.0004289543
 40
0.0010995111
 40
0.0020272357
 40
0.0032169108
 40
0.0046703659
 40
0.0063881352
 40
0.0083702374
 40
0.0106163419
 40
0.0158970664
 40
0.0222220326
 40
0.029579697
 40
0.037956292
 40
0.0473352787
 40
0.0576981635
 40
0.069024025
 40
0.081289856
 40
0.1085391052
 40
0.1392210125
 40
0.173079795
 40
0.2098308637
 40
0.2491630715
 40
0.2907411907
 40
0.3342086175
 40
0.3791902885
 40
0.4252957831
 40
0.4721226361
 40
0.5662911172
 40
0.6583686092
 40
0.7450652178
 40
0.7854071654
 40
0.823247529
 40
0.8582382237
 40
0.8900552246
 40
0.9184018644
 40
0.9430118877
 40
0.9636523955
 40
0.9724211609
 40
0.9801269308
 40
0.9867512624
 40
0.9922789006
 40
0.9966975876
 40
0.998488605
 40
1.0
 40
1.0
 40
1.0
 40
1.0
 10
7.2187432847
 20
5.0436699141
 30
0.0
 10
7.2187512067
 20
5.0436619921
 30
0.0
 10
7.2187665204
 20
5.0436408752
 30
0.0
 10
7.2187965973
 20
5.0435818186
 30
0.0
 10
7.2188317155
 20
5.0434761961
 30
0.0
 10
7.2188715735
 20
5.0433131839
 30
0.0
 10
7.2189117475
 20
5.0431018898
 30
0.0
 10
7.2189522765
 20
5.0428424947
 30
0.0
 10
7.2189929716
 20
5.0425349129
 30
0.0
 10
7.2190338099
 20
5.0421792858
 30
0.0
 10
7.2190915405
 20
5.041609744
 30
0.0
 10
7.2191622138
 20
5.0407788062
 30
0.0
 10
7.2192436508
 20
5.0396400838
 30
0.0
 10
7.2193254107
 20
5.0383146001
 30
0.0
 10
7.2194074443
 20
5.036804977
 30
0.0
 10
7.2194896815
 20
5.0351142108
 30
0.0
 10
7.2195720857
 20
5.0332457157
 30
0.0
 10
7.2196546389
 20
5.0312032826
 30
0.0
 10
7.2197689267
 20
5.0281447416
 30
0.0
 10
7.2199102519
 20
5.0239211666
 30
0.0
 10
7.2200751631
 20
5.0183977811
 30
0.0
 10
7.220240629
 20
5.0123021629
 30
0.0
 10
7.2204065981
 20
5.0056856271
 30
0.0
 10
7.220573007
 20
4.9986042549
 30
0.0
 10
7.2207398216
 20
4.9911184562
 30
0.0
 10
7.2209070145
 20
4.9832924823
 30
0.0
 10
7.2210745661
 20
4.975193904
 30
0.0
 10
7.2212424605
 20
4.9668930501
 30
0.0
 10
7.2214671709
 20
4.9556316488
 30
0.0
 10
7.2217451164
 20
4.941603202
 30
0.0
 10
7.2220790058
 20
4.9251751979
 30
0.0
 10
7.2223639411
 20
4.911987278
 30
0.0
 10
7.2225964139
 20
4.9020641341
 30
0.0
 10
7.2227667471
 20
4.8952531405
 30
0.0
 10
7.2229371871
 20
4.8889555305
 30
0.0
 10
7.2231076697
 20
4.8832296805
 30
0.0
 10
7.223278006
 20
4.8781290539
 30
0.0
 10
7.2234480853
 20
4.8737016827
 30
0.0
 10
7.2235959633
 20
4.8704529812
 30
0.0
 10
7.2237173456
 20
4.8682219044
 30
0.0
 10
7.2238032567
 20
4.8668339733
 30
0.0
 10
7.2238888912
 20
4.8656415571
 30
0.0
 10
7.2239742129
 20
4.8646476171
 30
0.0
 10
7.2240488218
 20
4.8639448562
 30
0.0
 10
7.2241106332
 20
4.8634841411
 30
0.0
 10
7.2241418571
 20
4.8632877629
 30
0.0
 10
7.2241578706
 20
4.8631981958
 30
0.0
  0
LINE
  5
340
100
AcDbEntity
  8
0
100
AcDbLine
 62
7
  6
CONTINUOUS
 10
7.2241578706
 20
4.8631981958
 11
7.224300663
 21
4.8626752903
  0
SPLINE
  5
341
100
AcDbEntity
  8
0
100
AcDbSpline
 62
7
  6
CONTINUOUS
 70
0
 71
3
 72
29
 73
25
 74
0
 42
0.0000001
 43
0.0000001
 44
0.0000000001
 40
0.0
 40
0.0
 40
0.0
 40
0.0
 40
0.2311266241
 40
0.3366200599
 40
0.4349353919
 40
0.5257853424
 40
0.6088961304
 40
0.684010152
 40
0.7508930129
 40
0.8093573666
 40
0.8592486489
 40
0.8809529907
 40
0.9004902324
 40
0.9178646269
 40
0.9330944809
 40
0.9462197558
 40
0.957311777
 40
0.9664993792
 40
0.9740231286
 40
0.9803326327
 40
0.9832691862
 40
0.9862031691
 40
0.9924954654
 40
1.0
 40
1.0
 40
1.0
 40
1.0
 10
2.5632474586
 20
4.3253251165
 30
0.0
 10
2.5607655943
 20
4.3250990371
 30
0.0
 10
2.5571523373
 20
4.3247534862
 30
0.0
 10
2.5524887459
 20
4.3242587461
 30
0.0
 10
2.5493320687
 20
4.3238980126
 30
0.0
 10
2.546418546
 20
4.3235362797
 30
0.0
 10
2.5437574023
 20
4.32317358
 30
0.0
 10
2.5413574315
 20
4.3228100492
 30
0.0
 10
2.5392266667
 20
4.3224458336
 30
0.0
 10
2.5373724521
 20
4.3220811683
 30
0.0
 10
2.5360058403
 20
4.3217643717
 30
0.0
 10
2.5350576822
 20
4.3215058627
 30
0.0
 10
2.5344531846
 20
4.3213209275
 30
0.0
 10
2.5339221112
 20
4.3211358676
 30
0.0
 10
2.5334648422
 20
4.3209506894
 30
0.0
 10
2.5330815372
 20
4.3207653956
 30
0.0
 10
2.5327720213
 20
4.3205798829
 30
0.0
 10
2.5325358796
 20
4.3203932869
 30
0.0
 10
2.5323722439
 20
4.3202038321
 30
0.0
 10
2.5322973479
 20
4.3200347442
 30
0.0
 10
2.5322826356
 20
4.3199033387
 30
0.0
 10
2.5322948951
 20
4.3197718592
 30
0.0
 10
2.5323667642
 20
4.3196019069
 30
0.0
 10
2.5324636788
 20
4.3194870219
 30
0.0
 10
2.5325209023
 20
4.3194298098
 30
0.0
  0
SPLINE
  5
342
100
AcDbEntity
  8
0
100
AcDbSpline
 62
7
  6
CONTINUOUS
 70
0
 71
3
 72
56
 73
52
 74
0
 42
0.0000001
 43
0.0000001
 44
0.0000000001
 40
0.0
 40
0.0
 40
0.0
 40
0.0
 40
0.0009700145
 40
0.0013481917
 40
0.0017894835
 40
0.0022961493
 40
0.0028696452
 40
0.0042205582
 40
0.0058471759
 40
0.0077518231
 40
0.0099353627
 40
0.0123975163
 40
0.0151375805
 40
0.0214474271
 40
0.0288548932
 40
0.0373439751
 40
0.0468966881
 40
0.0574925114
 40
0.0817137804
 40
0.1097887846
 40
0.141461334
 40
0.1764406165
 40
0.2144053553
 40
0.2550068576
 40
0.297871664
 40
0.3426049578
 40
0.388794997
 40
0.436016682
 40
0.4838351148
 40
0.5794992968
 40
0.6264641279
 40
0.6722718475
 40
0.7165009035
 40
0.7587442317
 40
0.7986127715
 40
0.8357398389
 40
0.8697845471
 40
0.9004343579
 40
0.9274080524
 40
0.939438272
 40
0.9504599712
 40
0.9604490747
 40
0.9693823752
 40
0.9772410682
 40
0.9840089023
 40
0.9896720312
 40
0.9942231003
 40
0.9960809158
 40
0.9976608414
 40
0.9989653953
 40
1.0
 40
1.0
 40
1.0
 40
1.0
 10
2.5409006163
 20
4.3859917915
 30
0.0
 10
2.5409005865
 20
4.3860483002
 30
0.0
 10
2.5409728325
 20
4.3861133309
 30
0.0
 10
2.5410602374
 20
4.3861646448
 30
0.0
 10
2.5411302795
 20
4.3861988796
 30
0.0
 10
2.5412120587
 20
4.3862326229
 30
0.0
 10
2.5413454645
 20
4.3862805346
 30
0.0
 10
2.54154398
 20
4.3863390757
 30
0.0
 10
2.5418203884
 20
4.3864064168
 30
0.0
 10
2.5421464396
 20
4.3864739258
 30
0.0
 10
2.5425220181
 20
4.3865415954
 30
0.0
 10
2.5429469296
 20
4.3866093789
 30
0.0
 10
2.5436108289
 20
4.3867043939
 30
0.0
 10
2.5445625142
 20
4.3868211551
 30
0.0
 10
2.5458491494
 20
4.3869560366
 30
0.0
 10
2.5473255655
 20
4.3870912523
 30
0.0
 10
2.5489883758
 20
4.3872267402
 30
0.0
 10
2.5515662352
 20
4.3874161516
 30
0.0
 10
2.5552227351
 20
4.3876487803
 30
0.0
 10
2.5601069962
 20
4.3879181448
 30
0.0
 10
2.5656187771
 20
4.3881881671
 30
0.0
 10
2.5717072794
 20
4.3884587141
 30
0.0
 10
2.5783163971
 20
4.3887295986
 30
0.0
 10
2.5853852374
 20
4.3890007292
 30
0.0
 10
2.5928486496
 20
4.389272034
 30
0.0
 10
2.6006378251
 20
4.3895434665
 30
0.0
 10
2.608680958
 20
4.3898149874
 30
0.0
 10
2.6169039151
 20
4.3900865632
 30
0.0
 10
2.628007593
 20
4.3904487499
 30
0.0
 10
2.6390963748
 20
4.3908086476
 30
0.0
 10
2.6500678138
 20
4.3911729559
 30
0.0
 10
2.6580442994
 20
4.3914444556
 30
0.0
 10
2.6657455711
 20
4.3917158552
 30
0.0
 10
2.6731006345
 20
4.391987115
 30
0.0
 10
2.6800416802
 20
4.3922581805
 30
0.0
 10
2.6865047345
 20
4.392528982
 30
0.0
 10
2.6924302595
 20
4.3927993849
 30
0.0
 10
2.6977636412
 20
4.3930692788
 30
0.0
 10
2.701814762
 20
4.3933014447
 30
0.0
 10
2.7047229513
 20
4.3934898021
 30
0.0
 10
2.7066429971
 20
4.3936255213
 30
0.0
 10
2.7083821516
 20
4.3937610617
 30
0.0
 10
2.7099364467
 20
4.3938963999
 30
0.0
 10
2.7113023124
 20
4.3940314477
 30
0.0
 10
2.7124766966
 20
4.3941659648
 30
0.0
 10
2.7134569508
 20
4.3942999287
 30
0.0
 10
2.7141506728
 20
4.3944169257
 30
0.0
 10
2.7146059886
 20
4.3945135582
 30
0.0
 10
2.7148740472
 20
4.3945808229
 30
0.0
 10
2.7150924118
 20
4.3946477553
 30
0.0
 10
2.7152195596
 20
4.394697626
 30
0.0
 10
2.715273914
 20
4.3947236692
 30
0.0
  0
SPLINE
  5
343
100
AcDbEntity
  8
0
100
AcDbSpline
 62
7
  6
CONTINUOUS
 70
0
 71
3
 72
9
 73
5
 74
0
 42
0.0000001
 43
0.0000001
 44
0.0000000001
 40
0.0
 40
0.0
 40
0.0
 40
0.0
 40
0.2638431576
 40
1.0
 40
1.0
 40
1.0
 40
1.0
 10
2.715273914
 20
4.3947236692
 30
0.0
 10
2.7152795785
 20
4.3947263833
 30
0.0
 10
2.7153009622
 20
4.3947368463
 30
0.0
 10
2.7153219941
 20
4.3947480421
 30
0.0
 10
2.715337166
 20
4.3947568143
 30
0.0
  0
LINE
  5
344
100
AcDbEntity
  8
0
100
AcDbLine
 62
7
  6
CONTINUOUS
 10
2.7297505823
 20
4.3860001165
 11
2.7290098864
 21
4.3856568029
  0
SPLINE
  5
345
100
AcDbEntity
  8
0
100
AcDbSpline
 62
7
  6
CONTINUOUS
 70
0
 71
3
 72
47
 73
43
 74
0
 42
0.0000001
 43
0.0000001
 44
0.0000000001
 40
0.0
 40
0.0
 40
0.0
 40
0.0
 40
0.0015721715
 40
0.0034070056
 40
0.0078646219
 40
0.0133699561
 40
0.0199144551
 40
0.0274851305
 40
0.036067652
 40
0.0561932361
 40
0.08012225
 40
0.1076506376
 40
0.138542403
 40
0.1725323461
 40
0.2093284359
 40
0.2486140896
 40
0.3332822308
 40
0.4236268066
 40
0.5165416458
 40
0.6088320184
 40
0.6537474482
 40
0.6973245556
 40
0.7391880715
 40
0.7789773511
 40
0.8163497787
 40
0.8509839689
 40
0.8825821891
 40
0.9108728767
 40
0.9356133235
 40
0.9465851882
 40
0.9565927093
 40
0.9656154781
 40
0.9736339178
 40
0.9806322392
 40
0.9865968952
 40
0.9915167992
 40
0.993583231
 40
0.9953868496
 40
0.9969278644
 40
0.9982074919
 40
0.9992290976
 40
1.0
 40
1.0
 40
1.0
 40
1.0
 10
2.7290098864
 20
4.3856568029
 30
0.0
 10
2.7289065008
 20
4.3856328101
 30
0.0
 10
2.7286813005
 20
4.3855857899
 30
0.0
 10
2.7281585868
 20
4.3854925447
 30
0.0
 10
2.7273700285
 20
4.3853794132
 30
0.0
 10
2.7262631668
 20
4.3852497576
 30
0.0
 10
2.72494499
 20
4.3851195766
 30
0.0
 10
2.7234182821
 20
4.3849888967
 30
0.0
 10
2.7209761241
 20
4.3848044042
 30
0.0
 10
2.717429779
 20
4.3845790021
 30
0.0
 10
2.7126043502
 20
4.384319179
 30
0.0
 10
2.7070512545
 20
4.3840585099
 30
0.0
 10
2.7008183513
 20
4.3837971588
 30
0.0
 10
2.6939593315
 20
4.3835353923
 30
0.0
 10
2.6865332974
 20
4.3832733068
 30
0.0
 10
2.6756874198
 20
4.3829145856
 30
0.0
 10
2.6612274072
 20
4.3824735021
 30
0.0
 10
2.6431477479
 20
4.3819552194
 30
0.0
 10
2.6245533412
 20
4.3814364857
 30
0.0
 10
2.6090246207
 20
4.3810004807
 30
0.0
 10
2.5968255589
 20
4.3806470826
 30
0.0
 10
2.588029482
 20
4.3803844944
 30
0.0
 10
2.5795796138
 20
4.3801220172
 30
0.0
 10
2.5715488134
 20
4.3798596859
 30
0.0
 10
2.564006313
 20
4.379597558
 30
0.0
 10
2.5570171161
 20
4.3793357061
 30
0.0
 10
2.5506414497
 20
4.3790742709
 30
0.0
 10
2.5449342821
 20
4.3788133639
 30
0.0
 10
2.5406194053
 20
4.3785886462
 30
0.0
 10
2.537538365
 20
4.3784061805
 30
0.0
 10
2.5355172393
 20
4.3782749817
 30
0.0
 10
2.5336959369
 20
4.3781439797
 30
0.0
 10
2.5320783456
 20
4.3780131883
 30
0.0
 10
2.5306679147
 20
4.3778827747
 30
0.0
 10
2.5294676532
 20
4.377752829
 30
0.0
 10
2.5286005717
 20
4.3776397277
 30
0.0
 10
2.5280144407
 20
4.3775469905
 30
0.0
 10
2.5276549902
 20
4.3774816906
 30
0.0
 10
2.5273496309
 20
4.3774166126
 30
0.0
 10
2.5270982995
 20
4.3773518573
 30
0.0
 10
2.5269010564
 20
4.3772875655
 30
0.0
 10
2.5267897489
 20
4.3772386862
 30
0.0
 10
2.5267446884
 20
4.3772126502
 30
0.0
  0
LINE
  5
346
100
AcDbEntity
  8
0
100
AcDbLine
 62
7
  6
CONTINUOUS
 10
7.168918908
 20
4.8658428114
 11
7.168868343
 21
4.8659436153
  0
SPLINE
  5
347
100
AcDbEntity
  8
0
100
AcDbSpline
 62
7
  6
CONTINUOUS
 70
0
 71
3
 72
55
 73
51
 74
0
 42
0.0000001
 43
0.0000001
 44
0.0000000001
 40
0.0
 40
0.0
 40
0.0
 40
0.0
 40
0.0011239993
 40
0.0025179968
 40
0.0041862372
 40
0.0061308055
 40
0.0108507105
 40
0.0166758741
 40
0.0235973939
 40
0.0316021041
 40
0.0406731621
 40
0.0507911222
 40
0.061933387
 40
0.0740751851
 40
0.1012451929
 40
0.1320548437
 40
0.1662234685
 40
0.2034390564
 40
0.2433613391
 40
0.2856250313
 40
0.3298432451
 40
0.375611078
 40
0.4225093525
 40
0.5179724031
 40
0.5656626505
 40
0.6127423421
 40
0.6587802215
 40
0.7033546199
 40
0.7460573408
 40
0.7864974303
 40
0.8243048261
 40
0.859133809
 40
0.8906662594
 40
0.9186147436
 40
0.9427254692
 40
0.9627812815
 40
0.9712316928
 40
0.9786056446
 40
0.9848881784
 40
0.9876167597
 40
0.9900687456
 40
0.9922437202
 40
0.9941418119
 40
0.9957638242
 40
0.9971119825
 40
0.9976848982
 40
0.998191593
 40
0.9986336061
 40
0.9990133056
 40
1.0
 40
1.0
 40
1.0
 40
1.0
 10
7.168868343
 20
4.8659436153
 30
0.0
 10
7.1688426423
 20
4.8660016499
 30
0.0
 10
7.1687931499
 20
4.8661352041
 30
0.0
 10
7.1687262504
 20
4.8663620133
 30
0.0
 10
7.1686590591
 20
4.8666367308
 30
0.0
 10
7.1685628999
 20
4.8670973985
 30
0.0
 10
7.1684461975
 20
4.8677931841
 30
0.0
 10
7.1683124513
 20
4.8687704579
 30
0.0
 10
7.1681781613
 20
4.8699346151
 30
0.0
 10
7.1680434069
 20
4.871283029
 30
0.0
 10
7.1679083755
 20
4.8728127031
 30
0.0
 10
7.1677731458
 20
4.8745201426
 30
0.0
 10
7.1676377586
 20
4.8764014601
 30
0.0
 10
7.1674499905
 20
4.8792443555
 30
0.0
 10
7.1672184736
 20
4.8831973015
 30
0.0
 10
7.1669492126
 20
4.8883938498
 30
0.0
 10
7.1666794635
 20
4.8941583172
 30
0.0
 10
7.1664093297
 20
4.9004378553
 30
0.0
 10
7.1661389383
 20
4.9071748915
 30
0.0
 10
7.1658683574
 20
4.9143076477
 30
0.0
 10
7.165597642
 20
4.9217707149
 30
0.0
 10
7.1653268296
 20
4.9294956527
 30
0.0
 10
7.1649635283
 20
4.9401128517
 30
0.0
 10
7.1646045324
 20
4.9508388145
 30
0.0
 10
7.1642431995
 20
4.9615749486
 30
0.0
 10
7.1639723161
 20
4.9695215702
 30
0.0
 10
7.163701489
 20
4.977292142
 30
0.0
 10
7.1634307506
 20
4.9848154012
 30
0.0
 10
7.163160138
 20
4.9920223531
 30
0.0
 10
7.1628897016
 20
4.9988469062
 30
0.0
 10
7.1626195078
 20
5.00522648
 30
0.0
 10
7.1623496635
 20
5.0111025843
 30
0.0
 10
7.1620802952
 20
5.0164213511
 30
0.0
 10
7.1618117249
 20
5.0211340674
 30
0.0
 10
7.1615441336
 20
5.0251975624
 30
0.0
 10
7.1613115914
 20
5.0281598184
 30
0.0
 10
7.1611206879
 20
5.030176962
 30
0.0
 10
7.1609861222
 20
5.0314180781
 30
0.0
 10
7.1608696703
 20
5.032336055
 30
0.0
 10
7.1607749058
 20
5.0329764107
 30
0.0
 10
7.160707292
 20
5.0333862523
 30
0.0
 10
7.1606397864
 20
5.0337485106
 30
0.0
 10
7.1605724461
 20
5.0340630258
 30
0.0
 10
7.1605052757
 20
5.0343296791
 30
0.0
 10
7.1604468792
 20
5.0345211547
 30
0.0
 10
7.1603991034
 20
5.0346497787
 30
0.0
 10
7.1603654337
 20
5.0347286734
 30
0.0
 10
7.1603312884
 20
5.0347961919
 30
0.0
 10
7.160279684
 20
5.0348812328
 30
0.0
 10
7.1602146246
 20
5.0349501047
 30
0.0
 10
7.1601589072
 20
5.0349501055
 30
0.0
  0
LINE
  5
348
100
AcDbEntity
  8
0
100
AcDbLine
 62
7
  6
CONTINUOUS
 10
2.5266255823
 20
4.3763834666
 11
2.5273662991
 21
4.376726785
  0
SPLINE
  5
349
100
AcDbEntity
  8
0
100
AcDbSpline
 62
7
  6
CONTINUOUS
 70
0
 71
3
 72
47
 73
43
 74
0
 42
0.0000001
 43
0.0000001
 44
0.0000000001
 40
0.0
 40
0.0
 40
0.0
 40
0.0
 40
0.00157219
 40
0.0034070423
 40
0.0078646945
 40
0.0133700635
 40
0.0199145963
 40
0.0274853038
 40
0.0360678556
 40
0.0561934947
 40
0.0801225563
 40
0.107650986
 40
0.1385427851
 40
0.1725327536
 40
0.209328862
 40
0.2486145284
 40
0.3332826778
 40
0.4236272324
 40
0.5165420312
 40
0.608832349
 40
0.6537477473
 40
0.6973248222
 40
0.7391883073
 40
0.7789775558
 40
0.8163499505
 40
0.850984109
 40
0.882582301
 40
0.9108729635
 40
0.9356133864
 40
0.9465852402
 40
0.9565927519
 40
0.9656155123
 40
0.9736339444
 40
0.980632259
 40
0.9865969092
 40
0.9915168082
 40
0.9935832378
 40
0.9953868545
 40
0.9969278677
 40
0.9982074938
 40
0.9992290984
 40
1.0
 40
1.0
 40
1.0
 40
1.0
 10
2.5273662991
 20
4.376726785
 30
0.0
 10
2.527469686
 20
4.3767507778
 30
0.0
 10
2.5276948888
 20
4.3767977979
 30
0.0
 10
2.5282176074
 20
4.376891043
 30
0.0
 10
2.5290061717
 20
4.3770041746
 30
0.0
 10
2.5301130404
 20
4.3771338301
 30
0.0
 10
2.5314312239
 20
4.377264011
 30
0.0
 10
2.5329579382
 20
4.3773946908
 30
0.0
 10
2.5354001039
 20
4.3775791833
 30
0.0
 10
2.5389464577
 20
4.3778045852
 30
0.0
 10
2.5437718957
 20
4.3780644082
 30
0.0
 10
2.5493249992
 20
4.3783250772
 30
0.0
 10
2.5555579085
 20
4.3785864282
 30
0.0
 10
2.5624169329
 20
4.3788481945
 30
0.0
 10
2.56984297
 20
4.3791102798
 30
0.0
 10
2.5806888492
 20
4.3794690008
 30
0.0
 10
2.5951488602
 20
4.379910084
 30
0.0
 10
2.6132285141
 20
4.3804283665
 30
0.0
 10
2.631822911
 20
4.3809470998
 30
0.0
 10
2.6473516213
 20
4.3813831046
 30
0.0
 10
2.6595506738
 20
4.3817365025
 30
0.0
 10
2.6683467434
 20
4.3819990906
 30
0.0
 10
2.6767966043
 20
4.3822615677
 30
0.0
 10
2.6848273975
 20
4.3825238988
 30
0.0
 10
2.6923698906
 20
4.3827860266
 30
0.0
 10
2.6993590805
 20
4.3830478783
 30
0.0
 10
2.7057347405
 20
4.3833093134
 30
0.0
 10
2.7114419023
 20
4.3835702202
 30
0.0
 10
2.7157567746
 20
4.3837949377
 30
0.0
 10
2.7188378116
 20
4.3839774033
 30
0.0
 10
2.7208589351
 20
4.384108602
 30
0.0
 10
2.7226802356
 20
4.384239604
 30
0.0
 10
2.7242978252
 20
4.3843703954
 30
0.0
 10
2.7257082546
 20
4.3845008088
 30
0.0
 10
2.7269085147
 20
4.3846307545
 30
0.0
 10
2.7277755953
 20
4.3847438558
 30
0.0
 10
2.7283617256
 20
4.3848365929
 30
0.0
 10
2.7287211757
 20
4.3849018928
 30
0.0
 10
2.7290265346
 20
4.3849669707
 30
0.0
 10
2.7292778657
 20
4.385031726
 30
0.0
 10
2.7294751086
 20
4.3850960178
 30
0.0
 10
2.7295864159
 20
4.3851448971
 30
0.0
 10
2.7296314764
 20
4.3851709331
 30
0.0
  0
LINE
  5
34A
100
AcDbEntity
  8
0
100
AcDbLine
 62
7
  6
CONTINUOUS
 10
2.7297505823
 20
4.3681501165
 11
2.7290098546
 21
4.3678067956
  0
SPLINE
  5
34B
100
AcDbEntity
  8
0
100
AcDbSpline
 62
7
  6
CONTINUOUS
 70
0
 71
3
 72
47
 73
43
 74
0
 42
0.0000001
 43
0.0000001
 44
0.0000000001
 40
0.0
 40
0.0
 40
0.0
 40
0.0
 40
0.0015721995
 40
0.0034070613
 40
0.0078647319
 40
0.0133701187
 40
0.0199146686
 40
0.0274853923
 40
0.0360679594
 40
0.0561936261
 40
0.0801227119
 40
0.1076511618
 40
0.1385429794
 40
0.1725329628
 40
0.2093290804
 40
0.2486147546
 40
0.3332829105
 40
0.4236274485
 40
0.5165422309
 40
0.6088325156
 40
0.6537479025
 40
0.6973249617
 40
0.7391884252
 40
0.778977654
 40
0.8163500322
 40
0.8509841738
 40
0.8825823491
 40
0.9108729987
 40
0.9356134105
 40
0.9465852595
 40
0.9565927669
 40
0.9656155235
 40
0.9736339523
 40
0.980632264
 40
0.9865969119
 40
0.9915168093
 40
0.9935832384
 40
0.9953868546
 40
0.9969278676
 40
0.9982074936
 40
0.9992290983
 40
1.0
 40
1.0
 40
1.0
 40
1.0
 10
2.7290098546
 20
4.3678067956
 30
0.0
 10
2.7289064671
 20
4.3677828028
 30
0.0
 10
2.7286812629
 20
4.3677357827
 30
0.0
 10
2.7281585418
 20
4.3676425377
 30
0.0
 10
2.7273699744
 20
4.3675294062
 30
0.0
 10
2.7262631022
 20
4.3673997507
 30
0.0
 10
2.7249449153
 20
4.3672695698
 30
0.0
 10
2.7234181978
 20
4.36713889
 30
0.0
 10
2.7209760282
 20
4.3669543976
 30
0.0
 10
2.7174296701
 20
4.3667289958
 30
0.0
 10
2.7126042275
 20
4.3664691729
 30
0.0
 10
2.70705112
 20
4.3662085039
 30
0.0
 10
2.7008182075
 20
4.365947153
 30
0.0
 10
2.6939591806
 20
4.3656853867
 30
0.0
 10
2.6865331417
 20
4.3654233015
 30
0.0
 10
2.6756872615
 20
4.3650645807
 30
0.0
 10
2.6612272515
 20
4.3646234975
 30
0.0
 10
2.6431476004
 20
4.3641052152
 30
0.0
 10
2.624553209
 20
4.363586482
 30
0.0
 10
2.6090245037
 20
4.3631504774
 30
0.0
 10
2.596825456
 20
4.3627970796
 30
0.0
 10
2.5880293902
 20
4.3625344916
 30
0.0
 10
2.5795795336
 20
4.3622720146
 30
0.0
 10
2.5715487447
 20
4.3620096836
 30
0.0
 10
2.5640062556
 20
4.3617475559
 30
0.0
 10
2.5570170695
 20
4.3614857043
 30
0.0
 10
2.550641413
 20
4.3612242693
 30
0.0
 10
2.5449342542
 20
4.3609633625
 30
0.0
 10
2.5406193841
 20
4.3607386451
 30
0.0
 10
2.5375383487
 20
4.3605561795
 30
0.0
 10
2.5355172262
 20
4.3604249808
 30
0.0
 10
2.5336959265
 20
4.3602939789
 30
0.0
 10
2.5320783377
 20
4.3601631876
 30
0.0
 10
2.5306679089
 20
4.3600327742
 30
0.0
 10
2.5294676493
 20
4.3599028286
 30
0.0
 10
2.5286005691
 20
4.3597897273
 30
0.0
 10
2.528014439
 20
4.3596969903
 30
0.0
 10
2.527654989
 20
4.3596316904
 30
0.0
 10
2.5273496302
 20
4.3595666124
 30
0.0
 10
2.5270982991
 20
4.3595018572
 30
0.0
 10
2.5269010562
 20
4.3594375654
 30
0.0
 10
2.5267897489
 20
4.3593886861
 30
0.0
 10
2.5267446884
 20
4.3593626502
 30
0.0
  0
LINE
  5
34C
100
AcDbEntity
  8
0
100
AcDbLine
 62
7
  6
CONTINUOUS
 10
2.5266255823
 20
4.3585334666
 11
2.5273662975
 21
4.3588767847
  0
SPLINE
  5
34D
100
AcDbEntity
  8
0
100
AcDbSpline
 62
7
  6
CONTINUOUS
 70
0
 71
3
 72
47
 73
43
 74
0
 42
0.0000001
 43
0.0000001
 44
0.0000000001
 40
0.0
 40
0.0
 40
0.0
 40
0.0
 40
0.0015721885
 40
0.0034070394
 40
0.0078646887
 40
0.0133700548
 40
0.0199145847
 40
0.0274852892
 40
0.0360678379
 40
0.0561934717
 40
0.0801225296
 40
0.1076509545
 40
0.1385427516
 40
0.1725327207
 40
0.2093288294
 40
0.2486144964
 40
0.3332826501
 40
0.4236272045
 40
0.516542017
 40
0.6088323351
 40
0.6537477426
 40
0.697324821
 40
0.7391883008
 40
0.7789775481
 40
0.8163499456
 40
0.8509841061
 40
0.882582298
 40
0.9108729606
 40
0.9356133852
 40
0.9465852402
 40
0.9565927523
 40
0.9656155129
 40
0.9736339449
 40
0.980632259
 40
0.9865969087
 40
0.9915168078
 40
0.9935832375
 40
0.9953868543
 40
0.9969278676
 40
0.9982074938
 40
0.9992290984
 40
1.0
 40
1.0
 40
1.0
 40
1.0
 10
2.5273662975
 20
4.3588767847
 30
0.0
 10
2.5274696843
 20
4.3589007775
 30
0.0
 10
2.5276948869
 20
4.3589477976
 30
0.0
 10
2.5282176051
 20
4.3590410427
 30
0.0
 10
2.5290061689
 20
4.3591541742
 30
0.0
 10
2.530113037
 20
4.3592838297
 30
0.0
 10
2.5314312199
 20
4.3594140107
 30
0.0
 10
2.5329579336
 20
4.3595446905
 30
0.0
 10
2.5354000985
 20
4.3597291829
 30
0.0
 10
2.5389464515
 20
4.3599545848
 30
0.0
 10
2.5437718886
 20
4.3602144078
 30
0.0
 10
2.5493249915
 20
4.3604750769
 30
0.0
 10
2.5555579005
 20
4.3607364278
 30
0.0
 10
2.5624169248
 20
4.3609981942
 30
0.0
 10
2.5698429621
 20
4.3612602796
 30
0.0
 10
2.5806888418
 20
4.3616190005
 30
0.0
 10
2.5951488532
 20
4.3620600838
 30
0.0
 10
2.6132285084
 20
4.3625783663
 30
0.0
 10
2.6318229064
 20
4.3630970997
 30
0.0
 10
2.6473516184
 20
4.3635331045
 30
0.0
 10
2.6595506718
 20
4.3638865025
 30
0.0
 10
2.668346742
 20
4.3641490905
 30
0.0
 10
2.6767966028
 20
4.3644115676
 30
0.0
 10
2.6848273958
 20
4.3646738987
 30
0.0
 10
2.6923698892
 20
4.3649360265
 30
0.0
 10
2.6993590795
 20
4.3651978782
 30
0.0
 10
2.7057347397
 20
4.3654593133
 30
0.0
 10
2.7114419017
 20
4.3657202201
 30
0.0
 10
2.7157567742
 20
4.3659449377
 30
0.0
 10
2.7188378115
 20
4.3661274033
 30
0.0
 10
2.7208589351
 20
4.366258602
 30
0.0
 10
2.7226802357
 20
4.366389604
 30
0.0
 10
2.7242978252
 20
4.3665203954
 30
0.0
 10
2.7257082546
 20
4.3666508088
 30
0.0
 10
2.7269085147
 20
4.3667807545
 30
0.0
 10
2.7277755952
 20
4.3668938558
 30
0.0
 10
2.7283617256
 20
4.3669865929
 30
0.0
 10
2.7287211757
 20
4.3670518927
 30
0.0
 10
2.7290265346
 20
4.3671169707
 30
0.0
 10
2.7292778657
 20
4.367181726
 30
0.0
 10
2.7294751086
 20
4.3672460178
 30
0.0
 10
2.7295864159
 20
4.3672948971
 30
0.0
 10
2.7296314764
 20
4.3673209331
 30
0.0
  0
LINE
  5
34E
100
AcDbEntity
  8
0
100
AcDbLine
 62
7
  6
CONTINUOUS
 10
2.5266255823
 20
4.3406834666
 11
2.5273662979
 21
4.3410267847
  0
SPLINE
  5
34F
100
AcDbEntity
  8
0
100
AcDbSpline
 62
7
  6
CONTINUOUS
 70
0
 71
3
 72
47
 73
43
 74
0
 42
0.0000001
 43
0.0000001
 44
0.0000000001
 40
0.0
 40
0.0
 40
0.0
 40
0.0
 40
0.0015721889
 40
0.0034070402
 40
0.0078646902
 40
0.0133700572
 40
0.0199145881
 40
0.0274852937
 40
0.0360678437
 40
0.0561934796
 40
0.0801225384
 40
0.1076509656
 40
0.1385427628
 40
0.1725327298
 40
0.2093288371
 40
0.2486145029
 40
0.3332826519
 40
0.4236272077
 40
0.516542009
 40
0.6088323299
 40
0.65374773
 40
0.6973248067
 40
0.7391882938
 40
0.7789775441
 40
0.8163499407
 40
0.850984101
 40
0.8825822947
 40
0.9108729587
 40
0.935613383
 40
0.9465852374
 40
0.9565927496
 40
0.9656155105
 40
0.973633943
 40
0.9806322581
 40
0.9865969085
 40
0.9915168078
 40
0.9935832375
 40
0.9953868543
 40
0.9969278675
 40
0.9982074937
 40
0.9992290984
 40
1.0
 40
1.0
 40
1.0
 40
1.0
 10
2.5273662979
 20
4.3410267847
 30
0.0
 10
2.5274696847
 20
4.3410507775
 30
0.0
 10
2.5276948874
 20
4.3410977977
 30
0.0
 10
2.5282176057
 20
4.3411910428
 30
0.0
 10
2.5290061696
 20
4.3413041743
 30
0.0
 10
2.5301130379
 20
4.3414338298
 30
0.0
 10
2.531431221
 20
4.3415640108
 30
0.0
 10
2.5329579349
 20
4.3416946906
 30
0.0
 10
2.5354001002
 20
4.341879183
 30
0.0
 10
2.5389464534
 20
4.342104585
 30
0.0
 10
2.5437718909
 20
4.342364408
 30
0.0
 10
2.549324994
 20
4.342625077
 30
0.0
 10
2.555557903
 20
4.3428864279
 30
0.0
 10
2.5624169271
 20
4.3431481943
 30
0.0
 10
2.569842964
 20
4.3434102796
 30
0.0
 10
2.5806888431
 20
4.3437690006
 30
0.0
 10
2.5951488543
 20
4.3442100838
 30
0.0
 10
2.6132285084
 20
4.3447283663
 30
0.0
 10
2.6318229059
 20
4.3452470997
 30
0.0
 10
2.6473516168
 20
4.3456831044
 30
0.0
 10
2.6595506698
 20
4.3460365024
 30
0.0
 10
2.6683467399
 20
4.3462990904
 30
0.0
 10
2.6767966012
 20
4.3465615676
 30
0.0
 10
2.6848273948
 20
4.3468238987
 30
0.0
 10
2.6923698883
 20
4.3470860265
 30
0.0
 10
2.6993590787
 20
4.3473478782
 30
0.0
 10
2.705734739
 20
4.3476093133
 30
0.0
 10
2.7114419012
 20
4.3478702201
 30
0.0
 10
2.7157567738
 20
4.3480949377
 30
0.0
 10
2.7188378109
 20
4.3482774033
 30
0.0
 10
2.7208589346
 20
4.348408602
 30
0.0
 10
2.7226802352
 20
4.348539604
 30
0.0
 10
2.7242978249
 20
4.3486703953
 30
0.0
 10
2.7257082544
 20
4.3488008088
 30
0.0
 10
2.7269085146
 20
4.3489307545
 30
0.0
 10
2.7277755952
 20
4.3490438558
 30
0.0
 10
2.7283617256
 20
4.3491365928
 30
0.0
 10
2.7287211757
 20
4.3492018927
 30
0.0
 10
2.7290265346
 20
4.3492669707
 30
0.0
 10
2.7292778657
 20
4.349331726
 30
0.0
 10
2.7294751086
 20
4.3493960178
 30
0.0
 10
2.7295864159
 20
4.3494448971
 30
0.0
 10
2.7296314764
 20
4.3494709331
 30
0.0
  0
LINE
  5
350
100
AcDbEntity
  8
0
100
AcDbLine
 62
7
  6
CONTINUOUS
 10
7.186768908
 20
4.8658428071
 11
7.1866755388
 21
4.8660498539
  0
SPLINE
  5
351
100
AcDbEntity
  8
0
100
AcDbSpline
 62
7
  6
CONTINUOUS
 70
0
 71
3
 72
53
 73
49
 74
0
 42
0.0000001
 43
0.0000001
 44
0.0000000001
 40
0.0
 40
0.0
 40
0.0
 40
0.0
 40
0.0012870025
 40
0.0028445126
 40
0.004675284
 40
0.0067803917
 40
0.0118134629
 40
0.0179397407
 40
0.0251488101
 40
0.0334266977
 40
0.0427560154
 40
0.053116575
 40
0.076837871
 40
0.1043794292
 40
0.1354936952
 40
0.1698998716
 40
0.2072868066
 40
0.2473159938
 40
0.2896247454
 40
0.3338295451
 40
0.4263103287
 40
0.5214108303
 40
0.5688679018
 40
0.6156882535
 40
0.6614472041
 40
0.7057297409
 40
0.7481343175
 40
0.788276541
 40
0.8257926922
 40
0.860343085
 40
0.8916152478
 40
0.9193269303
 40
0.9432289871
 40
0.9631083193
 40
0.9714837051
 40
0.9787918291
 40
0.9850182342
 40
0.987722364
 40
0.9901524164
 40
0.9923080358
 40
0.994189283
 40
0.9957969563
 40
0.9971334299
 40
0.9977014839
 40
0.998203957
 40
0.9986423773
 40
0.9990191041
 40
1.0
 40
1.0
 40
1.0
 40
1.0
 10
7.1866755388
 20
4.8660498539
 30
0.0
 10
7.1866503594
 20
4.8661179756
 30
0.0
 10
7.1866014981
 20
4.8662710362
 30
0.0
 10
7.1865347262
 20
4.8665263403
 30
0.0
 10
7.1864677319
 20
4.866829073
 30
0.0
 10
7.1863724337
 20
4.8673261907
 30
0.0
 10
7.1862563268
 20
4.8680658354
 30
0.0
 10
7.1861230119
 20
4.8690938287
 30
0.0
 10
7.1859892137
 20
4.8703061754
 30
0.0
 10
7.1858550209
 20
4.8717001587
 30
0.0
 10
7.1857205715
 20
4.8732726827
 30
0.0
 10
7.1855324749
 20
4.87571519
 30
0.0
 10
7.1853015483
 20
4.8791850429
 30
0.0
 10
7.1850342256
 20
4.8838259733
 30
0.0
 10
7.1847662388
 20
4.8890707022
 30
0.0
 10
7.1844977233
 20
4.8948716286
 30
0.0
 10
7.1842288679
 20
4.9011761053
 30
0.0
 10
7.1839597644
 20
4.9079268932
 30
0.0
 10
7.1836904764
 20
4.9150626968
 30
0.0
 10
7.1833257717
 20
4.9251568661
 30
0.0
 10
7.1828764756
 20
4.938228975
 30
0.0
 10
7.1824329058
 20
4.9514849034
 30
0.0
 10
7.1820732118
 20
4.9621655529
 30
0.0
 10
7.1818036487
 20
4.9700632868
 30
0.0
 10
7.1815341448
 20
4.9777817759
 30
0.0
 10
7.1812647294
 20
4.9852509277
 30
0.0
 10
7.18099544
 20
4.9924029155
 30
0.0
 10
7.1807263265
 20
4.9991727961
 30
0.0
 10
7.1804574549
 20
5.0054990998
 30
0.0
 10
7.1801889314
 20
5.0113243932
 30
0.0
 10
7.1799208818
 20
5.0165957965
 30
0.0
 10
7.1796536264
 20
5.0212655028
 30
0.0
 10
7.1793873458
 20
5.0252911542
 30
0.0
 10
7.1791559347
 20
5.0282254378
 30
0.0
 10
7.178965965
 20
5.0302233075
 30
0.0
 10
7.1788320564
 20
5.0314524654
 30
0.0
 10
7.178716179
 20
5.032361557
 30
0.0
 10
7.1786218779
 20
5.0329956911
 30
0.0
 10
7.1785545952
 20
5.033401543
 30
0.0
 10
7.1784874221
 20
5.0337602728
 30
0.0
 10
7.1784204132
 20
5.0340717202
 30
0.0
 10
7.1783535677
 20
5.0343357687
 30
0.0
 10
7.1782954587
 20
5.0345253689
 30
0.0
 10
7.1782479206
 20
5.0346527304
 30
0.0
 10
7.1782144147
 20
5.0347308579
 30
0.0
 10
7.1781804383
 20
5.0347977103
 30
0.0
 10
7.1781290211
 20
5.0348820225
 30
0.0
 10
7.1780642597
 20
5.0349501018
 30
0.0
 10
7.1780089072
 20
5.034950108
 30
0.0
  0
LINE
  5
352
100
AcDbEntity
  8
0
100
AcDbLine
 62
7
  6
CONTINUOUS
 10
2.7297505823
 20
4.3503001165
 11
2.7290098856
 21
4.3499568027
  0
SPLINE
  5
353
100
AcDbEntity
  8
0
100
AcDbSpline
 62
7
  6
CONTINUOUS
 70
0
 71
3
 72
47
 73
43
 74
0
 42
0.0000001
 43
0.0000001
 44
0.0000000001
 40
0.0
 40
0.0
 40
0.0
 40
0.0
 40
0.0015721722
 40
0.003407007
 40
0.0078646247
 40
0.0133699601
 40
0.0199144603
 40
0.0274851368
 40
0.0360676594
 40
0.0561932455
 40
0.0801222612
 40
0.1076506502
 40
0.1385424166
 40
0.1725323609
 40
0.2093284517
 40
0.248614106
 40
0.3332822468
 40
0.4236268222
 40
0.5165416602
 40
0.6088320314
 40
0.6537474606
 40
0.6973245671
 40
0.7391880813
 40
0.7789773594
 40
0.8163497859
 40
0.850983975
 40
0.8825821939
 40
0.9108728802
 40
0.9356133262
 40
0.9465851906
 40
0.9565927113
 40
0.9656154796
 40
0.973633919
 40
0.9806322399
 40
0.9865968956
 40
0.9915167995
 40
0.9935832312
 40
0.9953868497
 40
0.9969278645
 40
0.998207492
 40
0.9992290976
 40
1.0
 40
1.0
 40
1.0
 40
1.0
 10
2.7290098856
 20
4.3499568027
 30
0.0
 10
2.7289064999
 20
4.3499328099
 30
0.0
 10
2.7286812995
 20
4.3498857897
 30
0.0
 10
2.7281585857
 20
4.3497925446
 30
0.0
 10
2.7273700271
 20
4.349679413
 30
0.0
 10
2.7262631652
 20
4.3495497574
 30
0.0
 10
2.7249449882
 20
4.3494195764
 30
0.0
 10
2.72341828
 20
4.3492888966
 30
0.0
 10
2.7209761217
 20
4.349104404
 30
0.0
 10
2.7174297763
 20
4.3488790019
 30
0.0
 10
2.7126043472
 20
4.3486191788
 30
0.0
 10
2.7070512512
 20
4.3483585097
 30
0.0
 10
2.7008183479
 20
4.3480971586
 30
0.0
 10
2.6939593278
 20
4.3478353921
 30
0.0
 10
2.6865332936
 20
4.3475733066
 30
0.0
 10
2.6756874159
 20
4.3472145855
 30
0.0
 10
2.6612274034
 20
4.346773502
 30
0.0
 10
2.6431477443
 20
4.3462552193
 30
0.0
 10
2.6245533379
 20
4.3457364856
 30
0.0
 10
2.6090246177
 20
4.3453004807
 30
0.0
 10
2.5968255561
 20
4.3449470825
 30
0.0
 10
2.5880294794
 20
4.3446844943
 30
0.0
 10
2.5795796116
 20
4.3444220171
 30
0.0
 10
2.5715488115
 20
4.3441596859
 30
0.0
 10
2.5640063114
 20
4.3438975579
 30
0.0
 10
2.5570171147
 20
4.3436357061
 30
0.0
 10
2.5506414486
 20
4.3433742708
 30
0.0
 10
2.5449342813
 20
4.3431133639
 30
0.0
 10
2.5406194046
 20
4.3428886462
 30
0.0
 10
2.5375383645
 20
4.3427061805
 30
0.0
 10
2.5355172389
 20
4.3425749817
 30
0.0
 10
2.5336959366
 20
4.3424439797
 30
0.0
 10
2.5320783454
 20
4.3423131883
 30
0.0
 10
2.5306679145
 20
4.3421827747
 30
0.0
 10
2.5294676531
 20
4.342052829
 30
0.0
 10
2.5286005717
 20
4.3419397277
 30
0.0
 10
2.5280144407
 20
4.3418469905
 30
0.0
 10
2.5276549901
 20
4.3417816906
 30
0.0
 10
2.5273496309
 20
4.3417166126
 30
0.0
 10
2.5270982995
 20
4.3416518573
 30
0.0
 10
2.5269010564
 20
4.3415875655
 30
0.0
 10
2.5267897489
 20
4.3415386862
 30
0.0
 10
2.5267446884
 20
4.3415126502
 30
0.0
  0
SPLINE
  5
354
100
AcDbEntity
  8
0
100
AcDbSpline
 62
7
  6
CONTINUOUS
 70
0
 71
3
 72
53
 73
49
 74
0
 42
0.0000001
 43
0.0000001
 44
0.0000000001
 40
0.0
 40
0.0
 40
0.0
 40
0.0
 40
0.0001842524
 40
0.0004257643
 40
0.001095157
 40
0.0020235588
 40
0.0032155471
 40
0.0046729912
 40
0.0063966844
 40
0.0083865488
 40
0.0106419146
 40
0.0159456762
 40
0.022300252
 40
0.0296939533
 40
0.0381120163
 40
0.0475387972
 40
0.0579547186
 40
0.0693386227
 40
0.0816679224
 40
0.0949163191
 40
0.1090568099
 40
0.1398939828
 40
0.1739205626
 40
0.2108481279
 40
0.2503618578
 40
0.2921228848
 40
0.3357704808
 40
0.3809252661
 40
0.4271927724
 40
0.4741665285
 40
0.5685672232
 40
0.6607704961
 40
0.7050069749
 40
0.7474607268
 40
0.7877438094
 40
0.8254855816
 40
0.8603365862
 40
0.8919725589
 40
0.9200964752
 40
0.9444427696
 40
0.9647804308
 40
0.9733813693
 40
0.9809082173
 40
0.9873491795
 40
0.9926929844
 40
0.9969182638
 40
0.9986033163
 40
1.0
 40
1.0
 40
1.0
 40
1.0
 10
2.7229512048
 20
4.3185257389
 30
0.0
 10
2.7229432346
 20
4.3185177688
 30
0.0
 10
2.7229218811
 20
4.3185023859
 30
0.0
 10
2.7228619869
 20
4.3184721893
 30
0.0
 10
2.7227546192
 20
4.3184369754
 30
0.0
 10
2.7225887365
 20
4.3183969897
 30
0.0
 10
2.7223734971
 20
4.3183566755
 30
0.0
 10
2.7221090759
 20
4.318315993
 30
0.0
 10
2.7217953655
 20
4.3182751518
 30
0.0
 10
2.7214325192
 20
4.3182341707
 30
0.0
 10
2.7208512367
 20
4.3181762315
 30
0.0
 10
2.7200029942
 20
4.3181053105
 30
0.0
 10
2.7188403556
 20
4.3180235951
 30
0.0
 10
2.7174868209
 20
4.3179415556
 30
0.0
 10
2.7159450673
 20
4.3178592273
 30
0.0
 10
2.7142182088
 20
4.3177767105
 30
0.0
 10
2.7123097407
 20
4.3176940192
 30
0.0
 10
2.7102235688
 20
4.3176111815
 30
0.0
 10
2.7079640026
 20
4.3175282241
 30
0.0
 10
2.7055357044
 20
4.317445141
 30
0.0
 10
2.7019756187
 20
4.3173308987
 30
0.0
 10
2.6971446875
 20
4.317189234
 30
0.0
 10
2.6909199234
 20
4.3170231948
 30
0.0
 10
2.6841642194
 20
4.316856673
 30
0.0
 10
2.6769352465
 20
4.3166897069
 30
0.0
 10
2.6692950887
 20
4.3165223402
 30
0.0
 10
2.6613097748
 20
4.3163545973
 30
0.0
 10
2.6530487308
 20
4.316186498
 30
0.0
 10
2.6445841784
 20
4.316018058
 30
0.0
 10
2.6331075982
 20
4.3157926775
 30
0.0
 10
2.6188214543
 20
4.3155139124
 30
0.0
 10
2.6047028701
 20
4.3152311169
 30
0.0
 10
2.5937616729
 20
4.3150009909
 30
0.0
 10
2.5859960874
 20
4.3148305363
 30
0.0
 10
2.5786279132
 20
4.3146598778
 30
0.0
 10
2.5717249647
 20
4.3144890545
 30
0.0
 10
2.56535117
 20
4.3143181059
 30
0.0
 10
2.5595659677
 20
4.314147172
 30
0.0
 10
2.5544236793
 20
4.3139764001
 30
0.0
 10
2.5499729924
 20
4.3138056774
 30
0.0
 10
2.5467166391
 20
4.3136579338
 30
0.0
 10
2.5444892374
 20
4.3135356743
 30
0.0
 10
2.5431113421
 20
4.3134487675
 30
0.0
 10
2.5419330786
 20
4.313362698
 30
0.0
 10
2.5409572463
 20
4.313279237
 30
0.0
 10
2.5402724325
 20
4.3132069223
 30
0.0
 10
2.5398298255
 20
4.3131441282
 30
0.0
 10
2.5396441217
 20
4.3131111884
 30
0.0
 10
2.5395604906
 20
4.3130936977
 30
0.0
  0
LINE
  5
355
100
AcDbEntity
  8
0
100
AcDbLine
 62
7
  6
CONTINUOUS
 10
2.5395604906
 20
4.3130936977
 11
2.5391338431
 21
4.3129523736
  0
SPLINE
  5
356
100
AcDbEntity
  8
0
100
AcDbSpline
 62
7
  6
CONTINUOUS
 70
0
 71
3
 72
61
 73
57
 74
0
 42
0.0000001
 43
0.0000001
 44
0.0000000001
 40
0.0
 40
0.0
 40
0.0
 40
0.0
 40
0.0001770044
 40
0.0003818278
 40
0.0006331716
 40
0.0009413571
 40
0.0013119662
 40
0.001748173
 40
0.0028240878
 40
0.0041777894
 40
0.0058127053
 40
0.0077303672
 40
0.0099311775
 40
0.0124147141
 40
0.0151802283
 40
0.0215525282
 40
0.0290357726
 40
0.0376141988
 40
0.0472688336
 40
0.0579777918
 40
0.0697167793
 40
0.0824586506
 40
0.1108312975
 40
0.1428329658
 40
0.1781664264
 40
0.2165030547
 40
0.2574859983
 40
0.3007335378
 40
0.3458427483
 40
0.3923932951
 40
0.4399513626
 40
0.4880737014
 40
0.5363117746
 40
0.5842159743
 40
0.6313398182
 40
0.6772441125
 40
0.7215010596
 40
0.7636983057
 40
0.8034427956
 40
0.8403644524
 40
0.8741196753
 40
0.904394647
 40
0.9309085038
 40
0.9426770555
 40
0.9534163278
 40
0.9631019563
 40
0.9717119616
 40
0.9792273044
 40
0.985632111
 40
0.990913832
 40
0.9931311053
 40
0.9950652386
 40
0.9967165728
 40
0.9980865652
 40
0.9991784863
 40
1.0
 40
1.0
 40
1.0
 40
1.0
 10
7.0886922321
 20
4.8514251165
 30
0.0
 10
7.088680547
 20
4.8514251165
 30
0.0
 10
7.0886551801
 20
4.851430931
 30
0.0
 10
7.0886200543
 20
4.8514546564
 30
0.0
 10
7.0885858296
 20
4.8514921275
 30
0.0
 10
7.0885518674
 20
4.8515434786
 30
0.0
 10
7.0885179087
 20
4.8516088896
 30
0.0
 10
7.0884691163
 20
4.8517232938
 30
0.0
 10
7.0884101006
 20
4.8519033394
 30
0.0
 10
7.0883427473
 20
4.8521631485
 30
0.0
 10
7.0882751001
 20
4.8524799835
 30
0.0
 10
7.0882071943
 20
4.8528537169
 30
0.0
 10
7.0881391378
 20
4.8532842388
 30
0.0
 10
7.0880709548
 20
4.8537713182
 30
0.0
 10
7.0879753617
 20
4.854532553
 30
0.0
 10
7.0878579231
 20
4.8556235816
 30
0.0
 10
7.0877222364
 20
4.857098386
 30
0.0
 10
7.087586228
 20
4.8587906435
 30
0.0
 10
7.0874499543
 20
4.8606964278
 30
0.0
 10
7.0873135063
 20
4.8628113236
 30
0.0
 10
7.0871769207
 20
4.8651304004
 30
0.0
 10
7.0869878292
 20
4.8686144516
 30
0.0
 10
7.0867545015
 20
4.8734356749
 30
0.0
 10
7.0864828292
 20
4.8797480804
 30
0.0
 10
7.0862106999
 20
4.886718796
 30
0.0
 10
7.0859382104
 20
4.8942828149
 30
0.0
 10
7.085665479
 20
4.9023695945
 30
0.0
 10
7.0853925697
 20
4.9109037048
 30
0.0
 10
7.0851195347
 20
4.9198055401
 30
0.0
 10
7.084846412
 20
4.9289920647
 30
0.0
 10
7.0845732326
 20
4.9383775873
 30
0.0
 10
7.0843000231
 20
4.9478745588
 30
0.0
 10
7.0840268075
 20
4.9573943898
 30
0.0
 10
7.0837536095
 20
4.9668482776
 30
0.0
 10
7.0834804542
 20
4.9761480353
 30
0.0
 10
7.0832073698
 20
4.9852069128
 30
0.0
 10
7.0829343906
 20
4.993940408
 30
0.0
 10
7.0826615595
 20
5.0022670566
 30
0.0
 10
7.0823889376
 20
5.010109194
 30
0.0
 10
7.0821166002
 20
5.0173936757
 30
0.0
 10
7.081844694
 20
5.0240525673
 30
0.0
 10
7.0815733343
 20
5.0300237704
 30
0.0
 10
7.0813396787
 20
5.0345436598
 30
0.0
 10
7.0811499371
 20
5.0377743138
 30
0.0
 10
7.0810134733
 20
5.0398952195
 30
0.0
 10
7.0808772017
 20
5.0418071529
 30
0.0
 10
7.0807411657
 20
5.043505673
 30
0.0
 10
7.0806055219
 20
5.044986871
 30
0.0
 10
7.0804703526
 20
5.0462473221
 30
0.0
 10
7.0803527081
 20
5.0471577684
 30
0.0
 10
7.0802562306
 20
5.0477730226
 30
0.0
 10
7.0801883124
 20
5.0481500765
 30
0.0
 10
7.0801206296
 20
5.0484701843
 30
0.0
 10
7.0800533093
 20
5.04873342
 30
0.0
 10
7.0799864812
 20
5.0489396863
 30
0.0
 10
7.0799356053
 20
5.0490559566
 30
0.0
 10
7.0799084624
 20
5.0491029085
 30
0.0
  0
SPLINE
  5
357
100
AcDbEntity
  8
0
100
AcDbSpline
 62
7
  6
CONTINUOUS
 70
0
 71
3
 72
31
 73
27
 74
0
 42
0.0000001
 43
0.0000001
 44
0.0000000001
 40
0.0
 40
0.0
 40
0.0
 40
0.0
 40
0.0723948382
 40
0.1495994185
 40
0.2303130365
 40
0.3131737978
 40
0.3967834777
 40
0.4797311736
 40
0.5606172212
 40
0.638077117
 40
0.710804613
 40
0.7775744331
 40
0.837263269
 40
0.8641342033
 40
0.8888700827
 40
0.9113680155
 40
0.9315351424
 40
0.9492893632
 40
0.9645603581
 40
0.9772912147
 40
0.9826910262
 40
0.9874422609
 40
0.991544047
 40
0.994998078
 40
0.9978111414
 40
1.0
 40
1.0
 40
1.0
 40
1.0
 10
7.0768349787
 20
5.0053162319
 30
0.0
 10
7.0770372329
 20
5.0016060591
 30
0.0
 10
7.0774366561
 20
4.9939382068
 30
0.0
 10
7.0780140709
 20
4.9821314387
 30
0.0
 10
7.0785919459
 20
4.9697869167
 30
0.0
 10
7.079170087
 20
4.957113318
 30
0.0
 10
7.0797483138
 20
4.9443249414
 30
0.0
 10
7.0803264649
 20
4.9316380173
 30
0.0
 10
7.0809043637
 20
4.9192670523
 30
0.0
 10
7.0814818119
 20
4.9074212104
 30
0.0
 10
7.0820584913
 20
4.8963007468
 30
0.0
 10
7.0826341208
 20
4.886093651
 30
0.0
 10
7.0831279474
 20
4.8782393848
 30
0.0
 10
7.0835289265
 20
4.8725411743
 30
0.0
 10
7.0838187778
 20
4.868748764
 30
0.0
 10
7.0841082559
 20
4.8653014866
 30
0.0
 10
7.0843972667
 20
4.8622138943
 30
0.0
 10
7.0846855177
 20
4.8594989396
 30
0.0
 10
7.0849728517
 20
4.8571680284
 30
0.0
 10
7.0852225081
 20
4.8554716457
 30
0.0
 10
7.0854268438
 20
4.8543150583
 30
0.0
 10
7.085571299
 20
4.8535978339
 30
0.0
 10
7.0857153331
 20
4.8529826996
 30
0.0
 10
7.085858792
 20
4.8524699075
 30
0.0
 10
7.0860014615
 20
4.8520598111
 30
0.0
 10
7.0861087024
 20
4.8518255031
 30
0.0
 10
7.0861650063
 20
4.8517282871
 30
0.0
  0
SPLINE
  5
358
100
AcDbEntity
  8
0
100
AcDbSpline
 62
7
  6
CONTINUOUS
 70
0
 71
3
 72
19
 73
15
 74
0
 42
0.0000001
 43
0.0000001
 44
0.0000000001
 40
0.0
 40
0.0
 40
0.0
 40
0.0
 40
0.2033193138
 40
0.3855741222
 40
0.5458498773
 40
0.6835022436
 40
0.7979977725
 40
0.8464323889
 40
0.8889373645
 40
0.9255045202
 40
0.9561495317
 40
0.9809273196
 40
0.9911609428
 40
1.0
 40
1.0
 40
1.0
 40
1.0
 10
2.5450631022
 20
4.4017670549
 30
0.0
 10
2.5438233348
 20
4.4016718505
 30
0.0
 10
2.5414728439
 20
4.4014832711
 30
0.0
 10
2.5381478709
 20
4.4011858657
 30
0.0
 10
2.5352261855
 20
4.4008892174
 30
0.0
 10
2.5327212429
 20
4.4005935746
 30
0.0
 10
2.5309007445
 20
4.4003365922
 30
0.0
 10
2.5296620481
 20
4.4001261411
 30
0.0
 10
2.5288964821
 20
4.3999775092
 30
0.0
 10
2.5282418798
 20
4.3998293748
 30
0.0
 10
2.5276988463
 20
4.3996817908
 30
0.0
 10
2.527318043
 20
4.399552754
 30
0.0
 10
2.5270716364
 20
4.3994465975
 30
0.0
 10
2.5269677706
 20
4.3993931822
 30
0.0
 10
2.526920993
 20
4.3993660916
 30
0.0
  0
SPLINE
  5
359
100
AcDbEntity
  8
0
100
AcDbSpline
 62
7
  6
CONTINUOUS
 70
0
 71
3
 72
25
 73
21
 74
0
 42
0.0000001
 43
0.0000001
 44
0.0000000001
 40
0.0
 40
0.0
 40
0.0
 40
0.0
 40
0.2311956621
 40
0.4327346644
 40
0.6041021826
 40
0.6783545988
 40
0.7449313962
 40
0.8037988334
 40
0.8549249418
 40
0.8982851205
 40
0.933869538
 40
0.9487462401
 40
0.9616813345
 40
0.9726796381
 40
0.9817517612
 40
0.9889181705
 40
0.9942223058
 40
0.996209118
 40
0.997788526
 40
1.0
 40
1.0
 40
1.0
 40
1.0
 10
7.0719380823
 20
4.858710974
 30
0.0
 10
7.0719562516
 20
4.8581472013
 30
0.0
 10
7.0719921128
 20
4.8570920313
 30
0.0
 10
7.0720494109
 20
4.855619266
 30
0.0
 10
7.0720990164
 20
4.854529413
 30
0.0
 10
7.0721394077
 20
4.8537687914
 30
0.0
 10
7.0721681975
 20
4.853282424
 30
0.0
 10
7.0721969322
 20
4.8528525867
 30
0.0
 10
7.0722255813
 20
4.8524795273
 30
0.0
 10
7.0722541314
 20
4.8521634616
 30
0.0
 10
7.0722789931
 20
4.8519358857
 30
0.0
 10
7.0722993965
 20
4.8517825578
 30
0.0
 10
7.0723137319
 20
4.8516889526
 30
0.0
 10
7.0723280242
 20
4.8516096944
 30
0.0
 10
7.0723421989
 20
4.8515447454
 30
0.0
 10
7.0723563303
 20
4.8514940885
 30
0.0
 10
7.0723686871
 20
4.8514609637
 30
0.0
 10
7.0723793504
 20
4.8514419696
 30
0.0
 10
7.0723877013
 20
4.8514308304
 30
0.0
 10
7.072396453
 20
4.8514251189
 30
0.0
 10
7.0724018485
 20
4.8514251176
 30
0.0
  0
SPLINE
  5
35A
100
AcDbEntity
  8
0
100
AcDbSpline
 62
7
  6
CONTINUOUS
 70
0
 71
3
 72
61
 73
57
 74
0
 42
0.0000001
 43
0.0000001
 44
0.0000000001
 40
0.0
 40
0.0
 40
0.0
 40
0.0
 40
0.0001726028
 40
0.0003737159
 40
0.000622155
 40
0.0009280878
 40
0.0012969266
 40
0.001731714
 40
0.0028055153
 40
0.0041579611
 40
0.0057925467
 40
0.0077104201
 40
0.0099117035
 40
0.0123960364
 40
0.0151627748
 40
0.0215388983
 40
0.0290269147
 40
0.037611346
 40
0.0472731586
 40
0.0579899723
 40
0.0697380862
 40
0.0824896646
 40
0.1108842708
 40
0.1429104202
 40
0.1782703612
 40
0.2166349854
 40
0.2576469168
 40
0.3009237195
 40
0.3460617634
 40
0.3926400961
 40
0.4402243351
 40
0.488370606
 40
0.5366296744
 40
0.5845513443
 40
0.6316886401
 40
0.6776018705
 40
0.7218626719
 40
0.7640582827
 40
0.8037954044
 40
0.8407037509
 40
0.874439436
 40
0.9046883329
 40
0.9311696307
 40
0.942919712
 40
0.953638543
 40
0.9633024167
 40
0.9718889506
 40
0.9793791008
 40
0.9857573869
 40
0.9910105132
 40
0.9932128916
 40
0.9951318606
 40
0.99676754
 40
0.9981210716
 40
0.9991959388
 40
1.0
 40
1.0
 40
1.0
 40
1.0
 10
2.5266255823
 20
4.3942334666
 30
0.0
 10
2.5266255823
 20
4.3942451673
 30
0.0
 10
2.5266316186
 20
4.3942706596
 30
0.0
 10
2.5266560674
 20
4.394305765
 30
0.0
 10
2.5266945801
 20
4.3943399576
 30
0.0
 10
2.5267473506
 20
4.394373903
 30
0.0
 10
2.526814568
 20
4.3944078596
 30
0.0
 10
2.5269321892
 20
4.3944566854
 30
0.0
 10
2.5271172194
 20
4.3945157324
 30
0.0
 10
2.5273841993
 20
4.3945831218
 30
0.0
 10
2.5277098253
 20
4.3946507898
 30
0.0
 10
2.5280939435
 20
4.3947187209
 30
0.0
 10
2.5285364122
 20
4.3947868042
 30
0.0
 10
2.529036996
 20
4.3948550116
 30
0.0
 10
2.5298193926
 20
4.3949506433
 30
0.0
 10
2.5309407273
 20
4.3950681211
 30
0.0
 10
2.5324564685
 20
4.3952038722
 30
0.0
 10
2.5341956923
 20
4.3953399366
 30
0.0
 10
2.5361543579
 20
4.3954762625
 30
0.0
 10
2.538327939
 20
4.3956127725
 30
0.0
 10
2.5407113386
 20
4.3957494089
 30
0.0
 10
2.5442920234
 20
4.3959385841
 30
0.0
 10
2.5492468697
 20
4.3961720045
 30
0.0
 10
2.5557341064
 20
4.3964437905
 30
0.0
 10
2.5628977195
 20
4.3967160329
 30
0.0
 10
2.5706708591
 20
4.3969886358
 30
0.0
 10
2.5789809754
 20
4.3972614799
 30
0.0
 10
2.587750484
 20
4.3975345023
 30
0.0
 10
2.5968975055
 20
4.3978076509
 30
0.0
 10
2.6063366478
 20
4.398080887
 30
0.0
 10
2.6159797973
 20
4.3983541795
 30
0.0
 10
2.6257369269
 20
4.398627502
 30
0.0
 10
2.6355169394
 20
4.3989008307
 30
0.0
 10
2.6452285279
 20
4.3991741416
 30
0.0
 10
2.6547810312
 20
4.3994474094
 30
0.0
 10
2.6640852653
 20
4.3997206055
 30
0.0
 10
2.6730543605
 20
4.3999936965
 30
0.0
 10
2.6816045842
 20
4.4002666387
 30
0.0
 10
2.6896561302
 20
4.4005393707
 30
0.0
 10
2.6971338431
 20
4.400811816
 30
0.0
 10
2.7039679141
 20
4.4010838278
 30
0.0
 10
2.7100945474
 20
4.4013552887
 30
0.0
 10
2.7147309401
 20
4.4015890555
 30
0.0
 10
2.7180438206
 20
4.4017788888
 30
0.0
 10
2.7202178113
 20
4.4019154103
 30
0.0
 10
2.7221768989
 20
4.4020517286
 30
0.0
 10
2.7239165447
 20
4.4021878126
 30
0.0
 10
2.7254327401
 20
4.4023235081
 30
0.0
 10
2.7267219583
 20
4.4024587007
 30
0.0
 10
2.7276524721
 20
4.4025763928
 30
0.0
 10
2.7282806205
 20
4.4026729441
 30
0.0
 10
2.728664978
 20
4.4027408772
 30
0.0
 10
2.7289907875
 20
4.4028085669
 30
0.0
 10
2.7292581148
 20
4.4028758951
 30
0.0
 10
2.7294668639
 20
4.4029427121
 30
0.0
 10
2.7295842814
 20
4.4029936637
 30
0.0
 10
2.7296314764
 20
4.4030209331
 30
0.0
  0
SPLINE
  5
35B
100
AcDbEntity
  8
0
100
AcDbSpline
 62
7
  6
CONTINUOUS
 70
0
 71
3
 72
55
 73
51
 74
0
 42
0.0000001
 43
0.0000001
 44
0.0000000001
 40
0.0
 40
0.0
 40
0.0
 40
0.0
 40
0.0009866972
 40
0.0013663981
 40
0.0018084129
 40
0.0023151097
 40
0.0028880278
 40
0.0042361916
 40
0.0058582107
 40
0.0077563105
 40
0.0099312943
 40
0.0123832906
 40
0.0151118835
 40
0.0213944441
 40
0.0287684272
 40
0.0372188743
 40
0.0572747705
 40
0.0813855954
 40
0.1093341924
 40
0.1408667667
 40
0.1756958822
 40
0.2135034166
 40
0.2539436478
 40
0.2966465105
 40
0.3412210478
 40
0.3872590597
 40
0.4343388746
 40
0.4820292327
 40
0.5774924554
 40
0.6243907855
 40
0.6701586503
 40
0.7143768702
 40
0.7566405406
 40
0.7965627721
 40
0.8337782782
 40
0.8679467897
 40
0.8987562953
 40
0.9259261262
 40
0.9380678242
 40
0.949209981
 40
0.9593278257
 40
0.9683987609
 40
0.9764033413
 40
0.9833247245
 40
0.9891497452
 40
0.9938695015
 40
0.9958139937
 40
0.9974821572
 40
0.9988760774
 40
1.0
 40
1.0
 40
1.0
 40
1.0
 10
7.0969339072
 20
4.8657001274
 30
0.0
 10
7.0968781897
 20
4.8657001282
 30
0.0
 10
7.0968131301
 20
4.8657690005
 30
0.0
 10
7.0967615256
 20
4.8658540418
 30
0.0
 10
7.0967273802
 20
4.8659215605
 30
0.0
 10
7.0966937104
 20
4.8660004556
 30
0.0
 10
7.0966459345
 20
4.8661290803
 30
0.0
 10
7.0965875379
 20
4.8663205567
 30
0.0
 10
7.0965203673
 20
4.8665872113
 30
0.0
 10
7.0964530269
 20
4.8669017279
 30
0.0
 10
7.0963855211
 20
4.8672639879
 30
0.0
 10
7.0963179072
 20
4.8676738314
 30
0.0
 10
7.0962231425
 20
4.86831419
 30
0.0
 10
7.0961066903
 20
4.8692321712
 30
0.0
 10
7.0959721243
 20
4.8704732929
 30
0.0
 10
7.0957812204
 20
4.8724904456
 30
0.0
 10
7.0955486776
 20
4.8754527148
 30
0.0
 10
7.0952810857
 20
4.8795162278
 30
0.0
 10
7.0950125148
 20
4.8842289644
 30
0.0
 10
7.0947431458
 20
4.8895477537
 30
0.0
 10
7.0944733009
 20
4.895423882
 30
0.0
 10
7.0942031065
 20
4.9018034809
 30
0.0
 10
7.0939326695
 20
4.9086280599
 30
0.0
 10
7.0936620563
 20
4.9158350378
 30
0.0
 10
7.0933913172
 20
4.9233583225
 30
0.0
 10
7.0931204895
 20
4.9311289188
 30
0.0
 10
7.0928496055
 20
4.9390755636
 30
0.0
 10
7.0924882718
 20
4.9498117237
 30
0.0
 10
7.092129275
 20
4.9605377088
 30
0.0
 10
7.0917659729
 20
4.9711549256
 30
0.0
 10
7.0914951598
 20
4.9788798709
 30
0.0
 10
7.0912244439
 20
4.9863429412
 30
0.0
 10
7.0909538623
 20
4.9934756956
 30
0.0
 10
7.0906834704
 20
5.0002127251
 30
0.0
 10
7.0904133359
 20
5.006492251
 30
0.0
 10
7.0901435863
 20
5.0122567009
 30
0.0
 10
7.0898743246
 20
5.0174532261
 30
0.0
 10
7.0896428072
 20
5.0214061493
 30
0.0
 10
7.0894550385
 20
5.0242490237
 30
0.0
 10
7.089319651
 20
5.0261303235
 30
0.0
 10
7.089184421
 20
5.0278377439
 30
0.0
 10
7.0890493894
 20
5.0293673975
 30
0.0
 10
7.0889146347
 20
5.0307157897
 30
0.0
 10
7.0887803445
 20
5.0318799239
 30
0.0
 10
7.0886465981
 20
5.0328571737
 30
0.0
 10
7.0885298954
 20
5.0335529384
 30
0.0
 10
7.0884337358
 20
5.0340135888
 30
0.0
 10
7.0883665444
 20
5.0342882929
 30
0.0
 10
7.0882996449
 20
5.0345150886
 30
0.0
 10
7.0882501522
 20
5.0346486336
 30
0.0
 10
7.0882244512
 20
5.0347066633
 30
0.0
  0
LINE
  5
35C
100
AcDbEntity
  8
0
100
AcDbLine
 62
7
  6
CONTINUOUS
 10
7.0882244512
 20
5.0347066633
 11
7.0881739062
 21
5.0348074219
  0
LINE
  5
35D
100
AcDbEntity
  8
0
100
AcDbLine
 62
7
  6
CONTINUOUS
 10
2.5410389894
 20
4.3140767691
 11
2.5412733911
 21
4.3141794369
  0
SPLINE
  5
35E
100
AcDbEntity
  8
0
100
AcDbSpline
 62
7
  6
CONTINUOUS
 70
0
 71
3
 72
54
 73
50
 74
0
 42
0.0000001
 43
0.0000001
 44
0.0000000001
 40
0.0
 40
0.0
 40
0.0
 40
0.0
 40
0.0012996635
 40
0.0028706392
 40
0.004715397
 40
0.006834625
 40
0.0118956289
 40
0.0180493293
 40
0.0252855714
 40
0.0335890771
 40
0.0429432859
 40
0.0533276244
 40
0.0770921483
 40
0.1046711535
 40
0.1358173215
 40
0.170249431
 40
0.2076560825
 40
0.2476991063
 40
0.2900161717
 40
0.3342236935
 40
0.426694821
 40
0.5217686258
 40
0.569207203
 40
0.6160063894
 40
0.6617419699
 40
0.7059996773
 40
0.7483786117
 40
0.7884946461
 40
0.8259847137
 40
0.8605099385
 40
0.8917581448
 40
0.9194470365
 40
0.9433282198
 40
0.953773227
 40
0.9631892121
 40
0.9715558025
 40
0.9788560589
 40
0.9850743987
 40
0.9877745669
 40
0.9902009012
 40
0.992352829
 40
0.9942301558
 40
0.9958335191
 40
0.9971652648
 40
0.9977307444
 40
0.9982304558
 40
0.9986658646
 40
0.9990392334
 40
1.0
 40
1.0
 40
1.0
 40
1.0
 10
2.5412733911
 20
4.3141794369
 30
0.0
 10
2.5413447199
 20
4.3142045866
 30
0.0
 10
2.5415046325
 20
4.3142534023
 30
0.0
 10
2.5417708606
 20
4.3143201468
 30
0.0
 10
2.5420859846
 20
4.3143871094
 30
0.0
 10
2.5426025263
 20
4.3144823274
 30
0.0
 10
2.5433699289
 20
4.3145983745
 30
0.0
 10
2.5444354201
 20
4.3147316464
 30
0.0
 10
2.5456908038
 20
4.314865376
 30
0.0
 10
2.5471332886
 20
4.3149995233
 30
0.0
 10
2.548759649
 20
4.3151339067
 30
0.0
 10
2.5512843
 20
4.3153218844
 30
0.0
 10
2.5548691513
 20
4.3155526896
 30
0.0
 10
2.5596621494
 20
4.3158198962
 30
0.0
 10
2.5650767523
 20
4.3160877582
 30
0.0
 10
2.5710638614
 20
4.3163561469
 30
0.0
 10
2.577569174
 20
4.3166248757
 30
0.0
 10
2.5845336957
 20
4.3168938511
 30
0.0
 10
2.5918942576
 20
4.3171630076
 30
0.0
 10
2.6023043606
 20
4.3175275153
 30
0.0
 10
2.615783495
 20
4.3179765785
 30
0.0
 10
2.6294509386
 20
4.3184199532
 30
0.0
 10
2.6404618711
 20
4.318779484
 30
0.0
 10
2.6486030254
 20
4.3190489145
 30
0.0
 10
2.6565589711
 20
4.3193182868
 30
0.0
 10
2.6642575364
 20
4.3195875703
 30
0.0
 10
2.6716288751
 20
4.3198567257
 30
0.0
 10
2.6786061095
 20
4.3201257079
 30
0.0
 10
2.6851259558
 20
4.3203944453
 30
0.0
 10
2.6911292914
 20
4.3206628467
 30
0.0
 10
2.6965616662
 20
4.3209307268
 30
0.0
 10
2.7013738139
 20
4.3211979571
 30
0.0
 10
2.7049754127
 20
4.3214287488
 30
0.0
 10
2.7075140209
 20
4.3216166709
 30
0.0
 10
2.7091512105
 20
4.3217510759
 30
0.0
 10
2.7106047387
 20
4.321885221
 30
0.0
 10
2.7118713171
 20
4.3220190303
 30
0.0
 10
2.7128081063
 20
4.3221348591
 30
0.0
 10
2.7134615668
 20
4.3222291218
 30
0.0
 10
2.7138797789
 20
4.3222963672
 30
0.0
 10
2.7142494411
 20
4.3223635012
 30
0.0
 10
2.7145703609
 20
4.3224304688
 30
0.0
 10
2.714842412
 20
4.3224972751
 30
0.0
 10
2.7150377769
 20
4.3225553533
 30
0.0
 10
2.7151690474
 20
4.3226028814
 30
0.0
 10
2.715249528
 20
4.3226363597
 30
0.0
 10
2.7153184483
 20
4.3226703216
 30
0.0
 10
2.7154046484
 20
4.3227213315
 30
0.0
 10
2.715475596
 20
4.3227858808
 30
0.0
 10
2.7154755706
 20
4.3228417916
 30
0.0
  0
SPLINE
  5
35F
100
AcDbEntity
  8
0
100
AcDbSpline
 62
7
  6
CONTINUOUS
 70
0
 71
3
 72
18
 73
14
 74
0
 42
0.0000001
 43
0.0000001
 44
0.0000000001
 40
0.0
 40
0.0
 40
0.0
 40
0.0
 40
0.0167616301
 40
0.0395049692
 40
0.0683904047
 40
0.103473599
 40
0.1447705451
 40
0.1922783636
 40
0.305828628
 40
0.4438109625
 40
0.6058311847
 40
0.7914053575
 40
1.0
 40
1.0
 40
1.0
 40
1.0
 10
2.5338848415
 20
4.4033993038
 30
0.0
 10
2.5339392779
 20
4.403430847
 30
0.0
 10
2.5340764575
 20
4.4034892415
 30
0.0
 10
2.5343216522
 20
4.4035653611
 30
0.0
 10
2.5346381825
 20
4.4036420687
 30
0.0
 10
2.5350257407
 20
4.4037192076
 30
0.0
 10
2.5354843321
 20
4.403796587
 30
0.0
 10
2.536235909
 20
4.4039065724
 30
0.0
 10
2.5373505253
 20
4.4040403261
 30
0.0
 10
2.5388952517
 20
4.4041937672
 30
0.0
 10
2.5407114286
 20
4.4043474937
 30
0.0
 10
2.5427934311
 20
4.4045014691
 30
0.0
 10
2.5442697737
 20
4.404598576
 30
0.0
 10
2.5450511996
 20
4.4046476065
 30
0.0
  0
LINE
  5
360
100
AcDbEntity
  8
0
100
AcDbLine
 62
7
  6
CONTINUOUS
 10
2.5410389844
 20
4.3319267689
 11
2.5412790299
 21
4.3320314326
  0
SPLINE
  5
361
100
AcDbEntity
  8
0
100
AcDbSpline
 62
7
  6
CONTINUOUS
 70
0
 71
3
 72
54
 73
50
 74
0
 42
0.0000001
 43
0.0000001
 44
0.0000000001
 40
0.0
 40
0.0
 40
0.0
 40
0.0
 40
0.0013076164
 40
0.0028864862
 40
0.0047386882
 40
0.0068650783
 40
0.0119405956
 40
0.0181086906
 40
0.025357743
 40
0.0336741899
 40
0.0430404537
 40
0.0534355685
 40
0.077220621
 40
0.1048170224
 40
0.1359769183
 40
0.170419868
 40
0.2078346708
 40
0.2478826292
 40
0.2902014915
 40
0.3344084025
 40
0.4268709069
 40
0.521927901
 40
0.5693555958
 40
0.6161427552
 40
0.6618655556
 40
0.7061096574
 40
0.7484746181
 40
0.7885770644
 40
0.8260538039
 40
0.8605658691
 40
0.8918018973
 40
0.919480245
 40
0.9433517823
 40
0.9537923472
 40
0.9632042244
 40
0.9715678418
 40
0.9788645966
 40
0.9850804376
 40
0.9877797659
 40
0.9902051681
 40
0.9923559015
 40
0.9942321593
 40
0.9958349534
 40
0.9971664444
 40
0.9977318273
 40
0.9982314177
 40
0.9986666511
 40
0.9990397763
 40
1.0
 40
1.0
 40
1.0
 40
1.0
 10
2.5412790299
 20
4.3320314326
 30
0.0
 10
2.5413508531
 20
4.3320565631
 30
0.0
 10
2.5415117312
 20
4.3321053449
 30
0.0
 10
2.5417793485
 20
4.3321720779
 30
0.0
 10
2.5420957994
 20
4.332239037
 30
0.0
 10
2.5426140504
 20
4.3323342275
 30
0.0
 10
2.5433835524
 20
4.3324502412
 30
0.0
 10
2.5444514572
 20
4.3325834747
 30
0.0
 10
2.5457091462
 20
4.3327172048
 30
0.0
 10
2.5471537943
 20
4.3328513106
 30
0.0
 10
2.5487821893
 20
4.3329856662
 30
0.0
 10
2.5513092865
 20
4.3331736005
 30
0.0
 10
2.5548968581
 20
4.3334043371
 30
0.0
 10
2.5596927044
 20
4.3336714897
 30
0.0
 10
2.5651095685
 20
4.3339392984
 30
0.0
 10
2.57109838
 20
4.3342076288
 30
0.0
 10
2.5776048648
 20
4.3344762956
 30
0.0
 10
2.5845700161
 20
4.3347452108
 30
0.0
 10
2.5919306834
 20
4.3350143091
 30
0.0
 10
2.6023399987
 20
4.3353787227
 30
0.0
 10
2.6158171569
 20
4.3358276778
 30
0.0
 10
2.6294820191
 20
4.3362709611
 30
0.0
 10
2.640490263
 20
4.3366304164
 30
0.0
 10
2.6486290615
 20
4.3368997857
 30
0.0
 10
2.6565824992
 20
4.3371690949
 30
0.0
 10
2.6642784519
 20
4.3374383171
 30
0.0
 10
2.6716471422
 20
4.3377074127
 30
0.0
 10
2.6786217578
 20
4.3379763317
 30
0.0
 10
2.6851390484
 20
4.3382450055
 30
0.0
 10
2.6911399278
 20
4.3385133473
 30
0.0
 10
2.6965700278
 20
4.3387811695
 30
0.0
 10
2.7013801271
 20
4.3390483321
 30
0.0
 10
2.7049801686
 20
4.3392790732
 30
0.0
 10
2.7075176307
 20
4.3394669507
 30
0.0
 10
2.7091540925
 20
4.3396013361
 30
0.0
 10
2.7106069567
 20
4.3397354298
 30
0.0
 10
2.7118729675
 20
4.3398692256
 30
0.0
 10
2.7128093261
 20
4.3399850281
 30
0.0
 10
2.7134625169
 20
4.3400792608
 30
0.0
 10
2.7138805426
 20
4.3401464865
 30
0.0
 10
2.7142500048
 20
4.3402136101
 30
0.0
 10
2.7145707459
 20
4.3402805713
 30
0.0
 10
2.7148426775
 20
4.3403473604
 30
0.0
 10
2.7150379848
 20
4.3404054201
 30
0.0
 10
2.7151692253
 20
4.3404529353
 30
0.0
 10
2.7152496825
 20
4.3404864045
 30
0.0
 10
2.7153185674
 20
4.3405203567
 30
0.0
 10
2.7154047146
 20
4.3405713608
 30
0.0
 10
2.7154755267
 20
4.3406359142
 30
0.0
 10
2.7154755185
 20
4.3406917916
 30
0.0
  0
SPLINE
  5
362
100
AcDbEntity
  8
0
100
AcDbSpline
 62
7
  6
CONTINUOUS
 70
0
 71
3
 72
25
 73
21
 74
0
 42
0.0000001
 43
0.0000001
 44
0.0000000001
 40
0.0
 40
0.0
 40
0.0
 40
0.0
 40
0.0039566584
 40
0.0087960902
 40
0.0150360044
 40
0.0229216586
 40
0.0325725792
 40
0.0440523747
 40
0.0573966997
 40
0.0726248359
 40
0.1087688521
 40
0.152525975
 40
0.2038970479
 40
0.2628588308
 40
0.3293587557
 40
0.4033350779
 40
0.4847226048
 40
0.573449906
 40
0.7725783539
 40
1.0
 40
1.0
 40
1.0
 40
1.0
 10
2.5337579029
 20
4.4039271958
 30
0.0
 10
2.5337579103
 20
4.4039423138
 30
0.0
 10
2.5337677407
 20
4.4039760564
 30
0.0
 10
2.5338054362
 20
4.4040205836
 30
0.0
 10
2.5338639063
 20
4.4040639514
 30
0.0
 10
2.533944091
 20
4.4041070976
 30
0.0
 10
2.5340462903
 20
4.404150333
 30
0.0
 10
2.5341707597
 20
4.4041936557
 30
0.0
 10
2.5343175534
 20
4.4042370623
 30
0.0
 10
2.5345570965
 20
4.4042985749
 30
0.0
 10
2.5349128913
 20
4.4043736303
 30
0.0
 10
2.5354070672
 20
4.4044597933
 30
0.0
 10
2.5359895114
 20
4.4045461544
 30
0.0
 10
2.536659637
 20
4.4046326605
 30
0.0
 10
2.5374167545
 20
4.4047192397
 30
0.0
 10
2.5382600495
 20
4.4048058519
 30
0.0
 10
2.5391886746
 20
4.4048924696
 30
0.0
 10
2.5405943994
 20
4.4050125971
 30
0.0
 10
2.542557685
 20
4.4051606826
 30
0.0
 10
2.5441839526
 20
4.4052681912
 30
0.0
 10
2.5450511996
 20
4.4053226065
 30
0.0
  0
SPLINE
  5
363
100
AcDbEntity
  8
0
100
AcDbSpline
 62
7
  6
CONTINUOUS
 70
0
 71
3
 72
23
 73
19
 74
0
 42
0.0000001
 43
0.0000001
 44
0.0000000001
 40
0.0
 40
0.0
 40
0.0
 40
0.0
 40
0.0043702571
 40
0.0104489508
 40
0.018284585
 40
0.0278977407
 40
0.0392981919
 40
0.0524891623
 40
0.0842338342
 40
0.1231036663
 40
0.1690585471
 40
0.2220423584
 40
0.2819757638
 40
0.3487757579
 40
0.4223563093
 40
0.589453208
 40
0.7823954171
 40
1.0
 40
1.0
 40
1.0
 40
1.0
 10
2.5277989195
 20
4.3242720684
 30
0.0
 10
2.5278223649
 20
4.3242856144
 30
0.0
 10
2.527882654
 20
4.3243103008
 30
0.0
 10
2.5279913213
 20
4.3243422811
 30
0.0
 10
2.5281335844
 20
4.3243745601
 30
0.0
 10
2.5283093606
 20
4.3244070761
 30
0.0
 10
2.5285187839
 20
4.3244397182
 30
0.0
 10
2.52886473
 20
4.3244862687
 30
0.0
 10
2.5293809476
 20
4.3245428636
 30
0.0
 10
2.5301002889
 20
4.3246077744
 30
0.0
 10
2.5309516615
 20
4.3246728857
 30
0.0
 10
2.5319338489
 20
4.3247381572
 30
0.0
 10
2.5330454332
 20
4.3248035146
 30
0.0
 10
2.5342848231
 20
4.324868929
 30
0.0
 10
2.5361877219
 20
4.3249600795
 30
0.0
 10
2.5388720343
 20
4.3250721876
 30
0.0
 10
2.5424486681
 20
4.3252019423
 30
0.0
 10
2.5449910327
 20
4.3252837533
 30
0.0
 10
2.5463386368
 20
4.3253251165
 30
0.0
  0
SPLINE
  5
364
100
AcDbEntity
  8
0
100
AcDbSpline
 62
7
  6
CONTINUOUS
 70
0
 71
3
 72
9
 73
5
 74
0
 42
0.0000001
 43
0.0000001
 44
0.0000000001
 40
0.0
 40
0.0
 40
0.0
 40
0.0
 40
0.2347299118
 40
1.0
 40
1.0
 40
1.0
 40
1.0
 10
7.097518908
 20
4.8658428101
 30
0.0
 10
7.0975156432
 20
4.8658484557
 30
0.0
 10
7.0975020442
 20
4.8658726861
 30
0.0
 10
7.0974896015
 20
4.8658975553
 30
0.0
 10
7.097480567
 20
4.8659168022
 30
0.0
  0
SPLINE
  5
365
100
AcDbEntity
  8
0
100
AcDbSpline
 62
7
  6
CONTINUOUS
 70
0
 71
3
 72
55
 73
51
 74
0
 42
0.0000001
 43
0.0000001
 44
0.0000000001
 40
0.0
 40
0.0
 40
0.0
 40
0.0
 40
0.0010777271
 40
0.0024249664
 40
0.0040467512
 40
0.0059453329
 40
0.0105751977
 40
0.0163138834
 40
0.0231526883
 40
0.0310787523
 40
0.0400755535
 40
0.0501235284
 40
0.0612005535
 40
0.0732815889
 40
0.100344499
 40
0.1310662631
 40
0.165166234
 40
0.2023321846
 40
0.2422233771
 40
0.2844738064
 40
0.3286956309
 40
0.3744827724
 40
0.4214146848
 40
0.5169818109
 40
0.5647391015
 40
0.6118934101
 40
0.6580115726
 40
0.7026699895
 40
0.7454585563
 40
0.785984454
 40
0.8238757973
 40
0.8587851116
 40
0.8903926248
 40
0.9184093781
 40
0.942580227
 40
0.9626868768
 40
0.9711590322
 40
0.9785518475
 40
0.9848506874
 40
0.9875862154
 40
0.9900445478
 40
0.9922251945
 40
0.9941280927
 40
0.9957541716
 40
0.9971057835
 40
0.9976801393
 40
0.9981880495
 40
0.9986310549
 40
0.9990115635
 40
1.0
 40
1.0
 40
1.0
 40
1.0
 10
7.097480567
 20
4.8659168022
 30
0.0
 10
7.097454703
 20
4.8659719023
 30
0.0
 10
7.097405014
 20
4.8660998278
 30
0.0
 10
7.0973380835
 20
4.8663184497
 30
0.0
 10
7.097270848
 20
4.8665851163
 30
0.0
 10
7.097174434
 20
4.8670352835
 30
0.0
 10
7.0970575607
 20
4.8677184363
 30
0.0
 10
7.0969237038
 20
4.8686810898
 30
0.0
 10
7.096789276
 20
4.8698313483
 30
0.0
 10
7.0966543629
 20
4.8711666096
 30
0.0
 10
7.0965191676
 20
4.8726839001
 30
0.0
 10
7.0963837604
 20
4.874379756
 30
0.0
 10
7.0962481985
 20
4.8762502919
 30
0.0
 10
7.0960601054
 20
4.8790804681
 30
0.0
 10
7.0958282393
 20
4.8830196149
 30
0.0
 10
7.0955586302
 20
4.8882021408
 30
0.0
 10
7.095288525
 20
4.8939559381
 30
0.0
 10
7.0950180277
 20
4.9002281089
 30
0.0
 10
7.0947472689
 20
4.90696099
 30
0.0
 10
7.0944763174
 20
4.9140926703
 30
0.0
 10
7.0942052295
 20
4.9215575679
 30
0.0
 10
7.0939340429
 20
4.9292870324
 30
0.0
 10
7.0935701929
 20
4.9399149328
 30
0.0
 10
7.0932107058
 20
4.9506543154
 30
0.0
 10
7.0928489076
 20
4.9614061876
 30
0.0
 10
7.0925776468
 20
4.9693667207
 30
0.0
 10
7.092306442
 20
4.9771521328
 30
0.0
 10
7.0920353257
 20
4.9846908241
 30
0.0
 10
7.0917643352
 20
4.9919134657
 30
0.0
 10
7.091493521
 20
4.9987536386
 30
0.0
 10
7.0912229497
 20
5.0051484438
 30
0.0
 10
7.0909527282
 20
5.0110390855
 30
0.0
 10
7.0906829836
 20
5.0163714079
 30
0.0
 10
7.0904140374
 20
5.0210964335
 30
0.0
 10
7.0901460735
 20
5.0251707575
 30
0.0
 10
7.089913203
 20
5.0281410234
 30
0.0
 10
7.0897220401
 20
5.0301636837
 30
0.0
 10
7.0895872787
 20
5.0314082299
 30
0.0
 10
7.0894706718
 20
5.032328747
 30
0.0
 10
7.0893757687
 20
5.0329708857
 30
0.0
 10
7.0893080606
 20
5.0333818705
 30
0.0
 10
7.0892404642
 20
5.0337451436
 30
0.0
 10
7.0891730279
 20
5.0340605355
 30
0.0
 10
7.0891057592
 20
5.0343279313
 30
0.0
 10
7.0890472846
 20
5.034519948
 30
0.0
 10
7.0889994425
 20
5.0346489415
 30
0.0
 10
7.0889657263
 20
5.0347280555
 30
0.0
 10
7.0889315323
 20
5.0347957585
 30
0.0
 10
7.0888798641
 20
5.0348809998
 30
0.0
 10
7.0888147326
 20
5.0349501094
 30
0.0
 10
7.0887589072
 20
5.0349501151
 30
0.0
  0
ENDSEC
  0
SECTION
  2
OBJECTS
  0
DICTIONARY
  5
C
100
AcDbDictionary
280
0
281
1
  3
ACAD_GROUP
350
D
  3
ACAD_MLINESTYLE
350
17
  3
ACAD_LAYOUT
350
1A
  3
ACAD_PLOTSETTINGS
350
19
  3
ACAD_PLOTSTYLENAME
350
E
  0
DICTIONARY
  5
D
102
{ACAD_REACTORS
330
C
102
}
100
AcDbDictionary
280
0
281
1
  0
ACDBDICTIONARYWDFLT
  5
E
102
{ACAD_REACTORS
330
C
102
}
100
AcDbDictionary
281
1
  3
Normal
350
F
100
AcDbDictionaryWithDefault
340
F
  0
DICTIONARY
  5
17
102
{ACAD_REACTORS
330
C
102
}
100
AcDbDictionary
280
0
281
1
  3
Standard
350
18
  0
DICTIONARY
  5
19
102
{ACAD_REACTORS
330
C
102
}
100
AcDbDictionary
281
1
  0
DICTIONARY
  5
1A
102
{ACAD_REACTORS
330
C
102
}
100
AcDbDictionary
281
1
  3
Model
350
366
  3
Layout1
350
367
  0
ACDBPLACEHOLDER
  5
F
102
{ACAD_REACTORS
330
E
102
}
  0
MLINESTYLE
  5
18
102
{ACAD_REACTORS
330
17
102
}
100
AcDbMlineStyle
  2
STANDARD
 70
0
  3

 62
256
 51
90.0
 52
90.0
 71
2
 49
0.5
 62
256
  6
BYLAYER
 49
-0.5
 62
256
  6
BYLAYER
  0
LAYOUT
  5
366
102
{ACAD_REACTORS
330
1A
102
}
100
AcDbPlotSettings
  1

  2
none_device
  4
ANSI_A_(11.00_x_8.50_Inches)
  6

 40
0.0
 41
0.0
 42
0.0
 43
0.0
 44
279.4
 45
215.9
 46
0.0
 47
0.0
 48
0.0
 49
0.0
140
0.0
141
0.0
142
1.0
143
1.0
 70
1024
 72
0
 73
0
 74
0
  7

 75
0
147
1.0
148
0.0
149
0.0
100
AcDbLayout
  1
Model
 70
0
 71
0
 10
0.0
 20
0.0
 11
11.0
 21
8.5
 12
0.0
 22
0.0
 32
0.0
 14
0.0
 24
0.0
 34
0.0
 15
0.0
 25
0.0
 35
0.0
146
0.0
 13
0.0
 23
0.0
 33
0.0
 16
1.0
 26
0.0
 36
0.0
 17
0.0
 27
1.0
 37
0.0
 76
0
330
202
345
0
346
0
  0
LAYOUT
  5
367
102
{ACAD_REACTORS
330
1A
102
}
100
AcDbPlotSettings
  1

  2
none_device
  4
ANSI_A_(11.00_x_8.50_Inches)
  6

 40
0.0
 41
0.0
 42
0.0
 43
0.0
 44
279.4
 45
215.9
 46
0.0
 47
0.0
 48
0.0
 49
0.0
140
0.0
141
0.0
142
1.0
143
1.0
 70
0
 72
0
 73
0
 74
0
  7

 75
0
147
1.0
148
0.0
149
0.0
100
AcDbLayout
  1
Layout1
 70
0
 71
1
 10
0.0
 20
0.0
 11
11.0
 21
8.5
 12
0.0
 22
0.0
 32
0.0
 14
0.0
 24
0.0
 34
0.0
 15
0.0
 25
0.0
 35
0.0
146
0.0
 13
0.0
 23
0.0
 33
0.0
 16
1.0
 26
0.0
 36
0.0
 17
0.0
 27
1.0
 37
0.0
 76
0
330
203
345
0
346
0
  0
ENDSEC
  0
EOF
