999
DXF file: 20-550_top.dxf
999
Pro/ENGINEER 2018400 by Parametric Technology Corporation
  0
SECTION
  2
HEADER
  9
$ACADVER
  1
AC1027
  9
$DWGCODEPAGE
  3
ANSI_1252
  9
$EXTMAX
 10
11.0
 20
8.5
 30
0.0
  9
$EXTMIN
 10
0.0
 20
0.0
 30
0.0
  9
$LIMMIN
 10
0.0
 20
0.0
  9
$LIMMAX
 10
11.0
 20
8.5
  9
$VIEWCTR
 10
5.5
 20
4.25
  9
$VIEWSIZE
 40
8.5
  9
$CLAYER
  8
0
  9
$LTSCALE
 40
0.605
  9
$CELTYPE
  6
BYLAYER
  9
$DIMSCALE
 40
1.0
  9
$DIMASZ
 40
0.1
  9
$DIMEXO
 40
0.0625
  9
$DIMDLI
 40
0.418
  9
$DIMEXE
 40
0.125
  9
$DIMCEN
 40
0.099
  9
$DIMLFAC
 40
1.0
  9
$DIMBLK
  1
_FILLED
  9
$DIMALT
 70
1
  9
$DIMALTD
 70
1
  9
$DIMALTTD
 70
2
  9
$DIMALTF
 40
25.4
  9
$DIMTXT
 40
0.08
  9
$DIMTOL
 70
1
  9
$DIMLIM
 70
0
  9
$DIMTFAC
 40
1.0
  9
$DIMTP
 40
0.01
  9
$DIMTM
 40
0.01
  9
$DIMGAP
 40
0.09
  9
$DIMDSEP
 70
46
  9
$AUNITS
 70
0
  9
$PDMODE
 70
3
  9
$PDSIZE
 40
0.3125
  9
$HANDSEED
  5
2FD
  9
$TILEMODE
 70
1
  9
$MEASUREMENT
 70
0
  9
$INSUNITS
 70
1
  0
ENDSEC
  0
SECTION
  2
CLASSES
  0
CLASS
  1
ACDBDICTIONARYWDFLT
  2
AcDbDictionaryWithDefault
  3
AutoCAD 2000
 90
0
 91
1
280
0
281
0
  0
CLASS
  1
ACDBPLACEHOLDER
  2
AcDbPlaceHolder
  3
AutoCAD 2000
 90
0
 91
1
280
0
281
0
  0
CLASS
  1
LAYOUT
  2
AcDbLayout
  3
AutoCAD 2000
 90
0
 91
0
280
0
281
0
  0
ENDSEC
  0
SECTION
  2
TABLES
  0
TABLE
  2
VPORT
  5
8
100
AcDbSymbolTable
 70
2
  0
VPORT
  5
1F4
100
AcDbSymbolTableRecord
100
AcDbViewportTableRecord
  2
*ACTIVE
 70
0
 10
0.0
 20
0.0
 11
1.0
 21
1.0
 12
5.5
 22
4.25
 13
0.0
 23
0.0
 14
1.0
 24
1.0
 15
0.0
 25
0.0
 16
0.0
 26
0.0
 36
1.0
 17
0.0
 27
0.0
 37
0.0
 40
8.5
 41
1.2941176471
 42
50.0
 43
0.0
 44
0.0
 50
0.0
 51
0.0
 71
0
 72
100
 73
1
 74
1
 75
0
 76
0
 77
0
 78
0
  0
ENDTAB
  0
TABLE
  2
LTYPE
  5
5
100
AcDbSymbolTable
 70
6
  0
LTYPE
  5
14
100
AcDbSymbolTableRecord
100
AcDbLinetypeTableRecord
  2
BYBLOCK
 70
0
  3

 72
65
 73
0
 40
0.0
  0
LTYPE
  5
15
100
AcDbSymbolTableRecord
100
AcDbLinetypeTableRecord
  2
BYLAYER
 70
0
  3

 72
65
 73
0
 40
0.0
  0
LTYPE
  5
16
100
AcDbSymbolTableRecord
100
AcDbLinetypeTableRecord
  2
CONTINUOUS
 70
64
  3
Solid line
 72
65
 73
0
 40
0.0
  0
LTYPE
  5
1F5
100
AcDbSymbolTableRecord
100
AcDbLinetypeTableRecord
  2
CENTER
 70
64
  3
____ _ ____ _ ____ _ ____ _ ____ _ ____ _ ____
 72
65
 73
4
 40
0.6
 49
0.375
 74
0
 49
-0.075
 74
0
 49
0.075
 74
0
 49
-0.075
 74
0
  0
LTYPE
  5
1F6
100
AcDbSymbolTableRecord
100
AcDbLinetypeTableRecord
  2
HIDDEN
 70
64
  3
- - - - - - - - - - - - - - - - - - - -
 72
65
 73
2
 40
0.2
 49
0.1
 74
0
 49
-0.1
 74
0
  0
LTYPE
  5
1F7
100
AcDbSymbolTableRecord
100
AcDbLinetypeTableRecord
  2
PHANTOM
 70
64
  3
_____ _ _ _____ _ _ _____ _ _ _____
 72
65
 73
6
 40
0.8
 49
0.45
 74
0
 49
-0.05
 74
0
 49
0.1
 74
0
 49
-0.05
 74
0
 49
0.1
 74
0
 49
-0.05
 74
0
  0
LTYPE
  5
1F8
100
AcDbSymbolTableRecord
100
AcDbLinetypeTableRecord
  2
DOT
 70
64
  3
. . . . . . . . . . . . . . . . . . . .
 72
65
 73
2
 40
0.2
 49
0.1
 74
0
 49
-0.1
 74
0
  0
LTYPE
  5
1F9
100
AcDbSymbolTableRecord
100
AcDbLinetypeTableRecord
  2
DASHED
 70
64
  3
- - - - - - - - - - - - - - - - - - - -
 72
65
 73
2
 40
0.2
 49
0.1
 74
0
 49
-0.1
 74
0
  0
ENDTAB
  0
TABLE
  2
LAYER
  5
2
100
AcDbSymbolTable
 70
36
  0
LAYER
  5
10
100
AcDbSymbolTableRecord
100
AcDbLayerTableRecord
  2
0
 70
0
 62
7
  6
CONTINUOUS
370
-3
390
F
  0
LAYER
  5
1FA
100
AcDbSymbolTableRecord
100
AcDbLayerTableRecord
  2
DEFAULT_1
 70
0
 62
7
  6
CENTER
370
-3
390
F
  0
LAYER
  5
1FB
100
AcDbSymbolTableRecord
100
AcDbLayerTableRecord
  2
DEFAULT_2
 70
0
 62
8
  6
HIDDEN
370
-3
390
F
  0
LAYER
  5
1FC
100
AcDbSymbolTableRecord
100
AcDbLayerTableRecord
  2
DEFAULT_3
 70
0
 62
7
  6
PHANTOM
370
-3
390
F
  0
LAYER
  5
1FD
100
AcDbSymbolTableRecord
100
AcDbLayerTableRecord
  2
DEFAULT_COORDINATE_SYSTEM
 70
0
 62
7
  6
CONTINUOUS
370
-3
390
F
  0
LAYER
  5
1FE
100
AcDbSymbolTableRecord
100
AcDbLayerTableRecord
  2
DEFAULT_DATUM_AXES
 70
0
 62
7
  6
CONTINUOUS
370
-3
390
F
  0
LAYER
  5
1FF
100
AcDbSymbolTableRecord
100
AcDbLayerTableRecord
  2
DEFAULT_DATUM_PLANES
 70
0
 62
7
  6
CONTINUOUS
370
-3
390
F
  0
ENDTAB
  0
TABLE
  2
STYLE
  5
3
100
AcDbSymbolTable
 70
1
  0
STYLE
  5
11
100
AcDbSymbolTableRecord
100
AcDbTextStyleTableRecord
  2
STANDARD
 70
0
 40
0.0
 41
0.8
 50
0.0
 71
0
 42
0.2
  3
txt
  4

  0
STYLE
  5
200
100
AcDbSymbolTableRecord
100
AcDbTextStyleTableRecord
  2
TEXTSTYLE_1
 70
0
 40
0.0
 41
0.8
 50
0.0
 71
0
 42
0.2
  3
gdt
  4

  0
ENDTAB
  0
TABLE
  2
VIEW
  5
6
100
AcDbSymbolTable
 70
0
  0
ENDTAB
  0
TABLE
  2
UCS
  5
7
100
AcDbSymbolTable
 70
0
  0
ENDTAB
  0
TABLE
  2
APPID
  5
9
100
AcDbSymbolTable
 70
1
  0
APPID
  5
201
100
AcDbSymbolTableRecord
100
AcDbRegAppTableRecord
  2
ACAD
 70
0
  0
ENDTAB
  0
TABLE
  2
BLOCK_RECORD
  5
1
100
AcDbSymbolTable
 70
0
  0
BLOCK_RECORD
  5
202
100
AcDbSymbolTableRecord
100
AcDbBlockTableRecord
  2
*Model_Space
  0
BLOCK_RECORD
  5
203
100
AcDbSymbolTableRecord
100
AcDbBlockTableRecord
  2
*Paper_Space
  0
BLOCK_RECORD
  5
204
100
AcDbSymbolTableRecord
100
AcDbBlockTableRecord
  2
_FILLED
  0
ENDTAB
  0
TABLE
  2
DIMSTYLE
  5
A
100
AcDbSymbolTable
 70
1
100
AcDbDimStyleTable
 71
0
  0
DIMSTYLE
105
205
100
AcDbSymbolTableRecord
100
AcDbDimStyleTableRecord
  2
STANDARD
 70
0
  3

  4

 40
1.0
 41
0.1
 42
0.0625
 43
0.38
 44
0.125
 45
0.0
 46
0.0
 47
0.01
 48
0.01
140
0.08
141
0.09
142
0.0
143
25.4
144
1.0
145
0.0
146
1.0
147
0.09
 71
1.0
 72
0.0
 73
1
 74
1
 75
0
 76
0
 77
0
 78
4
 79
1
170
1
171
1
172
0
173
0
174
0
175
0
176
0
177
0
178
0
270
2
179
2
271
2
272
2
273
2
274
2
275
0
280
0
281
0
282
0
283
1
284
4
285
0
286
0
287
3
288
0
340
11
278
46
341
204
342
204
343
204
344
204
  0
ENDTAB
  0
ENDSEC
  0
SECTION
  2
BLOCKS
  0
BLOCK
  5
20
100
AcDbEntity
  8
0
100
AcDbBlockBegin
  2
*Model_Space
 70
0
 10
0.0
 20
0.0
 30
0.0
  3
*Model_Space
  1

  0
ENDBLK
  5
21
100
AcDbEntity
  8
0
100
AcDbBlockEnd
  0
BLOCK
  5
1C
100
AcDbEntity
  8
0
100
AcDbBlockBegin
  2
*Paper_Space
 70
0
 10
0.0
 20
0.0
 30
0.0
  3
*Paper_Space
  1

  0
ENDBLK
  5
1D
100
AcDbEntity
  8
0
100
AcDbBlockEnd
  0
BLOCK
  5
206
100
AcDbEntity
  8
0
100
AcDbBlockBegin
  2
_FILLED
 70
64
 10
0.0
 20
0.0
  3
_FILLED
  1

  0
SOLID
  5
207
100
AcDbEntity
  8
0
  6
BYBLOCK
 62
0
100
AcDbTrace
 10
0.0
 20
0.0
 11
-1.0
 21
0.2
 12
-1.0
 22
-0.2
 13
-1.0
 23
-0.2
  0
ENDBLK
  5
208
100
AcDbEntity
  8
0
  6
BYBLOCK
 62
0
100
AcDbBlockEnd
  0
ENDSEC
  0
SECTION
  2
ENTITIES
  0
MTEXT
  5
209
100
AcDbEntity
  8
0
100
AcDbMText
 62
2
  6
CONTINUOUS
  7
STANDARD
 71
3
 72
1
 10
5.280939441
 20
1.2911558618
 30
0.0
 11
1.0
 21
0.0
 31
0.0
 73
2
 44
0.9
  1
SCALE  .250
 40
0.08
 41
0.704
  0
LINE
  5
20A
100
AcDbEntity
  8
0
100
AcDbLine
 62
7
  6
CONTINUOUS
 10
0.0
 20
0.0
 11
0.0
 21
8.5
  0
LINE
  5
20B
100
AcDbEntity
  8
0
100
AcDbLine
 62
7
  6
CONTINUOUS
 10
0.0
 20
0.0
 11
11.0
 21
0.0
  0
LINE
  5
20C
100
AcDbEntity
  8
0
100
AcDbLine
 62
7
  6
CONTINUOUS
 10
0.0
 20
8.5
 11
11.0
 21
8.5
  0
LINE
  5
20D
100
AcDbEntity
  8
0
100
AcDbLine
 62
7
  6
CONTINUOUS
 10
11.0
 20
0.0
 11
11.0
 21
8.5
  0
LINE
  5
20E
100
AcDbEntity
  8
0
100
AcDbLine
 62
7
  6
CONTINUOUS
 10
4.792924522
 20
7.0314609404
 11
4.7906589871
 21
7.0301507813
  0
LINE
  5
20F
100
AcDbEntity
  8
0
100
AcDbLine
 62
7
  6
CONTINUOUS
 10
4.792924522
 20
7.0136109404
 11
4.7786290168
 21
7.0053454966
  0
LINE
  5
210
100
AcDbEntity
  8
0
100
AcDbLine
 62
7
  6
CONTINUOUS
 10
4.792924522
 20
6.9957609404
 11
4.7786290168
 21
6.9874954966
  0
LINE
  5
211
100
AcDbEntity
  8
0
100
AcDbLine
 62
7
  6
CONTINUOUS
 10
4.792924522
 20
6.9779109404
 11
4.7786290168
 21
6.9696454966
  0
LINE
  5
212
100
AcDbEntity
  8
0
100
AcDbLine
 62
7
  6
CONTINUOUS
 10
4.961824821
 20
6.9336721902
 11
4.9618130231
 21
6.9336674668
  0
LINE
  5
213
100
AcDbEntity
  8
0
100
AcDbLine
 62
7
  6
CONTINUOUS
 10
4.9618891422
 20
7.0229559421
 11
4.9678869168
 21
7.0264242216
  0
LINE
  5
214
100
AcDbEntity
  8
0
100
AcDbLine
 62
7
  6
CONTINUOUS
 10
4.792924522
 20
6.9600609404
 11
4.7786290168
 21
6.9517954966
  0
LINE
  5
215
100
AcDbEntity
  8
0
100
AcDbLine
 62
7
  6
CONTINUOUS
 10
4.792924522
 20
6.9422109404
 11
4.7786290168
 21
6.9339454966
  0
LINE
  5
216
100
AcDbEntity
  8
0
100
AcDbLine
 62
7
  6
CONTINUOUS
 10
4.792924522
 20
6.9243609404
 11
4.7786290168
 21
6.9160954966
  0
LINE
  5
217
100
AcDbEntity
  8
0
100
AcDbLine
 62
7
  6
CONTINUOUS
 10
4.9618891422
 20
7.0051059421
 11
4.9761846476
 21
7.013371386
  0
LINE
  5
218
100
AcDbEntity
  8
0
100
AcDbLine
 62
7
  6
CONTINUOUS
 10
4.792924522
 20
6.9065109404
 11
4.7786290168
 21
6.8982454966
  0
LINE
  5
219
100
AcDbEntity
  8
0
100
AcDbLine
 62
7
  6
CONTINUOUS
 10
4.9618891422
 20
6.9872559421
 11
4.9761846476
 21
6.995521386
  0
LINE
  5
21A
100
AcDbEntity
  8
0
100
AcDbLine
 62
7
  6
CONTINUOUS
 10
4.792924522
 20
6.8886609404
 11
4.7786290168
 21
6.8803954966
  0
LINE
  5
21B
100
AcDbEntity
  8
0
100
AcDbLine
 62
7
  6
CONTINUOUS
 10
4.9618891422
 20
6.9694059421
 11
4.9761846476
 21
6.977671386
  0
LINE
  5
21C
100
AcDbEntity
  8
0
100
AcDbLine
 62
7
  6
CONTINUOUS
 10
4.9618891422
 20
6.9515559421
 11
4.9761846476
 21
6.959821386
  0
LINE
  5
21D
100
AcDbEntity
  8
0
100
AcDbLine
 62
7
  6
CONTINUOUS
 10
4.9618891422
 20
6.9337059421
 11
4.9761846476
 21
6.941971386
  0
LINE
  5
21E
100
AcDbEntity
  8
0
100
AcDbLine
 62
7
  6
CONTINUOUS
 10
4.9618891422
 20
6.9158559421
 11
4.9761846476
 21
6.924121386
  0
LINE
  5
21F
100
AcDbEntity
  8
0
100
AcDbLine
 62
7
  6
CONTINUOUS
 10
4.9618891422
 20
6.8980059421
 11
4.9761846476
 21
6.906271386
  0
LINE
  5
220
100
AcDbEntity
  8
0
100
AcDbLine
 62
7
  6
CONTINUOUS
 10
4.9618248123
 20
6.9336721902
 11
4.9618148607
 21
6.9336674673
  0
LINE
  5
221
100
AcDbEntity
  8
0
100
AcDbLine
 62
7
  6
CONTINUOUS
 10
4.7935068323
 20
7.0331376165
 11
4.7925984948
 21
7.0322292789
  0
LINE
  5
222
100
AcDbEntity
  8
0
100
AcDbLine
 62
7
  6
CONTINUOUS
 10
4.7901397507
 20
7.0297705348
 11
4.7812329231
 21
7.0208637072
  0
LINE
  5
223
100
AcDbEntity
  8
0
100
AcDbLine
 62
7
  6
CONTINUOUS
 10
4.9691091433
 20
6.8800819107
 11
4.9760036744
 21
6.8840756217
  0
LINE
  5
224
100
AcDbEntity
  8
0
100
AcDbLine
 62
7
  6
CONTINUOUS
 10
4.7758443323
 20
6.8768876165
 11
4.7758443323
 21
2.4331376165
  0
LINE
  5
225
100
AcDbEntity
  8
0
100
AcDbLine
 62
7
  6
CONTINUOUS
 10
4.7785068323
 20
6.8768876165
 11
4.7785068323
 21
6.8802542663
  0
LINE
  5
226
100
AcDbEntity
  8
0
100
AcDbLine
 62
7
  6
CONTINUOUS
 10
4.7785068323
 20
6.8974876165
 11
4.7785068323
 21
6.8981042663
  0
LINE
  5
227
100
AcDbEntity
  8
0
100
AcDbLine
 62
7
  6
CONTINUOUS
 10
4.7785068323
 20
6.9153376165
 11
4.7785068323
 21
6.9159542663
  0
LINE
  5
228
100
AcDbEntity
  8
0
100
AcDbLine
 62
7
  6
CONTINUOUS
 10
4.7785068323
 20
6.9331876165
 11
4.7785068323
 21
6.9338042663
  0
LINE
  5
229
100
AcDbEntity
  8
0
100
AcDbLine
 62
7
  6
CONTINUOUS
 10
4.7785068323
 20
6.9510376165
 11
4.7785068323
 21
6.9516542663
  0
LINE
  5
22A
100
AcDbEntity
  8
0
100
AcDbLine
 62
7
  6
CONTINUOUS
 10
4.7785068323
 20
6.9688876165
 11
4.7785068323
 21
6.9695042663
  0
LINE
  5
22B
100
AcDbEntity
  8
0
100
AcDbLine
 62
7
  6
CONTINUOUS
 10
4.7785068323
 20
6.9867376165
 11
4.7785068323
 21
6.9873542663
  0
LINE
  5
22C
100
AcDbEntity
  8
0
100
AcDbLine
 62
7
  6
CONTINUOUS
 10
4.7785068323
 20
7.0045876165
 11
4.7785068323
 21
7.0052042663
  0
LINE
  5
22D
100
AcDbEntity
  8
0
100
AcDbLine
 62
7
  6
CONTINUOUS
 10
4.7927818323
 20
7.0320459414
 11
4.7927818323
 21
7.0313784209
  0
LINE
  5
22E
100
AcDbEntity
  8
0
100
AcDbLine
 62
7
  6
CONTINUOUS
 10
4.7927818323
 20
7.0141959414
 11
4.7927818323
 21
7.0135284209
  0
LINE
  5
22F
100
AcDbEntity
  8
0
100
AcDbLine
 62
7
  6
CONTINUOUS
 10
4.7927818323
 20
6.9963459414
 11
4.7927818323
 21
6.9956784209
  0
LINE
  5
230
100
AcDbEntity
  8
0
100
AcDbLine
 62
7
  6
CONTINUOUS
 10
4.7927818323
 20
6.9784959414
 11
4.7927818323
 21
6.9778284209
  0
LINE
  5
231
100
AcDbEntity
  8
0
100
AcDbLine
 62
7
  6
CONTINUOUS
 10
4.7927818323
 20
6.9606459414
 11
4.7927818323
 21
6.9599784209
  0
LINE
  5
232
100
AcDbEntity
  8
0
100
AcDbLine
 62
7
  6
CONTINUOUS
 10
4.7927818323
 20
6.9427959414
 11
4.7927818323
 21
6.9421284209
  0
LINE
  5
233
100
AcDbEntity
  8
0
100
AcDbLine
 62
7
  6
CONTINUOUS
 10
4.7927818323
 20
6.9249459414
 11
4.7927818323
 21
6.9242784209
  0
LINE
  5
234
100
AcDbEntity
  8
0
100
AcDbLine
 62
7
  6
CONTINUOUS
 10
4.7927818323
 20
6.9070959414
 11
4.7927818323
 21
6.9064284209
  0
LINE
  5
235
100
AcDbEntity
  8
0
100
AcDbLine
 62
7
  6
CONTINUOUS
 10
4.7927818323
 20
6.8892459414
 11
4.7927818323
 21
6.8885784209
  0
LINE
  5
236
100
AcDbEntity
  8
0
100
AcDbLine
 62
7
  6
CONTINUOUS
 10
4.9596089443
 20
6.8768876165
 11
4.9596089443
 21
6.8817845128
  0
LINE
  5
237
100
AcDbEntity
  8
0
100
AcDbLine
 62
7
  6
CONTINUOUS
 10
4.9618219183
 20
6.8768876165
 11
4.9618219183
 21
6.8732201748
  0
LINE
  5
238
100
AcDbEntity
  8
0
100
AcDbLine
 62
7
  6
CONTINUOUS
 10
4.9620318323
 20
6.8974209414
 11
4.9620318323
 21
6.8980884618
  0
LINE
  5
239
100
AcDbEntity
  8
0
100
AcDbLine
 62
7
  6
CONTINUOUS
 10
4.9620318323
 20
6.9152709414
 11
4.9620318323
 21
6.9159384618
  0
LINE
  5
23A
100
AcDbEntity
  8
0
100
AcDbLine
 62
7
  6
CONTINUOUS
 10
4.9620318323
 20
6.9331209414
 11
4.9620318323
 21
6.9337884618
  0
LINE
  5
23B
100
AcDbEntity
  8
0
100
AcDbLine
 62
7
  6
CONTINUOUS
 10
4.9620318323
 20
6.9509709414
 11
4.9620318323
 21
6.9516384618
  0
LINE
  5
23C
100
AcDbEntity
  8
0
100
AcDbLine
 62
7
  6
CONTINUOUS
 10
4.9620318323
 20
6.9688209414
 11
4.9620318323
 21
6.9694884618
  0
LINE
  5
23D
100
AcDbEntity
  8
0
100
AcDbLine
 62
7
  6
CONTINUOUS
 10
4.9620318323
 20
6.9866709414
 11
4.9620318323
 21
6.9873384618
  0
LINE
  5
23E
100
AcDbEntity
  8
0
100
AcDbLine
 62
7
  6
CONTINUOUS
 10
4.9620318323
 20
7.0045209414
 11
4.9620318323
 21
7.0051884618
  0
LINE
  5
23F
100
AcDbEntity
  8
0
100
AcDbLine
 62
7
  6
CONTINUOUS
 10
4.9620318323
 20
7.0223709414
 11
4.9620318323
 21
7.0230384618
  0
LINE
  5
240
100
AcDbEntity
  8
0
100
AcDbLine
 62
7
  6
CONTINUOUS
 10
4.9692395925
 20
6.8794831255
 11
4.9692395925
 21
6.8801574901
  0
LINE
  5
241
100
AcDbEntity
  8
0
100
AcDbLine
 62
7
  6
CONTINUOUS
 10
4.9763068323
 20
6.8844265745
 11
4.9763068323
 21
6.8891792663
  0
LINE
  5
242
100
AcDbEntity
  8
0
100
AcDbLine
 62
7
  6
CONTINUOUS
 10
4.9763068323
 20
6.9064126165
 11
4.9763068323
 21
6.9070292663
  0
LINE
  5
243
100
AcDbEntity
  8
0
100
AcDbLine
 62
7
  6
CONTINUOUS
 10
4.9763068323
 20
6.9242626165
 11
4.9763068323
 21
6.9248792663
  0
LINE
  5
244
100
AcDbEntity
  8
0
100
AcDbLine
 62
7
  6
CONTINUOUS
 10
4.9763068323
 20
6.9421126165
 11
4.9763068323
 21
6.9427292663
  0
LINE
  5
245
100
AcDbEntity
  8
0
100
AcDbLine
 62
7
  6
CONTINUOUS
 10
4.9763068323
 20
6.9599626165
 11
4.9763068323
 21
6.9605792663
  0
LINE
  5
246
100
AcDbEntity
  8
0
100
AcDbLine
 62
7
  6
CONTINUOUS
 10
4.9763068323
 20
6.9778126165
 11
4.9763068323
 21
6.9784292663
  0
LINE
  5
247
100
AcDbEntity
  8
0
100
AcDbLine
 62
7
  6
CONTINUOUS
 10
4.9763068323
 20
6.9956626165
 11
4.9763068323
 21
6.9962792663
  0
LINE
  5
248
100
AcDbEntity
  8
0
100
AcDbLine
 62
7
  6
CONTINUOUS
 10
4.9763068323
 20
7.0135126165
 11
4.9763068323
 21
7.0141292663
  0
LINE
  5
249
100
AcDbEntity
  8
0
100
AcDbLine
 62
7
  6
CONTINUOUS
 10
4.9789693323
 20
6.8739281131
 11
4.9789693323
 21
2.4331376165
  0
LINE
  5
24A
100
AcDbEntity
  8
0
100
AcDbLine
 62
7
  6
CONTINUOUS
 10
4.9789480461
 20
6.8739526966
 11
4.9789693323
 21
6.8739281131
  0
LINE
  5
24B
100
AcDbEntity
  8
0
100
AcDbLine
 62
7
  6
CONTINUOUS
 10
4.9613068323
 20
7.0331376165
 11
4.9679225183
 21
7.0265219305
  0
LINE
  5
24C
100
AcDbEntity
  8
0
100
AcDbLine
 62
7
  6
CONTINUOUS
 10
4.7927460878
 20
6.8891841333
 11
4.7927818323
 21
6.8891634618
  0
LINE
  5
24D
100
AcDbEntity
  8
0
100
AcDbLine
 62
7
  6
CONTINUOUS
 10
4.778629017
 20
6.897346386
 11
4.7927460878
 21
6.8891841333
  0
LINE
  5
24E
100
AcDbEntity
  8
0
100
AcDbLine
 62
7
  6
CONTINUOUS
 10
4.7927460878
 20
6.9070341333
 11
4.7927818323
 21
6.9070134618
  0
LINE
  5
24F
100
AcDbEntity
  8
0
100
AcDbLine
 62
7
  6
CONTINUOUS
 10
4.778629017
 20
6.915196386
 11
4.7927460878
 21
6.9070341333
  0
LINE
  5
250
100
AcDbEntity
  8
0
100
AcDbLine
 62
7
  6
CONTINUOUS
 10
4.7927460878
 20
6.9248841333
 11
4.7927818323
 21
6.9248634618
  0
LINE
  5
251
100
AcDbEntity
  8
0
100
AcDbLine
 62
7
  6
CONTINUOUS
 10
4.778629017
 20
6.933046386
 11
4.7927460878
 21
6.9248841333
  0
LINE
  5
252
100
AcDbEntity
  8
0
100
AcDbLine
 62
7
  6
CONTINUOUS
 10
4.9789480461
 20
6.8739526966
 11
4.9692395925
 21
6.8795591743
  0
LINE
  5
253
100
AcDbEntity
  8
0
100
AcDbLine
 62
7
  6
CONTINUOUS
 10
4.7927460878
 20
6.9427341333
 11
4.7927818323
 21
6.9427134618
  0
LINE
  5
254
100
AcDbEntity
  8
0
100
AcDbLine
 62
7
  6
CONTINUOUS
 10
4.778629017
 20
6.950896386
 11
4.7927460878
 21
6.9427341333
  0
LINE
  5
255
100
AcDbEntity
  8
0
100
AcDbLine
 62
7
  6
CONTINUOUS
 10
4.7927460878
 20
6.9605841333
 11
4.7927818323
 21
6.9605634618
  0
LINE
  5
256
100
AcDbEntity
  8
0
100
AcDbLine
 62
7
  6
CONTINUOUS
 10
4.778629017
 20
6.968746386
 11
4.7927460878
 21
6.9605841333
  0
LINE
  5
257
100
AcDbEntity
  8
0
100
AcDbLine
 62
7
  6
CONTINUOUS
 10
4.7927460878
 20
6.9784341333
 11
4.7927818323
 21
6.9784134618
  0
LINE
  5
258
100
AcDbEntity
  8
0
100
AcDbLine
 62
7
  6
CONTINUOUS
 10
4.778629017
 20
6.986596386
 11
4.7927460878
 21
6.9784341333
  0
LINE
  5
259
100
AcDbEntity
  8
0
100
AcDbLine
 62
7
  6
CONTINUOUS
 10
4.9620675767
 20
6.8974827493
 11
4.9620318323
 21
6.8975034209
  0
LINE
  5
25A
100
AcDbEntity
  8
0
100
AcDbLine
 62
7
  6
CONTINUOUS
 10
4.9761846478
 20
6.8893204966
 11
4.9620675767
 21
6.8974827493
  0
LINE
  5
25B
100
AcDbEntity
  8
0
100
AcDbLine
 62
7
  6
CONTINUOUS
 10
4.7927460878
 20
6.9962841333
 11
4.7927818323
 21
6.9962634618
  0
LINE
  5
25C
100
AcDbEntity
  8
0
100
AcDbLine
 62
7
  6
CONTINUOUS
 10
4.778629017
 20
7.004446386
 11
4.7927460878
 21
6.9962841333
  0
LINE
  5
25D
100
AcDbEntity
  8
0
100
AcDbLine
 62
7
  6
CONTINUOUS
 10
4.9620675767
 20
6.9153327493
 11
4.9620318323
 21
6.9153534209
  0
LINE
  5
25E
100
AcDbEntity
  8
0
100
AcDbLine
 62
7
  6
CONTINUOUS
 10
4.9761846478
 20
6.9071704966
 11
4.9620675767
 21
6.9153327493
  0
LINE
  5
25F
100
AcDbEntity
  8
0
100
AcDbLine
 62
7
  6
CONTINUOUS
 10
4.7927460878
 20
7.0141341333
 11
4.7927818323
 21
7.0141134618
  0
LINE
  5
260
100
AcDbEntity
  8
0
100
AcDbLine
 62
7
  6
CONTINUOUS
 10
4.7812664581
 20
7.0207717237
 11
4.7927460878
 21
7.0141341333
  0
LINE
  5
261
100
AcDbEntity
  8
0
100
AcDbLine
 62
7
  6
CONTINUOUS
 10
4.9620675767
 20
6.9331827493
 11
4.9620318323
 21
6.9332034209
  0
LINE
  5
262
100
AcDbEntity
  8
0
100
AcDbLine
 62
7
  6
CONTINUOUS
 10
4.9761846478
 20
6.9250204966
 11
4.9620675767
 21
6.9331827493
  0
LINE
  5
263
100
AcDbEntity
  8
0
100
AcDbLine
 62
7
  6
CONTINUOUS
 10
4.7925873038
 20
7.0320759629
 11
4.7927818323
 21
7.0319634629
  0
LINE
  5
264
100
AcDbEntity
  8
0
100
AcDbLine
 62
7
  6
CONTINUOUS
 10
4.9620675767
 20
6.9510327493
 11
4.9620318323
 21
6.9510534209
  0
LINE
  5
265
100
AcDbEntity
  8
0
100
AcDbLine
 62
7
  6
CONTINUOUS
 10
4.9761846478
 20
6.9428704966
 11
4.9620675767
 21
6.9510327493
  0
LINE
  5
266
100
AcDbEntity
  8
0
100
AcDbLine
 62
7
  6
CONTINUOUS
 10
4.9620675767
 20
6.9688827493
 11
4.9620318323
 21
6.9689034209
  0
LINE
  5
267
100
AcDbEntity
  8
0
100
AcDbLine
 62
7
  6
CONTINUOUS
 10
4.9761846478
 20
6.9607204966
 11
4.9620675767
 21
6.9688827493
  0
LINE
  5
268
100
AcDbEntity
  8
0
100
AcDbLine
 62
7
  6
CONTINUOUS
 10
4.9620675767
 20
6.9867327493
 11
4.9620318323
 21
6.9867534209
  0
LINE
  5
269
100
AcDbEntity
  8
0
100
AcDbLine
 62
7
  6
CONTINUOUS
 10
4.9761846478
 20
6.9785704966
 11
4.9620675767
 21
6.9867327493
  0
LINE
  5
26A
100
AcDbEntity
  8
0
100
AcDbLine
 62
7
  6
CONTINUOUS
 10
4.9620675767
 20
7.0045827493
 11
4.9620318323
 21
7.0046034209
  0
LINE
  5
26B
100
AcDbEntity
  8
0
100
AcDbLine
 62
7
  6
CONTINUOUS
 10
4.9761846478
 20
6.9964204966
 11
4.9620675767
 21
7.0045827493
  0
LINE
  5
26C
100
AcDbEntity
  8
0
100
AcDbLine
 62
7
  6
CONTINUOUS
 10
4.9618219183
 20
6.8768876165
 11
4.7758444251
 21
6.8768876165
  0
LINE
  5
26D
100
AcDbEntity
  8
0
100
AcDbLine
 62
7
  6
CONTINUOUS
 10
4.7934857337
 20
7.0324126165
 11
4.7992355026
 21
7.0324126165
  0
LINE
  5
26E
100
AcDbEntity
  8
0
100
AcDbLine
 62
7
  6
CONTINUOUS
 10
4.7935068323
 20
7.0331376165
 11
4.9613068323
 21
7.0331376165
  0
LINE
  5
26F
100
AcDbEntity
  8
0
100
AcDbLine
 62
7
  6
CONTINUOUS
 10
4.9620675767
 20
7.0224327493
 11
4.9620318323
 21
7.0224534209
  0
LINE
  5
270
100
AcDbEntity
  8
0
100
AcDbLine
 62
7
  6
CONTINUOUS
 10
4.9761846478
 20
7.0142704966
 11
4.9620675767
 21
7.0224327493
  0
ARC
  5
271
100
AcDbEntity
  8
0
100
AcDbCircle
 62
7
  6
CONTINUOUS
 10
4.8774068323
 20
2.4331376165
 40
0.1015625
100
AcDbArc
 50
180.0
 51
360.0
  0
ARC
  5
272
100
AcDbEntity
  8
0
100
AcDbCircle
 62
7
  6
CONTINUOUS
 10
4.7933634116
 20
6.9057496755
 40
0.0008787192
100
AcDbArc
 50
117.4613970602
 51
119.9645496774
  0
ARC
  5
273
100
AcDbEntity
  8
0
100
AcDbCircle
 62
7
  6
CONTINUOUS
 10
4.7933382858
 20
6.9414948559
 40
0.0008270245
100
AcDbArc
 50
118.2652101483
 51
120.0193564791
  0
LINE
  5
274
100
AcDbEntity
  8
0
100
AcDbLine
 62
7
  6
CONTINUOUS
 10
4.9763068234
 20
7.0135126165
 11
4.9761846475
 21
7.013371386
  0
LINE
  5
275
100
AcDbEntity
  8
0
100
AcDbLine
 62
7
  6
CONTINUOUS
 10
4.7901397575
 20
7.0297705347
 11
4.7906589876
 21
7.0301507813
  0
LINE
  5
276
100
AcDbEntity
  8
0
100
AcDbLine
 62
7
  6
CONTINUOUS
 10
4.9760036648
 20
6.8840756217
 11
4.9763068232
 21
6.8844265745
  0
LINE
  5
277
100
AcDbEntity
  8
0
100
AcDbLine
 62
7
  6
CONTINUOUS
 10
4.976184646
 20
6.8893204966
 11
4.9763068214
 21
6.8891792663
  0
LINE
  5
278
100
AcDbEntity
  8
0
100
AcDbLine
 62
7
  6
CONTINUOUS
 10
4.976184646
 20
6.9071704966
 11
4.9763068214
 21
6.9070292663
  0
LINE
  5
279
100
AcDbEntity
  8
0
100
AcDbLine
 62
7
  6
CONTINUOUS
 10
4.976184646
 20
6.9250204966
 11
4.9763068214
 21
6.9248792663
  0
LINE
  5
27A
100
AcDbEntity
  8
0
100
AcDbLine
 62
7
  6
CONTINUOUS
 10
4.7786290262
 20
6.8803954966
 11
4.7785068331
 21
6.8802542663
  0
LINE
  5
27B
100
AcDbEntity
  8
0
100
AcDbLine
 62
7
  6
CONTINUOUS
 10
4.7786290186
 20
6.8982454966
 11
4.7785068432
 21
6.8981042663
  0
LINE
  5
27C
100
AcDbEntity
  8
0
100
AcDbLine
 62
7
  6
CONTINUOUS
 10
4.7786290186
 20
6.9160954966
 11
4.7785068432
 21
6.9159542663
  0
LINE
  5
27D
100
AcDbEntity
  8
0
100
AcDbLine
 62
7
  6
CONTINUOUS
 10
4.9761846458
 20
6.906271386
 11
4.9763068214
 21
6.9064126165
  0
LINE
  5
27E
100
AcDbEntity
  8
0
100
AcDbLine
 62
7
  6
CONTINUOUS
 10
4.9761846458
 20
6.924121386
 11
4.9763068214
 21
6.9242626165
  0
LINE
  5
27F
100
AcDbEntity
  8
0
100
AcDbLine
 62
7
  6
CONTINUOUS
 10
4.9761846458
 20
6.941971386
 11
4.9763068214
 21
6.9421126165
  0
LINE
  5
280
100
AcDbEntity
  8
0
100
AcDbLine
 62
7
  6
CONTINUOUS
 10
4.7786290235
 20
6.897346386
 11
4.7785068331
 21
6.8974876165
  0
LINE
  5
281
100
AcDbEntity
  8
0
100
AcDbLine
 62
7
  6
CONTINUOUS
 10
4.7786290188
 20
6.915196386
 11
4.7785068432
 21
6.9153376165
  0
LINE
  5
282
100
AcDbEntity
  8
0
100
AcDbLine
 62
7
  6
CONTINUOUS
 10
4.7786290188
 20
6.933046386
 11
4.7785068432
 21
6.9331876165
  0
LINE
  5
283
100
AcDbEntity
  8
0
100
AcDbLine
 62
7
  6
CONTINUOUS
 10
4.976184646
 20
6.9428704966
 11
4.9763068214
 21
6.9427292663
  0
LINE
  5
284
100
AcDbEntity
  8
0
100
AcDbLine
 62
7
  6
CONTINUOUS
 10
4.976184646
 20
6.9607204966
 11
4.9763068214
 21
6.9605792663
  0
LINE
  5
285
100
AcDbEntity
  8
0
100
AcDbLine
 62
7
  6
CONTINUOUS
 10
4.976184646
 20
6.9785704966
 11
4.9763068214
 21
6.9784292663
  0
LINE
  5
286
100
AcDbEntity
  8
0
100
AcDbLine
 62
7
  6
CONTINUOUS
 10
4.7786290198
 20
6.9339454966
 11
4.7785068366
 21
6.9338042663
  0
LINE
  5
287
100
AcDbEntity
  8
0
100
AcDbLine
 62
7
  6
CONTINUOUS
 10
4.7786290186
 20
6.9517954966
 11
4.7785068432
 21
6.9516542663
  0
LINE
  5
288
100
AcDbEntity
  8
0
100
AcDbLine
 62
7
  6
CONTINUOUS
 10
4.7786290186
 20
6.9696454966
 11
4.7785068432
 21
6.9695042663
  0
LINE
  5
289
100
AcDbEntity
  8
0
100
AcDbLine
 62
7
  6
CONTINUOUS
 10
4.7925873148
 20
7.0320759629
 11
4.7925493696
 21
7.0321801537
  0
SPLINE
  5
28A
100
AcDbEntity
  8
0
100
AcDbSpline
 62
7
  6
CONTINUOUS
 70
0
 71
3
 72
12
 73
8
 74
0
 42
0.0000001
 43
0.0000001
 44
0.0000000001
 40
0.0
 40
0.0
 40
0.0
 40
0.0
 40
0.3323099253
 40
0.5700903856
 40
0.6690520774
 40
0.7672595563
 40
1.0
 40
1.0
 40
1.0
 40
1.0
 10
4.7812664592
 20
7.0207717237
 30
0.0
 10
4.7812551089
 20
7.0207782857
 30
0.0
 10
4.7812362985
 20
7.0207907011
 30
0.0
 10
4.7812189359
 20
7.0208120123
 30
0.0
 10
4.7812153726
 20
7.0208291576
 30
0.0
 10
4.7812180627
 20
7.0208462408
 30
0.0
 10
4.781226438
 20
7.0208572136
 30
0.0
 10
4.7812329302
 20
7.0208637072
 30
0.0
  0
LINE
  5
28B
100
AcDbEntity
  8
0
100
AcDbLine
 62
7
  6
CONTINUOUS
 10
4.778629016
 20
7.004446386
 11
4.7785068477
 21
7.0045876164
  0
LINE
  5
28C
100
AcDbEntity
  8
0
100
AcDbLine
 62
7
  6
CONTINUOUS
 10
4.9761846458
 20
6.959821386
 11
4.9763068214
 21
6.9599626165
  0
LINE
  5
28D
100
AcDbEntity
  8
0
100
AcDbLine
 62
7
  6
CONTINUOUS
 10
4.9678869156
 20
7.0264242216
 11
4.9679225088
 21
7.0265219305
  0
LINE
  5
28E
100
AcDbEntity
  8
0
100
AcDbLine
 62
7
  6
CONTINUOUS
 10
4.9761846458
 20
6.977671386
 11
4.9763068214
 21
6.9778126165
  0
LINE
  5
28F
100
AcDbEntity
  8
0
100
AcDbLine
 62
7
  6
CONTINUOUS
 10
4.9761846458
 20
6.995521386
 11
4.9763068214
 21
6.9956626165
  0
LINE
  5
290
100
AcDbEntity
  8
0
100
AcDbLine
 62
7
  6
CONTINUOUS
 10
4.7786290272
 20
6.950896386
 11
4.7785068366
 21
6.9510376165
  0
LINE
  5
291
100
AcDbEntity
  8
0
100
AcDbLine
 62
7
  6
CONTINUOUS
 10
4.7786290186
 20
7.0053454966
 11
4.7785068432
 21
7.0052042663
  0
LINE
  5
292
100
AcDbEntity
  8
0
100
AcDbLine
 62
7
  6
CONTINUOUS
 10
4.7786290188
 20
6.968746386
 11
4.7785068432
 21
6.9688876165
  0
LINE
  5
293
100
AcDbEntity
  8
0
100
AcDbLine
 62
7
  6
CONTINUOUS
 10
4.7786290191
 20
6.9874954966
 11
4.7785068477
 21
6.9873542663
  0
LINE
  5
294
100
AcDbEntity
  8
0
100
AcDbLine
 62
7
  6
CONTINUOUS
 10
4.9761846462
 20
7.0142704966
 11
4.9763068214
 21
7.0141292663
  0
LINE
  5
295
100
AcDbEntity
  8
0
100
AcDbLine
 62
7
  6
CONTINUOUS
 10
4.976184646
 20
6.9964204966
 11
4.9763068214
 21
6.9962792663
  0
LINE
  5
296
100
AcDbEntity
  8
0
100
AcDbLine
 62
7
  6
CONTINUOUS
 10
4.7786290188
 20
6.986596386
 11
4.7785068432
 21
6.9867376165
  0
LINE
  5
297
100
AcDbEntity
  8
0
100
AcDbLine
 62
7
  6
CONTINUOUS
 10
4.7785068432
 20
6.9153376165
 11
4.7789432636
 21
6.9156046026
  0
LINE
  5
298
100
AcDbEntity
  8
0
100
AcDbLine
 62
7
  6
CONTINUOUS
 10
4.7789432636
 20
6.9156046026
 11
4.77922792
 21
6.9156808846
  0
SPLINE
  5
299
100
AcDbEntity
  8
0
100
AcDbSpline
 62
7
  6
CONTINUOUS
 70
0
 71
3
 72
24
 73
20
 74
0
 42
0.0000001
 43
0.0000001
 44
0.0000000001
 40
0.0
 40
0.0
 40
0.0
 40
0.0
 40
0.0030744142
 40
0.0066498455
 40
0.0153051505
 40
0.0259611816
 40
0.0386021152
 40
0.0532058018
 40
0.0697447246
 40
0.108494174
 40
0.1545412538
 40
0.2075129912
 40
0.2669778757
 40
0.3324501605
 40
0.4033942168
 40
0.479229117
 40
0.6430510094
 40
0.8185561775
 40
1.0
 40
1.0
 40
1.0
 40
1.0
 10
4.77922792
 20
6.9156808846
 30
0.0
 10
4.779325907
 20
6.915704236
 30
0.0
 10
4.7795389702
 20
6.9157500509
 30
0.0
 10
4.7800321713
 20
6.9158409449
 30
0.0
 10
4.7807740628
 20
6.9159513316
 30
0.0
 10
4.7818133347
 20
6.9160778898
 30
0.0
 10
4.7830486655
 20
6.9162049505
 30
0.0
 10
4.7844775536
 20
6.9163324596
 30
0.0
 10
4.7867604662
 20
6.9165124362
 30
0.0
 10
4.7900734674
 20
6.9167323732
 30
0.0
 10
4.7945802612
 20
6.916985931
 30
0.0
 10
4.7997666699
 20
6.9172402995
 30
0.0
 10
4.8055901669
 20
6.9174953244
 30
0.0
 10
4.8120030055
 20
6.9177507498
 30
0.0
 10
4.8189525722
 20
6.9180064859
 30
0.0
 10
4.8291231662
 20
6.9183568027
 30
0.0
 10
4.8427188511
 20
6.9187876725
 30
0.0
 10
4.859774042
 20
6.9192936534
 30
0.0
 10
4.8714644043
 20
6.9196294194
 30
0.0
 10
4.8774068323
 20
6.9198001165
 30
0.0
  0
SPLINE
  5
29A
100
AcDbEntity
  8
0
100
AcDbSpline
 62
7
  6
CONTINUOUS
 70
0
 71
3
 72
32
 73
28
 74
0
 42
0.0000001
 43
0.0000001
 44
0.0000000001
 40
0.0
 40
0.0
 40
0.0
 40
0.0
 40
0.1911273836
 40
0.2843344189
 40
0.3748667832
 40
0.4619199448
 40
0.5447152556
 40
0.6225079008
 40
0.6945938285
 40
0.7603164636
 40
0.8190731343
 40
0.8456671132
 40
0.8703212354
 40
0.8929777451
 40
0.9135839613
 40
0.9320912729
 40
0.9484563365
 40
0.9626408854
 40
0.9746118314
 40
0.9843428832
 40
0.9883620986
 40
0.9918151678
 40
0.9947016764
 40
0.9970228119
 40
0.9987836883
 40
0.9994582309
 40
1.0
 40
1.0
 40
1.0
 40
1.0
 10
4.8774068323
 20
7.0236928189
 30
0.0
 10
4.8831746818
 20
7.0238041083
 30
0.0
 10
4.8917553269
 20
7.0239702103
 30
0.0
 10
4.9030679174
 20
7.0241963376
 30
0.0
 10
4.9112396917
 20
7.0243647732
 30
0.0
 10
4.9190971283
 20
7.0245334409
 30
0.0
 10
4.9265699366
 20
7.0247023156
 30
0.0
 10
4.9335908532
 20
7.0248713626
 30
0.0
 10
4.9400962924
 20
7.0250405196
 30
0.0
 10
4.9460269432
 20
7.0252097342
 30
0.0
 10
4.9505845847
 20
7.0253550672
 30
0.0
 10
4.953902844
 20
7.0254728682
 30
0.0
 10
4.9561319229
 20
7.0255582827
 30
0.0
 10
4.9581801258
 20
7.0256437065
 30
0.0
 10
4.9600426203
 20
7.0257291196
 30
0.0
 10
4.9617149994
 20
7.0258144858
 30
0.0
 10
4.9631932716
 20
7.0258997628
 30
0.0
 10
4.9644739007
 20
7.0259848246
 30
0.0
 10
4.9655537892
 20
7.0260696253
 30
0.0
 10
4.9663266918
 20
7.0261436304
 30
0.0
 10
4.966842383
 20
7.0262046256
 30
0.0
 10
4.9671521405
 20
7.0262473036
 30
0.0
 10
4.96741015
 20
7.0262897317
 30
0.0
 10
4.9676162312
 20
7.0263319284
 30
0.0
 10
4.9677551815
 20
7.0263690198
 30
0.0
 10
4.9678395047
 20
7.026400233
 30
0.0
 10
4.9678727587
 20
7.0264160369
 30
0.0
 10
4.9678869156
 20
7.0264242216
 30
0.0
  0
SPLINE
  5
29B
100
AcDbEntity
  8
0
100
AcDbSpline
 62
7
  6
CONTINUOUS
 70
0
 71
3
 72
30
 73
26
 74
0
 42
0.0000001
 43
0.0000001
 44
0.0000000001
 40
0.0
 40
0.0
 40
0.0
 40
0.0
 40
0.189019713
 40
0.2813960814
 40
0.3712329766
 40
0.4577203999
 40
0.5400780907
 40
0.6175633648
 40
0.689477802
 40
0.755173617
 40
0.8140596793
 40
0.8656071755
 40
0.8884820751
 40
0.9093552441
 40
0.9281803434
 40
0.9449163736
 40
0.9595277016
 40
0.9719841535
 40
0.9822630309
 40
0.986581046
 40
0.9903505075
 40
0.9935720625
 40
0.9962482741
 40
0.9983859062
 40
1.0
 40
1.0
 40
1.0
 40
1.0
 10
4.8774068323
 20
7.0096667663
 30
0.0
 10
4.8711763783
 20
7.0094877956
 30
0.0
 10
4.8619010186
 20
7.0092214202
 30
0.0
 10
4.8496647443
 20
7.0088602749
 30
0.0
 10
4.8408082729
 20
7.0085915523
 30
0.0
 10
4.8322823261
 20
7.0083229381
 30
0.0
 10
4.8241638861
 20
7.0080544706
 30
0.0
 10
4.8165262671
 20
7.00778621
 30
0.0
 10
4.8094384332
 20
7.0075182298
 30
0.0
 10
4.8029643719
 20
7.0072506738
 30
0.0
 10
4.7971625315
 20
7.0069836537
 30
0.0
 10
4.7927725814
 20
7.0067537208
 30
0.0
 10
4.789635699
 20
7.0065670067
 30
0.0
 10
4.7875766762
 20
7.0064327348
 30
0.0
 10
4.785720543
 20
7.0062986475
 30
0.0
 10
4.7840714784
 20
7.00616479
 30
0.0
 10
4.7826331558
 20
7.0060313207
 30
0.0
 10
4.7814087847
 20
7.0058983026
 30
0.0
 10
4.7805240832
 20
7.0057825569
 30
0.0
 10
4.7799258901
 20
7.0056876415
 30
0.0
 10
4.7795589582
 20
7.0056208052
 30
0.0
 10
4.7792471646
 20
7.0055542011
 30
0.0
 10
4.778990445
 20
7.0054879365
 30
0.0
 10
4.7787888791
 20
7.0054221449
 30
0.0
 10
4.7786751
 20
7.0053721325
 30
0.0
 10
4.7786290186
 20
7.0053454966
 30
0.0
  0
SPLINE
  5
29C
100
AcDbEntity
  8
0
100
AcDbSpline
 62
7
  6
CONTINUOUS
 70
0
 71
3
 72
27
 73
23
 74
0
 42
0.0000001
 43
0.0000001
 44
0.0000000001
 40
0.0
 40
0.0
 40
0.0
 40
0.0
 40
0.001632011
 40
0.0030414805
 40
0.0049113133
 40
0.0072582875
 40
0.0100904975
 40
0.0172258443
 40
0.0263361264
 40
0.0374279991
 40
0.0655595071
 40
0.1016022478
 40
0.1455191886
 40
0.1972537765
 40
0.2567404383
 40
0.3238996339
 40
0.3986427283
 40
0.4808684001
 40
0.5704632536
 40
0.6673089871
 40
0.7712806962
 40
1.0
 40
1.0
 40
1.0
 40
1.0
 10
4.9789693229
 20
6.8739281131
 30
0.0
 10
4.978969325
 20
6.8739187657
 30
0.0
 10
4.9789528994
 20
6.8739051006
 30
0.0
 10
4.9789285832
 20
6.8738936303
 30
0.0
 10
4.9788977932
 20
6.8738825616
 30
0.0
 10
4.9788590289
 20
6.8738718112
 30
0.0
 10
4.9787902026
 20
6.8738559735
 30
0.0
 10
4.9786825799
 20
6.873837035
 30
0.0
 10
4.9785274794
 20
6.8738153518
 30
0.0
 10
4.9782524407
 20
6.873783771
 30
0.0
 10
4.9778229603
 20
6.8737458738
 30
0.0
 10
4.9772053692
 20
6.8737025928
 30
0.0
 10
4.9764523262
 20
6.8736590748
 30
0.0
 10
4.9755648386
 20
6.8736153354
 30
0.0
 10
4.9745440952
 20
6.8735714853
 30
0.0
 10
4.9733914679
 20
6.8735275478
 30
0.0
 10
4.97210852
 20
6.8734835533
 30
0.0
 10
4.9706970045
 20
6.8734395156
 30
0.0
 10
4.9691588405
 20
6.8733954454
 30
0.0
 10
4.967496079
 20
6.8733513488
 30
0.0
 10
4.9650366444
 20
6.8732905751
 30
0.0
 10
4.9631316188
 20
6.873248022
 30
0.0
 10
4.9618219183
 20
6.8732201748
 30
0.0
  0
LINE
  5
29D
100
AcDbEntity
  8
0
100
AcDbLine
 62
7
  6
CONTINUOUS
 10
4.7785068432
 20
6.9688876165
 11
4.778943272
 21
6.9691546052
  0
LINE
  5
29E
100
AcDbEntity
  8
0
100
AcDbLine
 62
7
  6
CONTINUOUS
 10
4.778943272
 20
6.9691546052
 11
4.7792279314
 21
6.9692308873
  0
SPLINE
  5
29F
100
AcDbEntity
  8
0
100
AcDbSpline
 62
7
  6
CONTINUOUS
 70
0
 71
3
 72
24
 73
20
 74
0
 42
0.0000001
 43
0.0000001
 44
0.0000000001
 40
0.0
 40
0.0
 40
0.0
 40
0.0
 40
0.0030744335
 40
0.0066498836
 40
0.0153052244
 40
0.0259612886
 40
0.0386022526
 40
0.0532059667
 40
0.0697449141
 40
0.1084944042
 40
0.1545415132
 40
0.2075132686
 40
0.2669781603
 40
0.332450442
 40
0.4033944856
 40
0.4792293646
 40
0.6430511925
 40
0.8185562747
 40
1.0
 40
1.0
 40
1.0
 40
1.0
 10
4.7792279314
 20
6.9692308873
 30
0.0
 10
4.779325919
 20
6.9692542387
 30
0.0
 10
4.7795389835
 20
6.9693000536
 30
0.0
 10
4.7800321871
 20
6.9693909475
 30
0.0
 10
4.7807740814
 20
6.969501334
 30
0.0
 10
4.7818133564
 20
6.9696278922
 30
0.0
 10
4.7830486901
 20
6.9697549528
 30
0.0
 10
4.7844775807
 20
6.9698824619
 30
0.0
 10
4.7867604961
 20
6.9700624384
 30
0.0
 10
4.7900735001
 20
6.9702823752
 30
0.0
 10
4.7945802962
 20
6.9705359328
 30
0.0
 10
4.799766706
 20
6.9707903012
 30
0.0
 10
4.805590203
 20
6.9710453259
 30
0.0
 10
4.8120030407
 20
6.9713007512
 30
0.0
 10
4.8189526054
 20
6.9715564871
 30
0.0
 10
4.8291231949
 20
6.9719068036
 30
0.0
 10
4.8427188726
 20
6.9723376731
 30
0.0
 10
4.8597740533
 20
6.9728436538
 30
0.0
 10
4.8714644082
 20
6.9731794195
 30
0.0
 10
4.8774068323
 20
6.9733501165
 30
0.0
  0
LINE
  5
2A0
100
AcDbEntity
  8
0
100
AcDbLine
 62
7
  6
CONTINUOUS
 10
4.9763068214
 20
6.9962792663
 11
4.9758703945
 21
6.9960122782
  0
LINE
  5
2A1
100
AcDbEntity
  8
0
100
AcDbLine
 62
7
  6
CONTINUOUS
 10
4.9758703945
 20
6.9960122782
 11
4.9755857354
 21
6.995935996
  0
SPLINE
  5
2A2
100
AcDbEntity
  8
0
100
AcDbSpline
 62
7
  6
CONTINUOUS
 70
0
 71
3
 72
24
 73
20
 74
0
 42
0.0000001
 43
0.0000001
 44
0.0000000001
 40
0.0
 40
0.0
 40
0.0
 40
0.0
 40
0.0030744298
 40
0.0066498762
 40
0.01530521
 40
0.0259612677
 40
0.0386022258
 40
0.0532059345
 40
0.0697448772
 40
0.1084943594
 40
0.1545414626
 40
0.2075132145
 40
0.2669781048
 40
0.3324503872
 40
0.4033944333
 40
0.4792293163
 40
0.6430511569
 40
0.8185562557
 40
1.0
 40
1.0
 40
1.0
 40
1.0
 10
4.9755857354
 20
6.995935996
 30
0.0
 10
4.9754877479
 20
6.9959126446
 30
0.0
 10
4.9752746837
 20
6.9958668297
 30
0.0
 10
4.9747814806
 20
6.9957759358
 30
0.0
 10
4.9740395868
 20
6.9956655492
 30
0.0
 10
4.9730003124
 20
6.995538991
 30
0.0
 10
4.9717649793
 20
6.9954119304
 30
0.0
 10
4.9703360891
 20
6.9952844213
 30
0.0
 10
4.9680531743
 20
6.9951044448
 30
0.0
 10
4.9647401709
 20
6.9948845079
 30
0.0
 10
4.9602333752
 20
6.9946309503
 30
0.0
 10
4.9550469656
 20
6.9943765818
 30
0.0
 10
4.9492234686
 20
6.9941215571
 30
0.0
 10
4.9428106308
 20
6.9938661318
 30
0.0
 10
4.9358610657
 20
6.9936103959
 30
0.0
 10
4.9256904753
 20
6.9932600793
 30
0.0
 10
4.9120947962
 20
6.9928292098
 30
0.0
 10
4.8950396135
 20
6.992323229
 30
0.0
 10
4.8833492572
 20
6.9919874632
 30
0.0
 10
4.8774068323
 20
6.9918167663
 30
0.0
  0
SPLINE
  5
2A3
100
AcDbEntity
  8
0
100
AcDbSpline
 62
7
  6
CONTINUOUS
 70
0
 71
3
 72
36
 73
32
 74
0
 42
0.0000001
 43
0.0000001
 44
0.0000000001
 40
0.0
 40
0.0
 40
0.0
 40
0.0
 40
0.0003751912
 40
0.0008748203
 40
0.0022790368
 40
0.0042449171
 40
0.0067815715
 40
0.0098925304
 40
0.0135785461
 40
0.0178389926
 40
0.0226727191
 40
0.02807785
 40
0.0340516809
 40
0.0476936227
 40
0.0635702783
 40
0.0816474438
 40
0.1018846704
 40
0.1242367144
 40
0.1486524571
 40
0.1750758613
 40
0.203446027
 40
0.2336966945
 40
0.2995528581
 40
0.3720248151
 40
0.4504254037
 40
0.534005989
 40
0.6219631945
 40
0.7134461027
 40
0.8075648142
 40
0.9033961714
 40
1.0
 40
1.0
 40
1.0
 40
1.0
 10
4.7812329302
 20
7.0208637072
 30
0.0
 10
4.7812414412
 20
7.02087222
 30
0.0
 10
4.7812646621
 20
7.0208885565
 30
0.0
 10
4.7813304912
 20
7.020920557
 30
0.0
 10
4.7814495248
 20
7.0209576772
 30
0.0
 10
4.7816342283
 20
7.0209998744
 30
0.0
 10
4.7818748912
 20
7.0210424173
 30
0.0
 10
4.7821712603
 20
7.0210853744
 30
0.0
 10
4.7825234214
 20
7.0211285127
 30
0.0
 10
4.7829311769
 20
7.0211718073
 30
0.0
 10
4.7833943518
 20
7.021215201
 30
0.0
 10
4.783912703
 20
7.0212586779
 30
0.0
 10
4.7847131718
 20
7.0213194567
 30
0.0
 10
4.7858494673
 20
7.0213943192
 30
0.0
 10
4.7873740695
 20
7.0214810426
 30
0.0
 10
4.789110559
 20
7.0215680259
 30
0.0
 10
4.7910550219
 20
7.0216552408
 30
0.0
 10
4.7932030268
 20
7.0217426336
 30
0.0
 10
4.7955496509
 20
7.0218301843
 30
0.0
 10
4.7980894778
 20
7.0219178727
 30
0.0
 10
4.8008166105
 20
7.0220056889
 30
0.0
 10
4.8048084864
 20
7.0221263775
 30
0.0
 10
4.8102150762
 20
7.0222760281
 30
0.0
 10
4.8171663508
 20
7.0224515315
 30
0.0
 10
4.8246864469
 20
7.0226275543
 30
0.0
 10
4.8327034846
 20
7.0228040568
 30
0.0
 10
4.84114034
 20
7.0229809928
 30
0.0
 10
4.8499153614
 20
7.0231583353
 30
0.0
 10
4.858943058
 20
7.0233360601
 30
0.0
 10
4.8681350773
 20
7.0235141506
 30
0.0
 10
4.874307989
 20
7.0236330273
 30
0.0
 10
4.8774068323
 20
7.0236928189
 30
0.0
  0
SPLINE
  5
2A4
100
AcDbEntity
  8
0
100
AcDbSpline
 62
7
  6
CONTINUOUS
 70
0
 71
3
 72
55
 73
51
 74
0
 42
0.0000001
 43
0.0000001
 44
0.0000000001
 40
0.0
 40
0.0
 40
0.0
 40
0.0
 40
0.0009920072
 40
0.001374383
 40
0.0018196359
 40
0.0023301491
 40
0.002907475
 40
0.0042662763
 40
0.0059012724
 40
0.0078145977
 40
0.0100071347
 40
0.0124790454
 40
0.0152297358
 40
0.0215631781
 40
0.0289967294
 40
0.0375151929
 40
0.0577308803
 40
0.0820306207
 40
0.1101935829
 40
0.1419617519
 40
0.1770429836
 40
0.2151140223
 40
0.2558236394
 40
0.2987960062
 40
0.3436342451
 40
0.3899241377
 40
0.4372379805
 40
0.4851385579
 40
0.5809278965
 40
0.6279314314
 40
0.673759472
 40
0.7179886033
 40
0.7602102627
 40
0.800034548
 40
0.8370938789
 40
0.8710464965
 40
0.9015797242
 40
0.9284130634
 40
0.9403642264
 40
0.9513013094
 40
0.961199713
 40
0.9700374883
 40
0.9777953192
 40
0.9844573539
 40
0.9900109731
 40
0.9944488128
 40
0.9962491249
 40
0.9977718239
 40
0.9990199401
 40
1.0
 40
1.0
 40
1.0
 40
1.0
 10
4.9620318233
 20
6.9509709414
 30
0.0
 10
4.9620318291
 20
6.9509148951
 30
0.0
 10
4.9619622332
 20
6.9508495768
 30
0.0
 10
4.9618765438
 20
6.9507978003
 30
0.0
 10
4.9618084307
 20
6.9507635043
 30
0.0
 10
4.9617288494
 20
6.9507296881
 30
0.0
 10
4.9615990902
 20
6.9506816994
 30
0.0
 10
4.9614059289
 20
6.9506230494
 30
0.0
 10
4.9611369387
 20
6.9505555865
 30
0.0
 10
4.9608196727
 20
6.9504879493
 30
0.0
 10
4.9604542466
 20
6.9504201472
 30
0.0
 10
4.9600408238
 20
6.9503522397
 30
0.0
 10
4.9593948845
 20
6.9502570574
 30
0.0
 10
4.9584689386
 20
6.9501400967
 30
0.0
 10
4.9572170919
 20
6.9500049401
 30
0.0
 10
4.9551826604
 20
6.9498132066
 30
0.0
 10
4.9521953186
 20
6.9495796511
 30
0.0
 10
4.9480978983
 20
6.94931089
 30
0.0
 10
4.9433466386
 20
6.9490411451
 30
0.0
 10
4.9379854444
 20
6.9487705989
 30
0.0
 10
4.9320638489
 20
6.9484995749
 30
0.0
 10
4.9256366154
 20
6.9482282002
 30
0.0
 10
4.9187631915
 20
6.9479565823
 30
0.0
 10
4.911507162
 20
6.9476847878
 30
0.0
 10
4.9039356532
 20
6.9474128676
 30
0.0
 10
4.8961187114
 20
6.947140859
 30
0.0
 10
4.8881286542
 20
6.946868795
 30
0.0
 10
4.8773434553
 20
6.9465060076
 30
0.0
 10
4.8665757216
 20
6.946145476
 30
0.0
 10
4.8559253006
 20
6.9457804573
 30
0.0
 10
4.8481864439
 20
6.9455084747
 30
0.0
 10
4.8407179207
 20
6.9452365942
 30
0.0
 10
4.8335888248
 20
6.9449648548
 30
0.0
 10
4.8268651079
 20
6.9446933146
 30
0.0
 10
4.8206089677
 20
6.944422045
 30
0.0
 10
4.8148782622
 20
6.9441511828
 30
0.0
 10
4.809725988
 20
6.9438808367
 30
0.0
 10
4.8058165452
 20
6.9436482205
 30
0.0
 10
4.8030137193
 20
6.943459443
 30
0.0
 10
4.8011663249
 20
6.943323501
 30
0.0
 10
4.7994953376
 20
6.9431877258
 30
0.0
 10
4.7980046019
 20
6.94305218
 30
0.0
 10
4.7966975367
 20
6.9429169308
 30
0.0
 10
4.7955770593
 20
6.9427822285
 30
0.0
 10
4.7946457062
 20
6.9426481273
 30
0.0
 10
4.7939895908
 20
6.9425309225
 30
0.0
 10
4.793561905
 20
6.9424339409
 30
0.0
 10
4.7933124497
 20
6.942366611
 30
0.0
 10
4.7931112948
 20
6.9422996457
 30
0.0
 10
4.7929954036
 20
6.9422495119
 30
0.0
 10
4.7929466455
 20
6.9422232702
 30
0.0
  0
LINE
  5
2A5
100
AcDbEntity
  8
0
100
AcDbLine
 62
7
  6
CONTINUOUS
 10
4.9763068214
 20
6.9427292663
 11
4.9758703997
 21
6.9424622797
  0
LINE
  5
2A6
100
AcDbEntity
  8
0
100
AcDbLine
 62
7
  6
CONTINUOUS
 10
4.9758703997
 20
6.9424622797
 11
4.975585743
 21
6.9423859978
  0
SPLINE
  5
2A7
100
AcDbEntity
  8
0
100
AcDbSpline
 62
7
  6
CONTINUOUS
 70
0
 71
3
 72
24
 73
20
 74
0
 42
0.0000001
 43
0.0000001
 44
0.0000000001
 40
0.0
 40
0.0
 40
0.0
 40
0.0
 40
0.003074417
 40
0.006649851
 40
0.0153051613
 40
0.0259611972
 40
0.0386021352
 40
0.0532058258
 40
0.0697447522
 40
0.1084942075
 40
0.1545412915
 40
0.2075130316
 40
0.2669779173
 40
0.3324502017
 40
0.4033942561
 40
0.4792291533
 40
0.6430510363
 40
0.8185561918
 40
1.0
 40
1.0
 40
1.0
 40
1.0
 10
4.975585743
 20
6.9423859978
 30
0.0
 10
4.9754877559
 20
6.9423626464
 30
0.0
 10
4.9752746925
 20
6.9423168314
 30
0.0
 10
4.974781491
 20
6.9422259374
 30
0.0
 10
4.9740395991
 20
6.9421155508
 30
0.0
 10
4.9730003267
 20
6.9419889926
 30
0.0
 10
4.9717649955
 20
6.9418619319
 30
0.0
 10
4.970336107
 20
6.9417344228
 30
0.0
 10
4.9680531941
 20
6.9415544462
 30
0.0
 10
4.9647401924
 20
6.9413345092
 30
0.0
 10
4.9602333983
 20
6.9410809515
 30
0.0
 10
4.9550469895
 20
6.9408265829
 30
0.0
 10
4.9492234925
 20
6.9405715581
 30
0.0
 10
4.9428106539
 20
6.9403161327
 30
0.0
 10
4.9358610875
 20
6.9400603967
 30
0.0
 10
4.9256904942
 20
6.9397100799
 30
0.0
 10
4.9120948103
 20
6.9392792102
 30
0.0
 10
4.8950396209
 20
6.9387732292
 30
0.0
 10
4.8833492597
 20
6.9384374633
 30
0.0
 10
4.8774068323
 20
6.9382667663
 30
0.0
  0
SPLINE
  5
2A8
100
AcDbEntity
  8
0
100
AcDbSpline
 62
7
  6
CONTINUOUS
 70
0
 71
3
 72
55
 73
51
 74
0
 42
0.0000001
 43
0.0000001
 44
0.0000000001
 40
0.0
 40
0.0
 40
0.0
 40
0.0
 40
0.0009869609
 40
0.0013667543
 40
0.0018088631
 40
0.0023156759
 40
0.0028887545
 40
0.0042374148
 40
0.0058599598
 40
0.0077585884
 40
0.009934279
 40
0.0123871406
 40
0.0151165577
 40
0.0214011554
 40
0.028777439
 40
0.0372306638
 40
0.0572928744
 40
0.0814111487
 40
0.1093682057
 40
0.140910101
 40
0.1757492226
 40
0.2135672284
 40
0.2540181503
 40
0.2967316881
 40
0.3413166657
 40
0.3873646563
 40
0.4344537538
 40
0.4821524591
 40
0.5776286342
 40
0.624531154
 40
0.6703014358
 40
0.7145201283
 40
0.7567821713
 40
0.7967005389
 40
0.8339098503
 40
0.8680698018
 40
0.8988683805
 40
0.9260249177
 40
0.9381590668
 40
0.9492931375
 40
0.9594022139
 40
0.9684640025
 40
0.976458707
 40
0.9833698835
 40
0.9891840864
 40
0.9938926506
 40
0.9958313758
 40
0.9974938205
 40
0.9988819336
 40
1.0
 40
1.0
 40
1.0
 40
1.0
 10
4.9620318281
 20
6.9688209414
 30
0.0
 10
4.9620318359
 20
6.9687652077
 30
0.0
 10
4.9619629102
 20
6.968700145
 30
0.0
 10
4.9618778479
 20
6.96864853
 30
0.0
 10
4.9618103105
 20
6.968614378
 30
0.0
 10
4.9617313937
 20
6.9685807017
 30
0.0
 10
4.9616027228
 20
6.9685329156
 30
0.0
 10
4.9614111734
 20
6.968474514
 30
0.0
 10
4.9611444256
 20
6.9684073306
 30
0.0
 10
4.9608298032
 20
6.9683399751
 30
0.0
 10
4.9604674163
 20
6.9682724584
 30
0.0
 10
4.9600574278
 20
6.9682048359
 30
0.0
 10
4.9594168452
 20
6.96811005
 30
0.0
 10
4.9584985516
 20
6.9679935818
 30
0.0
 10
4.957257001
 20
6.9678589884
 30
0.0
 10
4.9552391598
 20
6.9676680557
 30
0.0
 10
4.9522758914
 20
6.9674354695
 30
0.0
 10
4.9482110336
 20
6.9671678319
 30
0.0
 10
4.9434967683
 20
6.9668992139
 30
0.0
 10
4.9381762926
 20
6.9666297981
 30
0.0
 10
4.9322983521
 20
6.9663599062
 30
0.0
 10
4.9259168524
 20
6.9660896648
 30
0.0
 10
4.9190903253
 20
6.9658191808
 30
0.0
 10
4.9118813926
 20
6.9655485205
 30
0.0
 10
4.9043561863
 20
6.9652777343
 30
0.0
 10
4.8965837417
 20
6.9650068595
 30
0.0
 10
4.8886353631
 20
6.9647359284
 30
0.0
 10
4.8778972398
 20
6.9643745368
 30
0.0
 10
4.8671695796
 20
6.9640154789
 30
0.0
 10
4.8565510255
 20
6.9636521083
 30
0.0
 10
4.8488255111
 20
6.9633812487
 30
0.0
 10
4.8413622063
 20
6.9631104863
 30
0.0
 10
4.8342295796
 20
6.9628398586
 30
0.0
 10
4.8274930635
 20
6.9625694209
 30
0.0
 10
4.821214453
 20
6.962299241
 30
0.0
 10
4.8154513296
 20
6.962029447
 30
0.0
 10
4.8102565452
 20
6.9617601418
 30
0.0
 10
4.8063053339
 20
6.9615285813
 30
0.0
 10
4.8034640364
 20
6.9613407716
 30
0.0
 10
4.8015840779
 20
6.9612053638
 30
0.0
 10
4.7998780944
 20
6.9610701086
 30
0.0
 10
4.7983499835
 20
6.960935061
 30
0.0
 10
4.7970032224
 20
6.9608002812
 30
0.0
 10
4.7958408196
 20
6.9606659791
 30
0.0
 10
4.7948653866
 20
6.9605322138
 30
0.0
 10
4.7941711971
 20
6.9604154947
 30
0.0
 10
4.7937118517
 20
6.9603192983
 30
0.0
 10
4.7934381462
 20
6.9602521041
 30
0.0
 10
4.7932123679
 20
6.9601852042
 30
0.0
 10
4.7930795284
 20
6.9601356826
 30
0.0
 10
4.7930218676
 20
6.9601099624
 30
0.0
  0
LINE
  5
2A9
100
AcDbEntity
  8
0
100
AcDbLine
 62
7
  6
CONTINUOUS
 10
4.7930218676
 20
6.9601099624
 11
4.7929245328
 21
6.9600609404
  0
LINE
  5
2AA
100
AcDbEntity
  8
0
100
AcDbLine
 62
7
  6
CONTINUOUS
 10
4.7785068331
 20
6.8974876165
 11
4.7788574857
 21
6.8977269164
  0
LINE
  5
2AB
100
AcDbEntity
  8
0
100
AcDbLine
 62
7
  6
CONTINUOUS
 10
4.7788574857
 20
6.8977269164
 11
4.7791079898
 21
6.8978010077
  0
SPLINE
  5
2AC
100
AcDbEntity
  8
0
100
AcDbSpline
 62
7
  6
CONTINUOUS
 70
0
 71
3
 72
25
 73
21
 74
0
 42
0.0000001
 43
0.0000001
 44
0.0000000001
 40
0.0
 40
0.0
 40
0.0
 40
0.0
 40
0.0028613019
 40
0.0062293649
 40
0.0144902018
 40
0.0247803231
 40
0.0370858905
 40
0.0513852303
 40
0.0676513071
 40
0.1059505847
 40
0.151674378
 40
0.2044471674
 40
0.2638328903
 40
0.3293394326
 40
0.4004231318
 40
0.4764935175
 40
0.5569183336
 40
0.6410288671
 40
0.8174842088
 40
1.0
 40
1.0
 40
1.0
 40
1.0
 10
4.7791079898
 20
6.8978010077
 30
0.0
 10
4.7791988155
 20
6.8978247057
 30
0.0
 10
4.7793979225
 20
6.8978710534
 30
0.0
 10
4.7798643729
 20
6.8979629263
 30
0.0
 10
4.7805750245
 20
6.8980741029
 30
0.0
 10
4.7815793119
 20
6.8982013954
 30
0.0
 10
4.7827829711
 20
6.8983292355
 30
0.0
 10
4.7841835369
 20
6.8984575892
 30
0.0
 10
4.7864354078
 20
6.8986391125
 30
0.0
 10
4.7897180912
 20
6.8988606832
 30
0.0
 10
4.794198524
 20
6.899115931
 30
0.0
 10
4.7993716324
 20
6.8993720381
 30
0.0
 10
4.80519438
 20
6.8996288425
 30
0.0
 10
4.8116183328
 20
6.8998860712
 30
0.0
 10
4.8185900214
 20
6.9001436135
 30
0.0
 10
4.8260514126
 20
6.9004013742
 30
0.0
 10
4.8339403891
 20
6.9006593035
 30
0.0
 10
4.8451212921
 20
6.9010089505
 30
0.0
 10
4.8596504141
 20
6.9014400712
 30
0.0
 10
4.8714217815
 20
6.9017781951
 30
0.0
 10
4.8774068323
 20
6.9019501165
 30
0.0
  0
SPLINE
  5
2AD
100
AcDbEntity
  8
0
100
AcDbSpline
 62
7
  6
CONTINUOUS
 70
0
 71
3
 72
18
 73
14
 74
0
 42
0.0000001
 43
0.0000001
 44
0.0000000001
 40
0.0
 40
0.0
 40
0.0
 40
0.0
 40
0.2022186421
 40
0.383490488
 40
0.5430831552
 40
0.6804045333
 40
0.794958012
 40
0.843584396
 40
0.886406113
 40
0.9234140397
 40
0.9546261002
 40
0.980105634
 40
1.0
 40
1.0
 40
1.0
 40
1.0
 10
4.9596089443
 20
6.8817845128
 30
0.0
 10
4.9607240587
 20
6.8818753813
 30
0.0
 10
4.9628381712
 20
6.8820553676
 30
0.0
 10
4.9658294871
 20
6.8823392683
 30
0.0
 10
4.9684600426
 20
6.8826224397
 30
0.0
 10
4.9707191059
 20
6.8829047114
 30
0.0
 10
4.9723638038
 20
6.8831499413
 30
0.0
 10
4.9734858179
 20
6.8833506204
 30
0.0
 10
4.9741823097
 20
6.8834925245
 30
0.0
 10
4.9747802608
 20
6.8836340324
 30
0.0
 10
4.9752794303
 20
6.8837750042
 30
0.0
 10
4.9756795035
 20
6.8839152056
 30
0.0
 10
4.9759084161
 20
6.8840204592
 30
0.0
 10
4.9760036648
 20
6.8840756217
 30
0.0
  0
LINE
  5
2AE
100
AcDbEntity
  8
0
100
AcDbLine
 62
7
  6
CONTINUOUS
 10
4.7785068432
 20
6.9867376165
 11
4.7789432701
 21
6.9870046046
  0
LINE
  5
2AF
100
AcDbEntity
  8
0
100
AcDbLine
 62
7
  6
CONTINUOUS
 10
4.7789432701
 20
6.9870046046
 11
4.7792279292
 21
6.9870808868
  0
SPLINE
  5
2B0
100
AcDbEntity
  8
0
100
AcDbSpline
 62
7
  6
CONTINUOUS
 70
0
 71
3
 72
24
 73
20
 74
0
 42
0.0000001
 43
0.0000001
 44
0.0000000001
 40
0.0
 40
0.0
 40
0.0
 40
0.0
 40
0.0030744298
 40
0.0066498762
 40
0.0153052102
 40
0.0259612679
 40
0.038602226
 40
0.0532059348
 40
0.0697448775
 40
0.1084943598
 40
0.1545414632
 40
0.2075132151
 40
0.2669781054
 40
0.3324503877
 40
0.4033944338
 40
0.4792293168
 40
0.6430511572
 40
0.8185562559
 40
1.0
 40
1.0
 40
1.0
 40
1.0
 10
4.7792279292
 20
6.9870808868
 30
0.0
 10
4.7793259167
 20
6.9871042381
 30
0.0
 10
4.779538981
 20
6.987150053
 30
0.0
 10
4.780032184
 20
6.987240947
 30
0.0
 10
4.7807740778
 20
6.9873513336
 30
0.0
 10
4.7818133522
 20
6.9874778917
 30
0.0
 10
4.7830486853
 20
6.9876049524
 30
0.0
 10
4.7844775755
 20
6.9877324615
 30
0.0
 10
4.7867604903
 20
6.987912438
 30
0.0
 10
4.7900734938
 20
6.9881323748
 30
0.0
 10
4.7945802895
 20
6.9883859324
 30
0.0
 10
4.799766699
 20
6.9886403009
 30
0.0
 10
4.8055901961
 20
6.9888953256
 30
0.0
 10
4.8120030339
 20
6.9891507509
 30
0.0
 10
4.818952599
 20
6.9894064869
 30
0.0
 10
4.8291231894
 20
6.9897568035
 30
0.0
 10
4.8427188684
 20
6.990187673
 30
0.0
 10
4.8597740511
 20
6.9906936537
 30
0.0
 10
4.8714644074
 20
6.9910294195
 30
0.0
 10
4.8774068323
 20
6.9912001165
 30
0.0
  0
SPLINE
  5
2B1
100
AcDbEntity
  8
0
100
AcDbSpline
 62
7
  6
CONTINUOUS
 70
0
 71
3
 72
55
 73
51
 74
0
 42
0.0000001
 43
0.0000001
 44
0.0000000001
 40
0.0
 40
0.0
 40
0.0
 40
0.0
 40
0.0009871491
 40
0.0013670107
 40
0.0018092122
 40
0.0023161534
 40
0.0028894031
 40
0.0042384241
 40
0.0058613494
 40
0.0077604619
 40
0.009936771
 40
0.0123902542
 40
0.0151203512
 40
0.0214066454
 40
0.028784807
 40
0.0372402593
 40
0.0573076149
 40
0.0814319838
 40
0.109395974
 40
0.1409455076
 40
0.1757927955
 40
0.2136193185
 40
0.2540789412
 40
0.2968011859
 40
0.3413946897
 40
0.3874508326
 40
0.4345475105
 40
0.4822530244
 40
0.5777397694
 40
0.6246457106
 40
0.6704179599
 40
0.7146370231
 40
0.756897713
 40
0.7968129155
 40
0.8340171924
 40
0.8681701887
 40
0.8989598622
 40
0.92610554
 40
0.9382334819
 40
0.9493609701
 40
0.9594629159
 40
0.9685171721
 40
0.9765039024
 40
0.9834066471
 40
0.9892121144
 40
0.9939114894
 40
0.995845576
 40
0.9975033129
 40
0.9988866278
 40
1.0
 40
1.0
 40
1.0
 40
1.0
 10
4.9620318321
 20
6.9866709414
 30
0.0
 10
4.9620318349
 20
6.9866151961
 30
0.0
 10
4.9619628871
 20
6.9865501291
 30
0.0
 10
4.9618778061
 20
6.9864985047
 30
0.0
 10
4.9618102511
 20
6.9864643478
 30
0.0
 10
4.9617313107
 20
6.9864306665
 30
0.0
 10
4.9616025991
 20
6.9863828758
 30
0.0
 10
4.9614109949
 20
6.9863244656
 30
0.0
 10
4.9611441735
 20
6.9862572708
 30
0.0
 10
4.9608294617
 20
6.9861899053
 30
0.0
 10
4.9604669703
 20
6.9861223816
 30
0.0
 10
4.9600568662
 20
6.986054748
 30
0.0
 10
4.9594161029
 20
6.9859599473
 30
0.0
 10
4.9584975521
 20
6.9858434655
 30
0.0
 10
4.9572556518
 20
6.98570885
 30
0.0
 10
4.9552372518
 20
6.9855178928
 30
0.0
 10
4.9522731697
 20
6.9852852719
 30
0.0
 10
4.9482072128
 20
6.985017597
 30
0.0
 10
4.9434916959
 20
6.9847489405
 30
0.0
 10
4.9381698408
 20
6.9844794866
 30
0.0
 10
4.9322904215
 20
6.9842095565
 30
0.0
 10
4.9259073741
 20
6.9839392767
 30
0.0
 10
4.9190792606
 20
6.9836687542
 30
0.0
 10
4.9118687343
 20
6.9833980554
 30
0.0
 10
4.9043419599
 20
6.9831272309
 30
0.0
 10
4.8965680063
 20
6.9828563177
 30
0.0
 10
4.8886182126
 20
6.9825853483
 30
0.0
 10
4.8778784878
 20
6.9822239094
 30
0.0
 10
4.8671494614
 20
6.9818648015
 30
0.0
 10
4.8565298169
 20
6.9815013752
 30
0.0
 10
4.8488038397
 20
6.9812304775
 30
0.0
 10
4.8413403465
 20
6.9809596773
 30
0.0
 10
4.8342078275
 20
6.9806890119
 30
0.0
 10
4.8274717318
 20
6.9804185368
 30
0.0
 10
4.8211938666
 20
6.98014832
 30
0.0
 10
4.8154318225
 20
6.9798784898
 30
0.0
 10
4.8102384574
 20
6.979609149
 30
0.0
 10
4.8062886461
 20
6.9793775539
 30
0.0
 10
4.803448638
 20
6.9791897098
 30
0.0
 10
4.8015697747
 20
6.9790542856
 30
0.0
 10
4.7998649653
 20
6.9789190114
 30
0.0
 10
4.7983381115
 20
6.9787839471
 30
0.0
 10
4.796992686
 20
6.9786491523
 30
0.0
 10
4.7958316928
 20
6.9785148336
 30
0.0
 10
4.7948577452
 20
6.9783810607
 30
0.0
 10
4.7941648368
 20
6.9782643203
 30
0.0
 10
4.793706557
 20
6.9781681
 30
0.0
 10
4.7934336685
 20
6.9781009031
 30
0.0
 10
4.7932087237
 20
6.9780339961
 30
0.0
 10
4.7930764571
 20
6.977984456
 30
0.0
 10
4.7930190925
 20
6.97795872
 30
0.0
  0
LINE
  5
2B2
100
AcDbEntity
  8
0
100
AcDbLine
 62
7
  6
CONTINUOUS
 10
4.7930190925
 20
6.97795872
 11
4.7929245299
 21
6.9779109404
  0
SPLINE
  5
2B3
100
AcDbEntity
  8
0
100
AcDbSpline
 62
7
  6
CONTINUOUS
 70
0
 71
3
 72
37
 73
33
 74
0
 42
0.0000001
 43
0.0000001
 44
0.0000000001
 40
0.0
 40
0.0
 40
0.0
 40
0.0
 40
0.0003596551
 40
0.0007773691
 40
0.001291909
 40
0.0019244761
 40
0.0026863989
 40
0.003584027
 40
0.0057996666
 40
0.0085889189
 40
0.0119588992
 40
0.0159121736
 40
0.0204492966
 40
0.0255697155
 40
0.0312715564
 40
0.0444087632
 40
0.0598350234
 40
0.07751627
 40
0.0974118828
 40
0.1194757027
 40
0.1436553325
 40
0.1698935299
 40
0.2282901508
 40
0.2941071081
 40
0.3667130631
 40
0.4454106772
 40
0.5294435944
 40
0.6180038293
 40
0.7102394776
 40
0.8052635763
 40
0.9021600898
 40
1.0
 40
1.0
 40
1.0
 40
1.0
 10
4.9763068214
 20
6.8891792663
 30
0.0
 10
4.9763068214
 20
6.8891673832
 30
0.0
 10
4.9763007934
 20
6.8891415359
 30
0.0
 10
4.9762762779
 20
6.8891058525
 30
0.0
 10
4.9762376031
 20
6.8890710989
 30
0.0
 10
4.9761845956
 20
6.88903661
 30
0.0
 10
4.9761170682
 20
6.8890021193
 30
0.0
 10
4.975998926
 20
6.8889525429
 30
0.0
 10
4.9758130541
 20
6.8888925843
 30
0.0
 10
4.9755448647
 20
6.8888241513
 30
0.0
 10
4.9752178027
 20
6.8887554249
 30
0.0
 10
4.9748320158
 20
6.8886864279
 30
0.0
 10
4.9743876278
 20
6.8886172742
 30
0.0
 10
4.9738848795
 20
6.8885479986
 30
0.0
 10
4.9730992113
 20
6.888450874
 30
0.0
 10
4.9719733022
 20
6.8883315472
 30
0.0
 10
4.9704515584
 20
6.8881936844
 30
0.0
 10
4.9687057483
 20
6.8880554917
 30
0.0
 10
4.9667400531
 20
6.8879170269
 30
0.0
 10
4.964559185
 20
6.8877783902
 30
0.0
 10
4.9621683824
 20
6.887639608
 30
0.0
 10
4.9585782429
 20
6.887447514
 30
0.0
 10
4.9536128825
 20
6.8872104806
 30
0.0
 10
4.9471157423
 20
6.8869344587
 30
0.0
 10
4.9399473243
 20
6.8866579725
 30
0.0
 10
4.9321766514
 20
6.8863811218
 30
0.0
 10
4.9238785417
 20
6.8861040265
 30
0.0
 10
4.9151329022
 20
6.885826753
 30
0.0
 10
4.9060239404
 20
6.8855493539
 30
0.0
 10
4.8966394247
 20
6.8852718699
 30
0.0
 10
4.887069665
 20
6.884994331
 30
0.0
 10
4.8806381623
 20
6.8848095867
 30
0.0
 10
4.8774068323
 20
6.8847167663
 30
0.0
  0
SPLINE
  5
2B4
100
AcDbEntity
  8
0
100
AcDbSpline
 62
7
  6
CONTINUOUS
 70
0
 71
3
 72
55
 73
51
 74
0
 42
0.0000001
 43
0.0000001
 44
0.0000000001
 40
0.0
 40
0.0
 40
0.0
 40
0.0
 40
0.0009859564
 40
0.0013652196
 40
0.0018067237
 40
0.0023128602
 40
0.0028851536
 40
0.0042317985
 40
0.0058518336
 40
0.0077476466
 40
0.0099200932
 40
0.0123691479
 40
0.0150943823
 40
0.0213694906
 40
0.0287345509
 40
0.0371749877
 40
0.057207141
 40
0.0812899132
 40
0.1092067142
 40
0.1407043591
 40
0.1754960922
 40
0.2132645385
 40
0.25366478
 40
0.2963276104
 40
0.3408629743
 40
0.3868635721
 40
0.4339086159
 40
0.4815677215
 40
0.5769823929
 40
0.6238650285
 40
0.6696238804
 40
0.7138403839
 40
0.7561101756
 40
0.7960468203
 40
0.833285387
 40
0.8674858541
 40
0.8983363304
 40
0.9255561005
 40
0.9377259859
 40
0.9488986703
 40
0.9590489962
 40
0.9681546326
 40
0.9761958335
 40
0.9831557571
 40
0.989021186
 40
0.9937828098
 40
0.995748823
 40
0.9974387589
 40
0.9988544399
 40
1.0
 40
1.0
 40
1.0
 40
1.0
 10
4.9620318281
 20
6.8974209414
 30
0.0
 10
4.9620318202
 20
6.8973652703
 30
0.0
 10
4.9619630503
 20
6.8973002594
 30
0.0
 10
4.9618781124
 20
6.897248672
 30
0.0
 10
4.9618106865
 20
6.8972145491
 30
0.0
 10
4.9617318932
 20
6.8971809018
 30
0.0
 10
4.9616034317
 20
6.8971331587
 30
0.0
 10
4.9614122041
 20
6.897074803
 30
0.0
 10
4.9611459007
 20
6.8970076714
 30
0.0
 10
4.9608317953
 20
6.8969403751
 30
0.0
 10
4.9604700042
 20
6.8968729164
 30
0.0
 10
4.9600606946
 20
6.8968053465
 30
0.0
 10
4.9594211674
 20
6.8967106394
 30
0.0
 10
4.9585043773
 20
6.8965942702
 30
0.0
 10
4.9572648508
 20
6.8964597863
 30
0.0
 10
4.9552502774
 20
6.8962690118
 30
0.0
 10
4.9522917478
 20
6.8960366164
 30
0.0
 10
4.9482332965
 20
6.8957692006
 30
0.0
 10
4.9435263078
 20
6.8955008049
 30
0.0
 10
4.9382138439
 20
6.8952316121
 30
0.0
 10
4.9323444994
 20
6.8949619434
 30
0.0
 10
4.9259720121
 20
6.8946919254
 30
0.0
 10
4.9191547316
 20
6.8944216649
 30
0.0
 10
4.911955089
 20
6.8941512282
 30
0.0
 10
4.9044390205
 20
6.8938806657
 30
0.0
 10
4.8966753638
 20
6.8936100145
 30
0.0
 10
4.888735226
 20
6.8933393068
 30
0.0
 10
4.8780064354
 20
6.8929781906
 30
0.0
 10
4.8672867409
 20
6.8926194233
 30
0.0
 10
4.8566745482
 20
6.8922563776
 30
0.0
 10
4.8489517401
 20
6.8919857394
 30
0.0
 10
4.8414895523
 20
6.8917151976
 30
0.0
 10
4.8343563286
 20
6.8914447892
 30
0.0
 10
4.8276173963
 20
6.8911745689
 30
0.0
 10
4.8213344683
 20
6.8909046041
 30
0.0
 10
4.8155650709
 20
6.8906350213
 30
0.0
 10
4.810362029
 20
6.8903659215
 30
0.0
 10
4.8064026939
 20
6.8901345707
 30
0.0
 10
4.8035539017
 20
6.8899469487
 30
0.0
 10
4.8016675924
 20
6.889811648
 30
0.0
 10
4.7999547762
 20
6.889676496
 30
0.0
 10
4.7984193618
 20
6.889541545
 30
0.0
 10
4.7970648432
 20
6.8894068638
 30
0.0
 10
4.7958942344
 20
6.8892726359
 30
0.0
 10
4.794910176
 20
6.8891389495
 30
0.0
 10
4.794208525
 20
6.8890223197
 30
0.0
 10
4.7937429813
 20
6.8889262794
 30
0.0
 10
4.7934645191
 20
6.8888591157
 30
0.0
 10
4.7932339089
 20
6.8887922274
 30
0.0
 10
4.793097751
 20
6.8887428217
 30
0.0
 10
4.7930383603
 20
6.888717197
 30
0.0
  0
LINE
  5
2B5
100
AcDbEntity
  8
0
100
AcDbLine
 62
7
  6
CONTINUOUS
 10
4.7930383603
 20
6.888717197
 11
4.7929245229
 21
6.8886609404
  0
LINE
  5
2B6
100
AcDbEntity
  8
0
100
AcDbLine
 62
7
  6
CONTINUOUS
 10
4.7925493696
 20
7.0321801537
 11
4.7931728589
 21
7.0323638062
  0
LINE
  5
2B7
100
AcDbEntity
  8
0
100
AcDbLine
 62
7
  6
CONTINUOUS
 10
4.7931728589
 20
7.0323638062
 11
4.7934857337
 21
7.0324126165
  0
SPLINE
  5
2B8
100
AcDbEntity
  8
0
100
AcDbSpline
 62
7
  6
CONTINUOUS
 70
0
 71
3
 72
55
 73
51
 74
0
 42
0.0000001
 43
0.0000001
 44
0.0000000001
 40
0.0
 40
0.0
 40
0.0
 40
0.0
 40
0.0009911405
 40
0.0013730633
 40
0.0018178065
 40
0.0023277365
 40
0.0029043854
 40
0.0042614672
 40
0.0058943064
 40
0.0078052279
 40
0.0099949882
 40
0.012463628
 40
0.0152107526
 40
0.0215360661
 40
0.0289600141
 40
0.0374675164
 40
0.0576574839
 40
0.081926857
 40
0.1100553755
 40
0.1417856853
 40
0.1768263859
 40
0.2148550427
 40
0.2555213337
 40
0.2984503801
 40
0.3432462543
 40
0.3894956924
 40
0.4367719542
 40
0.4846387817
 40
0.5803758185
 40
0.6273625163
 40
0.673180955
 40
0.7174083997
 40
0.7596368815
 40
0.7994769938
 40
0.8365615318
 40
0.8705489523
 40
0.9011266516
 40
0.9280140972
 40
0.9399958894
 40
0.9509659178
 40
0.9608996491
 40
0.9697748098
 40
0.9775723621
 40
0.9842759741
 40
0.9898732089
 40
0.9943562705
 40
0.9961797238
 40
0.9977256457
 40
0.9989970324
 40
1.0
 40
1.0
 40
1.0
 40
1.0
 10
4.9620318233
 20
6.9152709414
 30
0.0
 10
4.9620318176
 20
6.9152149484
 30
0.0
 10
4.9619623528
 20
6.9151496732
 30
0.0
 10
4.9618767688
 20
6.9150979199
 30
0.0
 10
4.9618087493
 20
6.9150636494
 30
0.0
 10
4.9617292731
 20
6.9150298572
 30
0.0
 10
4.9615996917
 20
6.9149819044
 30
0.0
 10
4.9614068034
 20
6.9149232941
 30
0.0
 10
4.9611381903
 20
6.9148558739
 30
0.0
 10
4.9608213627
 20
6.9147882875
 30
0.0
 10
4.9604564422
 20
6.9147205343
 30
0.0
 10
4.9600435953
 20
6.9146526706
 30
0.0
 10
4.9593985513
 20
6.9145575559
 30
0.0
 10
4.9584738801
 20
6.9144406779
 30
0.0
 10
4.9572237511
 20
6.9143056146
 30
0.0
 10
4.9551920912
 20
6.9141140139
 30
0.0
 10
4.9522087673
 20
6.9138806202
 30
0.0
 10
4.9481167766
 20
6.9136120463
 30
0.0
 10
4.9433716822
 20
6.9133424892
 30
0.0
 10
4.9380172743
 20
6.9130721313
 30
0.0
 10
4.9321029565
 20
6.9128012959
 30
0.0
 10
4.9256833482
 20
6.9125301099
 30
0.0
 10
4.9188177412
 20
6.9122586808
 30
0.0
 10
4.9115695568
 20
6.9119870752
 30
0.0
 10
4.9040057549
 20
6.9117153439
 30
0.0
 10
4.8961962143
 20
6.9114435242
 30
0.0
 10
4.8882130847
 20
6.911171649
 30
0.0
 10
4.8774356966
 20
6.9108090938
 30
0.0
 10
4.8666745995
 20
6.9104488076
 30
0.0
 10
4.85602944
 20
6.9100840637
 30
0.0
 10
4.8482927626
 20
6.9098122681
 30
0.0
 10
4.8408250602
 20
6.9095405738
 30
0.0
 10
4.8336953212
 20
6.9092690194
 30
0.0
 10
4.826969409
 20
6.9089976627
 30
0.0
 10
4.8207094548
 20
6.9087265746
 30
0.0
 10
4.8149732737
 20
6.9084558902
 30
0.0
 10
4.8098138425
 20
6.9081857174
 30
0.0
 10
4.8058973794
 20
6.9079532764
 30
0.0
 10
4.8030880961
 20
6.9077646614
 30
0.0
 10
4.8012352359
 20
6.9076288065
 30
0.0
 10
4.7995583823
 20
6.907493121
 30
0.0
 10
4.7980613779
 20
6.9073576528
 30
0.0
 10
4.7967476657
 20
6.9072224868
 30
0.0
 10
4.7956201639
 20
6.9070878439
 30
0.0
 10
4.7946814328
 20
6.9069538015
 30
0.0
 10
4.7940189426
 20
6.9068366704
 30
0.0
 10
4.7935859586
 20
6.9067398286
 30
0.0
 10
4.7933324539
 20
6.9066725156
 30
0.0
 10
4.7931271893
 20
6.9066055541
 30
0.0
 10
4.7930084547
 20
6.9065555334
 30
0.0
 10
4.7929581894
 20
6.9065293822
 30
0.0
  0
SPLINE
  5
2B9
100
AcDbEntity
  8
0
100
AcDbSpline
 62
7
  6
CONTINUOUS
 70
0
 71
3
 72
30
 73
26
 74
0
 42
0.0000001
 43
0.0000001
 44
0.0000000001
 40
0.0
 40
0.0
 40
0.0
 40
0.0
 40
0.1890197512
 40
0.2813960922
 40
0.3712330247
 40
0.4577204294
 40
0.5400780957
 40
0.6175633884
 40
0.6894778803
 40
0.7551737358
 40
0.814059746
 40
0.8656071597
 40
0.8884822261
 40
0.9093552511
 40
0.9281804255
 40
0.9449164825
 40
0.9595276844
 40
0.9719843227
 40
0.9822630288
 40
0.9865812032
 40
0.9903506002
 40
0.9935720342
 40
0.9962483829
 40
0.9983860484
 40
1.0
 40
1.0
 40
1.0
 40
1.0
 10
4.8774068323
 20
6.8847167663
 30
0.0
 10
4.8711763774
 20
6.8845377956
 30
0.0
 10
4.861901018
 20
6.8842714202
 30
0.0
 10
4.8496647429
 20
6.8839102749
 30
0.0
 10
4.8408082724
 20
6.8836415524
 30
0.0
 10
4.8322823263
 20
6.8833729381
 30
0.0
 10
4.8241638877
 20
6.8831044705
 30
0.0
 10
4.8165262676
 20
6.8828362099
 30
0.0
 10
4.8094384304
 20
6.8825682298
 30
0.0
 10
4.8029643681
 20
6.8823006739
 30
0.0
 10
4.7971625311
 20
6.8820336544
 30
0.0
 10
4.7927725804
 20
6.8818037191
 30
0.0
 10
4.7896356999
 20
6.881617008
 30
0.0
 10
4.7875766742
 20
6.8814827338
 30
0.0
 10
4.7857205425
 20
6.8813486474
 30
0.0
 10
4.7840714786
 20
6.8812147915
 30
0.0
 10
4.7826331537
 20
6.8810813176
 30
0.0
 10
4.7814087855
 20
6.8809483068
 30
0.0
 10
4.7805240795
 20
6.8808325525
 30
0.0
 10
4.779925888
 20
6.8807376435
 30
0.0
 10
4.7795589571
 20
6.8806708066
 30
0.0
 10
4.7792471662
 20
6.8806041975
 30
0.0
 10
4.778990444
 20
6.8805379371
 30
0.0
 10
4.7787888755
 20
6.8804721495
 30
0.0
 10
4.7786751024
 20
6.880422132
 30
0.0
 10
4.7786290262
 20
6.8803954966
 30
0.0
  0
SPLINE
  5
2BA
100
AcDbEntity
  8
0
100
AcDbSpline
 62
7
  6
CONTINUOUS
 70
0
 71
3
 72
55
 73
51
 74
0
 42
0.0000001
 43
0.0000001
 44
0.0000000001
 40
0.0
 40
0.0
 40
0.0
 40
0.0
 40
0.0009860696
 40
0.0013654537
 40
0.00180708
 40
0.0023133172
 40
0.0028857057
 40
0.0042326054
 40
0.0058530877
 40
0.0077493649
 40
0.0099222511
 40
0.0123718864
 40
0.0150978449
 40
0.021374335
 40
0.0287412201
 40
0.0371835667
 40
0.0572204189
 40
0.0813087224
 40
0.1092317604
 40
0.140736243
 40
0.1755352962
 40
0.2133114093
 40
0.2537195126
 40
0.296390223
 40
0.3409332904
 40
0.3869412336
 40
0.4339931007
 40
0.4816583421
 40
0.5770825527
 40
0.6239682647
 40
0.6697288772
 40
0.7139457174
 40
0.7562143185
 40
0.7961481512
 40
0.8333822048
 40
0.8675763946
 40
0.8984187978
 40
0.92562873
 40
0.9377931455
 40
0.948959763
 40
0.9591037782
 40
0.9682025492
 40
0.9762365739
 40
0.9831889397
 40
0.9890463821
 40
0.9937998522
 40
0.9957616021
 40
0.9974472169
 40
0.9988586727
 40
1.0
 40
1.0
 40
1.0
 40
1.0
 10
4.9620318213
 20
6.9331209414
 30
0.0
 10
4.9620318213
 20
6.933065263
 30
0.0
 10
4.9619630327
 20
6.9330002347
 30
0.0
 10
4.9618780693
 20
6.9329486512
 30
0.0
 10
4.9618106221
 20
6.9329145237
 30
0.0
 10
4.9617318101
 20
6.9328808714
 30
0.0
 10
4.9616033218
 20
6.9328331208
 30
0.0
 10
4.9614120466
 20
6.9327747549
 30
0.0
 10
4.9611456714
 20
6.9327076199
 30
0.0
 10
4.9608314845
 20
6.9326403146
 30
0.0
 10
4.960469604
 20
6.9325728442
 30
0.0
 10
4.9600601889
 20
6.932505266
 30
0.0
 10
4.9594204987
 20
6.9324105512
 30
0.0
 10
4.9585034721
 20
6.93229416
 30
0.0
 10
4.9572636352
 20
6.932159665
 30
0.0
 10
4.9552485524
 20
6.9319688608
 30
0.0
 10
4.9522892875
 20
6.9317364395
 30
0.0
 10
4.9482298387
 20
6.9314689881
 30
0.0
 10
4.9435217208
 20
6.9312005582
 30
0.0
 10
4.9382080166
 20
6.9309313306
 30
0.0
 10
4.9323373419
 20
6.9306616273
 30
0.0
 10
4.9259634582
 20
6.9303915745
 30
0.0
 10
4.9191447423
 20
6.9301212794
 30
0.0
 10
4.9119436558
 20
6.929850808
 30
0.0
 10
4.9044261674
 20
6.9295802108
 30
0.0
 10
4.8966611463
 20
6.9293095249
 30
0.0
 10
4.8887197298
 20
6.9290387826
 30
0.0
 10
4.8779894902
 20
6.9286776236
 30
0.0
 10
4.8672685586
 20
6.9283188113
 30
0.0
 10
4.856655378
 20
6.9279557151
 30
0.0
 10
4.8489321497
 20
6.9276850425
 30
0.0
 10
4.8414697871
 20
6.9274144665
 30
0.0
 10
4.8343366526
 20
6.927144024
 30
0.0
 10
4.8275980901
 20
6.9268737701
 30
0.0
 10
4.8213158272
 20
6.926603772
 30
0.0
 10
4.8155474011
 20
6.9263341562
 30
0.0
 10
4.8103456412
 20
6.9260650251
 30
0.0
 10
4.8063875642
 20
6.9258336397
 30
0.0
 10
4.8035399355
 20
6.9256459916
 30
0.0
 10
4.8016546062
 20
6.9255106711
 30
0.0
 10
4.7999428521
 20
6.9253755065
 30
0.0
 10
4.798408567
 20
6.9252405377
 30
0.0
 10
4.7970552525
 20
6.9251058424
 30
0.0
 10
4.795885916
 20
6.9249716039
 30
0.0
 10
4.7949031934
 20
6.9248379016
 30
0.0
 10
4.7942026984
 20
6.9247212619
 30
0.0
 10
4.7937381163
 20
6.9246251971
 30
0.0
 10
4.7934603946
 20
6.9245580247
 30
0.0
 10
4.7932305313
 20
6.9244911368
 30
0.0
 10
4.7930948814
 20
6.9244417153
 30
0.0
 10
4.793035757
 20
6.9244160744
 30
0.0
  0
LINE
  5
2BB
100
AcDbEntity
  8
0
100
AcDbLine
 62
7
  6
CONTINUOUS
 10
4.793035757
 20
6.9244160744
 11
4.7929245275
 21
6.9243609404
  0
LINE
  5
2BC
100
AcDbEntity
  8
0
100
AcDbLine
 62
7
  6
CONTINUOUS
 10
4.7932143324
 20
7.0323332794
 11
4.7927945863
 21
7.0320952681
  0
SPLINE
  5
2BD
100
AcDbEntity
  8
0
100
AcDbSpline
 62
7
  6
CONTINUOUS
 70
0
 71
3
 72
9
 73
5
 74
0
 42
0.0000001
 43
0.0000001
 44
0.0000000001
 40
0.0
 40
0.0
 40
0.0
 40
0.0
 40
0.264264037
 40
1.0
 40
1.0
 40
1.0
 40
1.0
 10
4.7927945863
 20
7.0320952681
 30
0.0
 10
4.7927925138
 20
7.0320912604
 30
0.0
 10
4.7927854121
 20
7.0320757368
 30
0.0
 10
4.7927818322
 20
7.0320585027
 30
0.0
 10
4.7927818323
 20
7.0320459413
 30
0.0
  0
SPLINE
  5
2BE
100
AcDbEntity
  8
0
100
AcDbSpline
 62
7
  6
CONTINUOUS
 70
0
 71
3
 72
17
 73
13
 74
0
 42
0.0000001
 43
0.0000001
 44
0.0000000001
 40
0.0
 40
0.0
 40
0.0
 40
0.0
 40
0.2021191467
 40
0.3826201661
 40
0.5411584499
 40
0.6775138746
 40
0.7915305992
 40
0.8831447151
 40
0.9205725886
 40
0.9524593757
 40
0.9788847339
 40
1.0
 40
1.0
 40
1.0
 40
1.0
 10
4.7992355026
 20
7.0324126165
 30
0.0
 10
4.7988059178
 20
7.032374965
 30
0.0
 10
4.7979929813
 20
7.0323003436
 30
0.0
 10
4.7968444085
 20
7.0321823373
 30
0.0
 10
4.7958369517
 20
7.0320645698
 30
0.0
 10
4.7949723621
 20
7.0319472502
 30
0.0
 10
4.7942520576
 20
7.0318304222
 30
0.0
 10
4.7937433499
 20
7.0317283604
 30
0.0
 10
4.7934104319
 20
7.0316440897
 30
0.0
 10
4.7932146729
 20
7.0315853872
 30
0.0
 10
4.7930555101
 20
7.0315269436
 30
0.0
 10
4.7929635201
 20
7.0314834946
 30
0.0
 10
4.792924522
 20
7.0314609404
 30
0.0
  0
LINE
  5
2BF
100
AcDbEntity
  8
0
100
AcDbLine
 62
7
  6
CONTINUOUS
 10
4.7785068366
 20
6.9510376165
 11
4.7789013432
 21
6.9512914475
  0
LINE
  5
2C0
100
AcDbEntity
  8
0
100
AcDbLine
 62
7
  6
CONTINUOUS
 10
4.7789013432
 20
6.9512914475
 11
4.7791692378
 21
6.9513666023
  0
SPLINE
  5
2C1
100
AcDbEntity
  8
0
100
AcDbSpline
 62
7
  6
CONTINUOUS
 70
0
 71
3
 72
24
 73
20
 74
0
 42
0.0000001
 43
0.0000001
 44
0.0000000001
 40
0.0
 40
0.0
 40
0.0
 40
0.0
 40
0.0029726542
 40
0.006449298
 40
0.0149166175
 40
0.0253983962
 40
0.0378794887
 40
0.0523383529
 40
0.0687472575
 40
0.1072824425
 40
0.1531756909
 40
0.2060527983
 40
0.2654800829
 40
0.3309687631
 40
0.4019793875
 40
0.4779264943
 40
0.6420881748
 40
0.8180457875
 40
1.0
 40
1.0
 40
1.0
 40
1.0
 10
4.7791692378
 20
6.9513666023
 30
0.0
 10
4.7792638155
 20
6.9513901157
 30
0.0
 10
4.7794702369
 20
6.9514361849
 30
0.0
 10
4.779950711
 20
6.9515275375
 30
0.0
 10
4.7806777441
 20
6.9516383089
 30
0.0
 10
4.7817003778
 20
6.9517652174
 30
0.0
 10
4.7829206556
 20
6.9518926564
 30
0.0
 10
4.7843360855
 20
6.9520205669
 30
0.0
 10
4.7866042668
 20
6.9522012846
 30
0.0
 10
4.7899028981
 20
6.9524220009
 30
0.0
 10
4.7943972302
 20
6.9526763684
 30
0.0
 10
4.7995774032
 20
6.9529315685
 30
0.0
 10
4.8054006463
 20
6.9531874448
 30
0.0
 10
4.8118188851
 20
6.9534437313
 30
0.0
 10
4.8187790979
 20
6.9537003359
 30
0.0
 10
4.8289729145
 20
6.9540519197
 30
0.0
 10
4.8426065792
 20
6.9544842861
 30
0.0
 10
4.859714931
 20
6.9549919562
 30
0.0
 10
4.8714440278
 20
6.9553288341
 30
0.0
 10
4.8774068323
 20
6.9555001165
 30
0.0
  0
LINE
  5
2C2
100
AcDbEntity
  8
0
100
AcDbLine
 62
7
  6
CONTINUOUS
 10
4.9618891355
 20
7.0229559421
 11
4.9617575917
 21
7.0228921671
  0
SPLINE
  5
2C3
100
AcDbEntity
  8
0
100
AcDbSpline
 62
7
  6
CONTINUOUS
 70
0
 71
3
 72
55
 73
51
 74
0
 42
0.0000001
 43
0.0000001
 44
0.0000000001
 40
0.0
 40
0.0
 40
0.0
 40
0.0
 40
0.0011741589
 40
0.0026186396
 40
0.0043370965
 40
0.0063313117
 40
0.0111481808
 40
0.0170665805
 40
0.0240771861
 40
0.032166555
 40
0.0413176402
 40
0.0515108348
 40
0.0627234172
 40
0.0749305124
 40
0.102215778
 40
0.1331199694
 40
0.1673623753
 40
0.2046312383
 40
0.244586824
 40
0.2868646424
 40
0.331078844
 40
0.3768257863
 40
0.4236877501
 40
0.5190385908
 40
0.5666566123
 40
0.6136559461
 40
0.6596073764
 40
0.7040913022
 40
0.7467015903
 40
0.7870493172
 40
0.8247663889
 40
0.8595089613
 40
0.8909606709
 40
0.9188356964
 40
0.9428816915
 40
0.962882761
 40
0.9713098868
 40
0.9786634267
 40
0.9849285322
 40
0.9876495374
 40
0.9900947188
 40
0.992263679
 40
0.9941565442
 40
0.9957741173
 40
0.9971186437
 40
0.9976900466
 40
0.9981954291
 40
0.9986363288
 40
0.9990151116
 40
1.0
 40
1.0
 40
1.0
 40
1.0
 10
4.9617575917
 20
7.0228921671
 30
0.0
 10
4.9616964152
 20
7.0228666362
 30
0.0
 10
4.9615568102
 20
7.0228173466
 30
0.0
 10
4.9613211783
 20
7.0227504821
 30
0.0
 10
4.9610377835
 20
7.0226833468
 30
0.0
 10
4.9605658134
 20
7.0225874587
 30
0.0
 10
4.9598564294
 20
7.0224709385
 30
0.0
 10
4.958863424
 20
7.0223373204
 30
0.0
 10
4.9576843148
 20
7.0222031801
 30
0.0
 10
4.9563217556
 20
7.0220685972
 30
0.0
 10
4.9547787734
 20
7.021933747
 30
0.0
 10
4.9530588832
 20
7.0217987056
 30
0.0
 10
4.9511659907
 20
7.0216635115
 30
0.0
 10
4.9483094418
 20
7.0214760899
 30
0.0
 10
4.9443416997
 20
7.0212449531
 30
0.0
 10
4.9391301286
 20
7.020976068
 30
0.0
 10
4.9333542587
 20
7.0207067044
 30
0.0
 10
4.9270668832
 20
7.0204369634
 30
0.0
 10
4.9203254721
 20
7.0201669693
 30
0.0
 10
4.9131916569
 20
7.0198967889
 30
0.0
 10
4.905730658
 20
7.0196264762
 30
0.0
 10
4.8980106899
 20
7.0193560682
 30
0.0
 10
4.8874051375
 20
7.0189933598
 30
0.0
 10
4.8766937448
 20
7.0186348948
 30
0.0
 10
4.8659746721
 20
7.0182740649
 30
0.0
 10
4.8580431089
 20
7.0180035894
 30
0.0
 10
4.8502885917
 20
7.0177331705
 30
0.0
 10
4.8427820207
 20
7.0174628404
 30
0.0
 10
4.835592029
 20
7.0171926362
 30
0.0
 10
4.8287843527
 20
7.0169226081
 30
0.0
 10
4.8224212285
 20
7.0166528223
 30
0.0
 10
4.8165608188
 20
7.0163833856
 30
0.0
 10
4.8112566848
 20
7.0161144242
 30
0.0
 10
4.8065572584
 20
7.0158462598
 30
0.0
 10
4.8025054578
 20
7.0155790728
 30
0.0
 10
4.7995518468
 20
7.0153468802
 30
0.0
 10
4.79754066
 20
7.0151562642
 30
0.0
 10
4.7963032408
 20
7.0150219021
 30
0.0
 10
4.7953880101
 20
7.0149056265
 30
0.0
 10
4.7947495777
 20
7.0148110056
 30
0.0
 10
4.7943409692
 20
7.014743494
 30
0.0
 10
4.7939798022
 20
7.0146760907
 30
0.0
 10
4.7936662354
 20
7.0146088526
 30
0.0
 10
4.7934003868
 20
7.0145417832
 30
0.0
 10
4.793209491
 20
7.0144834751
 30
0.0
 10
4.7930812581
 20
7.0144357725
 30
0.0
 10
4.7930026008
 20
7.0144021533
 30
0.0
 10
4.792935288
 20
7.0143680599
 30
0.0
 10
4.7928504713
 20
7.0143165146
 30
0.0
 10
4.7927818446
 20
7.0142515458
 30
0.0
 10
4.7927818431
 20
7.0141959414
 30
0.0
  0
LINE
  5
2C4
100
AcDbEntity
  8
0
100
AcDbLine
 62
7
  6
CONTINUOUS
 10
4.9618891404
 20
6.8980059421
 11
4.9616438606
 21
6.8978988058
  0
SPLINE
  5
2C5
100
AcDbEntity
  8
0
100
AcDbSpline
 62
7
  6
CONTINUOUS
 70
0
 71
3
 72
53
 73
49
 74
0
 42
0.0000001
 43
0.0000001
 44
0.0000000001
 40
0.0
 40
0.0
 40
0.0
 40
0.0
 40
0.0013396678
 40
0.0029497524
 40
0.004832613
 40
0.006989106
 40
0.0121223474
 40
0.0183448069
 40
0.0256456895
 40
0.0340107662
 40
0.0434224458
 40
0.0538603929
 40
0.0777210579
 40
0.1053809132
 40
0.1365920728
 40
0.1710737262
 40
0.2085150092
 40
0.2485779865
 40
0.2909008078
 40
0.3351010411
 40
0.4275222272
 40
0.5225067654
 40
0.5698893626
 40
0.616626935
 40
0.6622968987
 40
0.706486365
 40
0.7487959019
 40
0.7888431948
 40
0.8262665388
 40
0.8607281686
 40
0.891917412
 40
0.9195536718
 40
0.9433892862
 40
0.9632124434
 40
0.971563917
 40
0.9788511153
 40
0.9850596116
 40
0.987755987
 40
0.990179061
 40
0.9923284919
 40
0.9942043775
 40
0.9958075189
 40
0.9971402558
 40
0.9977067494
 40
0.9982078724
 40
0.9986451558
 40
0.9990209568
 40
1.0
 40
1.0
 40
1.0
 40
1.0
 10
4.9616438606
 20
6.8978988058
 30
0.0
 10
4.9615725455
 20
6.8978737757
 30
0.0
 10
4.9614132661
 20
6.8978251043
 30
0.0
 10
4.9611488546
 20
6.8977583844
 30
0.0
 10
4.9608371786
 20
6.8976914585
 30
0.0
 10
4.9603284447
 20
6.8975964262
 30
0.0
 10
4.9595748195
 20
6.8974805179
 30
0.0
 10
4.9585306691
 20
6.8973473471
 30
0.0
 10
4.957302984
 20
6.8972137128
 30
0.0
 10
4.9558945089
 20
6.8970797027
 30
0.0
 10
4.9543083676
 20
6.896945445
 30
0.0
 10
4.951849496
 20
6.8967577315
 30
0.0
 10
4.948361511
 20
6.8965271997
 30
0.0
 10
4.9437016403
 20
6.8962602547
 30
0.0
 10
4.9384417333
 20
6.8959926598
 30
0.0
 10
4.9326293783
 20
6.895724548
 30
0.0
 10
4.92631716
 20
6.8954561027
 30
0.0
 10
4.9195622065
 20
6.8951874138
 30
0.0
 10
4.9124256568
 20
6.8949185437
 30
0.0
 10
4.9023367165
 20
6.8945544749
 30
0.0
 10
4.889277889
 20
6.8941059294
 30
0.0
 10
4.8760392365
 20
6.8936629856
 30
0.0
 10
4.8653765565
 20
6.8933038166
 30
0.0
 10
4.8574946045
 20
6.8930346786
 30
0.0
 10
4.8497929043
 20
6.8927656002
 30
0.0
 10
4.8423411739
 20
6.8924966105
 30
0.0
 10
4.8352068673
 20
6.8922277467
 30
0.0
 10
4.828454562
 20
6.8919590587
 30
0.0
 10
4.8221453736
 20
6.8916906123
 30
0.0
 10
4.8163363982
 20
6.8914225136
 30
0.0
 10
4.8110801997
 20
6.8911548882
 30
0.0
 10
4.8064242952
 20
6.8908880557
 30
0.0
 10
4.8024107828
 20
6.8906221963
 30
0.0
 10
4.7994854708
 20
6.8903911505
 30
0.0
 10
4.7974937808
 20
6.8902014792
 30
0.0
 10
4.7962684588
 20
6.8900677843
 30
0.0
 10
4.7953622152
 20
6.889952089
 30
0.0
 10
4.794730076
 20
6.8898579385
 30
0.0
 10
4.7943255029
 20
6.8897907625
 30
0.0
 10
4.7939679057
 20
6.8897236954
 30
0.0
 10
4.7936574417
 20
6.8896567925
 30
0.0
 10
4.7933942269
 20
6.8895900538
 30
0.0
 10
4.7932052281
 20
6.8895320363
 30
0.0
 10
4.7930782739
 20
6.8894845742
 30
0.0
 10
4.7930003934
 20
6.8894511207
 30
0.0
 10
4.7929337536
 20
6.8894171981
 30
0.0
 10
4.7928496724
 20
6.8893658452
 30
0.0
 10
4.7927818465
 20
6.8893011761
 30
0.0
 10
4.7927818421
 20
6.8892459414
 30
0.0
  0
LINE
  5
2C6
100
AcDbEntity
  8
0
100
AcDbLine
 62
7
  6
CONTINUOUS
 10
4.9763068214
 20
6.9248792663
 11
4.9758704004
 21
6.9246122799
  0
LINE
  5
2C7
100
AcDbEntity
  8
0
100
AcDbLine
 62
7
  6
CONTINUOUS
 10
4.9758704004
 20
6.9246122799
 11
4.9755857436
 21
6.9245359979
  0
SPLINE
  5
2C8
100
AcDbEntity
  8
0
100
AcDbSpline
 62
7
  6
CONTINUOUS
 70
0
 71
3
 72
24
 73
20
 74
0
 42
0.0000001
 43
0.0000001
 44
0.0000000001
 40
0.0
 40
0.0
 40
0.0
 40
0.0
 40
0.003074416
 40
0.006649849
 40
0.0153051573
 40
0.0259611914
 40
0.0386021278
 40
0.0532058169
 40
0.0697447419
 40
0.108494195
 40
0.1545412774
 40
0.2075130165
 40
0.2669779017
 40
0.3324501862
 40
0.4033942413
 40
0.4792291396
 40
0.6430510262
 40
0.8185561865
 40
1.0
 40
1.0
 40
1.0
 40
1.0
 10
4.9755857436
 20
6.9245359979
 30
0.0
 10
4.9754877565
 20
6.9245126465
 30
0.0
 10
4.9752746932
 20
6.9244668316
 30
0.0
 10
4.9747814918
 20
6.9243759376
 30
0.0
 10
4.9740396001
 20
6.9242655509
 30
0.0
 10
4.9730003279
 20
6.9241389927
 30
0.0
 10
4.9717649969
 20
6.924011932
 30
0.0
 10
4.9703361085
 20
6.9238844229
 30
0.0
 10
4.9680531957
 20
6.9237044463
 30
0.0
 10
4.9647401942
 20
6.9234845093
 30
0.0
 10
4.9602334002
 20
6.9232309516
 30
0.0
 10
4.9550469914
 20
6.922976583
 30
0.0
 10
4.9492234944
 20
6.9227215582
 30
0.0
 10
4.9428106559
 20
6.9224661328
 30
0.0
 10
4.9358610893
 20
6.9222103967
 30
0.0
 10
4.9256904958
 20
6.9218600799
 30
0.0
 10
4.9120948115
 20
6.9214292102
 30
0.0
 10
4.8950396216
 20
6.9209232293
 30
0.0
 10
4.8833492599
 20
6.9205874633
 30
0.0
 10
4.8774068323
 20
6.9204167663
 30
0.0
  0
LINE
  5
2C9
100
AcDbEntity
  8
0
100
AcDbLine
 62
7
  6
CONTINUOUS
 10
4.9618891354
 20
7.0051059421
 11
4.9617555689
 21
7.0050413244
  0
SPLINE
  5
2CA
100
AcDbEntity
  8
0
100
AcDbSpline
 62
7
  6
CONTINUOUS
 70
0
 71
3
 72
55
 73
51
 74
0
 42
0.0000001
 43
0.0000001
 44
0.0000000001
 40
0.0
 40
0.0
 40
0.0
 40
0.0
 40
0.001177364
 40
0.0026250651
 40
0.0043467228
 40
0.0063441011
 40
0.0111671459
 40
0.017091482
 40
0.0241077588
 40
0.0322025161
 40
0.041358694
 40
0.0515566758
 40
0.0627737316
 40
0.0749849805
 40
0.1022775756
 40
0.1331877762
 40
0.1674348689
 40
0.2047071132
 40
0.2446648085
 40
0.2869435161
 40
0.3311574526
 40
0.376903056
 40
0.4237627002
 40
0.519106385
 40
0.5667198044
 40
0.6137140198
 40
0.6596599455
 40
0.7041381121
 40
0.7467425179
 40
0.7870843687
 40
0.8247956953
 40
0.8595327728
 40
0.8909793496
 40
0.9188497071
 40
0.942891591
 40
0.9628891867
 40
0.9713148357
 40
0.9786670832
 40
0.9849310843
 40
0.9876516102
 40
0.9900963615
 40
0.99226494
 40
0.9941574753
 40
0.9957747735
 40
0.997119076
 40
0.9976903848
 40
0.9981956848
 40
0.9986365135
 40
0.9990152364
 40
1.0
 40
1.0
 40
1.0
 40
1.0
 10
4.9617555689
 20
7.0050413244
 30
0.0
 10
4.961694193
 20
7.0050158042
 30
0.0
 10
4.9615542029
 20
7.0049665272
 30
0.0
 10
4.9613180091
 20
7.0048996652
 30
0.0
 10
4.9610340618
 20
7.0048325335
 30
0.0
 10
4.9605613724
 20
7.0047366626
 30
0.0
 10
4.959851123
 20
7.0046201541
 30
0.0
 10
4.9588571166
 20
7.0044865443
 30
0.0
 10
4.9576770563
 20
7.0043524136
 30
0.0
 10
4.9563135976
 20
7.0042178417
 30
0.0
 10
4.9547697693
 20
7.0040830031
 30
0.0
 10
4.9530490877
 20
7.0039479738
 30
0.0
 10
4.9511554598
 20
7.0038127919
 30
0.0
 10
4.9482980437
 20
7.0036253925
 30
0.0
 10
4.9443293626
 20
7.0033942799
 30
0.0
 10
4.9391168389
 20
7.0031254189
 30
0.0
 10
4.9333402471
 20
7.0028560799
 30
0.0
 10
4.9270523768
 20
7.0025863639
 30
0.0
 10
4.9203106916
 20
7.0023163953
 30
0.0
 10
4.9131768134
 20
7.0020462404
 30
0.0
 10
4.9057159507
 20
7.0017759535
 30
0.0
 10
4.8979963033
 20
7.0015055713
 30
0.0
 10
4.8873914979
 20
7.0011429007
 30
0.0
 10
4.8766810381
 20
7.0007844696
 30
0.0
 10
4.8659630564
 20
7.0004236718
 30
0.0
 10
4.8580324551
 20
7.0001532224
 30
0.0
 10
4.8502789629
 20
6.9998828296
 30
0.0
 10
4.8427734568
 20
6.9996125256
 30
0.0
 10
4.835584547
 20
6.9993423474
 30
0.0
 10
4.8287779469
 20
6.9990723453
 30
0.0
 10
4.8224158712
 20
6.9988025856
 30
0.0
 10
4.8165564616
 20
6.9985331749
 30
0.0
 10
4.8112532598
 20
6.9982642395
 30
0.0
 10
4.8065546796
 20
6.997996101
 30
0.0
 10
4.8025036232
 20
6.9977289398
 30
0.0
 10
4.799550562
 20
6.9974967695
 30
0.0
 10
4.7975397538
 20
6.9973061719
 30
0.0
 10
4.7963025694
 20
6.9971718228
 30
0.0
 10
4.7953875129
 20
6.9970555585
 30
0.0
 10
4.7947492026
 20
6.9969609468
 30
0.0
 10
4.7943406723
 20
6.9968934417
 30
0.0
 10
4.7939795745
 20
6.9968260449
 30
0.0
 10
4.7936660675
 20
6.9967588131
 30
0.0
 10
4.7934002692
 20
6.9966917503
 30
0.0
 10
4.7932094093
 20
6.9966334481
 30
0.0
 10
4.7930812006
 20
6.9965857502
 30
0.0
 10
4.7930025583
 20
6.9965521343
 30
0.0
 10
4.7929352587
 20
6.9965180442
 30
0.0
 10
4.7928504568
 20
6.9964665028
 30
0.0
 10
4.7927818489
 20
6.996401538
 30
0.0
 10
4.7927818481
 20
6.9963459414
 30
0.0
  0
SPLINE
  5
2CB
100
AcDbEntity
  8
0
100
AcDbSpline
 62
7
  6
CONTINUOUS
 70
0
 71
3
 72
30
 73
26
 74
0
 42
0.0000001
 43
0.0000001
 44
0.0000000001
 40
0.0
 40
0.0
 40
0.0
 40
0.0
 40
0.0016140793
 40
0.0037517702
 40
0.0064279779
 40
0.0096494706
 40
0.0134189777
 40
0.0177370281
 40
0.0280158501
 40
0.0404723196
 40
0.0550836655
 40
0.0718196487
 40
0.0906448114
 40
0.1115179311
 40
0.1343928588
 40
0.1859403254
 40
0.2448263922
 40
0.3105222217
 40
0.3824366676
 40
0.4599219374
 40
0.542279615
 40
0.628767032
 40
0.7186039322
 40
0.8109802896
 40
1.0
 40
1.0
 40
1.0
 40
1.0
 10
4.9761846475
 20
7.013371386
 30
0.0
 10
4.9761385676
 20
7.0133447487
 30
0.0
 10
4.9760247861
 20
7.013294737
 30
0.0
 10
4.9758232185
 20
7.0132289473
 30
0.0
 10
4.9755664992
 20
7.0131626821
 30
0.0
 10
4.9752547067
 20
7.013096076
 30
0.0
 10
4.9748877739
 20
7.0130292415
 30
0.0
 10
4.9742895799
 20
7.0129343264
 30
0.0
 10
4.9734048786
 20
7.0128185793
 30
0.0
 10
4.9721805081
 20
7.0126855621
 30
0.0
 10
4.9707421858
 20
7.012552093
 30
0.0
 10
4.9690931202
 20
7.0124182346
 30
0.0
 10
4.967236988
 20
7.0122841485
 30
0.0
 10
4.9651779638
 20
7.0121498756
 30
0.0
 10
4.9620410829
 20
7.0119631623
 30
0.0
 10
4.9576511328
 20
7.0117332287
 30
0.0
 10
4.9518492925
 20
7.0114662089
 30
0.0
 10
4.9453752302
 20
7.0111986529
 30
0.0
 10
4.9382873956
 20
7.0109306727
 30
0.0
 10
4.9306497768
 20
7.0106624121
 30
0.0
 10
4.9225313375
 20
7.0103939446
 30
0.0
 10
4.914005391
 20
7.0101253304
 30
0.0
 10
4.9051489199
 20
7.0098566078
 30
0.0
 10
4.8929126457
 20
7.0094954625
 30
0.0
 10
4.8836372863
 20
7.0092290871
 30
0.0
 10
4.8774068323
 20
7.0090501165
 30
0.0
  0
LINE
  5
2CC
100
AcDbEntity
  8
0
100
AcDbLine
 62
7
  6
CONTINUOUS
 10
4.9618891333
 20
6.9515559421
 11
4.9617261038
 21
6.951479386
  0
SPLINE
  5
2CD
100
AcDbEntity
  8
0
100
AcDbSpline
 62
7
  6
CONTINUOUS
 70
0
 71
3
 72
55
 73
51
 74
0
 42
0.0000001
 43
0.0000001
 44
0.0000000001
 40
0.0
 40
0.0
 40
0.0
 40
0.0
 40
0.0012227513
 40
0.0027160935
 40
0.0044831496
 40
0.006525267
 40
0.0114357087
 40
0.0174439905
 40
0.0245405824
 40
0.0327114699
 40
0.0419397917
 40
0.0522054107
 40
0.0634857879
 40
0.0757557805
 40
0.1031520764
 40
0.13414728
 40
0.1684606425
 40
0.2057806851
 40
0.2457682193
 40
0.2880595301
 40
0.3322697562
 40
0.3779964611
 40
0.4248233296
 40
0.5200658699
 40
0.5676142387
 40
0.6145360947
 40
0.6604041828
 40
0.7048008971
 40
0.747322105
 40
0.7875808551
 40
0.8252109417
 40
0.8598703018
 40
0.8912442347
 40
0.9190484724
 40
0.9430320814
 40
0.9629804064
 40
0.9713852177
 40
0.9787190128
 40
0.9849673824
 40
0.9876810181
 40
0.990119723
 40
0.992282932
 40
0.994170673
 40
0.9957839697
 40
0.9971250917
 40
0.997695038
 40
0.9981991185
 40
0.9986389008
 40
0.9990167783
 40
1.0
 40
1.0
 40
1.0
 40
1.0
 10
4.9617261038
 20
6.951479386
 30
0.0
 10
4.9616619174
 20
6.9514540122
 30
0.0
 10
4.9615164887
 20
6.9514049075
 30
0.0
 10
4.9612723427
 20
6.9513380845
 30
0.0
 10
4.9609805759
 20
6.9512710098
 30
0.0
 10
4.9604977146
 20
6.9511753743
 30
0.0
 10
4.959775231
 20
6.9510590371
 30
0.0
 10
4.9587670698
 20
6.950925542
 30
0.0
 10
4.9575735653
 20
6.9507915539
 30
0.0
 10
4.9561973858
 20
6.9506571328
 30
0.0
 10
4.9546416019
 20
6.9505224635
 30
0.0
 10
4.952909733
 20
6.9503876012
 30
0.0
 10
4.9510057145
 20
6.9502525962
 30
0.0
 10
4.9481360455
 20
6.9500655079
 30
0.0
 10
4.944154101
 20
6.9498347396
 30
0.0
 10
4.9389281286
 20
6.9495662187
 30
0.0
 10
4.9331413572
 20
6.9492972283
 30
0.0
 10
4.9268465223
 20
6.9490278674
 30
0.0
 10
4.9201009908
 20
6.948758258
 30
0.0
 10
4.9129662503
 20
6.9484884652
 30
0.0
 10
4.90550734
 20
6.9482185423
 30
0.0
 10
4.8977922569
 20
6.9479485256
 30
0.0
 10
4.8871980546
 20
6.9475863905
 30
0.0
 10
4.8765008261
 20
6.9472284393
 30
0.0
 10
4.8657983137
 20
6.9468680964
 30
0.0
 10
4.8578813452
 20
6.9465980156
 30
0.0
 10
4.850142379
 20
6.9463279917
 30
0.0
 10
4.8426519648
 20
6.9460580566
 30
0.0
 10
4.835478385
 20
6.9457882474
 30
0.0
 10
4.8286870318
 20
6.9455186143
 30
0.0
 10
4.8223398108
 20
6.9452492234
 30
0.0
 10
4.8164945718
 20
6.9449801812
 30
0.0
 10
4.8112045832
 20
6.9447116137
 30
0.0
 10
4.8065180059
 20
6.9444438413
 30
0.0
 10
4.802477512
 20
6.9441770469
 30
0.0
 10
4.7995322526
 20
6.9439451883
 30
0.0
 10
4.7975268207
 20
6.9437548564
 30
0.0
 10
4.79629297
 20
6.9436206856
 30
0.0
 10
4.7953803981
 20
6.9435045869
 30
0.0
 10
4.7947438219
 20
6.9434100992
 30
0.0
 10
4.794336402
 20
6.9433426892
 30
0.0
 10
4.7939762872
 20
6.9432753875
 30
0.0
 10
4.7936636405
 20
6.9432082438
 30
0.0
 10
4.7933985701
 20
6.9431412703
 30
0.0
 10
4.7932082276
 20
6.9430830529
 30
0.0
 10
4.7930803692
 20
6.9430354207
 30
0.0
 10
4.7930019471
 20
6.9430018494
 30
0.0
 10
4.7929348395
 20
6.9429678054
 30
0.0
 10
4.792850246
 20
6.9429163114
 30
0.0
 10
4.7927818281
 20
6.9428514406
 30
0.0
 10
4.7927818333
 20
6.9427959414
 30
0.0
  0
SPLINE
  5
2CE
100
AcDbEntity
  8
0
100
AcDbSpline
 62
7
  6
CONTINUOUS
 70
0
 71
3
 72
9
 73
5
 74
0
 42
0.0000001
 43
0.0000001
 44
0.0000000001
 40
0.0
 40
0.0
 40
0.0
 40
0.0
 40
0.2341671635
 40
1.0
 40
1.0
 40
1.0
 40
1.0
 10
4.9618891313
 20
6.9694059421
 30
0.0
 10
4.9618832569
 20
6.9694025448
 30
0.0
 10
4.9618579766
 20
6.9693883728
 30
0.0
 10
4.9618320067
 20
6.9693754518
 30
0.0
 10
4.9618118902
 20
6.9693660782
 30
0.0
  0
SPLINE
  5
2CF
100
AcDbEntity
  8
0
100
AcDbSpline
 62
7
  6
CONTINUOUS
 70
0
 71
3
 72
55
 73
51
 74
0
 42
0.0000001
 43
0.0000001
 44
0.0000000001
 40
0.0
 40
0.0
 40
0.0
 40
0.0
 40
0.0010834256
 40
0.0024365577
 40
0.0040641534
 40
0.0059683969
 40
0.0106095717
 40
0.0163589453
 40
0.0232081601
 40
0.031143969
 40
0.0401500719
 40
0.0502067896
 40
0.0612919125
 40
0.0733806022
 40
0.1004568725
 40
0.1311895831
 40
0.1652981009
 40
0.2024702421
 40
0.2423653364
 40
0.2846174518
 40
0.3288388437
 40
0.3746235782
 40
0.4215512916
 40
0.5171054392
 40
0.5648543676
 40
0.6119993597
 40
0.6581074964
 40
0.7027554316
 40
0.7455333005
 40
0.7860485118
 40
0.823929393
 40
0.8588286684
 40
0.8904267777
 40
0.918434985
 40
0.9425983362
 40
0.96269867
 40
0.9711680995
 40
0.9785586083
 40
0.9848553355
 40
0.9875900369
 40
0.9900476338
 40
0.9922275047
 40
0.9941297819
 40
0.9957554217
 40
0.9971066013
 40
0.9976807323
 40
0.9981884628
 40
0.998631352
 40
0.9990117872
 40
1.0
 40
1.0
 40
1.0
 40
1.0
 10
4.9618118902
 20
6.9693660782
 30
0.0
 10
4.9617564268
 20
6.9693402343
 30
0.0
 10
4.9616277992
 20
6.9692905668
 30
0.0
 10
4.9614081521
 20
6.9692236462
 30
0.0
 10
4.9611404806
 20
6.9691564155
 30
0.0
 10
4.9606890024
 20
6.9690600275
 30
0.0
 10
4.9600042768
 20
6.9689431843
 30
0.0
 10
4.9590397959
 20
6.9688093325
 30
0.0
 10
4.9578878059
 20
6.9686749284
 30
0.0
 10
4.9565508999
 20
6.9685400306
 30
0.0
 10
4.9550320641
 20
6.9684048579
 30
0.0
 10
4.9533347616
 20
6.9682694725
 30
0.0
 10
4.9514628771
 20
6.9681339312
 30
0.0
 10
4.9486311106
 20
6.9679458806
 30
0.0
 10
4.9446902371
 20
6.9677140566
 30
0.0
 10
4.9395059612
 20
6.9674444912
 30
0.0
 10
4.933750832
 20
6.9671744302
 30
0.0
 10
4.9274777388
 20
6.9669039781
 30
0.0
 10
4.920744333
 20
6.9666332651
 30
0.0
 10
4.913612511
 20
6.9663623599
 30
0.0
 10
4.9061478354
 20
6.9660913184
 30
0.0
 10
4.8984189311
 20
6.9658201784
 30
0.0
 10
4.8877923607
 20
6.9654563967
 30
0.0
 10
4.8770546472
 20
6.9650969709
 30
0.0
 10
4.8663047337
 20
6.9647352307
 30
0.0
 10
4.8583459335
 20
6.9644640169
 30
0.0
 10
4.8505623704
 20
6.964192859
 30
0.0
 10
4.843025601
 20
6.9639217898
 30
0.0
 10
4.835804912
 20
6.9636508464
 30
0.0
 10
4.8289666825
 20
6.9633800794
 30
0.0
 10
4.8225737741
 20
6.9631095551
 30
0.0
 10
4.8166849461
 20
6.9628393807
 30
0.0
 10
4.8113543173
 20
6.9625696828
 30
0.0
 10
4.8066308291
 20
6.9623007834
 30
0.0
 10
4.8025578544
 20
6.9620328654
 30
0.0
 10
4.7995885855
 20
6.9618000373
 30
0.0
 10
4.7975666094
 20
6.9616089047
 30
0.0
 10
4.7963224928
 20
6.9614741708
 30
0.0
 10
4.7954022922
 20
6.9613575797
 30
0.0
 10
4.7947603745
 20
6.9612626947
 30
0.0
 10
4.7943495301
 20
6.9611950013
 30
0.0
 10
4.7939863858
 20
6.9611274132
 30
0.0
 10
4.7936711048
 20
6.9610599873
 30
0.0
 10
4.7934037981
 20
6.9609927343
 30
0.0
 10
4.7932118469
 20
6.9609342708
 30
0.0
 10
4.793082905
 20
6.960886434
 30
0.0
 10
4.7930038228
 20
6.9608527228
 30
0.0
 10
4.792936142
 20
6.9608185348
 30
0.0
 10
4.7928509233
 20
6.9607668796
 30
0.0
 10
4.79278183
 20
6.960701753
 30
0.0
 10
4.7927818378
 20
6.9606459414
 30
0.0
  0
LINE
  5
2D0
100
AcDbEntity
  8
0
100
AcDbLine
 62
7
  6
CONTINUOUS
 10
4.961889142
 20
6.9158559421
 11
4.9617413704
 21
6.915785498
  0
SPLINE
  5
2D1
100
AcDbEntity
  8
0
100
AcDbSpline
 62
7
  6
CONTINUOUS
 70
0
 71
3
 72
55
 73
51
 74
0
 42
0.0000001
 43
0.0000001
 44
0.0000000001
 40
0.0
 40
0.0
 40
0.0
 40
0.0
 40
0.0011995097
 40
0.0026694144
 40
0.0044132586
 40
0.0064325397
 40
0.0112981754
 40
0.0172635914
 40
0.0243190456
 40
0.0324510097
 40
0.0416424454
 40
0.0518734176
 40
0.0631214758
 40
0.0753613468
 40
0.1027046332
 40
0.1336564007
 40
0.1679358952
 40
0.2052315025
 40
0.2452037762
 40
0.2874886408
 40
0.3317007761
 40
0.377437171
 40
0.4242808265
 40
0.5195751251
 40
0.5671567763
 40
0.6141156571
 40
0.6600235714
 40
0.7044619475
 40
0.7470256958
 40
0.787326936
 40
0.8249985688
 40
0.8596976854
 40
0.8911087939
 40
0.9189468687
 40
0.9429602752
 40
0.9629337664
 40
0.9713492376
 40
0.9786924372
 40
0.9849488561
 40
0.9876659835
 40
0.9901077439
 40
0.9922737349
 40
0.9941639558
 40
0.9957792403
 40
0.9971219831
 40
0.9976926509
 40
0.9981973822
 40
0.9986377008
 40
0.9990159863
 40
1.0
 40
1.0
 40
1.0
 40
1.0
 10
4.9617413704
 20
6.915785498
 30
0.0
 10
4.9616786193
 20
6.9157600513
 30
0.0
 10
4.9615359761
 20
6.9157108597
 30
0.0
 10
4.9612959022
 20
6.9156440116
 30
0.0
 10
4.9610081344
 20
6.91557691
 30
0.0
 10
4.9605304758
 20
6.9154811578
 30
0.0
 10
4.9598142481
 20
6.9153647257
 30
0.0
 10
4.9588133289
 20
6.915231178
 30
0.0
 10
4.9576266976
 20
6.9150971126
 30
0.0
 10
4.9562570236
 20
6.9149626159
 30
0.0
 10
4.9547073536
 20
6.9148278601
 30
0.0
 10
4.9529812027
 20
6.9146929105
 30
0.0
 10
4.9510824992
 20
6.9145578173
 30
0.0
 10
4.9482190923
 20
6.9143705671
 30
0.0
 10
4.9442439267
 20
6.9141396244
 30
0.0
 10
4.939024821
 20
6.9138709288
 30
0.0
 10
4.9332432448
 20
6.9136017601
 30
0.0
 10
4.9269519625
 20
6.9133322173
 30
0.0
 10
4.9202083899
 20
6.9130624239
 30
0.0
 10
4.9130740817
 20
6.9127924456
 30
0.0
 10
4.9056141627
 20
6.9125223364
 30
0.0
 10
4.8978967334
 20
6.9122521326
 30
0.0
 10
4.8872970925
 20
6.9118897234
 30
0.0
 10
4.876593082
 20
6.9115315264
 30
0.0
 10
4.8658826434
 20
6.9111709506
 30
0.0
 10
4.8579586916
 20
6.910900681
 30
0.0
 10
4.8502122862
 20
6.9106304683
 30
0.0
 10
4.8427141452
 20
6.9103603443
 30
0.0
 10
4.8355327187
 20
6.9100903462
 30
0.0
 10
4.8287335621
 20
6.9098205242
 30
0.0
 10
4.8223787377
 20
6.9095509444
 30
0.0
 10
4.8165262439
 20
6.9092817135
 30
0.0
 10
4.8112294893
 20
6.9090129577
 30
0.0
 10
4.8065367665
 20
6.9087449979
 30
0.0
 10
4.8024908675
 20
6.9084780161
 30
0.0
 10
4.7995416172
 20
6.9082459968
 30
0.0
 10
4.7975334371
 20
6.9080555302
 30
0.0
 10
4.796297879
 20
6.907921266
 30
0.0
 10
4.7953840357
 20
6.9078050852
 30
0.0
 10
4.7947465729
 20
6.907710533
 30
0.0
 10
4.7943385869
 20
6.9076430729
 30
0.0
 10
4.7939779673
 20
6.9075757235
 30
0.0
 10
4.7936648794
 20
6.9075085371
 30
0.0
 10
4.7933994393
 20
6.9074415146
 30
0.0
 10
4.7932088346
 20
6.9073832534
 30
0.0
 10
4.7930807938
 20
6.9073355886
 30
0.0
 10
4.7930022552
 20
6.9073019955
 30
0.0
 10
4.792935049
 20
6.9072679287
 30
0.0
 10
4.7928503511
 20
6.9072164056
 30
0.0
 10
4.7927818456
 20
6.9071514907
 30
0.0
 10
4.7927818378
 20
6.9070959414
 30
0.0
  0
SPLINE
  5
2D2
100
AcDbEntity
  8
0
100
AcDbSpline
 62
7
  6
CONTINUOUS
 70
0
 71
3
 72
30
 73
26
 74
0
 42
0.0000001
 43
0.0000001
 44
0.0000000001
 40
0.0
 40
0.0
 40
0.0
 40
0.0
 40
0.1890197081
 40
0.2813960743
 40
0.3712329675
 40
0.4577203891
 40
0.5400780785
 40
0.6175633516
 40
0.6894777883
 40
0.7551736032
 40
0.8140596659
 40
0.865607163
 40
0.8884820633
 40
0.909355233
 40
0.9281803333
 40
0.9449163646
 40
0.9595276939
 40
0.971984147
 40
0.9822630259
 40
0.9865810418
 40
0.9903505041
 40
0.9935720599
 40
0.9962482724
 40
0.9983859053
 40
1.0
 40
1.0
 40
1.0
 40
1.0
 10
4.8774068323
 20
6.9019501165
 30
0.0
 10
4.8836372861
 20
6.9021290871
 30
0.0
 10
4.8929126456
 20
6.9023954625
 30
0.0
 10
4.9051489195
 20
6.9027566078
 30
0.0
 10
4.9140053907
 20
6.9030253304
 30
0.0
 10
4.9225313373
 20
6.9032939446
 30
0.0
 10
4.9306497772
 20
6.9035624121
 30
0.0
 10
4.9382873961
 20
6.9038306727
 30
0.0
 10
4.9453752299
 20
6.9040986529
 30
0.0
 10
4.9518492911
 20
6.9043662089
 30
0.0
 10
4.9576511316
 20
6.9046332289
 30
0.0
 10
4.9620410817
 20
6.9048631619
 30
0.0
 10
4.9651779642
 20
6.905049876
 30
0.0
 10
4.9672369871
 20
6.9051841479
 30
0.0
 10
4.9690931204
 20
6.9053182352
 30
0.0
 10
4.9707421851
 20
6.9054520927
 30
0.0
 10
4.9721805078
 20
6.9055855619
 30
0.0
 10
4.973404879
 20
6.90571858
 30
0.0
 10
4.9742895806
 20
6.9058343257
 30
0.0
 10
4.9748877739
 20
6.9059292411
 30
0.0
 10
4.9752547058
 20
6.9059960774
 30
0.0
 10
4.9755664995
 20
6.9060626815
 30
0.0
 10
4.9758232192
 20
6.9061289461
 30
0.0
 10
4.9760247851
 20
6.9061947377
 30
0.0
 10
4.9761385643
 20
6.9062447502
 30
0.0
 10
4.9761846458
 20
6.906271386
 30
0.0
  0
LINE
  5
2D3
100
AcDbEntity
  8
0
100
AcDbLine
 62
7
  6
CONTINUOUS
 10
4.7785068432
 20
6.9331876165
 11
4.7789432679
 21
6.9334546039
  0
LINE
  5
2D4
100
AcDbEntity
  8
0
100
AcDbLine
 62
7
  6
CONTINUOUS
 10
4.7789432679
 20
6.9334546039
 11
4.7792279256
 21
6.9335308859
  0
SPLINE
  5
2D5
100
AcDbEntity
  8
0
100
AcDbSpline
 62
7
  6
CONTINUOUS
 70
0
 71
3
 72
24
 73
20
 74
0
 42
0.0000001
 43
0.0000001
 44
0.0000000001
 40
0.0
 40
0.0
 40
0.0
 40
0.0
 40
0.0030744237
 40
0.0066498641
 40
0.0153051867
 40
0.025961234
 40
0.0386021825
 40
0.0532058825
 40
0.0697448174
 40
0.1084942867
 40
0.1545413808
 40
0.2075131271
 40
0.2669780152
 40
0.3324502985
 40
0.4033943486
 40
0.4792292384
 40
0.6430510992
 40
0.8185562252
 40
1.0
 40
1.0
 40
1.0
 40
1.0
 10
4.7792279256
 20
6.9335308859
 30
0.0
 10
4.7793259129
 20
6.9335542373
 30
0.0
 10
4.7795389767
 20
6.9336000522
 30
0.0
 10
4.780032179
 20
6.9336909462
 30
0.0
 10
4.7807740719
 20
6.9338013328
 30
0.0
 10
4.7818133453
 20
6.933927891
 30
0.0
 10
4.7830486775
 20
6.9340549516
 30
0.0
 10
4.7844775669
 20
6.9341824607
 30
0.0
 10
4.7867604808
 20
6.9343624373
 30
0.0
 10
4.7900734834
 20
6.9345823742
 30
0.0
 10
4.7945802784
 20
6.9348359318
 30
0.0
 10
4.7997666876
 20
6.9350903004
 30
0.0
 10
4.8055901846
 20
6.9353453252
 30
0.0
 10
4.8120030227
 20
6.9356007505
 30
0.0
 10
4.8189525885
 20
6.9358564865
 30
0.0
 10
4.8291231803
 20
6.9362068032
 30
0.0
 10
4.8427188616
 20
6.9366376728
 30
0.0
 10
4.8597740475
 20
6.9371436536
 30
0.0
 10
4.8714644062
 20
6.9374794195
 30
0.0
 10
4.8774068323
 20
6.9376501165
 30
0.0
  0
SPLINE
  5
2D6
100
AcDbEntity
  8
0
100
AcDbSpline
 62
7
  6
CONTINUOUS
 70
0
 71
3
 72
30
 73
26
 74
0
 42
0.0000001
 43
0.0000001
 44
0.0000000001
 40
0.0
 40
0.0
 40
0.0
 40
0.0
 40
0.1890197081
 40
0.2813960744
 40
0.3712329677
 40
0.4577203892
 40
0.5400780787
 40
0.6175633518
 40
0.6894777884
 40
0.7551736032
 40
0.814059666
 40
0.8656071631
 40
0.8884820633
 40
0.9093552331
 40
0.9281803333
 40
0.9449163646
 40
0.9595276939
 40
0.971984147
 40
0.9822630259
 40
0.9865810418
 40
0.9903505041
 40
0.99357206
 40
0.9962482724
 40
0.9983859053
 40
1.0
 40
1.0
 40
1.0
 40
1.0
 10
4.8774068323
 20
6.9198001165
 30
0.0
 10
4.8836372861
 20
6.9199790871
 30
0.0
 10
4.8929126456
 20
6.9202454625
 30
0.0
 10
4.9051489196
 20
6.9206066078
 30
0.0
 10
4.9140053907
 20
6.9208753304
 30
0.0
 10
4.9225313374
 20
6.9211439446
 30
0.0
 10
4.9306497772
 20
6.9214124121
 30
0.0
 10
4.9382873961
 20
6.9216806727
 30
0.0
 10
4.9453752299
 20
6.9219486529
 30
0.0
 10
4.9518492911
 20
6.9222162089
 30
0.0
 10
4.9576511316
 20
6.9224832289
 30
0.0
 10
4.9620410817
 20
6.9227131619
 30
0.0
 10
4.9651779642
 20
6.922899876
 30
0.0
 10
4.9672369871
 20
6.9230341479
 30
0.0
 10
4.9690931204
 20
6.9231682352
 30
0.0
 10
4.9707421851
 20
6.9233020927
 30
0.0
 10
4.9721805078
 20
6.9234355619
 30
0.0
 10
4.973404879
 20
6.92356858
 30
0.0
 10
4.9742895806
 20
6.9236843257
 30
0.0
 10
4.9748877739
 20
6.9237792411
 30
0.0
 10
4.9752547058
 20
6.9238460774
 30
0.0
 10
4.9755664995
 20
6.9239126815
 30
0.0
 10
4.9758232192
 20
6.9239789461
 30
0.0
 10
4.9760247851
 20
6.9240447377
 30
0.0
 10
4.9761385643
 20
6.9240947502
 30
0.0
 10
4.9761846458
 20
6.924121386
 30
0.0
  0
SPLINE
  5
2D7
100
AcDbEntity
  8
0
100
AcDbSpline
 62
7
  6
CONTINUOUS
 70
0
 71
3
 72
55
 73
51
 74
0
 42
0.0000001
 43
0.0000001
 44
0.0000000001
 40
0.0
 40
0.0
 40
0.0
 40
0.0
 40
0.000985907
 40
0.0013651394
 40
0.0018065995
 40
0.0023126876
 40
0.0028849325
 40
0.0042314694
 40
0.005851363
 40
0.0077469916
 40
0.0099192477
 40
0.0123680904
 40
0.0150930693
 40
0.0213676147
 40
0.0287320002
 40
0.0371716922
 40
0.0572020619
 40
0.0812827198
 40
0.1091971243
 40
0.1406921404
 40
0.1754810623
 40
0.2132465701
 40
0.2536438054
 40
0.2963036255
 40
0.3408360413
 40
0.3868338228
 40
0.4338762501
 40
0.4815330043
 40
0.5769440215
 40
0.6238254746
 40
0.6695836473
 40
0.7138000219
 40
0.756070274
 40
0.7960080024
 40
0.8332483026
 40
0.8674511713
 40
0.898304726
 40
0.9255282509
 40
0.9377002626
 40
0.9488752387
 40
0.9590280114
 40
0.968136257
 40
0.9761802111
 40
0.9831430381
 40
0.9890115014
 40
0.9937762828
 40
0.9957439112
 40
0.9974354845
 40
0.9988528089
 40
1.0
 40
1.0
 40
1.0
 40
1.0
 10
4.9620318295
 20
7.0223709414
 30
0.0
 10
4.9620318222
 20
7.0223152735
 30
0.0
 10
4.961963057
 20
7.0222502666
 30
0.0
 10
4.9618781268
 20
7.0221986809
 30
0.0
 10
4.9618107087
 20
7.0221645592
 30
0.0
 10
4.9617319239
 20
7.0221309135
 30
0.0
 10
4.9616034749
 20
7.0220831728
 30
0.0
 10
4.9614122652
 20
7.0220248204
 30
0.0
 10
4.961145988
 20
7.0219576922
 30
0.0
 10
4.960831914
 20
7.0218903984
 30
0.0
 10
4.9604701583
 20
7.0218229434
 30
0.0
 10
4.9600608884
 20
7.0217553772
 30
0.0
 10
4.9594214237
 20
7.0216606741
 30
0.0
 10
4.9585047236
 20
7.0215443113
 30
0.0
 10
4.9572653172
 20
7.0214098335
 30
0.0
 10
4.9552509375
 20
7.021219069
 30
0.0
 10
4.9522926891
 20
7.0209866846
 30
0.0
 10
4.9482346192
 20
7.020719282
 30
0.0
 10
4.9435280637
 20
7.0204508994
 30
0.0
 10
4.9382160763
 20
7.0201817199
 30
0.0
 10
4.9323472424
 20
7.0199120645
 30
0.0
 10
4.9259752903
 20
7.0196420598
 30
0.0
 10
4.919158559
 20
7.0193718126
 30
0.0
 10
4.9119594686
 20
7.0191013891
 30
0.0
 10
4.9044439436
 20
7.0188308399
 30
0.0
 10
4.8966808097
 20
7.018560202
 30
0.0
 10
4.8887411621
 20
7.0182895076
 30
0.0
 10
4.8780129269
 20
7.0179284078
 30
0.0
 10
4.8672937066
 20
7.0175696578
 30
0.0
 10
4.8566818928
 20
7.0172066314
 30
0.0
 10
4.8489592463
 20
7.0169360064
 30
0.0
 10
4.8414971255
 20
7.0166654777
 30
0.0
 10
4.8343638672
 20
7.0163950823
 30
0.0
 10
4.8276247923
 20
7.016124875
 30
0.0
 10
4.8213416091
 20
7.015854923
 30
0.0
 10
4.8155718404
 20
7.0155853526
 30
0.0
 10
4.8103683092
 20
7.0153162651
 30
0.0
 10
4.8064084921
 20
7.0150849267
 30
0.0
 10
4.803559255
 20
7.014897316
 30
0.0
 10
4.8016725688
 20
7.0147620216
 30
0.0
 10
4.799959347
 20
7.0146268756
 30
0.0
 10
4.7984234994
 20
7.0144919307
 30
0.0
 10
4.7970685201
 20
7.0143572549
 30
0.0
 10
4.7958974244
 20
7.0142230321
 30
0.0
 10
4.7949128537
 20
7.0140893496
 30
0.0
 10
4.79421076
 20
7.0139727259
 30
0.0
 10
4.7937448482
 20
7.0138766943
 30
0.0
 10
4.7934661033
 20
7.0138095326
 30
0.0
 10
4.7932352059
 20
7.0137426454
 30
0.0
 10
4.7930988511
 20
7.0136932462
 30
0.0
 10
4.7930393582
 20
7.0136676271
 30
0.0
  0
LINE
  5
2D8
100
AcDbEntity
  8
0
100
AcDbLine
 62
7
  6
CONTINUOUS
 10
4.7930393582
 20
7.0136676271
 11
4.792924523
 21
7.0136109404
  0
LINE
  5
2D9
100
AcDbEntity
  8
0
100
AcDbLine
 62
7
  6
CONTINUOUS
 10
4.9618891332
 20
6.9872559421
 11
4.9617104556
 21
6.987173274
  0
SPLINE
  5
2DA
100
AcDbEntity
  8
0
100
AcDbSpline
 62
7
  6
CONTINUOUS
 70
0
 71
3
 72
53
 73
49
 74
0
 42
0.0000001
 43
0.0000001
 44
0.0000000001
 40
0.0
 40
0.0
 40
0.0
 40
0.0
 40
0.0012461571
 40
0.0027628467
 40
0.0045530106
 40
0.0066180539
 40
0.0115731571
 40
0.0176243959
 40
0.024761889
 40
0.0329717995
 40
0.0422368074
 40
0.0525370789
 40
0.076149609
 40
0.1035987815
 40
0.134637341
 40
0.1689845341
 40
0.2063289855
 40
0.2463317303
 40
0.2886294188
 40
0.332837686
 40
0.4253647803
 40
0.5205556383
 40
0.5680707718
 40
0.6149556726
 40
0.6607840285
 40
0.7051391815
 40
0.7476179377
 40
0.7878342627
 40
0.8254228426
 40
0.8600424928
 40
0.8913793474
 40
0.919149881
 40
0.9431038099
 40
0.9630270388
 40
0.9714210712
 40
0.9787455973
 40
0.9849858885
 40
0.9876961193
 40
0.9901316766
 40
0.9922920576
 40
0.9941774575
 40
0.9957887624
 40
0.9971281374
 40
0.9976973696
 40
0.9982008652
 40
0.9986401708
 40
0.9990176588
 40
1.0
 40
1.0
 40
1.0
 40
1.0
 10
4.9617104556
 20
6.987173274
 30
0.0
 10
4.9616448307
 20
6.9871479712
 30
0.0
 10
4.9614966165
 20
6.9870989596
 30
0.0
 10
4.9612484088
 20
6.9870321537
 30
0.0
 10
4.9609526533
 20
6.9869651041
 30
0.0
 10
4.9604646015
 20
6.9868695947
 30
0.0
 10
4.9597358662
 20
6.9867533401
 30
0.0
 10
4.9587204824
 20
6.9866199108
 30
0.0
 10
4.9575201133
 20
6.9864859886
 30
0.0
 10
4.956137451
 20
6.9863516552
 30
0.0
 10
4.9545755648
 20
6.9862170553
 30
0.0
 10
4.9521458508
 20
6.9860286629
 30
0.0
 10
4.9486901816
 20
6.9857974275
 30
0.0
 10
4.9440640867
 20
6.9855298124
 30
0.0
 10
4.9388312654
 20
6.9852615212
 30
0.0
 10
4.933039324
 20
6.9849926924
 30
0.0
 10
4.9267409569
 20
6.9847235185
 30
0.0
 10
4.9199934906
 20
6.9844540928
 30
0.0
 10
4.9128583435
 20
6.9841844802
 30
0.0
 10
4.9027601977
 20
6.9838192809
 30
0.0
 10
4.8896778538
 20
6.9833694012
 30
0.0
 10
4.8764085714
 20
6.9829253453
 30
0.0
 10
4.8657139962
 20
6.9825652434
 30
0.0
 10
4.8578040155
 20
6.9822953497
 30
0.0
 10
4.8500724896
 20
6.9820255151
 30
0.0
 10
4.8425898016
 20
6.9817557689
 30
0.0
 10
4.8354240689
 20
6.9814861487
 30
0.0
 10
4.8286405218
 20
6.9812167046
 30
0.0
 10
4.8223009084
 20
6.9809475024
 30
0.0
 10
4.8164629257
 20
6.9806786487
 30
0.0
 10
4.8111796981
 20
6.9804102693
 30
0.0
 10
4.8064992559
 20
6.9801426852
 30
0.0
 10
4.8024641572
 20
6.9798760765
 30
0.0
 10
4.79952289
 20
6.9796443837
 30
0.0
 10
4.7975202064
 20
6.9794541791
 30
0.0
 10
4.7962880653
 20
6.9793201086
 30
0.0
 10
4.7953767567
 20
6.979204085
 30
0.0
 10
4.7947410693
 20
6.9791096682
 30
0.0
 10
4.7943342198
 20
6.9790423053
 30
0.0
 10
4.7939746113
 20
6.9789750474
 30
0.0
 10
4.7936623999
 20
6.9789079529
 30
0.0
 10
4.7933976985
 20
6.9788410304
 30
0.0
 10
4.7932076281
 20
6.9787828496
 30
0.0
 10
4.7930799556
 20
6.9787352505
 30
0.0
 10
4.7930016409
 20
6.9787017032
 30
0.0
 10
4.7929346233
 20
6.9786676833
 30
0.0
 10
4.7928501271
 20
6.9786162237
 30
0.0
 10
4.7927818377
 20
6.9785513853
 30
0.0
 10
4.7927818421
 20
6.9784959414
 30
0.0
  0
SPLINE
  5
2DB
100
AcDbEntity
  8
0
100
AcDbSpline
 62
7
  6
CONTINUOUS
 70
0
 71
3
 72
25
 73
21
 74
0
 42
0.0000001
 43
0.0000001
 44
0.0000000001
 40
0.0
 40
0.0
 40
0.0
 40
0.0
 40
0.0043051318
 40
0.0094253422
 40
0.015873246
 40
0.0239100345
 40
0.0336690906
 40
0.0452230734
 40
0.0586130908
 40
0.0738636308
 40
0.1099982797
 40
0.1536940531
 40
0.2049599258
 40
0.2637778302
 40
0.3301167409
 40
0.4039283657
 40
0.4851561278
 40
0.5737374412
 40
0.7726485419
 40
1.0
 40
1.0
 40
1.0
 40
1.0
 10
4.969239591
 20
6.8794831254
 30
0.0
 10
4.9692395894
 20
6.8794690704
 30
0.0
 10
4.9692315487
 20
6.8794381247
 30
0.0
 10
4.9691996971
 20
6.8793962648
 30
0.0
 10
4.969149884
 20
6.8793555453
 30
0.0
 10
4.9690816266
 20
6.8793150945
 30
0.0
 10
4.9689946631
 20
6.8792746192
 30
0.0
 10
4.9688887954
 20
6.8792340851
 30
0.0
 10
4.9687639665
 20
6.8791934832
 30
0.0
 10
4.9685604165
 20
6.8791359916
 30
0.0
 10
4.9682578908
 20
6.8790658014
 30
0.0
 10
4.9678374942
 20
6.8789852264
 30
0.0
 10
4.9673419324
 20
6.8789044683
 30
0.0
 10
4.9667716441
 20
6.8788235642
 30
0.0
 10
4.9661271119
 20
6.8787426011
 30
0.0
 10
4.9654089123
 20
6.8786616061
 30
0.0
 10
4.9646176844
 20
6.8785806009
 30
0.0
 10
4.9634191629
 20
6.8784682272
 30
0.0
 10
4.9617440147
 20
6.8783297036
 30
0.0
 10
4.9603560038
 20
6.8782292106
 30
0.0
 10
4.9596155106
 20
6.8781783514
 30
0.0
  0
SPLINE
  5
2DC
100
AcDbEntity
  8
0
100
AcDbSpline
 62
7
  6
CONTINUOUS
 70
0
 71
3
 72
55
 73
51
 74
0
 42
0.0000001
 43
0.0000001
 44
0.0000000001
 40
0.0
 40
0.0
 40
0.0
 40
0.0
 40
0.0009879249
 40
0.0013681738
 40
0.0018108601
 40
0.0023183912
 40
0.0028923141
 40
0.0042428955
 40
0.0058677158
 40
0.0077691181
 40
0.009948051
 40
0.0124044523
 40
0.0151378227
 40
0.0214316964
 40
0.028818698
 40
0.0372842281
 40
0.0573752926
 40
0.0815277104
 40
0.1095235472
 40
0.1411080754
 40
0.175992795
 40
0.2138584334
 40
0.2543580497
 40
0.2971203184
 40
0.341752999
 40
0.3878465754
 40
0.4349780381
 40
0.4827148031
 40
0.5782500702
 40
0.6251716934
 40
0.6709529381
 40
0.7151736722
 40
0.7574281734
 40
0.7973288937
 40
0.8345100519
 40
0.8686310599
 40
0.8993797603
 40
0.9264754907
 40
0.9385751133
 40
0.949672149
 40
0.9597415283
 40
0.9687610926
 40
0.9767112296
 40
0.9835753606
 40
0.9893405396
 40
0.9939979387
 40
0.9959106069
 40
0.9975466269
 40
0.998908149
 40
1.0
 40
1.0
 40
1.0
 40
1.0
 10
4.9620318315
 20
7.0045209414
 30
0.0
 10
4.9620318267
 20
7.0044651477
 30
0.0
 10
4.9619627843
 20
7.0044000421
 30
0.0
 10
4.9618776066
 20
7.0043483907
 30
0.0
 10
4.9618099623
 20
7.0043142114
 30
0.0
 10
4.9617309162
 20
7.0042805093
 30
0.0
 10
4.9616020339
 20
7.0042326879
 30
0.0
 10
4.9614101811
 20
7.0041742384
 30
0.0
 10
4.9611430133
 20
7.0041069987
 30
0.0
 10
4.9608278906
 20
7.0040395908
 30
0.0
 10
4.9604649271
 20
7.0039720234
 30
0.0
 10
4.9600542916
 20
7.0039043444
 30
0.0
 10
4.9594126981
 20
7.0038094818
 30
0.0
 10
4.95849296
 20
7.0036929248
 30
0.0
 10
4.9572494622
 20
7.003558221
 30
0.0
 10
4.9552284904
 20
7.0033671397
 30
0.0
 10
4.9522606752
 20
7.003134368
 30
0.0
 10
4.9481896664
 20
7.0028665186
 30
0.0
 10
4.9434684079
 20
7.0025976872
 30
0.0
 10
4.9381402321
 20
7.0023280577
 30
0.0
 10
4.9322540366
 20
7.0020579517
 30
0.0
 10
4.9258638899
 20
7.0017874958
 30
0.0
 10
4.9190284949
 20
7.0015167972
 30
0.0
 10
4.9118106528
 20
7.0012459222
 30
0.0
 10
4.9042766817
 20
7.0009749215
 30
0.0
 10
4.8964958074
 20
7.0007038322
 30
0.0
 10
4.8885395267
 20
7.0004326869
 30
0.0
 10
4.8777924631
 20
7.000071031
 30
0.0
 10
4.8670571785
 20
6.9997116941
 30
0.0
 10
4.8564325432
 20
6.9993480119
 30
0.0
 10
4.8487044552
 20
6.9990769398
 30
0.0
 10
4.8412401086
 20
6.9988059659
 30
0.0
 10
4.8341080901
 20
6.9985351277
 30
0.0
 10
4.8273739285
 20
6.9982644813
 30
0.0
 10
4.8210994938
 20
6.997994095
 30
0.0
 10
4.8153424206
 20
6.9977240988
 30
0.0
 10
4.8101555917
 20
6.9974545959
 30
0.0
 10
4.8062122133
 20
6.9972228373
 30
0.0
 10
4.8033781369
 20
6.9970348427
 30
0.0
 10
4.8015042979
 20
6.9968993353
 30
0.0
 10
4.799804891
 20
6.9967639812
 30
0.0
 10
4.798283807
 20
6.9966288368
 30
0.0
 10
4.7969445156
 20
6.9964939718
 30
0.0
 10
4.7957899993
 20
6.9963595854
 30
0.0
 10
4.7948228682
 20
6.9962257635
 30
0.0
 10
4.7941358468
 20
6.9961089405
 30
0.0
 10
4.7936824632
 20
6.9960126052
 30
0.0
 10
4.7934133303
 20
6.9959453843
 30
0.0
 10
4.7931922025
 20
6.995878462
 30
0.0
 10
4.7930625548
 20
6.9958288335
 30
0.0
 10
4.7930065546
 20
6.9958030207
 30
0.0
  0
SPLINE
  5
2DD
100
AcDbEntity
  8
0
100
AcDbSpline
 62
7
  6
CONTINUOUS
 70
0
 71
3
 72
9
 73
5
 74
0
 42
0.0000001
 43
0.0000001
 44
0.0000000001
 40
0.0
 40
0.0
 40
0.0
 40
0.0
 40
0.2668484996
 40
1.0
 40
1.0
 40
1.0
 40
1.0
 10
4.7930065546
 20
6.9958030207
 30
0.0
 10
4.7929991057
 20
6.9957995872
 30
0.0
 10
4.7929713156
 20
6.9957864562
 30
0.0
 10
4.7929440317
 20
6.9957722218
 30
0.0
 10
4.7929245238
 20
6.9957609404
 30
0.0
  0
SPLINE
  5
2DE
100
AcDbEntity
  8
0
100
AcDbSpline
 62
7
  6
CONTINUOUS
 70
0
 71
3
 72
9
 73
5
 74
0
 42
0.0000001
 43
0.0000001
 44
0.0000000001
 40
0.0
 40
0.0
 40
0.0
 40
0.0
 40
0.2364522108
 40
1.0
 40
1.0
 40
1.0
 40
1.0
 10
4.961889138
 20
6.9337059421
 30
0.0
 10
4.9618841809
 20
6.9337030755
 30
0.0
 10
4.9618630793
 20
6.9336911889
 30
0.0
 10
4.9618414813
 20
6.933680195
 30
0.0
 10
4.9618248123
 20
6.9336721902
 30
0.0
  0
SPLINE
  5
2DF
100
AcDbEntity
  8
0
100
AcDbSpline
 62
7
  6
CONTINUOUS
 70
0
 71
3
 72
55
 73
51
 74
0
 42
0.0000001
 43
0.0000001
 44
0.0000000001
 40
0.0
 40
0.0
 40
0.0
 40
0.0
 40
0.0010782276
 40
0.0024259779
 40
0.0040482787
 40
0.0059473616
 40
0.0105782144
 40
0.0163178451
 40
0.0231575634
 40
0.0310844826
 40
0.0400821057
 40
0.0501308425
 40
0.0612085874
 40
0.0732902901
 40
0.1003543778
 40
0.1310771065
 40
0.1651778295
 40
0.2023443237
 40
0.2422358572
 40
0.2844864335
 40
0.3287082209
 40
0.3744951518
 40
0.4214266955
 40
0.5169926802
 40
0.5647492359
 40
0.611902726
 40
0.6580200065
 40
0.7026775006
 40
0.7454651254
 40
0.7859900828
 40
0.8238805068
 40
0.8587889409
 40
0.8903956298
 40
0.9184116301
 40
0.9425818169
 40
0.9626879091
 40
0.9711598319
 40
0.9785524363
 40
0.9848510968
 40
0.9875865466
 40
0.9900448146
 40
0.9922254001
 40
0.9941282387
 40
0.9957542758
 40
0.9971058545
 40
0.9976801937
 40
0.9981880864
 40
0.9986310788
 40
0.9990115788
 40
1.0
 40
1.0
 40
1.0
 40
1.0
 10
4.9618148607
 20
6.9336674673
 30
0.0
 10
4.9617597287
 20
6.9336416051
 30
0.0
 10
4.9616317419
 20
6.9335919181
 30
0.0
 10
4.9614130301
 20
6.9335249879
 30
0.0
 10
4.9611462749
 20
6.9334577534
 30
0.0
 10
4.9606959924
 20
6.9333613416
 30
0.0
 10
4.9600127012
 20
6.9332444706
 30
0.0
 10
4.9590498871
 20
6.9331106146
 30
0.0
 10
4.9578994763
 20
6.9329761886
 30
0.0
 10
4.9565640704
 20
6.9328412769
 30
0.0
 10
4.9550466442
 20
6.9327060837
 30
0.0
 10
4.9533506608
 20
6.9325706782
 30
0.0
 10
4.9514800066
 20
6.9324351184
 30
0.0
 10
4.9486496903
 20
6.9322470288
 30
0.0
 10
4.9447103917
 20
6.9320151665
 30
0.0
 10
4.9395277116
 20
6.9317455612
 30
0.0
 10
4.933773797
 20
6.9314754599
 30
0.0
 10
4.9275015452
 20
6.9312049666
 30
0.0
 10
4.9207686182
 20
6.9309342118
 30
0.0
 10
4.9136369255
 20
6.9306632644
 30
0.0
 10
4.9061720473
 20
6.9303921805
 30
0.0
 10
4.8984426319
 20
6.9301209981
 30
0.0
 10
4.8878148484
 20
6.9297571541
 30
0.0
 10
4.8770756124
 20
6.9293976723
 30
0.0
 10
4.8663239124
 20
6.9290358793
 30
0.0
 10
4.8583635315
 20
6.9287646226
 30
0.0
 10
4.850578282
 20
6.9284934219
 30
0.0
 10
4.8430397599
 20
6.9282223098
 30
0.0
 10
4.8358172901
 20
6.9279513234
 30
0.0
 10
4.8289772881
 20
6.9276805133
 30
0.0
 10
4.8225826496
 20
6.9274099461
 30
0.0
 10
4.816692167
 20
6.9271397288
 30
0.0
 10
4.8113599932
 20
6.9268699883
 30
0.0
 10
4.8066351029
 20
6.9266010462
 30
0.0
 10
4.8025608978
 20
6.9263330865
 30
0.0
 10
4.7995907196
 20
6.9261002194
 30
0.0
 10
4.7975681195
 20
6.9259090596
 30
0.0
 10
4.7963236109
 20
6.9257743001
 30
0.0
 10
4.795403122
 20
6.9256576951
 30
0.0
 10
4.7947610026
 20
6.9255627933
 30
0.0
 10
4.7943500301
 20
6.9254950864
 30
0.0
 10
4.7939867682
 20
6.9254274911
 30
0.0
 10
4.7936713861
 20
6.9253600554
 30
0.0
 10
4.7934039984
 20
6.925292788
 30
0.0
 10
4.7932119871
 20
6.9252343144
 30
0.0
 10
4.7930829977
 20
6.9251864731
 30
0.0
 10
4.7930038866
 20
6.9251527572
 30
0.0
 10
4.792936186
 20
6.9251185637
 30
0.0
 10
4.7928509471
 20
6.9250668961
 30
0.0
 10
4.7927818381
 20
6.9250017658
 30
0.0
 10
4.7927818332
 20
6.9249459414
 30
0.0
  0
SPLINE
  5
2E0
100
AcDbEntity
  8
0
100
AcDbSpline
 62
7
  6
CONTINUOUS
 70
0
 71
3
 72
30
 73
26
 74
0
 42
0.0000001
 43
0.0000001
 44
0.0000000001
 40
0.0
 40
0.0
 40
0.0
 40
0.0
 40
0.1890197082
 40
0.2813960746
 40
0.3712329678
 40
0.4577203893
 40
0.5400780788
 40
0.617563352
 40
0.6894777885
 40
0.7551736033
 40
0.8140596661
 40
0.8656071632
 40
0.8884820634
 40
0.9093552331
 40
0.9281803333
 40
0.9449163646
 40
0.9595276939
 40
0.971984147
 40
0.982263026
 40
0.9865810418
 40
0.9903505041
 40
0.99357206
 40
0.9962482724
 40
0.9983859053
 40
1.0
 40
1.0
 40
1.0
 40
1.0
 10
4.8774068323
 20
6.9376501165
 30
0.0
 10
4.8836372861
 20
6.9378290871
 30
0.0
 10
4.8929126456
 20
6.9380954625
 30
0.0
 10
4.9051489196
 20
6.9384566078
 30
0.0
 10
4.9140053907
 20
6.9387253304
 30
0.0
 10
4.9225313374
 20
6.9389939446
 30
0.0
 10
4.9306497772
 20
6.9392624121
 30
0.0
 10
4.9382873961
 20
6.9395306727
 30
0.0
 10
4.9453752299
 20
6.9397986529
 30
0.0
 10
4.9518492911
 20
6.9400662089
 30
0.0
 10
4.9576511317
 20
6.9403332289
 30
0.0
 10
4.9620410817
 20
6.9405631619
 30
0.0
 10
4.9651779643
 20
6.940749876
 30
0.0
 10
4.9672369872
 20
6.9408841479
 30
0.0
 10
4.9690931204
 20
6.9410182352
 30
0.0
 10
4.9707421851
 20
6.9411520927
 30
0.0
 10
4.9721805078
 20
6.9412855619
 30
0.0
 10
4.973404879
 20
6.94141858
 30
0.0
 10
4.9742895806
 20
6.9415343257
 30
0.0
 10
4.9748877739
 20
6.9416292411
 30
0.0
 10
4.9752547058
 20
6.9416960774
 30
0.0
 10
4.9755664995
 20
6.9417626815
 30
0.0
 10
4.9758232192
 20
6.9418289461
 30
0.0
 10
4.9760247851
 20
6.9418947377
 30
0.0
 10
4.9761385643
 20
6.9419447502
 30
0.0
 10
4.9761846458
 20
6.941971386
 30
0.0
  0
SPLINE
  5
2E1
100
AcDbEntity
  8
0
100
AcDbSpline
 62
7
  6
CONTINUOUS
 70
0
 71
3
 72
30
 73
26
 74
0
 42
0.0000001
 43
0.0000001
 44
0.0000000001
 40
0.0
 40
0.0
 40
0.0
 40
0.0
 40
0.1890197081
 40
0.2813960742
 40
0.3712329675
 40
0.457720389
 40
0.5400780784
 40
0.6175633515
 40
0.6894777882
 40
0.7551736031
 40
0.814059666
 40
0.8656071631
 40
0.8884820633
 40
0.9093552331
 40
0.9281803333
 40
0.9449163646
 40
0.9595276939
 40
0.971984147
 40
0.982263026
 40
0.9865810418
 40
0.9903505041
 40
0.99357206
 40
0.9962482724
 40
0.9983859053
 40
1.0
 40
1.0
 40
1.0
 40
1.0
 10
4.8774068323
 20
6.9555001165
 30
0.0
 10
4.8836372861
 20
6.9556790871
 30
0.0
 10
4.8929126456
 20
6.9559454625
 30
0.0
 10
4.9051489195
 20
6.9563066078
 30
0.0
 10
4.9140053907
 20
6.9565753304
 30
0.0
 10
4.9225313373
 20
6.9568439446
 30
0.0
 10
4.9306497772
 20
6.9571124121
 30
0.0
 10
4.938287396
 20
6.9573806727
 30
0.0
 10
4.9453752299
 20
6.9576486529
 30
0.0
 10
4.9518492911
 20
6.9579162089
 30
0.0
 10
4.9576511316
 20
6.9581832289
 30
0.0
 10
4.9620410817
 20
6.9584131619
 30
0.0
 10
4.9651779642
 20
6.958599876
 30
0.0
 10
4.9672369871
 20
6.9587341479
 30
0.0
 10
4.9690931204
 20
6.9588682352
 30
0.0
 10
4.9707421851
 20
6.9590020927
 30
0.0
 10
4.9721805078
 20
6.9591355619
 30
0.0
 10
4.973404879
 20
6.95926858
 30
0.0
 10
4.9742895806
 20
6.9593843257
 30
0.0
 10
4.9748877739
 20
6.9594792411
 30
0.0
 10
4.9752547058
 20
6.9595460774
 30
0.0
 10
4.9755664995
 20
6.9596126815
 30
0.0
 10
4.9758232192
 20
6.9596789461
 30
0.0
 10
4.9760247851
 20
6.9597447377
 30
0.0
 10
4.9761385643
 20
6.9597947502
 30
0.0
 10
4.9761846458
 20
6.959821386
 30
0.0
  0
SPLINE
  5
2E2
100
AcDbEntity
  8
0
100
AcDbSpline
 62
7
  6
CONTINUOUS
 70
0
 71
3
 72
15
 73
11
 74
0
 42
0.0000001
 43
0.0000001
 44
0.0000000001
 40
0.0
 40
0.0
 40
0.0
 40
0.0
 40
0.0700737966
 40
0.1555066845
 40
0.2566706501
 40
0.373711167
 40
0.5066559355
 40
0.6554502918
 40
0.819976137
 40
1.0
 40
1.0
 40
1.0
 40
1.0
 10
4.7906589876
 20
7.0301507813
 30
0.0
 10
4.7908389343
 20
7.0302548434
 30
0.0
 10
4.7912545504
 20
7.0304574449
 30
0.0
 10
4.7919643871
 20
7.0307340019
 30
0.0
 10
4.7928214825
 20
7.0310122447
 30
0.0
 10
4.7938250819
 20
7.0312920298
 30
0.0
 10
4.7949743024
 20
7.0315731906
 30
0.0
 10
4.7962677427
 20
7.0318556513
 30
0.0
 10
4.7977035445
 20
7.0321392922
 30
0.0
 10
4.7987093815
 20
7.0323210529
 30
0.0
 10
4.7992355026
 20
7.0324126165
 30
0.0
  0
SPLINE
  5
2E3
100
AcDbEntity
  8
0
100
AcDbSpline
 62
7
  6
CONTINUOUS
 70
0
 71
3
 72
30
 73
26
 74
0
 42
0.0000001
 43
0.0000001
 44
0.0000000001
 40
0.0
 40
0.0
 40
0.0
 40
0.0
 40
0.1890197083
 40
0.2813960746
 40
0.3712329678
 40
0.4577203893
 40
0.5400780788
 40
0.6175633519
 40
0.6894777884
 40
0.7551736033
 40
0.814059666
 40
0.8656071631
 40
0.8884820634
 40
0.9093552331
 40
0.9281803333
 40
0.9449163646
 40
0.9595276939
 40
0.971984147
 40
0.982263026
 40
0.9865810418
 40
0.9903505041
 40
0.99357206
 40
0.9962482724
 40
0.9983859053
 40
1.0
 40
1.0
 40
1.0
 40
1.0
 10
4.8774068323
 20
6.9733501165
 30
0.0
 10
4.8836372862
 20
6.9735290871
 30
0.0
 10
4.8929126456
 20
6.9737954625
 30
0.0
 10
4.9051489196
 20
6.9741566078
 30
0.0
 10
4.9140053907
 20
6.9744253304
 30
0.0
 10
4.9225313374
 20
6.9746939446
 30
0.0
 10
4.9306497772
 20
6.9749624121
 30
0.0
 10
4.9382873961
 20
6.9752306727
 30
0.0
 10
4.9453752299
 20
6.9754986529
 30
0.0
 10
4.9518492911
 20
6.9757662089
 30
0.0
 10
4.9576511317
 20
6.9760332289
 30
0.0
 10
4.9620410817
 20
6.9762631619
 30
0.0
 10
4.9651779643
 20
6.976449876
 30
0.0
 10
4.9672369871
 20
6.9765841479
 30
0.0
 10
4.9690931204
 20
6.9767182352
 30
0.0
 10
4.9707421851
 20
6.9768520927
 30
0.0
 10
4.9721805078
 20
6.9769855619
 30
0.0
 10
4.973404879
 20
6.97711858
 30
0.0
 10
4.9742895806
 20
6.9772343257
 30
0.0
 10
4.9748877739
 20
6.9773292411
 30
0.0
 10
4.9752547058
 20
6.9773960774
 30
0.0
 10
4.9755664995
 20
6.9774626815
 30
0.0
 10
4.9758232192
 20
6.9775289461
 30
0.0
 10
4.9760247851
 20
6.9775947377
 30
0.0
 10
4.9761385643
 20
6.9776447502
 30
0.0
 10
4.9761846458
 20
6.977671386
 30
0.0
  0
LINE
  5
2E4
100
AcDbEntity
  8
0
100
AcDbLine
 62
7
  6
CONTINUOUS
 10
4.9763068214
 20
7.0141292663
 11
4.9758761096
 21
7.0138640333
  0
LINE
  5
2E5
100
AcDbEntity
  8
0
100
AcDbLine
 62
7
  6
CONTINUOUS
 10
4.9758761096
 20
7.0138640333
 11
4.9755929486
 21
7.0137877192
  0
SPLINE
  5
2E6
100
AcDbEntity
  8
0
100
AcDbSpline
 62
7
  6
CONTINUOUS
 70
0
 71
3
 72
24
 73
20
 74
0
 42
0.0000001
 43
0.0000001
 44
0.0000000001
 40
0.0
 40
0.0
 40
0.0
 40
0.0
 40
0.0030621926
 40
0.0066257446
 40
0.015258446
 40
0.0258935381
 40
0.0385152742
 40
0.0531015483
 40
0.0696248687
 40
0.1083485797
 40
0.1543771822
 40
0.2073375568
 40
0.2667979325
 40
0.3322721975
 40
0.4032242614
 40
0.4790726473
 40
0.6429353598
 40
0.8184948738
 40
1.0
 40
1.0
 40
1.0
 40
1.0
 10
4.9755929486
 20
7.0137877192
 30
0.0
 10
4.9754953701
 20
7.0137643486
 30
0.0
 10
4.9752831036
 20
7.0137185036
 30
0.0
 10
4.9747914299
 20
7.0136275544
 30
0.0
 10
4.9740513222
 20
7.0135171212
 30
0.0
 10
4.9730140468
 20
7.0133905205
 30
0.0
 10
4.9717805218
 20
7.0132634142
 30
0.0
 10
4.9703532471
 20
7.0131358563
 30
0.0
 10
4.9680720994
 20
7.0129557909
 30
0.0
 10
4.9647608175
 20
7.0127357597
 30
0.0
 10
4.9602555125
 20
7.0124821043
 30
0.0
 10
4.9550698438
 20
7.0122276354
 30
0.0
 10
4.9492463673
 20
7.0119725079
 30
0.0
 10
4.9428328692
 20
7.0117169787
 30
0.0
 10
4.9358820124
 20
7.011461138
 30
0.0
 10
4.9257086135
 20
7.0111106685
 30
0.0
 10
4.912108347
 20
7.0106796184
 30
0.0
 10
4.8950467468
 20
7.0101734338
 30
0.0
 10
4.8833517159
 20
7.0098375339
 30
0.0
 10
4.8774068323
 20
7.0096667663
 30
0.0
  0
SPLINE
  5
2E7
100
AcDbEntity
  8
0
100
AcDbSpline
 62
7
  6
CONTINUOUS
 70
0
 71
3
 72
30
 73
26
 74
0
 42
0.0000001
 43
0.0000001
 44
0.0000000001
 40
0.0
 40
0.0
 40
0.0
 40
0.0
 40
0.1890197082
 40
0.2813960743
 40
0.3712329675
 40
0.4577203891
 40
0.5400780787
 40
0.6175633517
 40
0.6894777883
 40
0.7551736033
 40
0.8140596661
 40
0.8656071632
 40
0.8884820634
 40
0.9093552331
 40
0.9281803334
 40
0.9449163646
 40
0.9595276939
 40
0.971984147
 40
0.982263026
 40
0.9865810418
 40
0.9903505041
 40
0.99357206
 40
0.9962482724
 40
0.9983859053
 40
1.0
 40
1.0
 40
1.0
 40
1.0
 10
4.8774068323
 20
6.9912001165
 30
0.0
 10
4.8836372861
 20
6.9913790871
 30
0.0
 10
4.8929126456
 20
6.9916454625
 30
0.0
 10
4.9051489196
 20
6.9920066078
 30
0.0
 10
4.9140053907
 20
6.9922753304
 30
0.0
 10
4.9225313374
 20
6.9925439446
 30
0.0
 10
4.9306497772
 20
6.9928124121
 30
0.0
 10
4.9382873961
 20
6.9930806727
 30
0.0
 10
4.9453752299
 20
6.9933486529
 30
0.0
 10
4.9518492911
 20
6.9936162089
 30
0.0
 10
4.9576511317
 20
6.9938832289
 30
0.0
 10
4.9620410817
 20
6.9941131619
 30
0.0
 10
4.9651779643
 20
6.994299876
 30
0.0
 10
4.9672369872
 20
6.9944341479
 30
0.0
 10
4.9690931204
 20
6.9945682352
 30
0.0
 10
4.9707421851
 20
6.9947020927
 30
0.0
 10
4.9721805078
 20
6.9948355619
 30
0.0
 10
4.973404879
 20
6.99496858
 30
0.0
 10
4.9742895806
 20
6.9950843257
 30
0.0
 10
4.9748877739
 20
6.9951792411
 30
0.0
 10
4.9752547058
 20
6.9952460774
 30
0.0
 10
4.9755664995
 20
6.9953126815
 30
0.0
 10
4.9758232192
 20
6.9953789461
 30
0.0
 10
4.9760247851
 20
6.9954447377
 30
0.0
 10
4.9761385643
 20
6.9954947502
 30
0.0
 10
4.9761846458
 20
6.995521386
 30
0.0
  0
SPLINE
  5
2E8
100
AcDbEntity
  8
0
100
AcDbSpline
 62
7
  6
CONTINUOUS
 70
0
 71
3
 72
18
 73
14
 74
0
 42
0.0000001
 43
0.0000001
 44
0.0000000001
 40
0.0
 40
0.0
 40
0.0
 40
0.0
 40
0.0178691443
 40
0.0415432854
 40
0.0711809554
 40
0.1068488857
 40
0.1485721964
 40
0.1963483134
 40
0.3099884065
 40
0.4475478043
 40
0.6086944964
 40
0.793004466
 40
1.0
 40
1.0
 40
1.0
 40
1.0
 10
4.9691091377
 20
6.8800819107
 30
0.0
 10
4.9690597331
 20
6.8800532828
 30
0.0
 10
4.9689376598
 20
6.8799995689
 30
0.0
 10
4.9687213606
 20
6.879928983
 30
0.0
 10
4.9684458705
 20
6.8798579345
 30
0.0
 10
4.9681113445
 20
6.8797865698
 30
0.0
 10
4.9677177799
 20
6.8797150185
 30
0.0
 10
4.9670766075
 20
6.8796135111
 30
0.0
 10
4.9661291301
 20
6.8794898768
 30
0.0
 10
4.9648191136
 20
6.8793479854
 30
0.0
 10
4.9632821762
 20
6.8792058271
 30
0.0
 10
4.9615225746
 20
6.8790634698
 30
0.0
 10
4.9602753966
 20
6.8789736742
 30
0.0
 10
4.9596155106
 20
6.8789283514
 30
0.0
  0
LINE
  5
2E9
100
AcDbEntity
  8
0
100
AcDbLine
 62
7
  6
CONTINUOUS
 10
4.9763068214
 20
6.9784292663
 11
4.9758703986
 21
6.9781622794
  0
LINE
  5
2EA
100
AcDbEntity
  8
0
100
AcDbLine
 62
7
  6
CONTINUOUS
 10
4.9758703986
 20
6.9781622794
 11
4.9755857413
 21
6.9780859974
  0
SPLINE
  5
2EB
100
AcDbEntity
  8
0
100
AcDbSpline
 62
7
  6
CONTINUOUS
 70
0
 71
3
 72
24
 73
20
 74
0
 42
0.0000001
 43
0.0000001
 44
0.0000000001
 40
0.0
 40
0.0
 40
0.0
 40
0.0
 40
0.0030744198
 40
0.0066498564
 40
0.0153051718
 40
0.0259612124
 40
0.0386021547
 40
0.0532058492
 40
0.0697447791
 40
0.1084942401
 40
0.1545413283
 40
0.2075130709
 40
0.2669779576
 40
0.3324502415
 40
0.4033942942
 40
0.4792291883
 40
0.6430510623
 40
0.8185562055
 40
1.0
 40
1.0
 40
1.0
 40
1.0
 10
4.9755857413
 20
6.9780859974
 30
0.0
 10
4.9754877542
 20
6.978062646
 30
0.0
 10
4.9752746906
 20
6.9780168311
 30
0.0
 10
4.9747814887
 20
6.9779259371
 30
0.0
 10
4.9740395964
 20
6.9778155505
 30
0.0
 10
4.9730003237
 20
6.9776889923
 30
0.0
 10
4.971764992
 20
6.9775619316
 30
0.0
 10
4.9703361032
 20
6.9774344225
 30
0.0
 10
4.9680531898
 20
6.9772544459
 30
0.0
 10
4.9647401878
 20
6.977034509
 30
0.0
 10
4.9602333933
 20
6.9767809513
 30
0.0
 10
4.9550469843
 20
6.9765265827
 30
0.0
 10
4.9492234873
 20
6.9762715579
 30
0.0
 10
4.942810649
 20
6.9760161325
 30
0.0
 10
4.9358610828
 20
6.9757603965
 30
0.0
 10
4.9256904901
 20
6.9754100798
 30
0.0
 10
4.9120948073
 20
6.9749792101
 30
0.0
 10
4.8950396193
 20
6.9744732292
 30
0.0
 10
4.8833492592
 20
6.9741374633
 30
0.0
 10
4.8774068323
 20
6.9739667663
 30
0.0
  0
LINE
  5
2EC
100
AcDbEntity
  8
0
100
AcDbLine
 62
7
  6
CONTINUOUS
 10
4.9763068214
 20
6.9070292663
 11
4.9758703946
 21
6.9067622782
  0
LINE
  5
2ED
100
AcDbEntity
  8
0
100
AcDbLine
 62
7
  6
CONTINUOUS
 10
4.9758703946
 20
6.9067622782
 11
4.9755857359
 21
6.9066859961
  0
SPLINE
  5
2EE
100
AcDbEntity
  8
0
100
AcDbSpline
 62
7
  6
CONTINUOUS
 70
0
 71
3
 72
24
 73
20
 74
0
 42
0.0000001
 43
0.0000001
 44
0.0000000001
 40
0.0
 40
0.0
 40
0.0
 40
0.0
 40
0.003074429
 40
0.0066498747
 40
0.0153052073
 40
0.0259612638
 40
0.0386022207
 40
0.0532059284
 40
0.0697448701
 40
0.1084943507
 40
0.1545414529
 40
0.2075132042
 40
0.2669780942
 40
0.3324503765
 40
0.4033944231
 40
0.479229307
 40
0.6430511499
 40
0.8185562521
 40
1.0
 40
1.0
 40
1.0
 40
1.0
 10
4.9755857359
 20
6.9066859961
 30
0.0
 10
4.9754877484
 20
6.9066626447
 30
0.0
 10
4.9752746842
 20
6.9066168298
 30
0.0
 10
4.9747814812
 20
6.9065259359
 30
0.0
 10
4.9740395875
 20
6.9064155493
 30
0.0
 10
4.9730003132
 20
6.9062889911
 30
0.0
 10
4.9717649802
 20
6.9061619304
 30
0.0
 10
4.9703360902
 20
6.9060344214
 30
0.0
 10
4.9680531754
 20
6.9058544449
 30
0.0
 10
4.9647401721
 20
6.905634508
 30
0.0
 10
4.9602333765
 20
6.9053809504
 30
0.0
 10
4.955046967
 20
6.9051265819
 30
0.0
 10
4.94922347
 20
6.9048715572
 30
0.0
 10
4.9428106321
 20
6.9046161319
 30
0.0
 10
4.9358610669
 20
6.9043603959
 30
0.0
 10
4.9256904764
 20
6.9040100793
 30
0.0
 10
4.912094797
 20
6.9035792098
 30
0.0
 10
4.8950396139
 20
6.903073229
 30
0.0
 10
4.8833492573
 20
6.9027374632
 30
0.0
 10
4.8774068323
 20
6.9025667663
 30
0.0
  0
SPLINE
  5
2EF
100
AcDbEntity
  8
0
100
AcDbSpline
 62
7
  6
CONTINUOUS
 70
0
 71
3
 72
30
 73
26
 74
0
 42
0.0000001
 43
0.0000001
 44
0.0000000001
 40
0.0
 40
0.0
 40
0.0
 40
0.0
 40
0.189019713
 40
0.2813960815
 40
0.3712329766
 40
0.4577203999
 40
0.5400780907
 40
0.6175633647
 40
0.6894778019
 40
0.7551736169
 40
0.8140596792
 40
0.8656071754
 40
0.888482075
 40
0.909355244
 40
0.9281803433
 40
0.9449163735
 40
0.9595277016
 40
0.9719841535
 40
0.9822630309
 40
0.9865810461
 40
0.9903505075
 40
0.9935720625
 40
0.9962482741
 40
0.9983859062
 40
1.0
 40
1.0
 40
1.0
 40
1.0
 10
4.8774068323
 20
6.9025667663
 30
0.0
 10
4.8711763783
 20
6.9023877956
 30
0.0
 10
4.8619010186
 20
6.9021214202
 30
0.0
 10
4.8496647443
 20
6.9017602749
 30
0.0
 10
4.8408082729
 20
6.9014915523
 30
0.0
 10
4.8322823261
 20
6.9012229381
 30
0.0
 10
4.8241638861
 20
6.9009544706
 30
0.0
 10
4.8165262671
 20
6.90068621
 30
0.0
 10
4.8094384332
 20
6.9004182298
 30
0.0
 10
4.8029643719
 20
6.9001506738
 30
0.0
 10
4.7971625315
 20
6.8998836537
 30
0.0
 10
4.7927725815
 20
6.8996537208
 30
0.0
 10
4.789635699
 20
6.8994670067
 30
0.0
 10
4.7875766762
 20
6.8993327348
 30
0.0
 10
4.785720543
 20
6.8991986475
 30
0.0
 10
4.7840714784
 20
6.89906479
 30
0.0
 10
4.7826331558
 20
6.8989313207
 30
0.0
 10
4.7814087847
 20
6.8987983026
 30
0.0
 10
4.7805240832
 20
6.8986825569
 30
0.0
 10
4.7799258901
 20
6.8985876415
 30
0.0
 10
4.7795589582
 20
6.8985208052
 30
0.0
 10
4.7792471646
 20
6.8984542011
 30
0.0
 10
4.778990445
 20
6.8983879365
 30
0.0
 10
4.7787888791
 20
6.8983221449
 30
0.0
 10
4.7786751
 20
6.8982721325
 30
0.0
 10
4.7786290186
 20
6.8982454966
 30
0.0
  0
LINE
  5
2F0
100
AcDbEntity
  8
0
100
AcDbLine
 62
7
  6
CONTINUOUS
 10
4.7785068477
 20
7.0045876164
 11
4.7789035227
 21
7.0048421484
  0
LINE
  5
2F1
100
AcDbEntity
  8
0
100
AcDbLine
 62
7
  6
CONTINUOUS
 10
4.7789035227
 20
7.0048421484
 11
4.7791775191
 21
7.0049186567
  0
SPLINE
  5
2F2
100
AcDbEntity
  8
0
100
AcDbSpline
 62
7
  6
CONTINUOUS
 70
0
 71
3
 72
24
 73
20
 74
0
 42
0.0000001
 43
0.0000001
 44
0.0000000001
 40
0.0
 40
0.0
 40
0.0
 40
0.0
 40
0.0029874478
 40
0.0064783192
 40
0.0149726821
 40
0.0254796002
 40
0.0379838066
 40
0.0524634661
 40
0.0688912443
 40
0.107457322
 40
0.1533727342
 40
0.2062634733
 40
0.2656961814
 40
0.3311825175
 40
0.4021835702
 40
0.4781144993
 40
0.6422271386
 40
0.818119447
 40
1.0
 40
1.0
 40
1.0
 40
1.0
 10
4.7791775191
 20
7.0049186567
 30
0.0
 10
4.7792725935
 20
7.0049421468
 30
0.0
 10
4.7794799784
 20
7.0049881765
 30
0.0
 10
4.7799622912
 20
7.0050794656
 30
0.0
 10
4.7806914677
 20
7.0051901815
 30
0.0
 10
4.7817165044
 20
7.0053170401
 30
0.0
 10
4.7829389562
 20
7.0054444234
 30
0.0
 10
4.7843563336
 20
7.0055722787
 30
0.0
 10
4.7866266459
 20
7.0057528867
 30
0.0
 10
4.7899273598
 20
7.005973493
 30
0.0
 10
4.794423497
 20
7.0062277435
 30
0.0
 10
4.7996045781
 20
7.0064828244
 30
0.0
 10
4.8054278689
 20
7.0067385782
 30
0.0
 10
4.811845342
 20
7.0069947409
 30
0.0
 10
4.8188040333
 20
7.0072512205
 30
0.0
 10
4.8289945178
 20
7.007602622
 30
0.0
 10
4.8426227247
 20
7.0080347731
 30
0.0
 10
4.8597234327
 20
7.0085422004
 30
0.0
 10
4.8714469587
 20
7.0088789183
 30
0.0
 10
4.8774068323
 20
7.0090501165
 30
0.0
  0
SPLINE
  5
2F3
100
AcDbEntity
  8
0
100
AcDbSpline
 62
7
  6
CONTINUOUS
 70
0
 71
3
 72
30
 73
26
 74
0
 42
0.0000001
 43
0.0000001
 44
0.0000000001
 40
0.0
 40
0.0
 40
0.0
 40
0.0
 40
0.1890197128
 40
0.2813960811
 40
0.3712329763
 40
0.4577203996
 40
0.5400780904
 40
0.6175633645
 40
0.6894778017
 40
0.7551736168
 40
0.8140596793
 40
0.8656071755
 40
0.8884820751
 40
0.909355244
 40
0.9281803433
 40
0.9449163735
 40
0.9595277016
 40
0.9719841535
 40
0.9822630309
 40
0.986581046
 40
0.9903505075
 40
0.9935720625
 40
0.9962482741
 40
0.9983859062
 40
1.0
 40
1.0
 40
1.0
 40
1.0
 10
4.8774068323
 20
6.9204167663
 30
0.0
 10
4.8711763783
 20
6.9202377956
 30
0.0
 10
4.8619010186
 20
6.9199714202
 30
0.0
 10
4.8496647443
 20
6.9196102749
 30
0.0
 10
4.840808273
 20
6.9193415523
 30
0.0
 10
4.8322823261
 20
6.9190729381
 30
0.0
 10
4.8241638861
 20
6.9188044706
 30
0.0
 10
4.8165262671
 20
6.91853621
 30
0.0
 10
4.8094384333
 20
6.9182682298
 30
0.0
 10
4.802964372
 20
6.9180006738
 30
0.0
 10
4.7971625315
 20
6.9177336537
 30
0.0
 10
4.7927725815
 20
6.9175037208
 30
0.0
 10
4.789635699
 20
6.9173170067
 30
0.0
 10
4.7875766762
 20
6.9171827348
 30
0.0
 10
4.785720543
 20
6.9170486475
 30
0.0
 10
4.7840714784
 20
6.91691479
 30
0.0
 10
4.7826331558
 20
6.9167813207
 30
0.0
 10
4.7814087847
 20
6.9166483026
 30
0.0
 10
4.7805240832
 20
6.9165325569
 30
0.0
 10
4.7799258901
 20
6.9164376415
 30
0.0
 10
4.7795589582
 20
6.9163708052
 30
0.0
 10
4.7792471646
 20
6.9163042011
 30
0.0
 10
4.778990445
 20
6.9162379365
 30
0.0
 10
4.7787888791
 20
6.9161721449
 30
0.0
 10
4.7786751
 20
6.9161221325
 30
0.0
 10
4.7786290186
 20
6.9160954966
 30
0.0
  0
SPLINE
  5
2F4
100
AcDbEntity
  8
0
100
AcDbSpline
 62
7
  6
CONTINUOUS
 70
0
 71
3
 72
30
 73
26
 74
0
 42
0.0000001
 43
0.0000001
 44
0.0000000001
 40
0.0
 40
0.0
 40
0.0
 40
0.0
 40
0.1890197268
 40
0.2813960806
 40
0.3712329937
 40
0.4577204093
 40
0.5400780809
 40
0.6175633559
 40
0.6894778176
 40
0.7551736626
 40
0.8140597224
 40
0.8656071537
 40
0.888482134
 40
0.9093552008
 40
0.9281804074
 40
0.9449163747
 40
0.9595276849
 40
0.9719842189
 40
0.9822629702
 40
0.9865810765
 40
0.9903505894
 40
0.9935720097
 40
0.9962482592
 40
0.9983859906
 40
1.0
 40
1.0
 40
1.0
 40
1.0
 10
4.8774068323
 20
6.9382667663
 30
0.0
 10
4.8711763779
 20
6.9380877956
 30
0.0
 10
4.8619010183
 20
6.9378214202
 30
0.0
 10
4.8496647435
 20
6.9374602749
 30
0.0
 10
4.8408082724
 20
6.9371915524
 30
0.0
 10
4.8322823259
 20
6.9369229381
 30
0.0
 10
4.8241638869
 20
6.9366544706
 30
0.0
 10
4.8165262677
 20
6.93638621
 30
0.0
 10
4.8094384321
 20
6.9361182298
 30
0.0
 10
4.8029643691
 20
6.9358506737
 30
0.0
 10
4.7971625299
 20
6.9355836543
 30
0.0
 10
4.7927725796
 20
6.9353537198
 30
0.0
 10
4.7896356999
 20
6.9351670076
 30
0.0
 10
4.7875766744
 20
6.9350327337
 30
0.0
 10
4.785720543
 20
6.9348986483
 30
0.0
 10
4.7840714776
 20
6.9347647899
 30
0.0
 10
4.7826331551
 20
6.9346313196
 30
0.0
 10
4.7814087857
 20
6.9344983048
 30
0.0
 10
4.7805240832
 20
6.9343825548
 30
0.0
 10
4.7799258893
 20
6.9342876414
 30
0.0
 10
4.7795589566
 20
6.9342208078
 30
0.0
 10
4.7792471654
 20
6.9341541991
 30
0.0
 10
4.7789904458
 20
6.9340879347
 30
0.0
 10
4.7787888765
 20
6.9340221483
 30
0.0
 10
4.7786750971
 20
6.933972134
 30
0.0
 10
4.7786290198
 20
6.9339454966
 30
0.0
  0
LINE
  5
2F5
100
AcDbEntity
  8
0
100
AcDbLine
 62
7
  6
CONTINUOUS
 10
4.9763068214
 20
6.9605792663
 11
4.9758703955
 21
6.9603122784
  0
LINE
  5
2F6
100
AcDbEntity
  8
0
100
AcDbLine
 62
7
  6
CONTINUOUS
 10
4.9758703955
 20
6.9603122784
 11
4.9755857373
 21
6.9602359964
  0
SPLINE
  5
2F7
100
AcDbEntity
  8
0
100
AcDbSpline
 62
7
  6
CONTINUOUS
 70
0
 71
3
 72
24
 73
20
 74
0
 42
0.0000001
 43
0.0000001
 44
0.0000000001
 40
0.0
 40
0.0
 40
0.0
 40
0.0
 40
0.0030744266
 40
0.00664987
 40
0.015305198
 40
0.0259612504
 40
0.0386022035
 40
0.0532059078
 40
0.0697448464
 40
0.1084943219
 40
0.1545414205
 40
0.2075131695
 40
0.2669780586
 40
0.3324503413
 40
0.4033943895
 40
0.479229276
 40
0.643051127
 40
0.8185562398
 40
1.0
 40
1.0
 40
1.0
 40
1.0
 10
4.9755857373
 20
6.9602359964
 30
0.0
 10
4.9754877499
 20
6.960212645
 30
0.0
 10
4.9752746858
 20
6.9601668301
 30
0.0
 10
4.9747814831
 20
6.9600759362
 30
0.0
 10
4.9740395898
 20
6.9599655496
 30
0.0
 10
4.9730003159
 20
6.9598389914
 30
0.0
 10
4.9717649833
 20
6.9597119307
 30
0.0
 10
4.9703360935
 20
6.9595844217
 30
0.0
 10
4.9680531792
 20
6.9594044451
 30
0.0
 10
4.9647401762
 20
6.9591845082
 30
0.0
 10
4.9602333809
 20
6.9589309506
 30
0.0
 10
4.9550469715
 20
6.9586765821
 30
0.0
 10
4.9492234745
 20
6.9584215573
 30
0.0
 10
4.9428106365
 20
6.958166132
 30
0.0
 10
4.9358610711
 20
6.9579103961
 30
0.0
 10
4.92569048
 20
6.9575600794
 30
0.0
 10
4.9120947997
 20
6.9571292099
 30
0.0
 10
4.8950396153
 20
6.9566232291
 30
0.0
 10
4.8833492578
 20
6.9562874632
 30
0.0
 10
4.8774068323
 20
6.9561167663
 30
0.0
  0
SPLINE
  5
2F8
100
AcDbEntity
  8
0
100
AcDbSpline
 62
7
  6
CONTINUOUS
 70
0
 71
3
 72
30
 73
26
 74
0
 42
0.0000001
 43
0.0000001
 44
0.0000000001
 40
0.0
 40
0.0
 40
0.0
 40
0.0
 40
0.1890197128
 40
0.2813960812
 40
0.3712329764
 40
0.4577203997
 40
0.5400780905
 40
0.6175633647
 40
0.6894778019
 40
0.7551736169
 40
0.8140596792
 40
0.8656071755
 40
0.8884820751
 40
0.909355244
 40
0.9281803433
 40
0.9449163735
 40
0.9595277016
 40
0.9719841535
 40
0.9822630309
 40
0.986581046
 40
0.9903505075
 40
0.9935720625
 40
0.9962482741
 40
0.9983859062
 40
1.0
 40
1.0
 40
1.0
 40
1.0
 10
4.8774068323
 20
6.9561167663
 30
0.0
 10
4.8711763783
 20
6.9559377956
 30
0.0
 10
4.8619010186
 20
6.9556714202
 30
0.0
 10
4.8496647443
 20
6.9553102749
 30
0.0
 10
4.840808273
 20
6.9550415523
 30
0.0
 10
4.8322823261
 20
6.9547729381
 30
0.0
 10
4.8241638861
 20
6.9545044706
 30
0.0
 10
4.8165262671
 20
6.95423621
 30
0.0
 10
4.8094384332
 20
6.9539682298
 30
0.0
 10
4.8029643719
 20
6.9537006738
 30
0.0
 10
4.7971625315
 20
6.9534336537
 30
0.0
 10
4.7927725815
 20
6.9532037208
 30
0.0
 10
4.789635699
 20
6.9530170067
 30
0.0
 10
4.7875766762
 20
6.9528827348
 30
0.0
 10
4.785720543
 20
6.9527486475
 30
0.0
 10
4.7840714784
 20
6.95261479
 30
0.0
 10
4.7826331558
 20
6.9524813207
 30
0.0
 10
4.7814087847
 20
6.9523483026
 30
0.0
 10
4.7805240832
 20
6.9522325569
 30
0.0
 10
4.7799258901
 20
6.9521376415
 30
0.0
 10
4.7795589582
 20
6.9520708052
 30
0.0
 10
4.7792471646
 20
6.9520042011
 30
0.0
 10
4.778990445
 20
6.9519379365
 30
0.0
 10
4.7787888791
 20
6.9518721449
 30
0.0
 10
4.7786751
 20
6.9518221325
 30
0.0
 10
4.7786290186
 20
6.9517954966
 30
0.0
  0
SPLINE
  5
2F9
100
AcDbEntity
  8
0
100
AcDbSpline
 62
7
  6
CONTINUOUS
 70
0
 71
3
 72
30
 73
26
 74
0
 42
0.0000001
 43
0.0000001
 44
0.0000000001
 40
0.0
 40
0.0
 40
0.0
 40
0.0
 40
0.1890197128
 40
0.2813960811
 40
0.3712329763
 40
0.4577203996
 40
0.5400780904
 40
0.6175633645
 40
0.6894778018
 40
0.7551736168
 40
0.8140596792
 40
0.8656071754
 40
0.888482075
 40
0.909355244
 40
0.9281803433
 40
0.9449163735
 40
0.9595277016
 40
0.9719841535
 40
0.9822630309
 40
0.986581046
 40
0.9903505075
 40
0.9935720625
 40
0.9962482741
 40
0.9983859062
 40
1.0
 40
1.0
 40
1.0
 40
1.0
 10
4.8774068323
 20
6.9739667663
 30
0.0
 10
4.8711763783
 20
6.9737877956
 30
0.0
 10
4.8619010186
 20
6.9735214202
 30
0.0
 10
4.8496647443
 20
6.9731602749
 30
0.0
 10
4.840808273
 20
6.9728915523
 30
0.0
 10
4.8322823261
 20
6.9726229381
 30
0.0
 10
4.8241638861
 20
6.9723544706
 30
0.0
 10
4.8165262671
 20
6.97208621
 30
0.0
 10
4.8094384333
 20
6.9718182298
 30
0.0
 10
4.802964372
 20
6.9715506738
 30
0.0
 10
4.7971625315
 20
6.9712836537
 30
0.0
 10
4.7927725815
 20
6.9710537208
 30
0.0
 10
4.789635699
 20
6.9708670067
 30
0.0
 10
4.7875766762
 20
6.9707327348
 30
0.0
 10
4.785720543
 20
6.9705986475
 30
0.0
 10
4.7840714784
 20
6.97046479
 30
0.0
 10
4.7826331558
 20
6.9703313207
 30
0.0
 10
4.7814087847
 20
6.9701983026
 30
0.0
 10
4.7805240832
 20
6.9700825569
 30
0.0
 10
4.7799258901
 20
6.9699876415
 30
0.0
 10
4.7795589582
 20
6.9699208052
 30
0.0
 10
4.7792471646
 20
6.9698542011
 30
0.0
 10
4.778990445
 20
6.9697879365
 30
0.0
 10
4.7787888791
 20
6.9697221449
 30
0.0
 10
4.7786751
 20
6.9696721325
 30
0.0
 10
4.7786290186
 20
6.9696454966
 30
0.0
  0
SPLINE
  5
2FA
100
AcDbEntity
  8
0
100
AcDbSpline
 62
7
  6
CONTINUOUS
 70
0
 71
3
 72
30
 73
26
 74
0
 42
0.0000001
 43
0.0000001
 44
0.0000000001
 40
0.0
 40
0.0
 40
0.0
 40
0.0
 40
0.1890197168
 40
0.2813960909
 40
0.3712329855
 40
0.4577204122
 40
0.5400781096
 40
0.6175633876
 40
0.6894778229
 40
0.755173632
 40
0.8140596898
 40
0.8656071919
 40
0.8884820898
 40
0.9093552741
 40
0.9281803473
 40
0.9449164005
 40
0.9595277059
 40
0.9719841666
 40
0.9822630537
 40
0.9865810629
 40
0.9903504989
 40
0.9935720657
 40
0.9962483044
 40
0.9983859196
 40
1.0
 40
1.0
 40
1.0
 40
1.0
 10
4.8774068323
 20
6.9918167663
 30
0.0
 10
4.8711763782
 20
6.9916377956
 30
0.0
 10
4.8619010182
 20
6.9913714202
 30
0.0
 10
4.8496647436
 20
6.9910102749
 30
0.0
 10
4.840808272
 20
6.9907415523
 30
0.0
 10
4.8322823249
 20
6.990472938
 30
0.0
 10
4.8241638845
 20
6.9902044706
 30
0.0
 10
4.8165262652
 20
6.98993621
 30
0.0
 10
4.8094384315
 20
6.9896682297
 30
0.0
 10
4.8029643706
 20
6.9894006737
 30
0.0
 10
4.7971625303
 20
6.9891336536
 30
0.0
 10
4.7927725803
 20
6.9889037208
 30
0.0
 10
4.7896356972
 20
6.9887170065
 30
0.0
 10
4.7875766748
 20
6.9885827349
 30
0.0
 10
4.7857205413
 20
6.988448647
 30
0.0
 10
4.7840714775
 20
6.9883147902
 30
0.0
 10
4.7826331547
 20
6.9881813204
 30
0.0
 10
4.7814087837
 20
6.9880483025
 30
0.0
 10
4.7805240818
 20
6.9879325568
 30
0.0
 10
4.7799258894
 20
6.9878376416
 30
0.0
 10
4.7795589583
 20
6.9877708047
 30
0.0
 10
4.7792471642
 20
6.9877042006
 30
0.0
 10
4.7789904435
 20
6.9876379371
 30
0.0
 10
4.7787888779
 20
6.9875721451
 30
0.0
 10
4.7786751001
 20
6.9875221323
 30
0.0
 10
4.7786290191
 20
6.9874954966
 30
0.0
  0
ENDSEC
  0
SECTION
  2
OBJECTS
  0
DICTIONARY
  5
C
100
AcDbDictionary
280
0
281
1
  3
ACAD_GROUP
350
D
  3
ACAD_MLINESTYLE
350
17
  3
ACAD_LAYOUT
350
1A
  3
ACAD_PLOTSETTINGS
350
19
  3
ACAD_PLOTSTYLENAME
350
E
  0
DICTIONARY
  5
D
102
{ACAD_REACTORS
330
C
102
}
100
AcDbDictionary
280
0
281
1
  0
ACDBDICTIONARYWDFLT
  5
E
102
{ACAD_REACTORS
330
C
102
}
100
AcDbDictionary
281
1
  3
Normal
350
F
100
AcDbDictionaryWithDefault
340
F
  0
DICTIONARY
  5
17
102
{ACAD_REACTORS
330
C
102
}
100
AcDbDictionary
280
0
281
1
  3
Standard
350
18
  0
DICTIONARY
  5
19
102
{ACAD_REACTORS
330
C
102
}
100
AcDbDictionary
281
1
  0
DICTIONARY
  5
1A
102
{ACAD_REACTORS
330
C
102
}
100
AcDbDictionary
281
1
  3
Model
350
2FB
  3
Layout1
350
2FC
  0
ACDBPLACEHOLDER
  5
F
102
{ACAD_REACTORS
330
E
102
}
  0
MLINESTYLE
  5
18
102
{ACAD_REACTORS
330
17
102
}
100
AcDbMlineStyle
  2
STANDARD
 70
0
  3

 62
256
 51
90.0
 52
90.0
 71
2
 49
0.5
 62
256
  6
BYLAYER
 49
-0.5
 62
256
  6
BYLAYER
  0
LAYOUT
  5
2FB
102
{ACAD_REACTORS
330
1A
102
}
100
AcDbPlotSettings
  1

  2
none_device
  4
ANSI_A_(11.00_x_8.50_Inches)
  6

 40
0.0
 41
0.0
 42
0.0
 43
0.0
 44
279.4
 45
215.9
 46
0.0
 47
0.0
 48
0.0
 49
0.0
140
0.0
141
0.0
142
1.0
143
1.0
 70
1024
 72
0
 73
0
 74
0
  7

 75
0
147
1.0
148
0.0
149
0.0
100
AcDbLayout
  1
Model
 70
0
 71
0
 10
0.0
 20
0.0
 11
11.0
 21
8.5
 12
0.0
 22
0.0
 32
0.0
 14
0.0
 24
0.0
 34
0.0
 15
0.0
 25
0.0
 35
0.0
146
0.0
 13
0.0
 23
0.0
 33
0.0
 16
1.0
 26
0.0
 36
0.0
 17
0.0
 27
1.0
 37
0.0
 76
0
330
202
345
0
346
0
  0
LAYOUT
  5
2FC
102
{ACAD_REACTORS
330
1A
102
}
100
AcDbPlotSettings
  1

  2
none_device
  4
ANSI_A_(11.00_x_8.50_Inches)
  6

 40
0.0
 41
0.0
 42
0.0
 43
0.0
 44
279.4
 45
215.9
 46
0.0
 47
0.0
 48
0.0
 49
0.0
140
0.0
141
0.0
142
1.0
143
1.0
 70
0
 72
0
 73
0
 74
0
  7

 75
0
147
1.0
148
0.0
149
0.0
100
AcDbLayout
  1
Layout1
 70
0
 71
1
 10
0.0
 20
0.0
 11
11.0
 21
8.5
 12
0.0
 22
0.0
 32
0.0
 14
0.0
 24
0.0
 34
0.0
 15
0.0
 25
0.0
 35
0.0
146
0.0
 13
0.0
 23
0.0
 33
0.0
 16
1.0
 26
0.0
 36
0.0
 17
0.0
 27
1.0
 37
0.0
 76
0
330
203
345
0
346
0
  0
ENDSEC
  0
EOF
