999
DXF file: 201-1_top.dxf
999
Pro/ENGINEER 2018400 by Parametric Technology Corporation
  0
SECTION
  2
HEADER
  9
$ACADVER
  1
AC1027
  9
$DWGCODEPAGE
  3
ANSI_1252
  9
$EXTMAX
 10
11.0
 20
8.5
 30
0.0
  9
$EXTMIN
 10
0.0
 20
0.0
 30
0.0
  9
$LIMMIN
 10
0.0
 20
0.0
  9
$LIMMAX
 10
11.0
 20
8.5
  9
$VIEWCTR
 10
5.5
 20
4.25
  9
$VIEWSIZE
 40
8.5
  9
$CLAYER
  8
0
  9
$LTSCALE
 40
0.605
  9
$CELTYPE
  6
BYLAYER
  9
$DIMSCALE
 40
1.0
  9
$DIMASZ
 40
0.1
  9
$DIMEXO
 40
0.0625
  9
$DIMDLI
 40
0.418
  9
$DIMEXE
 40
0.125
  9
$DIMCEN
 40
0.099
  9
$DIMLFAC
 40
1.0
  9
$DIMBLK
  1
_FILLED
  9
$DIMALT
 70
1
  9
$DIMALTD
 70
1
  9
$DIMALTTD
 70
2
  9
$DIMALTF
 40
25.4
  9
$DIMTXT
 40
0.08
  9
$DIMTOL
 70
1
  9
$DIMLIM
 70
0
  9
$DIMTFAC
 40
1.0
  9
$DIMTP
 40
0.01
  9
$DIMTM
 40
0.01
  9
$DIMGAP
 40
0.09
  9
$DIMDSEP
 70
46
  9
$AUNITS
 70
0
  9
$PDMODE
 70
3
  9
$PDSIZE
 40
0.3125
  9
$HANDSEED
  5
247
  9
$TILEMODE
 70
1
  9
$MEASUREMENT
 70
0
  9
$INSUNITS
 70
1
  0
ENDSEC
  0
SECTION
  2
CLASSES
  0
CLASS
  1
ACDBDICTIONARYWDFLT
  2
AcDbDictionaryWithDefault
  3
AutoCAD 2000
 90
0
 91
1
280
0
281
0
  0
CLASS
  1
ACDBPLACEHOLDER
  2
AcDbPlaceHolder
  3
AutoCAD 2000
 90
0
 91
1
280
0
281
0
  0
CLASS
  1
LAYOUT
  2
AcDbLayout
  3
AutoCAD 2000
 90
0
 91
0
280
0
281
0
  0
ENDSEC
  0
SECTION
  2
TABLES
  0
TABLE
  2
VPORT
  5
8
100
AcDbSymbolTable
 70
2
  0
VPORT
  5
1F4
100
AcDbSymbolTableRecord
100
AcDbViewportTableRecord
  2
*ACTIVE
 70
0
 10
0.0
 20
0.0
 11
1.0
 21
1.0
 12
5.5
 22
4.25
 13
0.0
 23
0.0
 14
1.0
 24
1.0
 15
0.0
 25
0.0
 16
0.0
 26
0.0
 36
1.0
 17
0.0
 27
0.0
 37
0.0
 40
8.5
 41
1.2941176471
 42
50.0
 43
0.0
 44
0.0
 50
0.0
 51
0.0
 71
0
 72
100
 73
1
 74
1
 75
0
 76
0
 77
0
 78
0
  0
ENDTAB
  0
TABLE
  2
LTYPE
  5
5
100
AcDbSymbolTable
 70
6
  0
LTYPE
  5
14
100
AcDbSymbolTableRecord
100
AcDbLinetypeTableRecord
  2
BYBLOCK
 70
0
  3

 72
65
 73
0
 40
0.0
  0
LTYPE
  5
15
100
AcDbSymbolTableRecord
100
AcDbLinetypeTableRecord
  2
BYLAYER
 70
0
  3

 72
65
 73
0
 40
0.0
  0
LTYPE
  5
16
100
AcDbSymbolTableRecord
100
AcDbLinetypeTableRecord
  2
CONTINUOUS
 70
64
  3
Solid line
 72
65
 73
0
 40
0.0
  0
LTYPE
  5
1F5
100
AcDbSymbolTableRecord
100
AcDbLinetypeTableRecord
  2
CENTER
 70
64
  3
____ _ ____ _ ____ _ ____ _ ____ _ ____ _ ____
 72
65
 73
4
 40
0.6
 49
0.375
 74
0
 49
-0.075
 74
0
 49
0.075
 74
0
 49
-0.075
 74
0
  0
LTYPE
  5
1F6
100
AcDbSymbolTableRecord
100
AcDbLinetypeTableRecord
  2
HIDDEN
 70
64
  3
- - - - - - - - - - - - - - - - - - - -
 72
65
 73
2
 40
0.2
 49
0.1
 74
0
 49
-0.1
 74
0
  0
LTYPE
  5
1F7
100
AcDbSymbolTableRecord
100
AcDbLinetypeTableRecord
  2
PHANTOM
 70
64
  3
_____ _ _ _____ _ _ _____ _ _ _____
 72
65
 73
6
 40
0.8
 49
0.45
 74
0
 49
-0.05
 74
0
 49
0.1
 74
0
 49
-0.05
 74
0
 49
0.1
 74
0
 49
-0.05
 74
0
  0
LTYPE
  5
1F8
100
AcDbSymbolTableRecord
100
AcDbLinetypeTableRecord
  2
DOT
 70
64
  3
. . . . . . . . . . . . . . . . . . . .
 72
65
 73
2
 40
0.2
 49
0.1
 74
0
 49
-0.1
 74
0
  0
LTYPE
  5
1F9
100
AcDbSymbolTableRecord
100
AcDbLinetypeTableRecord
  2
DASHED
 70
64
  3
- - - - - - - - - - - - - - - - - - - -
 72
65
 73
2
 40
0.2
 49
0.1
 74
0
 49
-0.1
 74
0
  0
ENDTAB
  0
TABLE
  2
LAYER
  5
2
100
AcDbSymbolTable
 70
36
  0
LAYER
  5
10
100
AcDbSymbolTableRecord
100
AcDbLayerTableRecord
  2
0
 70
0
 62
7
  6
CONTINUOUS
370
-3
390
F
  0
LAYER
  5
1FA
100
AcDbSymbolTableRecord
100
AcDbLayerTableRecord
  2
DEFAULT_1
 70
0
 62
7
  6
CENTER
370
-3
390
F
  0
LAYER
  5
1FB
100
AcDbSymbolTableRecord
100
AcDbLayerTableRecord
  2
DEFAULT_2
 70
0
 62
8
  6
HIDDEN
370
-3
390
F
  0
LAYER
  5
1FC
100
AcDbSymbolTableRecord
100
AcDbLayerTableRecord
  2
DEFAULT_3
 70
0
 62
7
  6
PHANTOM
370
-3
390
F
  0
LAYER
  5
1FD
100
AcDbSymbolTableRecord
100
AcDbLayerTableRecord
  2
DEFAULT_COORDINATE_SYSTEM
 70
0
 62
7
  6
CONTINUOUS
370
-3
390
F
  0
LAYER
  5
1FE
100
AcDbSymbolTableRecord
100
AcDbLayerTableRecord
  2
DEFAULT_DATUM_AXES
 70
0
 62
7
  6
CONTINUOUS
370
-3
390
F
  0
LAYER
  5
1FF
100
AcDbSymbolTableRecord
100
AcDbLayerTableRecord
  2
DEFAULT_DATUM_PLANES
 70
0
 62
7
  6
CONTINUOUS
370
-3
390
F
  0
ENDTAB
  0
TABLE
  2
STYLE
  5
3
100
AcDbSymbolTable
 70
1
  0
STYLE
  5
11
100
AcDbSymbolTableRecord
100
AcDbTextStyleTableRecord
  2
STANDARD
 70
0
 40
0.0
 41
0.8
 50
0.0
 71
0
 42
0.2
  3
txt
  4

  0
STYLE
  5
200
100
AcDbSymbolTableRecord
100
AcDbTextStyleTableRecord
  2
TEXTSTYLE_1
 70
0
 40
0.0
 41
0.8
 50
0.0
 71
0
 42
0.2
  3
gdt
  4

  0
ENDTAB
  0
TABLE
  2
VIEW
  5
6
100
AcDbSymbolTable
 70
0
  0
ENDTAB
  0
TABLE
  2
UCS
  5
7
100
AcDbSymbolTable
 70
0
  0
ENDTAB
  0
TABLE
  2
APPID
  5
9
100
AcDbSymbolTable
 70
1
  0
APPID
  5
201
100
AcDbSymbolTableRecord
100
AcDbRegAppTableRecord
  2
ACAD
 70
0
  0
ENDTAB
  0
TABLE
  2
BLOCK_RECORD
  5
1
100
AcDbSymbolTable
 70
0
  0
BLOCK_RECORD
  5
202
100
AcDbSymbolTableRecord
100
AcDbBlockTableRecord
  2
*Model_Space
  0
BLOCK_RECORD
  5
203
100
AcDbSymbolTableRecord
100
AcDbBlockTableRecord
  2
*Paper_Space
  0
BLOCK_RECORD
  5
204
100
AcDbSymbolTableRecord
100
AcDbBlockTableRecord
  2
_FILLED
  0
ENDTAB
  0
TABLE
  2
DIMSTYLE
  5
A
100
AcDbSymbolTable
 70
1
100
AcDbDimStyleTable
 71
0
  0
DIMSTYLE
105
205
100
AcDbSymbolTableRecord
100
AcDbDimStyleTableRecord
  2
STANDARD
 70
0
  3

  4

 40
1.0
 41
0.1
 42
0.0625
 43
0.38
 44
0.125
 45
0.0
 46
0.0
 47
0.01
 48
0.01
140
0.08
141
0.09
142
0.0
143
25.4
144
1.0
145
0.0
146
1.0
147
0.09
 71
1.0
 72
0.0
 73
1
 74
1
 75
0
 76
0
 77
0
 78
4
 79
1
170
1
171
1
172
0
173
0
174
0
175
0
176
0
177
0
178
0
270
2
179
2
271
2
272
2
273
2
274
2
275
0
280
0
281
0
282
0
283
1
284
4
285
0
286
0
287
3
288
0
340
11
278
46
341
204
342
204
343
204
344
204
  0
ENDTAB
  0
ENDSEC
  0
SECTION
  2
BLOCKS
  0
BLOCK
  5
20
100
AcDbEntity
  8
0
100
AcDbBlockBegin
  2
*Model_Space
 70
0
 10
0.0
 20
0.0
 30
0.0
  3
*Model_Space
  1

  0
ENDBLK
  5
21
100
AcDbEntity
  8
0
100
AcDbBlockEnd
  0
BLOCK
  5
1C
100
AcDbEntity
  8
0
100
AcDbBlockBegin
  2
*Paper_Space
 70
0
 10
0.0
 20
0.0
 30
0.0
  3
*Paper_Space
  1

  0
ENDBLK
  5
1D
100
AcDbEntity
  8
0
100
AcDbBlockEnd
  0
BLOCK
  5
206
100
AcDbEntity
  8
0
100
AcDbBlockBegin
  2
_FILLED
 70
64
 10
0.0
 20
0.0
  3
_FILLED
  1

  0
SOLID
  5
207
100
AcDbEntity
  8
0
  6
BYBLOCK
 62
0
100
AcDbTrace
 10
0.0
 20
0.0
 11
-1.0
 21
0.2
 12
-1.0
 22
-0.2
 13
-1.0
 23
-0.2
  0
ENDBLK
  5
208
100
AcDbEntity
  8
0
  6
BYBLOCK
 62
0
100
AcDbBlockEnd
  0
ENDSEC
  0
SECTION
  2
ENTITIES
  0
MTEXT
  5
209
100
AcDbEntity
  8
0
100
AcDbMText
 62
2
  6
CONTINUOUS
  7
STANDARD
 71
3
 72
1
 10
5.4423524845
 20
1.1537905078
 30
0.0
 11
1.0
 21
0.0
 31
0.0
 73
2
 44
0.9
  1
SCALE  .500
 40
0.08
 41
0.704
  0
LINE
  5
20A
100
AcDbEntity
  8
0
100
AcDbLine
 62
7
  6
CONTINUOUS
 10
0.0
 20
0.0
 11
0.0
 21
8.5
  0
LINE
  5
20B
100
AcDbEntity
  8
0
100
AcDbLine
 62
7
  6
CONTINUOUS
 10
0.0
 20
0.0
 11
11.0
 21
0.0
  0
LINE
  5
20C
100
AcDbEntity
  8
0
100
AcDbLine
 62
7
  6
CONTINUOUS
 10
0.0
 20
8.5
 11
11.0
 21
8.5
  0
LINE
  5
20D
100
AcDbEntity
  8
0
100
AcDbLine
 62
7
  6
CONTINUOUS
 10
11.0
 20
0.0
 11
11.0
 21
8.5
  0
LINE
  5
20E
100
AcDbEntity
  8
0
100
AcDbLine
 62
7
  6
CONTINUOUS
 10
4.7155481739
 20
3.7336784363
 11
5.2467965466
 21
3.7336784363
  0
LINE
  5
20F
100
AcDbEntity
  8
0
100
AcDbLine
 62
7
  6
CONTINUOUS
 10
4.4536723602
 20
6.9361784363
 11
4.4536723602
 21
6.8961784363
  0
LINE
  5
210
100
AcDbEntity
  8
0
100
AcDbLine
 62
7
  6
CONTINUOUS
 10
4.6654223602
 20
6.7286784363
 11
4.6654223602
 21
6.5261784363
  0
LINE
  5
211
100
AcDbEntity
  8
0
100
AcDbLine
 62
7
  6
CONTINUOUS
 10
4.7156359825
 20
4.9743509604
 11
4.7155481739
 21
3.2472924326
  0
LINE
  5
212
100
AcDbEntity
  8
0
100
AcDbLine
 62
7
  6
CONTINUOUS
 10
4.716173172
 20
7.0436784363
 11
4.7161703429
 21
7.0361784363
  0
LINE
  5
213
100
AcDbEntity
  8
0
100
AcDbLine
 62
7
  6
CONTINUOUS
 10
4.7159930193
 20
6.5261784363
 11
4.7156359825
 21
4.9743509604
  0
LINE
  5
214
100
AcDbEntity
  8
0
100
AcDbLine
 62
7
  6
CONTINUOUS
 10
5.2461743776
 20
7.0361784363
 11
5.2461715485
 21
7.0436784363
  0
LINE
  5
215
100
AcDbEntity
  8
0
100
AcDbLine
 62
7
  6
CONTINUOUS
 10
5.2465270815
 20
5.9070798356
 11
5.2463517012
 21
6.5261784363
  0
LINE
  5
216
100
AcDbEntity
  8
0
100
AcDbLine
 62
7
  6
CONTINUOUS
 10
5.2467965466
 20
3.7336784363
 11
5.2465270815
 21
5.9070798356
  0
LINE
  5
217
100
AcDbEntity
  8
0
100
AcDbLine
 62
7
  6
CONTINUOUS
 10
5.2467965466
 20
3.2472924326
 11
5.2467965466
 21
3.7336784363
  0
LINE
  5
218
100
AcDbEntity
  8
0
100
AcDbLine
 62
7
  6
CONTINUOUS
 10
5.2969223602
 20
6.7286784363
 11
5.2969223602
 21
6.5261784363
  0
LINE
  5
219
100
AcDbEntity
  8
0
100
AcDbLine
 62
7
  6
CONTINUOUS
 10
5.5086723602
 20
6.9361784363
 11
5.5086723602
 21
6.8961784363
  0
LINE
  5
21A
100
AcDbEntity
  8
0
100
AcDbLine
 62
7
  6
CONTINUOUS
 10
5.2969223602
 20
6.5261784363
 11
4.6654223602
 21
6.5261784363
  0
LINE
  5
21B
100
AcDbEntity
  8
0
100
AcDbLine
 62
7
  6
CONTINUOUS
 10
5.2969223602
 20
6.7286784363
 11
4.6654223602
 21
6.7286784363
  0
LINE
  5
21C
100
AcDbEntity
  8
0
100
AcDbLine
 62
7
  6
CONTINUOUS
 10
5.4411723602
 20
6.8011784363
 11
4.5211723602
 21
6.8011784363
  0
LINE
  5
21D
100
AcDbEntity
  8
0
100
AcDbLine
 62
7
  6
CONTINUOUS
 10
5.5086723602
 20
6.8961784363
 11
4.4536723602
 21
6.8961784363
  0
LINE
  5
21E
100
AcDbEntity
  8
0
100
AcDbLine
 62
7
  6
CONTINUOUS
 10
5.5086723602
 20
6.9361784363
 11
4.4536723602
 21
6.9361784363
  0
LINE
  5
21F
100
AcDbEntity
  8
0
100
AcDbLine
 62
7
  6
CONTINUOUS
 10
5.6061723602
 20
7.0361784363
 11
4.3561723602
 21
7.0361784363
  0
LINE
  5
220
100
AcDbEntity
  8
0
100
AcDbLine
 62
7
  6
CONTINUOUS
 10
4.7161738904
 20
7.0436784363
 11
5.2461708301
 21
7.0436784363
  0
ARC
  5
221
100
AcDbEntity
  8
0
100
AcDbCircle
 62
7
  6
CONTINUOUS
 10
4.9825736646
 20
7.2918923366
 40
0.645
100
AcDbArc
 50
299.1673613888
 51
310.4655124267
  0
ARC
  5
222
100
AcDbEntity
  8
0
100
AcDbCircle
 62
7
  6
CONTINUOUS
 10
4.9797710559
 20
7.2918923366
 40
0.645
100
AcDbArc
 50
229.5344875733
 51
240.8326386112
  0
ARC
  5
223
100
AcDbEntity
  8
0
100
AcDbCircle
 62
7
  6
CONTINUOUS
 10
4.9754942857
 20
3.2803148314
 40
0.2906248275
100
AcDbArc
 50
271.119485944
 51
276.8764098337
  0
ARC
  5
224
100
AcDbEntity
  8
0
100
AcDbCircle
 62
7
  6
CONTINUOUS
 10
4.9755280134
 20
3.2829939908
 40
0.290146444
100
AcDbArc
 50
271.1146704111
 51
276.8140118266
  0
ARC
  5
225
100
AcDbEntity
  8
0
100
AcDbCircle
 62
7
  6
CONTINUOUS
 10
4.9759114637
 20
3.2795667542
 40
0.2866979216
100
AcDbArc
 50
276.8191856225
 51
277.1998904416
  0
ARC
  5
226
100
AcDbEntity
  8
0
100
AcDbCircle
 62
7
  6
CONTINUOUS
 10
4.9759205593
 20
3.2763366168
 40
0.2866241973
100
AcDbArc
 50
276.8870237912
 51
277.2000216562
  0
ARC
  5
227
100
AcDbEntity
  8
0
100
AcDbCircle
 62
7
  6
CONTINUOUS
 10
4.9754926932
 20
3.2777666251
 40
0.2633656008
100
AcDbArc
 50
270.9093326468
 51
271.2395150318
  0
ARC
  5
228
100
AcDbEntity
  8
0
100
AcDbCircle
 62
7
  6
CONTINUOUS
 10
4.9812421367
 20
3.251537491
 40
0.2616976796
100
AcDbArc
 50
270.7462398679
 51
276.3800463975
  0
ARC
  5
229
100
AcDbEntity
  8
0
100
AcDbCircle
 62
7
  6
CONTINUOUS
 10
4.9755904991
 20
3.3010383376
 40
0.2613813043
100
AcDbArc
 50
271.2261157134
 51
281.8442646931
  0
ARC
  5
22A
100
AcDbEntity
  8
0
100
AcDbCircle
 62
7
  6
CONTINUOUS
 10
4.9755902014
 20
3.2757697184
 40
0.2613670578
100
AcDbArc
 50
271.2276141439
 51
281.8895468454
  0
ARC
  5
22B
100
AcDbEntity
  8
0
100
AcDbCircle
 62
7
  6
CONTINUOUS
 10
4.9763008851
 20
3.2459036464
 40
0.2567075281
100
AcDbArc
 50
277.6159042385
 51
282.0770253088
  0
ARC
  5
22C
100
AcDbEntity
  8
0
100
AcDbCircle
 62
7
  6
CONTINUOUS
 10
4.9185415389
 20
3.2937749269
 40
0.2186294786
100
AcDbArc
 50
228.4901955226
 51
229.0317458419
  0
ARC
  5
22D
100
AcDbEntity
  8
0
100
AcDbCircle
 62
7
  6
CONTINUOUS
 10
5.5061723651
 20
7.0361471815
 40
0.1
100
AcDbArc
 50
271.4325409382
 51
0.0179076599
  0
ARC
  5
22E
100
AcDbEntity
  8
0
100
AcDbCircle
 62
7
  6
CONTINUOUS
 10
4.4561723554
 20
7.0361471815
 40
0.1
100
AcDbArc
 50
179.9820923401
 51
268.5674590618
  0
ARC
  5
22F
100
AcDbEntity
  8
0
100
AcDbCircle
 62
7
  6
CONTINUOUS
 10
5.5411714431
 20
6.8016067195
 40
0.1
100
AcDbArc
 50
108.9650193454
 51
180.2453889646
  0
ARC
  5
230
100
AcDbEntity
  8
0
100
AcDbCircle
 62
7
  6
CONTINUOUS
 10
4.4211732774
 20
6.8016067195
 40
0.1
100
AcDbArc
 50
359.7546110354
 51
71.0349806546
  0
ARC
  5
231
100
AcDbEntity
  8
0
100
AcDbCircle
 62
7
  6
CONTINUOUS
 10
4.8729038742
 20
3.1320807915
 40
0.0974813152
100
AcDbArc
 50
182.1043655005
 51
182.8709231491
  0
SPLINE
  5
232
100
AcDbEntity
  8
0
100
AcDbSpline
 62
7
  6
CONTINUOUS
 70
0
 71
3
 72
25
 73
21
 74
0
 42
0.0000001
 43
0.0000001
 44
0.0000000001
 40
0.0
 40
0.0
 40
0.0
 40
0.0
 40
0.0726315941
 40
0.1449328278
 40
0.2165307129
 40
0.287121844
 40
0.3564040627
 40
0.4241140079
 40
0.4900342043
 40
0.5539993002
 40
0.6159078973
 40
0.6757308994
 40
0.7335198542
 40
0.7894146224
 40
0.8436472305
 40
0.8965374906
 40
0.9226155411
 40
0.9485126139
 40
0.9742871613
 40
1.0
 40
1.0
 40
1.0
 40
1.0
 10
4.9811723602
 20
3.0594670065
 30
0.0
 10
4.9898552716
 20
3.0594670065
 30
0.0
 10
5.007187636
 20
3.0600682673
 30
0.0
 10
5.0329528323
 20
3.0627638126
 30
0.0
 10
5.0582251201
 20
3.0672294185
 30
0.0
 10
5.0827595254
 20
3.0734204243
 30
0.0
 10
5.106323448
 20
3.0812799673
 30
0.0
 10
5.1286910661
 20
3.0907336738
 30
0.0
 10
5.1496487271
 20
3.1016924455
 30
0.0
 10
5.1689960007
 20
3.1140536563
 30
0.0
 10
5.186547635
 20
3.1277013028
 30
0.0
 10
5.2021343862
 20
3.142508272
 30
0.0
 10
5.2156035349
 20
3.1583370282
 30
0.0
 10
5.2268208687
 20
3.175040481
 30
0.0
 10
5.2356727365
 20
3.1924576337
 30
0.0
 10
5.2410281923
 20
3.2075073411
 30
0.0
 10
5.2440204202
 20
3.2196896565
 30
0.0
 10
5.2456212792
 20
3.228853264
 30
0.0
 10
5.2465833008
 20
3.2380611977
 30
0.0
 10
5.2467970602
 20
3.244218532
 30
0.0
 10
5.2467970602
 20
3.2472924326
 30
0.0
  0
SPLINE
  5
233
100
AcDbEntity
  8
0
100
AcDbSpline
 62
7
  6
CONTINUOUS
 70
0
 71
3
 72
21
 73
17
 74
0
 42
0.0000001
 43
0.0000001
 44
0.0000000001
 40
0.0
 40
0.0
 40
0.0
 40
0.0
 40
0.0508720575
 40
0.1029548486
 40
0.1565009448
 40
0.2117015653
 40
0.3274157135
 40
0.3881314629
 40
0.4506825914
 40
0.5808333326
 40
0.6482359671
 40
0.7169219311
 40
0.786673396
 40
0.8572696599
 40
0.9284820981
 40
1.0
 40
1.0
 40
1.0
 40
1.0
 10
4.7799498601
 20
3.1246656333
 30
0.0
 10
4.7811780777
 20
3.1207090218
 30
0.0
 10
4.7841459485
 20
3.1128436088
 30
0.0
 10
4.789977873
 20
3.1014837844
 30
0.0
 10
4.7971941208
 20
3.0905234279
 30
0.0
 10
4.8087595092
 20
3.0763353905
 30
0.0
 10
4.8227622346
 20
3.063514904
 30
0.0
 10
4.8386466038
 20
3.0522459511
 30
0.0
 10
4.8563894903
 20
3.0416678393
 30
0.0
 10
4.8757766054
 20
3.0329230817
 30
0.0
 10
4.8963481847
 20
3.0260411717
 30
0.0
 10
4.9125723693
 20
3.0217745903
 30
0.0
 10
4.92928797
 20
3.0184973375
 30
0.0
 10
4.9463787671
 20
3.01623506
 30
0.0
 10
4.9637181391
 20
3.0150083956
 30
0.0
 10
4.9753492782
 20
3.0148860409
 30
0.0
 10
4.9811723602
 20
3.0149997955
 30
0.0
  0
SPLINE
  5
234
100
AcDbEntity
  8
0
100
AcDbSpline
 62
7
  6
CONTINUOUS
 70
0
 71
3
 72
21
 73
17
 74
0
 42
0.0000001
 43
0.0000001
 44
0.0000000001
 40
0.0
 40
0.0
 40
0.0
 40
0.0
 40
0.0526596718
 40
0.1064391551
 40
0.161484611
 40
0.2179074614
 40
0.3350831042
 40
0.3959740637
 40
0.4583546897
 40
0.5221774471
 40
0.5873646901
 40
0.6538169641
 40
0.7214043542
 40
0.8593597838
 40
0.9294651221
 40
1.0
 40
1.0
 40
1.0
 40
1.0
 10
5.1734119903
 20
3.0882347761
 30
0.0
 10
5.1720513975
 20
3.0850203022
 30
0.0
 10
5.1689938808
 20
3.0786488147
 30
0.0
 10
5.1635070204
 20
3.0694428278
 30
0.0
 10
5.1571002307
 20
3.0605414847
 30
0.0
 10
5.1472539309
 20
3.0490020042
 30
0.0
 10
5.1357748129
 20
3.0384182158
 30
0.0
 10
5.1229727087
 20
3.0289106268
 30
0.0
 10
5.1125263724
 20
3.0222077646
 30
0.0
 10
5.1014153811
 20
3.0160672811
 30
0.0
 10
5.0896970156
 20
3.0105212985
 30
0.0
 10
5.0774319064
 20
3.0056041036
 30
0.0
 10
5.0603255735
 20
2.9998845966
 30
0.0
 10
5.0425181745
 20
2.9955920548
 30
0.0
 10
5.0242662837
 20
2.9927439918
 30
0.0
 10
5.014985414
 20
2.9918055537
 30
0.0
 10
5.010322726
 20
2.9914605893
 30
0.0
  0
SPLINE
  5
235
100
AcDbEntity
  8
0
100
AcDbSpline
 62
7
  6
CONTINUOUS
 70
0
 71
3
 72
16
 73
12
 74
0
 42
0.0000001
 43
0.0000001
 44
0.0000000001
 40
0.0
 40
0.0
 40
0.0
 40
0.0
 40
0.1089899139
 40
0.2233760612
 40
0.3430792364
 40
0.4677087944
 40
0.5316995942
 40
0.5966644811
 40
0.7290137048
 40
0.8638279131
 40
1.0
 40
1.0
 40
1.0
 40
1.0
 10
4.8045180467
 20
3.1070047534
 30
0.0
 10
4.8091642369
 20
3.1016795542
 30
0.0
 10
4.8195167738
 20
3.0914691125
 30
0.0
 10
4.8373312008
 20
3.0780519584
 30
0.0
 10
4.8575099154
 20
3.0663775033
 30
0.0
 10
4.875857973
 20
3.0583348045
 30
0.0
 10
4.891387081
 20
3.052911499
 30
0.0
 10
4.9076509259
 20
3.0481378654
 30
0.0
 10
4.9287425922
 20
3.0436080532
 30
0.0
 10
4.9547497424
 20
3.0405372325
 30
0.0
 10
4.9723443221
 20
3.0400816574
 30
0.0
 10
4.9811723602
 20
3.0402541142
 30
0.0
  0
SPLINE
  5
236
100
AcDbEntity
  8
0
100
AcDbSpline
 62
7
  6
CONTINUOUS
 70
0
 71
3
 72
15
 73
11
 74
0
 42
0.0000001
 43
0.0000001
 44
0.0000000001
 40
0.0
 40
0.0
 40
0.0
 40
0.0
 40
0.1318087674
 40
0.2630628445
 40
0.392928387
 40
0.5207300121
 40
0.6458137023
 40
0.767637532
 40
0.8857877642
 40
1.0
 40
1.0
 40
1.0
 40
1.0
 10
4.9811723602
 20
3.0402541142
 30
0.0
 10
4.9887111807
 20
3.0404013859
 30
0.0
 10
5.0037522341
 20
3.0412802633
 30
0.0
 10
5.0260434423
 20
3.0443379728
 30
0.0
 10
5.0477997862
 20
3.0491073623
 30
0.0
 10
5.0687574182
 20
3.0555344543
 30
0.0
 10
5.0886669951
 20
3.0635505387
 30
0.0
 10
5.1072903318
 20
3.0730664151
 30
0.0
 10
5.1244021281
 20
3.0839733676
 30
0.0
 10
5.1348500373
 20
3.0922388495
 30
0.0
 10
5.1397407499
 20
3.0965712001
 30
0.0
  0
SPLINE
  5
237
100
AcDbEntity
  8
0
100
AcDbSpline
 62
7
  6
CONTINUOUS
 70
0
 71
3
 72
21
 73
17
 74
0
 42
0.0000001
 43
0.0000001
 44
0.0000000001
 40
0.0
 40
0.0
 40
0.0
 40
0.0
 40
0.0690954721
 40
0.1380935155
 40
0.2747575618
 40
0.3421088295
 40
0.4085480199
 40
0.4739109856
 40
0.5380583535
 40
0.6008740468
 40
0.662268558
 40
0.7805071581
 40
0.8374290795
 40
0.8929143346
 40
0.947059086
 40
1.0
 40
1.0
 40
1.0
 40
1.0
 10
4.9811723602
 20
3.0149997955
 30
0.0
 10
4.986543597
 20
3.0151047232
 30
0.0
 10
4.9972755624
 20
3.0156123836
 30
0.0
 10
5.0185331999
 20
3.0178013416
 30
0.0
 10
5.0394476954
 20
3.0217423517
 30
0.0
 10
5.0597029796
 20
3.027425924
 30
0.0
 10
5.0743456597
 20
3.0324923158
 30
0.0
 10
5.0884186868
 20
3.0383547089
 30
0.0
 10
5.1018369067
 20
3.0449780655
 30
0.0
 10
5.1145194341
 20
3.052326432
 30
0.0
 10
5.1301414623
 20
3.0628943382
 30
0.0
 10
5.1442391972
 20
3.0748431507
 30
0.0
 10
5.1564020833
 20
3.0880446209
 30
0.0
 10
5.1643399205
 20
3.0982983883
 30
0.0
 10
5.1711549839
 20
3.1089639116
 30
0.0
 10
5.1749609618
 20
3.1163866083
 30
0.0
 10
5.176653902
 20
3.1201385749
 30
0.0
  0
SPLINE
  5
238
100
AcDbEntity
  8
0
100
AcDbSpline
 62
7
  6
CONTINUOUS
 70
0
 71
3
 72
22
 73
18
 74
0
 42
0.0000001
 43
0.0000001
 44
0.0000000001
 40
0.0
 40
0.0
 40
0.0
 40
0.0
 40
0.1427274716
 40
0.2130041651
 40
0.2822538335
 40
0.4168677976
 40
0.4820232269
 40
0.5455797911
 40
0.6074843626
 40
0.6677257632
 40
0.7263432923
 40
0.7550765186
 40
0.7834418303
 40
0.8391306071
 40
0.8936192294
 40
0.9471483362
 40
1.0
 40
1.0
 40
1.0
 40
1.0
 10
5.0118442042
 20
2.9919725505
 30
0.0
 10
5.0230210379
 20
2.9933845297
 30
0.0
 10
5.0396015227
 20
2.9964771854
 30
0.0
 10
5.0610416905
 20
3.0025741064
 30
0.0
 10
5.0814490121
 20
3.0098006963
 30
0.0
 10
5.1007538882
 20
3.0188325565
 30
0.0
 10
5.118534223
 20
3.0296260383
 30
0.0
 10
5.1307861009
 20
3.0383854506
 30
0.0
 10
5.1420116263
 20
3.047835907
 30
0.0
 10
5.1521319088
 20
3.0579176473
 30
0.0
 10
5.1596381919
 20
3.0668497281
 30
0.0
 10
5.1650071938
 20
3.0742425629
 30
0.0
 10
5.1698885987
 20
3.0816908303
 30
0.0
 10
5.1752041031
 20
3.0912702523
 30
0.0
 10
5.1802810842
 20
3.1031787769
 30
0.0
 10
5.1839813419
 20
3.1153507168
 30
0.0
 10
5.1855191603
 20
3.1236268191
 30
0.0
 10
5.186046404
 20
3.1277650186
 30
0.0
  0
SPLINE
  5
239
100
AcDbEntity
  8
0
100
AcDbSpline
 62
7
  6
CONTINUOUS
 70
0
 71
3
 72
26
 73
22
 74
0
 42
0.0000001
 43
0.0000001
 44
0.0000000001
 40
0.0
 40
0.0
 40
0.0
 40
0.0
 40
0.0734958183
 40
0.1465665192
 40
0.2188217337
 40
0.2899574642
 40
0.3596702401
 40
0.427690076
 40
0.4937950549
 40
0.5578168862
 40
0.6196512674
 40
0.6792675049
 40
0.7367203231
 40
0.7921560258
 40
0.8458160358
 40
0.872096412
 40
0.8980662289
 40
0.9237809622
 40
0.9492995576
 40
0.9746842952
 40
1.0
 40
1.0
 40
1.0
 40
1.0
 10
4.9811723602
 20
2.9897454768
 30
0.0
 10
4.9744621519
 20
2.9896143921
 30
0.0
 10
4.9610668557
 20
2.9898160833
 30
0.0
 10
4.941140279
 20
2.9915029065
 30
0.0
 10
4.9215936151
 20
2.9945568728
 30
0.0
 10
4.9026165244
 20
2.9989439147
 30
0.0
 10
4.8843875291
 20
3.0046187277
 30
0.0
 10
4.8670806376
 20
3.0115245064
 30
0.0
 10
4.8508609678
 20
3.0195932029
 30
0.0
 10
4.8358826439
 20
3.0287450738
 30
0.0
 10
4.8222886205
 20
3.0388912837
 30
0.0
 10
4.8102101786
 20
3.0499346676
 30
0.0
 10
4.7997639186
 20
3.0617690607
 30
0.0
 10
4.7910533725
 20
3.0742789845
 30
0.0
 10
4.7852740683
 20
3.0852487021
 30
0.0
 10
4.7816283835
 20
3.0942133122
 30
0.0
 10
4.779392732
 20
3.100978752
 30
0.0
 10
4.7776422119
 20
3.1078137064
 30
0.0
 10
4.7763810655
 20
3.114701653
 30
0.0
 10
4.7756136601
 20
3.1216249725
 30
0.0
 10
4.7754316066
 20
3.126255883
 30
0.0
 10
4.7754231834
 20
3.1285676463
 30
0.0
  0
SPLINE
  5
23A
100
AcDbEntity
  8
0
100
AcDbSpline
 62
7
  6
CONTINUOUS
 70
0
 71
3
 72
16
 73
12
 74
0
 42
0.0000001
 43
0.0000001
 44
0.0000000001
 40
0.0
 40
0.0
 40
0.0
 40
0.0
 40
0.1174363313
 40
0.2356976608
 40
0.2954097317
 40
0.3556166683
 40
0.4778043303
 40
0.6029164152
 40
0.731437322
 40
0.8637241755
 40
1.0
 40
1.0
 40
1.0
 40
1.0
 10
4.7155476603
 20
3.2472924326
 30
0.0
 10
4.7155476603
 20
3.2420139307
 30
0.0
 10
4.7161813844
 20
3.2314096813
 30
0.0
 10
4.7185449534
 20
3.2183117485
 30
0.0
 10
4.7213524224
 20
3.2079753995
 30
0.0
 10
4.7248015383
 20
3.197648862
 30
0.0
 10
4.7302833919
 20
3.1849274172
 30
0.0
 10
4.7386110263
 20
3.1701959222
 30
0.0
 10
4.7486583587
 20
3.156020229
 30
0.0
 10
4.7603511276
 20
3.142502654
 30
0.0
 10
4.769058381
 20
3.1341154666
 30
0.0
 10
4.7736452454
 20
3.1300559205
 30
0.0
  0
SPLINE
  5
23B
100
AcDbEntity
  8
0
100
AcDbSpline
 62
7
  6
CONTINUOUS
 70
0
 71
3
 72
16
 73
12
 74
0
 42
0.0000001
 43
0.0000001
 44
0.0000000001
 40
0.0
 40
0.0
 40
0.0
 40
0.0
 40
0.1132255007
 40
0.2306819178
 40
0.290939292
 40
0.3521419397
 40
0.4771168197
 40
0.6050869528
 40
0.7353832549
 40
0.867295416
 40
1.0
 40
1.0
 40
1.0
 40
1.0
 10
4.7751991399
 20
3.1286937179
 30
0.0
 10
4.7815179499
 20
3.1232068751
 30
0.0
 10
4.7950386282
 20
3.1127563466
 30
0.0
 10
4.8133533715
 20
3.1014193795
 30
0.0
 10
4.8290022451
 20
3.0932258862
 30
0.0
 10
4.8455216663
 20
3.0855397505
 30
0.0
 10
4.8672272647
 20
3.0772011601
 30
0.0
 10
4.8944760738
 20
3.0693477028
 30
0.0
 10
4.9227826197
 20
3.0636679562
 30
0.0
 10
4.9517973694
 20
3.0602332677
 30
0.0
 10
4.9713640898
 20
3.0594670065
 30
0.0
 10
4.9811723602
 20
3.0594670065
 30
0.0
  0
SPLINE
  5
23C
100
AcDbEntity
  8
0
100
AcDbSpline
 62
7
  6
CONTINUOUS
 70
0
 71
3
 72
10
 73
6
 74
0
 42
0.0000001
 43
0.0000001
 44
0.0000000001
 40
0.0
 40
0.0
 40
0.0
 40
0.0
 40
0.246822162
 40
0.6217253731
 40
1.0
 40
1.0
 40
1.0
 40
1.0
 10
4.9228410698
 20
3.045056703
 30
0.0
 10
4.9275670966
 20
3.0440631064
 30
0.0
 10
4.9395482372
 20
3.0419141544
 30
0.0
 10
4.9590298213
 20
3.0398583856
 30
0.0
 10
4.9737839435
 20
3.0395568816
 30
0.0
 10
4.9811835683
 20
3.0397168807
 30
0.0
  0
SPLINE
  5
23D
100
AcDbEntity
  8
0
100
AcDbSpline
 62
7
  6
CONTINUOUS
 70
0
 71
3
 72
15
 73
11
 74
0
 42
0.0000001
 43
0.0000001
 44
0.0000000001
 40
0.0
 40
0.0
 40
0.0
 40
0.0
 40
0.1350082432
 40
0.2688244271
 40
0.4004485798
 40
0.5290309296
 40
0.6537900905
 40
0.7741121193
 40
0.889575797
 40
1.0
 40
1.0
 40
1.0
 40
1.0
 10
4.9811723602
 20
3.0434110904
 30
0.0
 10
4.9728691448
 20
3.0432488861
 30
0.0
 10
4.9563133439
 20
3.0436331575
 30
0.0
 10
4.931798057
 20
3.0463239091
 30
0.0
 10
4.9079991615
 20
3.0510847005
 30
0.0
 10
4.8852658816
 20
3.0578373757
 30
0.0
 10
4.863927088
 20
3.0664802292
 30
0.0
 10
4.8442922998
 20
3.0768840374
 30
0.0
 10
4.8266507128
 20
3.0888918981
 30
0.0
 10
4.816151389
 20
3.0980602702
 30
0.0
 10
4.811346476
 20
3.1028614794
 30
0.0
  0
SPLINE
  5
23E
100
AcDbEntity
  8
0
100
AcDbSpline
 62
7
  6
CONTINUOUS
 70
0
 71
3
 72
21
 73
17
 74
0
 42
0.0000001
 43
0.0000001
 44
0.0000000001
 40
0.0
 40
0.0
 40
0.0
 40
0.0
 40
0.0692974192
 40
0.1383889443
 40
0.2750543856
 40
0.3423554729
 40
0.4087494797
 40
0.4740880222
 40
0.5382426259
 40
0.6011003832
 40
0.6625691528
 40
0.7810068389
 40
0.8379781193
 40
0.8934332673
 40
0.9474144369
 40
1.0
 40
1.0
 40
1.0
 40
1.0
 10
4.9811723602
 20
3.0181567717
 30
0.0
 10
4.9762704543
 20
3.0180610124
 30
0.0
 10
4.966474166
 20
3.0181176904
 30
0.0
 10
4.9470391931
 20
3.0192135177
 30
0.0
 10
4.9278482596
 20
3.0217725442
 30
0.0
 10
4.9091407914
 20
3.0257956414
 30
0.0
 10
4.8955457191
 20
3.029494042
 30
0.0
 10
4.882387887
 20
3.0338700315
 30
0.0
 10
4.8697337855
 20
3.038898077
 30
0.0
 10
4.8576473077
 20
3.0445535944
 30
0.0
 10
4.8425632804
 20
3.0527832051
 30
0.0
 10
4.8286343661
 20
3.0622144014
 30
0.0
 10
4.8161699714
 20
3.0727892611
 30
0.0
 10
4.8077814602
 20
3.0810680927
 30
0.0
 10
4.8002796171
 20
3.0897513271
 30
0.0
 10
4.7958382449
 20
3.0958576836
 30
0.0
 10
4.7937859328
 20
3.0989608884
 30
0.0
  0
SPLINE
  5
23F
100
AcDbEntity
  8
0
100
AcDbSpline
 62
7
  6
CONTINUOUS
 70
0
 71
3
 72
9
 73
5
 74
0
 42
0.0000001
 43
0.0000001
 44
0.0000000001
 40
0.0
 40
0.0
 40
0.0
 40
0.0
 40
0.506932089
 40
1.0
 40
1.0
 40
1.0
 40
1.0
 10
4.7937859328
 20
3.0989608884
 30
0.0
 10
4.7912145296
 20
3.1028489867
 30
0.0
 10
4.7865667017
 20
3.1108102476
 30
0.0
 10
4.7829081079
 20
3.1192757512
 30
0.0
 10
4.7813796016
 20
3.1235443319
 30
0.0
  0
SPLINE
  5
240
100
AcDbEntity
  8
0
100
AcDbSpline
 62
7
  6
CONTINUOUS
 70
0
 71
3
 72
9
 73
5
 74
0
 42
0.0000001
 43
0.0000001
 44
0.0000000001
 40
0.0
 40
0.0
 40
0.0
 40
0.0
 40
0.2469494824
 40
1.0
 40
1.0
 40
1.0
 40
1.0
 10
4.9221923563
 20
3.0199396955
 30
0.0
 10
4.9268467305
 20
3.0189477899
 30
0.0
 10
4.9458090327
 20
3.0154859016
 30
0.0
 10
4.9651623551
 20
3.0142038924
 30
0.0
 10
4.9796723533
 20
3.0144341923
 30
0.0
  0
SPLINE
  5
241
100
AcDbEntity
  8
0
100
AcDbSpline
 62
7
  6
CONTINUOUS
 70
0
 71
3
 72
22
 73
18
 74
0
 42
0.0000001
 43
0.0000001
 44
0.0000000001
 40
0.0
 40
0.0
 40
0.0
 40
0.0
 40
0.0528577491
 40
0.1064574289
 40
0.1610602177
 40
0.216887424
 40
0.2453243492
 40
0.2741285586
 40
0.3328792242
 40
0.3932300252
 40
0.4552107048
 40
0.5188037335
 40
0.5839523311
 40
0.718427109
 40
0.7875467163
 40
0.8576608815
 40
1.0
 40
1.0
 40
1.0
 40
1.0
 10
5.1855296724
 20
3.127337439
 30
0.0
 10
5.1848768785
 20
3.123281199
 30
0.0
 10
5.1831053655
 20
3.1151783425
 30
0.0
 10
5.1791139442
 20
3.1032891562
 30
0.0
 10
5.1738048525
 20
3.0916731201
 30
0.0
 10
5.1683445088
 20
3.0823409833
 30
0.0
 10
5.1633753304
 20
3.0750891079
 30
0.0
 10
5.1579362734
 20
3.0678953373
 30
0.0
 10
5.1503790409
 20
3.0592103906
 30
0.0
 10
5.1402510922
 20
3.0494137052
 30
0.0
 10
5.1290693496
 20
3.0402353221
 30
0.0
 10
5.1169091997
 20
3.031731509
 30
0.0
 10
5.0993179658
 20
3.0212578097
 30
0.0
 10
5.0802770011
 20
3.0124894308
 30
0.0
 10
5.0601845276
 20
3.0054661978
 30
0.0
 10
5.0391063378
 20
2.9995361703
 30
0.0
 10
5.0228199409
 20
2.9965160814
 30
0.0
 10
5.0118436974
 20
2.9951294627
 30
0.0
  0
SPLINE
  5
242
100
AcDbEntity
  8
0
100
AcDbSpline
 62
7
  6
CONTINUOUS
 70
0
 71
3
 72
26
 73
22
 74
0
 42
0.0000001
 43
0.0000001
 44
0.0000000001
 40
0.0
 40
0.0
 40
0.0
 40
0.0
 40
0.025252267
 40
0.0506121887
 40
0.0761402356
 40
0.1018940352
 40
0.1542655622
 40
0.208136706
 40
0.2357436465
 40
0.2638298725
 40
0.321509189
 40
0.3813169946
 40
0.4432895692
 40
0.5073851473
 40
0.5734931508
 40
0.6414458987
 40
0.7110260382
 40
0.7819705464
 40
0.8539897191
 40
0.9267926716
 40
1.0
 40
1.0
 40
1.0
 40
1.0
 10
4.7755449074
 20
3.1271983329
 30
0.0
 10
4.7756584967
 20
3.1249332673
 30
0.0
 10
4.7760448039
 20
3.1203998419
 30
0.0
 10
4.7770980068
 20
3.1136380738
 30
0.0
 10
4.7786222822
 20
3.1069200429
 30
0.0
 10
4.7812914757
 20
3.0979955331
 30
0.0
 10
4.7858208795
 20
3.0870013548
 30
0.0
 10
4.7917791265
 20
3.0765247189
 30
0.0
 10
4.7973819841
 20
3.0684300249
 30
0.0
 10
4.8036497406
 20
3.0603994732
 30
0.0
 10
4.8125487111
 20
3.0507839581
 30
0.0
 10
4.8246756597
 20
3.0401286453
 30
0.0
 10
4.8382358936
 20
3.0303508188
 30
0.0
 10
4.8531034881
 20
3.0215422942
 30
0.0
 10
4.8691420155
 20
3.0137841086
 30
0.0
 10
4.8862053727
 20
3.0071504705
 30
0.0
 10
4.9041373261
 20
3.0017046537
 30
0.0
 10
4.9227733989
 20
2.997498278
 30
0.0
 10
4.9419456126
 20
2.9945737663
 30
0.0
 10
4.9614750839
 20
2.9929625015
 30
0.0
 10
4.9745988473
 20
2.9927740387
 30
0.0
 10
4.9811723602
 20
2.992902453
 30
0.0
  0
SPLINE
  5
243
100
AcDbEntity
  8
0
100
AcDbSpline
 62
7
  6
CONTINUOUS
 70
0
 71
3
 72
21
 73
17
 74
0
 42
0.0000001
 43
0.0000001
 44
0.0000000001
 40
0.0
 40
0.0
 40
0.0
 40
0.0
 40
0.0532046433
 40
0.1076345412
 40
0.1634032597
 40
0.2205846346
 40
0.339217418
 40
0.4007180607
 40
0.4635734847
 40
0.5276940208
 40
0.5929650316
 40
0.6592520202
 40
0.7263968727
 40
0.8625311458
 40
0.9312223988
 40
1.0
 40
1.0
 40
1.0
 40
1.0
 10
5.1742514091
 20
3.1182727568
 30
0.0
 10
5.1724289265
 20
3.1146692905
 30
0.0
 10
5.1683916516
 20
3.1075515064
 30
0.0
 10
5.1613183563
 20
3.0973461728
 30
0.0
 10
5.1532015452
 20
3.0875531803
 30
0.0
 10
5.1409090603
 20
3.0749685283
 30
0.0
 10
5.1268372306
 20
3.0635999485
 30
0.0
 10
5.1113600419
 20
3.0535544413
 30
0.0
 10
5.0988579043
 20
3.046579302
 30
0.0
 10
5.0856778375
 20
3.0402976578
 30
0.0
 10
5.0718953492
 20
3.0347406532
 30
0.0
 10
5.0575889214
 20
3.0299405949
 30
0.0
 10
5.0378413509
 20
3.0245578278
 30
0.0
 10
5.0174884896
 20
3.0208228903
 30
0.0
 10
4.9968201912
 20
3.0187438724
 30
0.0
 10
4.9863914389
 20
3.018258727
 30
0.0
 10
4.9811723602
 20
3.0181567717
 30
0.0
  0
SPLINE
  5
244
100
AcDbEntity
  8
0
100
AcDbSpline
 62
7
  6
CONTINUOUS
 70
0
 71
3
 72
14
 73
10
 74
0
 42
0.0000001
 43
0.0000001
 44
0.0000000001
 40
0.0
 40
0.0
 40
0.0
 40
0.0
 40
0.2346680812
 40
0.357043697
 40
0.4822068828
 40
0.6096653661
 40
0.7388560105
 40
0.8692108443
 40
1.0
 40
1.0
 40
1.0
 40
1.0
 10
5.1300277145
 20
3.0917126109
 30
0.0
 10
5.1201702541
 20
3.0841286991
 30
0.0
 10
5.1039968197
 20
3.0740479938
 30
0.0
 10
5.0807749344
 20
3.0633399597
 30
0.0
 10
5.0620935191
 20
3.0564887202
 30
0.0
 10
5.0425962279
 20
3.0510029288
 30
0.0
 10
5.0224741891
 20
3.0469308167
 30
0.0
 10
5.0019360289
 20
3.0443115927
 30
0.0
 10
4.9881027763
 20
3.0435464769
 30
0.0
 10
4.9811723602
 20
3.0434110904
 30
0.0
  0
ENDSEC
  0
SECTION
  2
OBJECTS
  0
DICTIONARY
  5
C
100
AcDbDictionary
280
0
281
1
  3
ACAD_GROUP
350
D
  3
ACAD_MLINESTYLE
350
17
  3
ACAD_LAYOUT
350
1A
  3
ACAD_PLOTSETTINGS
350
19
  3
ACAD_PLOTSTYLENAME
350
E
  0
DICTIONARY
  5
D
102
{ACAD_REACTORS
330
C
102
}
100
AcDbDictionary
280
0
281
1
  0
ACDBDICTIONARYWDFLT
  5
E
102
{ACAD_REACTORS
330
C
102
}
100
AcDbDictionary
281
1
  3
Normal
350
F
100
AcDbDictionaryWithDefault
340
F
  0
DICTIONARY
  5
17
102
{ACAD_REACTORS
330
C
102
}
100
AcDbDictionary
280
0
281
1
  3
Standard
350
18
  0
DICTIONARY
  5
19
102
{ACAD_REACTORS
330
C
102
}
100
AcDbDictionary
281
1
  0
DICTIONARY
  5
1A
102
{ACAD_REACTORS
330
C
102
}
100
AcDbDictionary
281
1
  3
Model
350
245
  3
Layout1
350
246
  0
ACDBPLACEHOLDER
  5
F
102
{ACAD_REACTORS
330
E
102
}
  0
MLINESTYLE
  5
18
102
{ACAD_REACTORS
330
17
102
}
100
AcDbMlineStyle
  2
STANDARD
 70
0
  3

 62
256
 51
90.0
 52
90.0
 71
2
 49
0.5
 62
256
  6
BYLAYER
 49
-0.5
 62
256
  6
BYLAYER
  0
LAYOUT
  5
245
102
{ACAD_REACTORS
330
1A
102
}
100
AcDbPlotSettings
  1

  2
none_device
  4
ANSI_A_(11.00_x_8.50_Inches)
  6

 40
0.0
 41
0.0
 42
0.0
 43
0.0
 44
279.4
 45
215.9
 46
0.0
 47
0.0
 48
0.0
 49
0.0
140
0.0
141
0.0
142
1.0
143
1.0
 70
1024
 72
0
 73
0
 74
0
  7

 75
0
147
1.0
148
0.0
149
0.0
100
AcDbLayout
  1
Model
 70
0
 71
0
 10
0.0
 20
0.0
 11
11.0
 21
8.5
 12
0.0
 22
0.0
 32
0.0
 14
0.0
 24
0.0
 34
0.0
 15
0.0
 25
0.0
 35
0.0
146
0.0
 13
0.0
 23
0.0
 33
0.0
 16
1.0
 26
0.0
 36
0.0
 17
0.0
 27
1.0
 37
0.0
 76
0
330
202
345
0
346
0
  0
LAYOUT
  5
246
102
{ACAD_REACTORS
330
1A
102
}
100
AcDbPlotSettings
  1

  2
none_device
  4
ANSI_A_(11.00_x_8.50_Inches)
  6

 40
0.0
 41
0.0
 42
0.0
 43
0.0
 44
279.4
 45
215.9
 46
0.0
 47
0.0
 48
0.0
 49
0.0
140
0.0
141
0.0
142
1.0
143
1.0
 70
0
 72
0
 73
0
 74
0
  7

 75
0
147
1.0
148
0.0
149
0.0
100
AcDbLayout
  1
Layout1
 70
0
 71
1
 10
0.0
 20
0.0
 11
11.0
 21
8.5
 12
0.0
 22
0.0
 32
0.0
 14
0.0
 24
0.0
 34
0.0
 15
0.0
 25
0.0
 35
0.0
146
0.0
 13
0.0
 23
0.0
 33
0.0
 16
1.0
 26
0.0
 36
0.0
 17
0.0
 27
1.0
 37
0.0
 76
0
330
203
345
0
346
0
  0
ENDSEC
  0
EOF
