999
DXF file: 201-3_top.dxf
999
Pro/ENGINEER 2018400 by Parametric Technology Corporation
  0
SECTION
  2
HEADER
  9
$ACADVER
  1
AC1027
  9
$DWGCODEPAGE
  3
ANSI_1252
  9
$EXTMAX
 10
11.0
 20
8.5
 30
0.0
  9
$EXTMIN
 10
0.0
 20
0.0
 30
0.0
  9
$LIMMIN
 10
0.0
 20
0.0
  9
$LIMMAX
 10
11.0
 20
8.5
  9
$VIEWCTR
 10
5.5
 20
4.25
  9
$VIEWSIZE
 40
8.5
  9
$CLAYER
  8
0
  9
$LTSCALE
 40
0.605
  9
$CELTYPE
  6
BYLAYER
  9
$DIMSCALE
 40
1.0
  9
$DIMASZ
 40
0.1
  9
$DIMEXO
 40
0.0625
  9
$DIMDLI
 40
0.418
  9
$DIMEXE
 40
0.125
  9
$DIMCEN
 40
0.099
  9
$DIMLFAC
 40
1.0
  9
$DIMBLK
  1
_FILLED
  9
$DIMALT
 70
1
  9
$DIMALTD
 70
1
  9
$DIMALTTD
 70
2
  9
$DIMALTF
 40
25.4
  9
$DIMTXT
 40
0.08
  9
$DIMTOL
 70
1
  9
$DIMLIM
 70
0
  9
$DIMTFAC
 40
1.0
  9
$DIMTP
 40
0.01
  9
$DIMTM
 40
0.01
  9
$DIMGAP
 40
0.09
  9
$DIMDSEP
 70
46
  9
$AUNITS
 70
0
  9
$PDMODE
 70
3
  9
$PDSIZE
 40
0.3125
  9
$HANDSEED
  5
362
  9
$TILEMODE
 70
1
  9
$MEASUREMENT
 70
0
  9
$INSUNITS
 70
1
  0
ENDSEC
  0
SECTION
  2
CLASSES
  0
CLASS
  1
ACDBDICTIONARYWDFLT
  2
AcDbDictionaryWithDefault
  3
AutoCAD 2000
 90
0
 91
1
280
0
281
0
  0
CLASS
  1
ACDBPLACEHOLDER
  2
AcDbPlaceHolder
  3
AutoCAD 2000
 90
0
 91
1
280
0
281
0
  0
CLASS
  1
LAYOUT
  2
AcDbLayout
  3
AutoCAD 2000
 90
0
 91
0
280
0
281
0
  0
ENDSEC
  0
SECTION
  2
TABLES
  0
TABLE
  2
VPORT
  5
8
100
AcDbSymbolTable
 70
2
  0
VPORT
  5
1F4
100
AcDbSymbolTableRecord
100
AcDbViewportTableRecord
  2
*ACTIVE
 70
0
 10
0.0
 20
0.0
 11
1.0
 21
1.0
 12
5.5
 22
4.25
 13
0.0
 23
0.0
 14
1.0
 24
1.0
 15
0.0
 25
0.0
 16
0.0
 26
0.0
 36
1.0
 17
0.0
 27
0.0
 37
0.0
 40
8.5
 41
1.2941176471
 42
50.0
 43
0.0
 44
0.0
 50
0.0
 51
0.0
 71
0
 72
100
 73
1
 74
1
 75
0
 76
0
 77
0
 78
0
  0
ENDTAB
  0
TABLE
  2
LTYPE
  5
5
100
AcDbSymbolTable
 70
6
  0
LTYPE
  5
14
100
AcDbSymbolTableRecord
100
AcDbLinetypeTableRecord
  2
BYBLOCK
 70
0
  3

 72
65
 73
0
 40
0.0
  0
LTYPE
  5
15
100
AcDbSymbolTableRecord
100
AcDbLinetypeTableRecord
  2
BYLAYER
 70
0
  3

 72
65
 73
0
 40
0.0
  0
LTYPE
  5
16
100
AcDbSymbolTableRecord
100
AcDbLinetypeTableRecord
  2
CONTINUOUS
 70
64
  3
Solid line
 72
65
 73
0
 40
0.0
  0
LTYPE
  5
1F5
100
AcDbSymbolTableRecord
100
AcDbLinetypeTableRecord
  2
CENTER
 70
64
  3
____ _ ____ _ ____ _ ____ _ ____ _ ____ _ ____
 72
65
 73
4
 40
0.6
 49
0.375
 74
0
 49
-0.075
 74
0
 49
0.075
 74
0
 49
-0.075
 74
0
  0
LTYPE
  5
1F6
100
AcDbSymbolTableRecord
100
AcDbLinetypeTableRecord
  2
HIDDEN
 70
64
  3
- - - - - - - - - - - - - - - - - - - -
 72
65
 73
2
 40
0.2
 49
0.1
 74
0
 49
-0.1
 74
0
  0
LTYPE
  5
1F7
100
AcDbSymbolTableRecord
100
AcDbLinetypeTableRecord
  2
PHANTOM
 70
64
  3
_____ _ _ _____ _ _ _____ _ _ _____
 72
65
 73
6
 40
0.8
 49
0.45
 74
0
 49
-0.05
 74
0
 49
0.1
 74
0
 49
-0.05
 74
0
 49
0.1
 74
0
 49
-0.05
 74
0
  0
LTYPE
  5
1F8
100
AcDbSymbolTableRecord
100
AcDbLinetypeTableRecord
  2
DOT
 70
64
  3
. . . . . . . . . . . . . . . . . . . .
 72
65
 73
2
 40
0.2
 49
0.1
 74
0
 49
-0.1
 74
0
  0
LTYPE
  5
1F9
100
AcDbSymbolTableRecord
100
AcDbLinetypeTableRecord
  2
DASHED
 70
64
  3
- - - - - - - - - - - - - - - - - - - -
 72
65
 73
2
 40
0.2
 49
0.1
 74
0
 49
-0.1
 74
0
  0
ENDTAB
  0
TABLE
  2
LAYER
  5
2
100
AcDbSymbolTable
 70
36
  0
LAYER
  5
10
100
AcDbSymbolTableRecord
100
AcDbLayerTableRecord
  2
0
 70
0
 62
7
  6
CONTINUOUS
370
-3
390
F
  0
LAYER
  5
1FA
100
AcDbSymbolTableRecord
100
AcDbLayerTableRecord
  2
DEFAULT_1
 70
0
 62
7
  6
CENTER
370
-3
390
F
  0
LAYER
  5
1FB
100
AcDbSymbolTableRecord
100
AcDbLayerTableRecord
  2
DEFAULT_2
 70
0
 62
8
  6
HIDDEN
370
-3
390
F
  0
LAYER
  5
1FC
100
AcDbSymbolTableRecord
100
AcDbLayerTableRecord
  2
DEFAULT_3
 70
0
 62
7
  6
PHANTOM
370
-3
390
F
  0
LAYER
  5
1FD
100
AcDbSymbolTableRecord
100
AcDbLayerTableRecord
  2
DEFAULT_COORDINATE_SYSTEM
 70
0
 62
7
  6
CONTINUOUS
370
-3
390
F
  0
LAYER
  5
1FE
100
AcDbSymbolTableRecord
100
AcDbLayerTableRecord
  2
DEFAULT_DATUM_AXES
 70
0
 62
7
  6
CONTINUOUS
370
-3
390
F
  0
LAYER
  5
1FF
100
AcDbSymbolTableRecord
100
AcDbLayerTableRecord
  2
DEFAULT_DATUM_PLANES
 70
0
 62
7
  6
CONTINUOUS
370
-3
390
F
  0
ENDTAB
  0
TABLE
  2
STYLE
  5
3
100
AcDbSymbolTable
 70
1
  0
STYLE
  5
11
100
AcDbSymbolTableRecord
100
AcDbTextStyleTableRecord
  2
STANDARD
 70
0
 40
0.0
 41
0.8
 50
0.0
 71
0
 42
0.2
  3
txt
  4

  0
STYLE
  5
200
100
AcDbSymbolTableRecord
100
AcDbTextStyleTableRecord
  2
TEXTSTYLE_1
 70
0
 40
0.0
 41
0.8
 50
0.0
 71
0
 42
0.2
  3
gdt
  4

  0
ENDTAB
  0
TABLE
  2
VIEW
  5
6
100
AcDbSymbolTable
 70
0
  0
ENDTAB
  0
TABLE
  2
UCS
  5
7
100
AcDbSymbolTable
 70
0
  0
ENDTAB
  0
TABLE
  2
APPID
  5
9
100
AcDbSymbolTable
 70
1
  0
APPID
  5
201
100
AcDbSymbolTableRecord
100
AcDbRegAppTableRecord
  2
ACAD
 70
0
  0
ENDTAB
  0
TABLE
  2
BLOCK_RECORD
  5
1
100
AcDbSymbolTable
 70
0
  0
BLOCK_RECORD
  5
202
100
AcDbSymbolTableRecord
100
AcDbBlockTableRecord
  2
*Model_Space
  0
BLOCK_RECORD
  5
203
100
AcDbSymbolTableRecord
100
AcDbBlockTableRecord
  2
*Paper_Space
  0
BLOCK_RECORD
  5
204
100
AcDbSymbolTableRecord
100
AcDbBlockTableRecord
  2
_FILLED
  0
ENDTAB
  0
TABLE
  2
DIMSTYLE
  5
A
100
AcDbSymbolTable
 70
1
100
AcDbDimStyleTable
 71
0
  0
DIMSTYLE
105
205
100
AcDbSymbolTableRecord
100
AcDbDimStyleTableRecord
  2
STANDARD
 70
0
  3

  4

 40
1.0
 41
0.1
 42
0.0625
 43
0.38
 44
0.125
 45
0.0
 46
0.0
 47
0.01
 48
0.01
140
0.08
141
0.09
142
0.0
143
25.4
144
1.0
145
0.0
146
1.0
147
0.09
 71
1.0
 72
0.0
 73
1
 74
1
 75
0
 76
0
 77
0
 78
4
 79
1
170
1
171
1
172
0
173
0
174
0
175
0
176
0
177
0
178
0
270
2
179
2
271
2
272
2
273
2
274
2
275
0
280
0
281
0
282
0
283
1
284
4
285
0
286
0
287
3
288
0
340
11
278
46
341
204
342
204
343
204
344
204
  0
ENDTAB
  0
ENDSEC
  0
SECTION
  2
BLOCKS
  0
BLOCK
  5
20
100
AcDbEntity
  8
0
100
AcDbBlockBegin
  2
*Model_Space
 70
0
 10
0.0
 20
0.0
 30
0.0
  3
*Model_Space
  1

  0
ENDBLK
  5
21
100
AcDbEntity
  8
0
100
AcDbBlockEnd
  0
BLOCK
  5
1C
100
AcDbEntity
  8
0
100
AcDbBlockBegin
  2
*Paper_Space
 70
0
 10
0.0
 20
0.0
 30
0.0
  3
*Paper_Space
  1

  0
ENDBLK
  5
1D
100
AcDbEntity
  8
0
100
AcDbBlockEnd
  0
BLOCK
  5
206
100
AcDbEntity
  8
0
100
AcDbBlockBegin
  2
_FILLED
 70
64
 10
0.0
 20
0.0
  3
_FILLED
  1

  0
SOLID
  5
207
100
AcDbEntity
  8
0
  6
BYBLOCK
 62
0
100
AcDbTrace
 10
0.0
 20
0.0
 11
-1.0
 21
0.2
 12
-1.0
 22
-0.2
 13
-1.0
 23
-0.2
  0
ENDBLK
  5
208
100
AcDbEntity
  8
0
  6
BYBLOCK
 62
0
100
AcDbBlockEnd
  0
ENDSEC
  0
SECTION
  2
ENTITIES
  0
MTEXT
  5
209
100
AcDbEntity
  8
0
100
AcDbMText
 62
2
  6
CONTINUOUS
  7
STANDARD
 71
3
 72
1
 10
5.2694099379
 20
0.9196014553
 30
0.0
 11
1.0
 21
0.0
 31
0.0
 73
2
 44
0.9
  1
SCALE  .500
 40
0.08
 41
0.704
  0
LINE
  5
20A
100
AcDbEntity
  8
0
100
AcDbLine
 62
7
  6
CONTINUOUS
 10
0.0
 20
0.0
 11
0.0
 21
8.5
  0
LINE
  5
20B
100
AcDbEntity
  8
0
100
AcDbLine
 62
7
  6
CONTINUOUS
 10
0.0
 20
0.0
 11
11.0
 21
0.0
  0
LINE
  5
20C
100
AcDbEntity
  8
0
100
AcDbLine
 62
7
  6
CONTINUOUS
 10
0.0
 20
8.5
 11
11.0
 21
8.5
  0
LINE
  5
20D
100
AcDbEntity
  8
0
100
AcDbLine
 62
7
  6
CONTINUOUS
 10
11.0
 20
0.0
 11
11.0
 21
8.5
  0
LWPOLYLINE
  5
20E
100
AcDbEntity
  8
0
100
AcDbPolyline
 62
7
  6
CONTINUOUS
 90
43
 70
0
 10
5.0165933815
 20
2.7549326434
 10
5.0172097992
 20
2.7550222576
 10
5.0184365127
 20
2.7552276099
 10
5.0196554375
 20
2.7554679841
 10
5.0208663197
 20
2.7557436648
 10
5.0220672068
 20
2.7560545553
 10
5.0232543888
 20
2.7563999534
 10
5.0244269618
 20
2.7567797783
 10
5.0255839179
 20
2.7571939499
 10
5.0267215991
 20
2.7576413569
 10
5.0278390902
 20
2.7581217136
 10
5.028935522
 20
2.7586348128
 10
5.0300076217
 20
2.7591791986
 10
5.0310545398
 20
2.7597544151
 10
5.0320754834
 20
2.7603600887
 10
5.0330675712
 20
2.7609944415
 10
5.0340300612
 20
2.7616568545
 10
5.0349622441
 20
2.7623467377
 10
5.0358615553
 20
2.7630619423
 10
5.0367272899
 20
2.7638015591
 10
5.0375589768
 20
2.7645648263
 10
5.0383546296
 20
2.7653494263
 10
5.0391134821
 20
2.7661539619
 10
5.0398354887
 20
2.7669776836
 10
5.0405198622
 20
2.767818959
 10
5.0411659374
 20
2.7686761346
 10
5.0417738256
 20
2.7695484206
 10
5.0423438038
 20
2.7704353729
 10
5.0428755601
 20
2.7713357447
 10
5.0433688601
 20
2.7722482552
 10
5.0438238931
 20
2.7731723776
 10
5.04424039
 20
2.774106747
 10
5.0446182044
 20
2.7750500626
 10
5.0449575513
 20
2.77600185
 10
5.0452582509
 20
2.7769606395
 10
5.0455202445
 20
2.7779251206
 10
5.0457437903
 20
2.7788950458
 10
5.0459288357
 20
2.7798690335
 10
5.0460753828
 20
2.7808456812
 10
5.046183629
 20
2.7818246702
 10
5.0462536608
 20
2.7828048895
 10
5.0462855598
 20
2.7837844897
 10
5.046287748
 20
2.7841054471
  0
LWPOLYLINE
  5
20F
100
AcDbEntity
  8
0
100
AcDbPolyline
 62
7
  6
CONTINUOUS
 90
43
 70
0
 10
5.0885463874
 20
2.8035257901
 10
5.089173169
 20
2.8035293162
 10
5.0904237238
 20
2.8035612585
 10
5.0916753124
 20
2.803626548
 10
5.0929275838
 20
2.8037255039
 10
5.0941787455
 20
2.8038583203
 10
5.095425495
 20
2.8040249097
 10
5.0966669177
 20
2.8042253726
 10
5.0979019999
 20
2.8044597927
 10
5.0991273818
 20
2.804727764
 10
5.1003421326
 20
2.8050292342
 10
5.1015452774
 20
2.8053641591
 10
5.1027335623
 20
2.8057318
 10
5.1039060622
 20
2.8061319382
 10
5.1050619027
 20
2.8065644204
 10
5.1061981346
 20
2.807028232
 10
5.1073139336
 20
2.8075230393
 10
5.1084084622
 20
2.8080485584
 10
5.1094790148
 20
2.8086034858
 10
5.1105247084
 20
2.8091872831
 10
5.1115449325
 20
2.8097995999
 10
5.112537627
 20
2.8104391072
 10
5.1135019838
 20
2.8111051491
 10
5.1144374553
 20
2.8117972615
 10
5.1153425325
 20
2.8125141716
 10
5.1162166041
 20
2.8132552302
 10
5.1170590202
 20
2.8140197502
 10
5.1178683389
 20
2.8148061805
 10
5.1186440144
 20
2.8156137131
 10
5.1193854973
 20
2.8164415109
 10
5.1200914957
 20
2.8172877244
 10
5.1207615095
 20
2.8181512588
 10
5.1213952253
 20
2.8190312075
 10
5.1219918034
 20
2.8199257443
 10
5.1225509689
 20
2.8208336925
 10
5.1230725012
 20
2.8217539086
 10
5.123555843
 20
2.8226844116
 10
5.1240009773
 20
2.823623979
 10
5.1244078897
 20
2.8245713194
 10
5.124776273
 20
2.8255241289
 10
5.1251062453
 20
2.8264806338
 10
5.1253982232
 20
2.8274397503
 10
5.1254959951
 20
2.8277924327
  0
LINE
  5
210
100
AcDbEntity
  8
0
100
AcDbLine
 62
7
  6
CONTINUOUS
 10
4.6860220237
 20
2.8085268939
 11
4.705979858
 21
2.8085463937
  0
LINE
  5
211
100
AcDbEntity
  8
0
100
AcDbLine
 62
7
  6
CONTINUOUS
 10
5.0715371104
 20
2.8035417041
 11
5.0885463872
 21
2.80352579
  0
LINE
  5
212
100
AcDbEntity
  8
0
100
AcDbLine
 62
7
  6
CONTINUOUS
 10
5.0718928154
 20
2.8085463937
 11
5.0885400431
 21
2.8085301281
  0
LWPOLYLINE
  5
213
100
AcDbEntity
  8
0
100
AcDbPolyline
 62
7
  6
CONTINUOUS
 90
49
 70
0
 10
4.6860156798
 20
2.8035223915
 10
4.7062835058
 20
2.8035420639
 10
4.7072243613
 20
2.8035256877
 10
4.7081621463
 20
2.8034885109
 10
4.7090952104
 20
2.803430726
 10
4.7100222226
 20
2.803352571
 10
4.7109421964
 20
2.8032542979
 10
4.7118538319
 20
2.8031362192
 10
4.712755811
 20
2.802998701
 10
4.7136471143
 20
2.8028421093
 10
4.7145264835
 20
2.8026668834
 10
4.7153926225
 20
2.8024735272
 10
4.7162444533
 20
2.802262552
 10
4.7170808083
 20
2.802034532
 10
4.7179004971
 20
2.8017901069
 10
4.7187024037
 20
2.8015299569
 10
4.7194854142
 20
2.8012548156
 10
4.7202485162
 20
2.8009654471
 10
4.7209907431
 20
2.80066266
 10
4.7217111267
 20
2.8003473198
 10
4.7224087945
 20
2.8000203225
 10
4.7230829176
 20
2.7996826119
 10
4.7237327004
 20
2.7993351771
 10
4.7243574421
 20
2.7989790377
 10
4.7249564575
 20
2.7986152816
 10
4.7255286312
 20
2.7982453628
 10
4.7260740507
 20
2.797870069
 10
4.726593655
 20
2.7974895371
 10
4.7270863605
 20
2.7971053472
 10
4.7275523436
 20
2.7967182377
 10
4.7279937904
 20
2.7963270918
 10
4.7284100974
 20
2.7959329892
 10
4.7288005498
 20
2.7955372712
 10
4.7291663011
 20
2.7951393607
 10
4.7295070225
 20
2.7947400664
 10
4.729821576
 20
2.7943413437
 10
4.7301094796
 20
2.7939446368
 10
4.7303704977
 20
2.7935512925
 10
4.7306044013
 20
2.7931629418
 10
4.7308109673
 20
2.7927815983
 10
4.7309903991
 20
2.7924091148
 10
4.7311437403
 20
2.7920459362
 10
4.7312723281
 20
2.7916916389
 10
4.7313768534
 20
2.791347586
 10
4.7314587551
 20
2.7910128828
 10
4.731519894
 20
2.7906828907
 10
4.7315608487
 20
2.7903552353
 10
4.7315816983
 20
2.7900301432
 10
4.7315846819
 20
2.7898488181
  0
LWPOLYLINE
  5
214
100
AcDbEntity
  8
0
100
AcDbPolyline
 62
7
  6
CONTINUOUS
 90
25
 70
0
 10
4.7612793182
 20
2.7549326397
 10
4.7712329536
 20
2.753618464
 10
4.7818351671
 20
2.7523485998
 10
4.792465604
 20
2.7512061245
 10
4.8031207988
 20
2.7501888855
 10
4.8137977305
 20
2.7492952595
 10
4.8244932154
 20
2.7485237455
 10
4.8352045624
 20
2.7478729369
 10
4.8459292041
 20
2.7473418619
 10
4.8566641157
 20
2.7469296505
 10
4.8674068381
 20
2.7466355227
 10
4.8781549511
 20
2.7464591163
 10
4.8889054758
 20
2.7464001561
 10
4.8996560687
 20
2.7464584474
 10
4.9104043904
 20
2.7466341874
 10
4.9211474675
 20
2.746927651
 10
4.9318828836
 20
2.7473392097
 10
4.9426081832
 20
2.7478696483
 10
4.9533203485
 20
2.7485198287
 10
4.9640168139
 20
2.7492907331
 10
4.9746948838
 20
2.7501837832
 10
4.9853513748
 20
2.7512004734
 10
4.9959832499
 20
2.7523424328
 10
5.006587031
 20
2.7536118228
 10
5.0165934212
 20
2.7549326489
  0
LWPOLYLINE
  5
215
100
AcDbEntity
  8
0
100
AcDbPolyline
 62
7
  6
CONTINUOUS
 90
40
 70
0
 10
4.6530525723
 20
2.8252507846
 10
4.6531215304
 20
2.8250095586
 10
4.6534123836
 20
2.8240785678
 10
4.6537420959
 20
2.8231509711
 10
4.6541110369
 20
2.8222280569
 10
4.6545192842
 20
2.8213117237
 10
4.6549665124
 20
2.8204042972
 10
4.6554526573
 20
2.8195072056
 10
4.6559776378
 20
2.8186218114
 10
4.6565408543
 20
2.8177501125
 10
4.657142058
 20
2.8168933297
 10
4.6577808737
 20
2.8160528179
 10
4.6584563074
 20
2.8152305151
 10
4.6591679689
 20
2.8144274125
 10
4.6599152843
 20
2.8136446969
 10
4.660696786
 20
2.8128842769
 10
4.6615118413
 20
2.8121470484
 10
4.6623598533
 20
2.811433875
 10
4.6632392372
 20
2.8107462996
 10
4.6641493534
 20
2.8100850084
 10
4.6650894904
 20
2.8094507404
 10
4.6660578419
 20
2.8088448528
 10
4.6670540167
 20
2.8082677535
 10
4.6680769749
 20
2.8077202204
 10
4.669123808
 20
2.8072038807
 10
4.6701938035
 20
2.8067190995
 10
4.6712860466
 20
2.8062663256
 10
4.6723971354
 20
2.8058469504
 10
4.6735262002
 20
2.8054611737
 10
4.6746723061
 20
2.8051092627
 10
4.6758316966
 20
2.8047922456
 10
4.6770034249
 20
2.804510156
 10
4.6781865411
 20
2.8042630993
 10
4.6793770157
 20
2.8040516746
 10
4.6805737908
 20
2.8038757806
 10
4.6817759542
 20
2.8037353259
 10
4.6829795617
 20
2.8036304706
 10
4.6841826101
 20
2.8035609997
 10
4.6853849384
 20
2.8035265391
 10
4.6860156796
 20
2.8035223915
  0
LINE
  5
216
100
AcDbEntity
  8
0
100
AcDbLine
 62
7
  6
CONTINUOUS
 10
4.3889363355
 20
6.6963923335
 11
4.3889363355
 21
6.7013923335
  0
LWPOLYLINE
  5
217
100
AcDbEntity
  8
0
100
AcDbPolyline
 62
7
  6
CONTINUOUS
 90
27
 70
0
 10
4.6525603743
 20
4.2147720902
 10
4.6542166636
 20
4.1953978107
 10
4.6558277422
 20
4.1763700498
 10
4.6573906132
 20
4.1576793558
 10
4.6589023525
 20
4.1393201347
 10
4.6603599862
 20
4.1212925753
 10
4.6617617011
 20
4.1035872131
 10
4.6631067883
 20
4.0861845215
 10
4.6643935634
 20
4.0690810669
 10
4.6656206681
 20
4.0522731411
 10
4.6667881495
 20
4.035741327
 10
4.6678952161
 20
4.0194803593
 10
4.6689409793
 20
4.0034902022
 10
4.6699255125
 20
3.9877596973
 10
4.6708487159
 20
3.9722827977
 10
4.6717102111
 20
3.9570618224
 10
4.6725099043
 20
3.9420985069
 10
4.6732479893
 20
3.9273937371
 10
4.673925061
 20
3.9129443874
 10
4.6745419098
 20
3.8987464811
 10
4.6750990453
 20
3.8848068851
 10
4.6755977518
 20
3.8711176274
 10
4.6760399207
 20
3.8576527632
 10
4.676426516
 20
3.8444129535
 10
4.6767587303
 20
3.8313957969
 10
4.6770382557
 20
3.8185734895
 10
4.6772662407
 20
3.8059385265
  0
LINE
  5
218
100
AcDbEntity
  8
0
100
AcDbLine
 62
7
  6
CONTINUOUS
 10
4.5661362054
 20
5.7746629917
 11
4.5664283448
 21
5.768907739
  0
LINE
  5
219
100
AcDbEntity
  8
0
100
AcDbLine
 62
7
  6
CONTINUOUS
 10
4.5669802241
 20
5.7571672366
 11
4.5673686926
 21
5.7479556778
  0
LINE
  5
21A
100
AcDbEntity
  8
0
100
AcDbLine
 62
7
  6
CONTINUOUS
 10
4.5673686926
 20
5.7479556778
 11
4.5677140291
 21
5.7391361878
  0
LWPOLYLINE
  5
21B
100
AcDbEntity
  8
0
100
AcDbPolyline
 62
7
  6
CONTINUOUS
 90
46
 70
0
 10
4.5743131831
 20
5.5441455476
 10
4.5749511693
 20
5.5267444308
 10
4.5760346129
 20
5.4977872575
 10
4.5771622171
 20
5.4683845476
 10
4.5783346477
 20
5.4385413824
 10
4.5795557979
 20
5.4081830695
 10
4.5808291196
 20
5.377251695
 10
4.5821530385
 20
5.3458124421
 10
4.5835237563
 20
5.3139753561
 10
4.5849444958
 20
5.2816818916
 10
4.5864130502
 20
5.2489976333
 10
4.5879163614
 20
5.2162172186
 10
4.5894542376
 20
5.1833401476
 10
4.5910262217
 20
5.1503711958
 10
4.5926173339
 20
5.1176099475
 10
4.594225894
 20
5.085068429
 10
4.5958514438
 20
5.0527350779
 10
4.5974793942
 20
5.020872032
 10
4.599104462
 20
4.989556691
 10
4.6007304637
 20
4.9587133675
 10
4.6023563432
 20
4.9283733381
 10
4.6039806861
 20
4.8985683173
 10
4.6056054066
 20
4.8692669276
 10
4.6072343295
 20
4.8404046741
 10
4.6088676698
 20
4.8119821914
 10
4.6105055676
 20
4.7839997714
 10
4.6121519597
 20
4.7563932446
 10
4.6138071376
 20
4.7291614175
 10
4.6154711041
 20
4.7023068191
 10
4.6171476353
 20
4.6757716929
 10
4.6188379802
 20
4.649540661
 10
4.6205412462
 20
4.6236310783
 10
4.6222581358
 20
4.5980347535
 10
4.6239892983
 20
4.5727442694
 10
4.6257342133
 20
4.5477687771
 10
4.6274917361
 20
4.523124775
 10
4.6292617523
 20
4.4988127267
 10
4.6310440922
 20
4.4748331044
 10
4.6328373352
 20
4.4512020623
 10
4.6346412599
 20
4.4279186698
 10
4.6364553413
 20
4.4049843412
 10
4.6382781351
 20
4.3824153685
 10
4.640107811
 20
4.36020877
 10
4.6419391289
 20
4.3383586537
 10
4.6437633606
 20
4.3168741822
 10
4.6525603743
 20
4.2147720902
  0
LINE
  5
21C
100
AcDbEntity
  8
0
100
AcDbLine
 62
7
  6
CONTINUOUS
 10
4.5677140291
 20
5.7391361878
 11
4.5681487747
 21
5.7271708925
  0
LINE
  5
21D
100
AcDbEntity
  8
0
100
AcDbLine
 62
7
  6
CONTINUOUS
 10
4.5681487747
 20
5.7271708925
 11
4.5686339565
 21
5.7127821158
  0
LINE
  5
21E
100
AcDbEntity
  8
0
100
AcDbLine
 62
7
  6
CONTINUOUS
 10
4.5686339565
 20
5.7127821158
 11
4.5688588819
 21
5.7058296248
  0
LINE
  5
21F
100
AcDbEntity
  8
0
100
AcDbLine
 62
7
  6
CONTINUOUS
 10
4.5566548067
 20
5.8935940752
 11
4.5579395741
 21
5.8813416356
  0
LWPOLYLINE
  5
220
100
AcDbEntity
  8
0
100
AcDbPolyline
 62
7
  6
CONTINUOUS
 90
3
 70
0
 10
4.5602348258
 20
5.8574796374
 10
4.5603266327
 20
5.8565170906
 10
4.5603931795
 20
5.8557364227
  0
LINE
  5
221
100
AcDbEntity
  8
0
100
AcDbLine
 62
7
  6
CONTINUOUS
 10
4.5653978811
 20
5.7880982152
 11
4.5654108002
 21
5.7878750686
  0
LINE
  5
222
100
AcDbEntity
  8
0
100
AcDbLine
 62
7
  6
CONTINUOUS
 10
4.5661351097
 20
5.7746625104
 11
4.566272553
 21
5.77218808
  0
LINE
  5
223
100
AcDbEntity
  8
0
100
AcDbLine
 62
7
  6
CONTINUOUS
 10
4.6663935297
 20
5.7695503884
 11
4.6664311776
 21
5.7687969144
  0
LINE
  5
224
100
AcDbEntity
  8
0
100
AcDbLine
 62
7
  6
CONTINUOUS
 10
4.6663801911
 20
5.7695492795
 11
4.6664563134
 21
5.7680117885
  0
LINE
  5
225
100
AcDbEntity
  8
0
100
AcDbLine
 62
7
  6
CONTINUOUS
 10
4.6670363309
 20
5.755829677
 11
4.6668161847
 21
5.7604135768
  0
LINE
  5
226
100
AcDbEntity
  8
0
100
AcDbLine
 62
7
  6
CONTINUOUS
 10
4.6674339748
 20
5.7466037432
 11
4.6675260188
 21
5.7443246661
  0
LINE
  5
227
100
AcDbEntity
  8
0
100
AcDbLine
 62
7
  6
CONTINUOUS
 10
4.6678748029
 20
5.7351888688
 11
4.6669338357
 21
5.7578428467
  0
LINE
  5
228
100
AcDbEntity
  8
0
100
AcDbLine
 62
7
  6
CONTINUOUS
 10
4.6722375698
 20
5.6055747907
 11
4.6726942615
 21
5.5931891609
  0
LINE
  5
229
100
AcDbEntity
  8
0
100
AcDbLine
 62
7
  6
CONTINUOUS
 10
4.6678609868
 20
5.7351878894
 11
4.6677177731
 21
5.7392529803
  0
LINE
  5
22A
100
AcDbEntity
  8
0
100
AcDbLine
 62
7
  6
CONTINUOUS
 10
4.6683142317
 20
5.7223226256
 11
4.6686884848
 21
5.7112650011
  0
LINE
  5
22B
100
AcDbEntity
  8
0
100
AcDbLine
 62
7
  6
CONTINUOUS
 10
4.6687175998
 20
5.7112674169
 11
4.6683432821
 21
5.7223249454
  0
LINE
  5
22C
100
AcDbEntity
  8
0
100
AcDbLine
 62
7
  6
CONTINUOUS
 10
4.66940706
 20
5.6886599184
 11
4.6685448954
 21
5.7157752828
  0
LINE
  5
22D
100
AcDbEntity
  8
0
100
AcDbLine
 62
7
  6
CONTINUOUS
 10
4.669431017
 20
5.6886622509
 11
4.6687175998
 21
5.7112674169
  0
LINE
  5
22E
100
AcDbEntity
  8
0
100
AcDbLine
 62
7
  6
CONTINUOUS
 10
4.6772662407
 20
3.8059385265
 11
4.6774436675
 21
3.7934890951
  0
LINE
  5
22F
100
AcDbEntity
  8
0
100
AcDbLine
 62
7
  6
CONTINUOUS
 10
4.6775882857
 20
3.7989277271
 11
4.6775939206
 21
3.7981031765
  0
LINE
  5
230
100
AcDbEntity
  8
0
100
AcDbLine
 62
7
  6
CONTINUOUS
 10
4.6774436675
 20
3.7934890951
 11
4.6776064581
 21
3.7768917992
  0
LINE
  5
231
100
AcDbEntity
  8
0
100
AcDbLine
 62
7
  6
CONTINUOUS
 10
4.6775953609
 20
3.7777552428
 11
4.6776015171
 21
3.7768391497
  0
LWPOLYLINE
  5
232
100
AcDbEntity
  8
0
100
AcDbPolyline
 62
7
  6
CONTINUOUS
 90
43
 70
0
 10
4.7315849254
 20
2.7841054221
 10
4.7315864087
 20
2.7838431653
 10
4.7316160544
 20
2.7828630795
 10
4.7316838623
 20
2.7818823464
 10
4.7317899118
 20
2.7809028245
 10
4.7319342861
 20
2.7799256219
 10
4.7321171806
 20
2.7789510396
 10
4.7323386003
 20
2.7779804777
 10
4.7325984955
 20
2.7770153172
 10
4.7328971215
 20
2.7760557924
 10
4.7332344201
 20
2.7751032174
 10
4.7336102181
 20
2.7741590664
 10
4.7340247364
 20
2.7732238044
 10
4.7344778206
 20
2.7722987329
 10
4.7349692079
 20
2.7713852221
 10
4.7354990985
 20
2.7704837911
 10
4.7360672504
 20
2.7695957242
 10
4.7366733572
 20
2.7687222714
 10
4.7373177134
 20
2.7678638656
 10
4.7380004239
 20
2.7670212975
 10
4.7387208293
 20
2.7661962259
 10
4.739478168
 20
2.7653902744
 10
4.740272401
 20
2.7646041828
 10
4.7411027575
 20
2.7638393685
 10
4.7419672428
 20
2.7630981757
 10
4.7428653705
 20
2.76238137
 10
4.7437964473
 20
2.761689862
 10
4.7447579157
 20
2.7610258056
 10
4.7457490595
 20
2.7603897903
 10
4.7467691444
 20
2.7597824424
 10
4.7478152943
 20
2.7592055378
 10
4.7488867163
 20
2.7586594531
 10
4.7499825622
 20
2.7581446527
 10
4.7510995622
 20
2.7576625898
 10
4.7522368546
 20
2.757213479
 10
4.7533935252
 20
2.7567976046
 10
4.7545659224
 20
2.7564160813
 10
4.7557530435
 20
2.7560689986
 10
4.7569539867
 20
2.7557564346
 10
4.7581650461
 20
2.7554791005
 10
4.759384261
 20
2.7552371012
 10
4.7606113723
 20
2.7550301536
 10
4.7612793562
 20
2.7549326345
  0
LINE
  5
233
100
AcDbEntity
  8
0
100
AcDbLine
 62
7
  6
CONTINUOUS
 10
4.7315974479
 20
2.790285595
 11
4.731584925
 21
2.7841060834
  0
LINE
  5
234
100
AcDbEntity
  8
0
100
AcDbLine
 62
7
  6
CONTINUOUS
 10
4.6860220237
 20
2.8085268939
 11
4.6860156798
 21
2.8035223915
  0
LINE
  5
235
100
AcDbEntity
  8
0
100
AcDbLine
 62
7
  6
CONTINUOUS
 10
4.705979858
 20
2.8085463937
 11
4.705973513
 21
2.8035428808
  0
LWPOLYLINE
  5
236
100
AcDbEntity
  8
0
100
AcDbPolyline
 62
7
  6
CONTINUOUS
 90
22
 70
0
 10
4.6776571426
 20
3.7989244484
 10
4.6776272218
 20
3.781349704
 10
4.6775422568
 20
3.7664404027
 10
4.6774108993
 20
3.7518021425
 10
4.6772383189
 20
3.7373142704
 10
4.6770282056
 20
3.7229628608
 10
4.6767838665
 20
3.7087586517
 10
4.6765069291
 20
3.6946365995
 10
4.6761999259
 20
3.6806036904
 10
4.6758652599
 20
3.6666659569
 10
4.6755032369
 20
3.6527540407
 10
4.6751157784
 20
3.6388756983
 10
4.6747045559
 20
3.6250326616
 10
4.6742684831
 20
3.6111462158
 10
4.67380868
 20
3.5972168772
 10
4.6733264908
 20
3.5832509296
 10
4.6728203618
 20
3.5691755737
 10
4.6722901123
 20
3.5549633384
 10
4.6717377524
 20
3.5406455554
 10
4.6711647697
 20
3.5262367494
 10
4.6705716912
 20
3.5117255317
 10
4.6699601911
 20
3.497127977
  0
LWPOLYLINE
  5
237
100
AcDbEntity
  8
0
100
AcDbPolyline
 62
7
  6
CONTINUOUS
 90
16
 70
0
 10
4.641411992
 20
2.9161584806
 10
4.6413545448
 20
2.9102869171
 10
4.6414135609
 20
2.9040432512
 10
4.6415958638
 20
2.8978158145
 10
4.6419009774
 20
2.8916058712
 10
4.6423283097
 20
2.8854148404
 10
4.6428772206
 20
2.879244234
 10
4.6435470625
 20
2.8730953251
 10
4.64433714
 20
2.8669693961
 10
4.6452467057
 20
2.8608679344
 10
4.6462749713
 20
2.8547922482
 10
4.6474210998
 20
2.8487434135
 10
4.648684241
 20
2.8427225387
 10
4.6500635826
 20
2.8367308247
 10
4.6515583964
 20
2.8307696454
 10
4.6530523664
 20
2.8252515187
  0
LINE
  5
238
100
AcDbEntity
  8
0
100
AcDbLine
 62
7
  6
CONTINUOUS
 10
4.6414786001
 20
2.9190049454
 11
4.6414103447
 21
2.9160883072
  0
LWPOLYLINE
  5
239
100
AcDbEntity
  8
0
100
AcDbPolyline
 62
7
  6
CONTINUOUS
 90
6
 70
0
 10
4.6429431694
 20
2.9637823472
 10
4.6426153818
 20
2.9547140537
 10
4.6423017792
 20
2.9456260106
 10
4.6420035649
 20
2.9365220518
 10
4.6417220383
 20
2.9274073441
 10
4.6414554753
 20
2.9181368079
  0
LINE
  5
23A
100
AcDbEntity
  8
0
100
AcDbLine
 62
7
  6
CONTINUOUS
 10
4.6436368482
 20
2.9818469589
 11
4.6429431694
 21
2.9637823472
  0
LINE
  5
23B
100
AcDbEntity
  8
0
100
AcDbLine
 62
7
  6
CONTINUOUS
 10
4.6443742404
 20
2.9997902118
 11
4.6436368482
 21
2.9818469589
  0
LINE
  5
23C
100
AcDbEntity
  8
0
100
AcDbLine
 62
7
  6
CONTINUOUS
 10
4.6699601911
 20
3.497127977
 11
4.6686936953
 21
3.4678452603
  0
LINE
  5
23D
100
AcDbEntity
  8
0
100
AcDbLine
 62
7
  6
CONTINUOUS
 10
4.64514766
 20
3.017586953
 11
4.6443742404
 21
2.9997902118
  0
LINE
  5
23E
100
AcDbEntity
  8
0
100
AcDbLine
 62
7
  6
CONTINUOUS
 10
4.6686936953
 20
3.4678452603
 11
4.6673806651
 21
3.438519348
  0
LINE
  5
23F
100
AcDbEntity
  8
0
100
AcDbLine
 62
7
  6
CONTINUOUS
 10
4.6459503694
 20
3.035218661
 11
4.64514766
 21
3.017586953
  0
LINE
  5
240
100
AcDbEntity
  8
0
100
AcDbLine
 62
7
  6
CONTINUOUS
 10
4.6673806651
 20
3.438519348
 11
4.6660397383
 21
3.4093374249
  0
LINE
  5
241
100
AcDbEntity
  8
0
100
AcDbLine
 62
7
  6
CONTINUOUS
 10
4.6660397383
 20
3.4093374249
 11
4.6654363366
 21
3.3963884068
  0
LINE
  5
242
100
AcDbEntity
  8
0
100
AcDbLine
 62
7
  6
CONTINUOUS
 10
4.6467761831
 20
3.0526656299
 11
4.6459503694
 21
3.035218661
  0
LINE
  5
243
100
AcDbEntity
  8
0
100
AcDbLine
 62
7
  6
CONTINUOUS
 10
4.6480468952
 20
3.0784649828
 11
4.6467761831
 21
3.0526656299
  0
LINE
  5
244
100
AcDbEntity
  8
0
100
AcDbLine
 62
7
  6
CONTINUOUS
 10
4.6493425583
 20
3.1037902718
 11
4.6480468952
 21
3.0784649828
  0
LINE
  5
245
100
AcDbEntity
  8
0
100
AcDbLine
 62
7
  6
CONTINUOUS
 10
4.664329358
 20
3.3751760386
 11
4.6643106245
 21
3.3748205415
  0
LINE
  5
246
100
AcDbEntity
  8
0
100
AcDbLine
 62
7
  6
CONTINUOUS
 10
4.6510873111
 20
3.1367807894
 11
4.6493425583
 21
3.1037902718
  0
LINE
  5
247
100
AcDbEntity
  8
0
100
AcDbLine
 62
7
  6
CONTINUOUS
 10
4.6654363355
 20
3.3963883833
 11
4.6640095855
 21
3.3698766526
  0
LINE
  5
248
100
AcDbEntity
  8
0
100
AcDbLine
 62
7
  6
CONTINUOUS
 10
4.6640095855
 20
3.3698766526
 11
4.6623765195
 21
3.3400165563
  0
LINE
  5
249
100
AcDbEntity
  8
0
100
AcDbLine
 62
7
  6
CONTINUOUS
 10
4.6541221345
 20
3.1922516481
 11
4.6510873111
 21
3.1367807894
  0
LINE
  5
24A
100
AcDbEntity
  8
0
100
AcDbLine
 62
7
  6
CONTINUOUS
 10
4.6623765195
 20
3.3400165563
 11
4.6613155884
 21
3.3208341564
  0
LINE
  5
24B
100
AcDbEntity
  8
0
100
AcDbLine
 62
7
  6
CONTINUOUS
 10
4.6613155884
 20
3.3208341564
 11
4.660205458
 21
3.3008976635
  0
LINE
  5
24C
100
AcDbEntity
  8
0
100
AcDbLine
 62
7
  6
CONTINUOUS
 10
4.6553963531
 20
3.215119334
 11
4.6541221345
 21
3.1922516481
  0
LWPOLYLINE
  5
24D
100
AcDbEntity
  8
0
100
AcDbPolyline
 62
7
  6
CONTINUOUS
 90
4
 70
0
 10
4.660205458
 20
3.3008976635
 10
4.6594423699
 20
3.2872527141
 10
4.6590545315
 20
3.2803310411
 10
4.6586626564
 20
3.2733440816
  0
LINE
  5
24E
100
AcDbEntity
  8
0
100
AcDbLine
 62
7
  6
CONTINUOUS
 10
4.6562326905
 20
3.2300567389
 11
4.6553963531
 21
3.215119334
  0
LINE
  5
24F
100
AcDbEntity
  8
0
100
AcDbLine
 62
7
  6
CONTINUOUS
 10
4.6586626564
 20
3.2733440816
 11
4.6562326905
 21
3.2300567389
  0
LWPOLYLINE
  5
250
100
AcDbEntity
  8
0
100
AcDbPolyline
 62
7
  6
CONTINUOUS
 90
30
 70
0
 10
4.7776358375
 20
3.8398451878
 10
4.7776276084
 20
3.8303315117
 10
4.777569276
 20
3.814848479
 10
4.7774657425
 20
3.7996044795
 10
4.777326408
 20
3.7845050465
 10
4.7771556749
 20
3.7695170089
 10
4.7769557507
 20
3.7546488446
 10
4.7767279886
 20
3.7398545145
 10
4.7764743146
 20
3.7251495794
 10
4.7761962669
 20
3.7105309828
 10
4.7758936715
 20
3.6959238417
 10
4.775567574
 20
3.6813313705
 10
4.7752190072
 20
3.6667587738
 10
4.7748469062
 20
3.6521317264
 10
4.7744513742
 20
3.6374349375
 10
4.7740335064
 20
3.6226893585
 10
4.7735932329
 20
3.6078737712
 10
4.7731306242
 20
3.5929755566
 10
4.7726466527
 20
3.5780130319
 10
4.7721425547
 20
3.5630112492
 10
4.771618888
 20
3.5479728193
 10
4.771076226
 20
3.5329013597
 10
4.7705160549
 20
3.5178237361
 10
4.7699390841
 20
3.5027453197
 10
4.7693459145
 20
3.4876674626
 10
4.7687378675
 20
3.4726115419
 10
4.7681159426
 20
3.4575859493
 10
4.7674806074
 20
3.442590174
 10
4.7668328131
 20
3.4276330869
 10
4.7661733308
 20
3.4127180494
  0
LINE
  5
251
100
AcDbEntity
  8
0
100
AcDbLine
 62
7
  6
CONTINUOUS
 10
4.7315972699
 20
2.7845396018
 11
4.731584925
 21
2.7841060833
  0
LINE
  5
252
100
AcDbEntity
  8
0
100
AcDbLine
 62
7
  6
CONTINUOUS
 10
4.7315974479
 20
2.790285595
 11
4.7315846823
 21
2.789850738
  0
LINE
  5
253
100
AcDbEntity
  8
0
100
AcDbLine
 62
7
  6
CONTINUOUS
 10
4.765493225
 20
3.3976369339
 11
4.7661733308
 21
3.4127180494
  0
LINE
  5
254
100
AcDbEntity
  8
0
100
AcDbLine
 62
7
  6
CONTINUOUS
 10
4.7654363335
 20
3.3963883376
 11
4.765493225
 21
3.3976369339
  0
LINE
  5
255
100
AcDbEntity
  8
0
100
AcDbLine
 62
7
  6
CONTINUOUS
 10
4.7654363376
 20
3.3963884143
 11
4.7654388534
 21
3.3964261619
  0
LINE
  5
256
100
AcDbEntity
  8
0
100
AcDbLine
 62
7
  6
CONTINUOUS
 10
4.5014596313
 20
6.1982790584
 11
4.5018835024
 21
6.1966539985
  0
LWPOLYLINE
  5
257
100
AcDbEntity
  8
0
100
AcDbPolyline
 62
7
  6
CONTINUOUS
 90
15
 70
0
 10
4.5038203956
 20
6.1890286199
 10
4.5089566317
 20
6.1682080507
 10
4.5138745338
 20
6.1473751118
 10
4.5185723309
 20
6.1265457692
 10
4.5230534634
 20
6.1057135473
 10
4.5273081632
 20
6.0849361633
 10
4.5313236943
 20
6.0642985827
 10
4.5351191432
 20
6.0437264039
 10
4.53872876
 20
6.0230369277
 10
4.5421443647
 20
6.0022667546
 10
4.5453691882
 20
5.9813853985
 10
4.5484409647
 20
5.9601054845
 10
4.5513519543
 20
5.9384001409
 10
4.5540863795
 20
5.9162985237
 10
4.5566548067
 20
5.8935940752
  0
LINE
  5
258
100
AcDbEntity
  8
0
100
AcDbLine
 62
7
  6
CONTINUOUS
 10
5.0124363334
 20
3.3963884141
 11
5.0123507736
 21
3.3976739855
  0
LWPOLYLINE
  5
259
100
AcDbEntity
  8
0
100
AcDbPolyline
 62
7
  6
CONTINUOUS
 90
3
 70
0
 10
5.1212790438
 20
3.2352474717
 10
5.1187665028
 20
3.2804247918
 10
5.1185301573
 20
3.2846795372
  0
LWPOLYLINE
  5
25A
100
AcDbEntity
  8
0
100
AcDbPolyline
 62
7
  6
CONTINUOUS
 90
4
 70
0
 10
5.1185301573
 20
3.2846795372
 10
5.1180661624
 20
3.2930403361
 10
5.1178384666
 20
3.2971477664
 10
5.1176136444
 20
3.3012067618
  0
LWPOLYLINE
  5
25B
100
AcDbEntity
  8
0
100
AcDbPolyline
 62
7
  6
CONTINUOUS
 90
3
 70
0
 10
5.1220782069
 20
3.2208485693
 10
5.1218098529
 20
3.2256876321
 10
5.1212790438
 20
3.2352474717
  0
LWPOLYLINE
  5
25C
100
AcDbEntity
  8
0
100
AcDbPolyline
 62
7
  6
CONTINUOUS
 90
3
 70
0
 10
5.1176136444
 20
3.3012067618
 10
5.1171726339
 20
3.309180007
 10
5.1169564024
 20
3.3130953738
  0
LWPOLYLINE
  5
25D
100
AcDbEntity
  8
0
100
AcDbPolyline
 62
7
  6
CONTINUOUS
 90
3
 70
0
 10
5.1228936889
 20
3.2061101083
 10
5.1226201979
 20
3.2110593355
 10
5.1220782069
 20
3.2208485693
  0
LINE
  5
25E
100
AcDbEntity
  8
0
100
AcDbLine
 62
7
  6
CONTINUOUS
 10
5.1169564024
 20
3.3130953738
 11
5.1165325036
 21
3.3207839618
  0
LWPOLYLINE
  5
25F
100
AcDbEntity
  8
0
100
AcDbPolyline
 62
7
  6
CONTINUOUS
 90
3
 70
0
 10
5.1165325036
 20
3.3207839618
 10
5.1161198944
 20
3.3282860195
 10
5.115917819
 20
3.3319673486
  0
LINE
  5
260
100
AcDbEntity
  8
0
100
AcDbLine
 62
7
  6
CONTINUOUS
 10
5.1237228317
 20
3.1910566814
 11
5.1228936889
 21
3.2061101083
  0
LINE
  5
261
100
AcDbEntity
  8
0
100
AcDbLine
 62
7
  6
CONTINUOUS
 10
5.115917819
 20
3.3319673486
 11
5.1155221095
 21
3.3391911037
  0
LINE
  5
262
100
AcDbEntity
  8
0
100
AcDbLine
 62
7
  6
CONTINUOUS
 10
5.1155221095
 20
3.3391911037
 11
5.115137726
 21
3.3462283847
  0
LINE
  5
263
100
AcDbEntity
  8
0
100
AcDbLine
 62
7
  6
CONTINUOUS
 10
5.124562836
 20
3.1757121698
 11
5.1237228317
 21
3.1910566814
  0
LINE
  5
264
100
AcDbEntity
  8
0
100
AcDbLine
 62
7
  6
CONTINUOUS
 10
5.115137726
 20
3.3462283847
 11
5.114764713
 21
3.3530781766
  0
LINE
  5
265
100
AcDbEntity
  8
0
100
AcDbLine
 62
7
  6
CONTINUOUS
 10
5.114764713
 20
3.3530781766
 11
5.1144032911
 21
3.359735966
  0
LINE
  5
266
100
AcDbEntity
  8
0
100
AcDbLine
 62
7
  6
CONTINUOUS
 10
5.1144032911
 20
3.359735966
 11
5.1140525601
 21
3.3662177224
  0
LINE
  5
267
100
AcDbEntity
  8
0
100
AcDbLine
 62
7
  6
CONTINUOUS
 10
5.1140525601
 20
3.3662177224
 11
5.1137117857
 21
3.3725363533
  0
LINE
  5
268
100
AcDbEntity
  8
0
100
AcDbLine
 62
7
  6
CONTINUOUS
 10
5.1137117857
 20
3.3725363533
 11
5.1133795401
 21
3.378717778
  0
LINE
  5
269
100
AcDbEntity
  8
0
100
AcDbLine
 62
7
  6
CONTINUOUS
 10
5.1133795401
 20
3.378717778
 11
5.1130507117
 21
3.3848570841
  0
LINE
  5
26A
100
AcDbEntity
  8
0
100
AcDbLine
 62
7
  6
CONTINUOUS
 10
5.1276846675
 20
3.1173620165
 11
5.124562836
 21
3.1757121698
  0
LINE
  5
26B
100
AcDbEntity
  8
0
100
AcDbLine
 62
7
  6
CONTINUOUS
 10
5.1128865481
 20
3.3876533
 11
5.1128891808
 21
3.3876027267
  0
LINE
  5
26C
100
AcDbEntity
  8
0
100
AcDbLine
 62
7
  6
CONTINUOUS
 10
5.1124363356
 20
3.396388382
 11
5.1130507117
 21
3.3848570841
  0
LINE
  5
26D
100
AcDbEntity
  8
0
100
AcDbLine
 62
7
  6
CONTINUOUS
 10
5.1290927329
 20
3.0899848389
 11
5.1276846675
 21
3.1173620165
  0
LWPOLYLINE
  5
26E
100
AcDbEntity
  8
0
100
AcDbPolyline
 62
7
  6
CONTINUOUS
 90
30
 70
0
 10
5.0124363375
 20
3.3963883378
 10
5.0116974901
 20
3.4127594724
 10
5.0110381177
 20
3.427672845
 10
5.0103904363
 20
3.4426281589
 10
5.0097552152
 20
3.457622055
 10
5.0091334051
 20
3.4726457236
 10
5.0085254727
 20
3.4876996754
 10
5.0079324149
 20
3.5027755186
 10
5.0073555515
 20
3.5178519471
 10
5.0067954844
 20
3.5329276108
 10
5.0062529211
 20
3.5479971384
 10
5.0057293467
 20
3.5630337269
 10
5.0052253341
 20
3.5780337627
 10
5.0047414415
 20
3.5929946319
 10
5.0042789038
 20
3.6078913336
 10
5.003838693
 20
3.6227055826
 10
5.003420881
 20
3.6374499648
 10
5.0030253997
 20
3.6521456512
 10
5.0026533445
 20
3.6667716867
 10
5.0023048189
 20
3.6813433649
 10
5.0019787592
 20
3.6959349739
 10
5.0016761983
 20
3.7105413044
 10
5.0013981822
 20
3.7251591465
 10
5.0011445374
 20
3.7398633588
 10
5.0009168019
 20
3.7546570044
 10
5.0007169028
 20
3.7695245157
 10
5.0005461913
 20
3.7845118904
 10
5.0004068755
 20
3.7996106637
 10
5.0003033661
 20
3.8148540759
 10
5.0002450525
 20
3.8303363735
  0
LINE
  5
26F
100
AcDbEntity
  8
0
100
AcDbLine
 62
7
  6
CONTINUOUS
 10
5.0462752254
 20
2.7902855949
 11
5.046287991
 21
2.789850738
  0
LINE
  5
270
100
AcDbEntity
  8
0
100
AcDbLine
 62
7
  6
CONTINUOUS
 10
5.0462754034
 20
2.7845396017
 11
5.0462877483
 21
2.7841060833
  0
LINE
  5
271
100
AcDbEntity
  8
0
100
AcDbLine
 62
7
  6
CONTINUOUS
 10
5.0462877483
 20
2.7841060833
 11
5.0462752254
 21
2.790285595
  0
LINE
  5
272
100
AcDbEntity
  8
0
100
AcDbLine
 62
7
  6
CONTINUOUS
 10
5.0002369528
 20
3.8398457846
 11
5.0002450525
 21
3.8303363735
  0
LINE
  5
273
100
AcDbEntity
  8
0
100
AcDbLine
 62
7
  6
CONTINUOUS
 10
5.0002367548
 20
3.8392733839
 11
5.0002368176
 21
3.8394641939
  0
LINE
  5
274
100
AcDbEntity
  8
0
100
AcDbLine
 62
7
  6
CONTINUOUS
 10
4.4876533499
 20
6.2494012635
 11
4.4876863355
 21
6.2492865271
  0
LWPOLYLINE
  5
275
100
AcDbEntity
  8
0
100
AcDbPolyline
 62
7
  6
CONTINUOUS
 90
21
 70
0
 10
4.491967039
 20
6.2339850501
 10
4.4952361431
 20
6.2219893594
 10
4.5004712454
 20
6.2021722334
 10
4.5054908297
 20
6.1824004811
 10
4.5102976038
 20
6.1626774458
 10
4.5148822614
 20
6.1430586926
 10
4.5192408624
 20
6.1235843512
 10
4.523385411
 20
6.1042249134
 10
4.5273304713
 20
6.0849315132
 10
4.5310718166
 20
6.0657433427
 10
4.5346191035
 20
6.0466301033
 10
4.5380021807
 20
6.0274363242
 10
4.5412190871
 20
6.0081661082
 10
4.544268398
 20
5.9888205789
 10
4.5471722456
 20
5.9692368583
 10
4.5499249398
 20
5.9494131783
 10
4.5525197682
 20
5.9293545256
 10
4.5549684811
 20
5.9089060639
 10
4.5572640902
 20
5.8880320307
 10
4.5593907923
 20
5.8667710668
 10
4.5610011266
 20
5.8490439193
  0
LINE
  5
276
100
AcDbEntity
  8
0
100
AcDbLine
 62
7
  6
CONTINUOUS
 10
4.496347417
 20
6.2177827072
 11
4.4968601102
 21
6.2158914338
  0
LINE
  5
277
100
AcDbEntity
  8
0
100
AcDbLine
 62
7
  6
CONTINUOUS
 10
5.1307437741
 20
3.0565365496
 11
5.1290927329
 21
3.0899848389
  0
LINE
  5
278
100
AcDbEntity
  8
0
100
AcDbLine
 62
7
  6
CONTINUOUS
 10
5.1128626125
 20
3.3872804333
 11
5.11284758
 21
3.3876009157
  0
LINE
  5
279
100
AcDbEntity
  8
0
100
AcDbLine
 62
7
  6
CONTINUOUS
 10
5.1128626498
 20
3.3872804217
 11
5.112847651
 21
3.3876008606
  0
LINE
  5
27A
100
AcDbEntity
  8
0
100
AcDbLine
 62
7
  6
CONTINUOUS
 10
5.1124568522
 20
3.3959500392
 11
5.1111242608
 21
3.4247425813
  0
LINE
  5
27B
100
AcDbEntity
  8
0
100
AcDbLine
 62
7
  6
CONTINUOUS
 10
5.1320677976
 20
3.0281925039
 11
5.1307437741
 21
3.0565365496
  0
LINE
  5
27C
100
AcDbEntity
  8
0
100
AcDbLine
 62
7
  6
CONTINUOUS
 10
5.1111242608
 20
3.4247425813
 11
5.1097884533
 21
3.4543024566
  0
LWPOLYLINE
  5
27D
100
AcDbEntity
  8
0
100
AcDbPolyline
 62
7
  6
CONTINUOUS
 90
23
 70
0
 10
5.1097884533
 20
3.4543024566
 10
5.1084994536
 20
3.4837505664
 10
5.1078772624
 20
3.4983833043
 10
5.1072714584
 20
3.5129507241
 10
5.1066845212
 20
3.5274154666
 10
5.1061179246
 20
3.5417622851
 10
5.1055720978
 20
3.5560009871
 10
5.1050478183
 20
3.5701320752
 10
5.1045468573
 20
3.5841283044
 10
5.1040691517
 20
3.5980120998
 10
5.103613049
 20
3.6118574427
 10
5.1031798365
 20
3.6256582541
 10
5.1027706556
 20
3.6394141286
 10
5.1023844265
 20
3.6532055639
 10
5.1020227977
 20
3.6670308816
 10
5.1016876915
 20
3.680882402
 10
5.1013794377
 20
3.6948288154
 10
5.1011004844
 20
3.7088644554
 10
5.1008534703
 20
3.7229819979
 10
5.100640189
 20
3.7372446765
 10
5.1004641887
 20
3.7516422734
 10
5.1003291507
 20
3.7661876178
 10
5.1002408405
 20
3.7809971406
  0
LINE
  5
27E
100
AcDbEntity
  8
0
100
AcDbLine
 62
7
  6
CONTINUOUS
 10
5.1330781203
 20
3.0052385319
 11
5.1320677976
 21
3.0281925039
  0
LINE
  5
27F
100
AcDbEntity
  8
0
100
AcDbLine
 62
7
  6
CONTINUOUS
 10
5.1337988765
 20
2.9878823976
 11
5.1330781203
 21
3.0052385319
  0
LINE
  5
280
100
AcDbEntity
  8
0
100
AcDbLine
 62
7
  6
CONTINUOUS
 10
5.1344809272
 20
2.9704265521
 11
5.1337988765
 21
2.9878823976
  0
LINE
  5
281
100
AcDbEntity
  8
0
100
AcDbLine
 62
7
  6
CONTINUOUS
 10
5.1351172047
 20
2.9528929492
 11
5.1344809272
 21
2.9704265521
  0
LINE
  5
282
100
AcDbEntity
  8
0
100
AcDbLine
 62
7
  6
CONTINUOUS
 10
5.1355121282
 20
2.941172756
 11
5.1351172047
 21
2.9528929492
  0
LINE
  5
283
100
AcDbEntity
  8
0
100
AcDbLine
 62
7
  6
CONTINUOUS
 10
5.1358807376
 20
2.9294366354
 11
5.1355121282
 21
2.941172756
  0
LINE
  5
284
100
AcDbEntity
  8
0
100
AcDbLine
 62
7
  6
CONTINUOUS
 10
5.136222949
 20
2.9175609396
 11
5.1358807376
 21
2.9294366354
  0
LINE
  5
285
100
AcDbEntity
  8
0
100
AcDbLine
 62
7
  6
CONTINUOUS
 10
5.1362674834
 20
2.9155304982
 11
5.1362005766
 21
2.9184072422
  0
LINE
  5
286
100
AcDbEntity
  8
0
100
AcDbLine
 62
7
  6
CONTINUOUS
 10
5.1362671618
 20
2.9155304774
 11
5.1362658833
 21
2.9155990858
  0
LINE
  5
287
100
AcDbEntity
  8
0
100
AcDbLine
 62
7
  6
CONTINUOUS
 10
5.1363233573
 20
2.9098689202
 11
5.1362658833
 21
2.9155990858
  0
LINE
  5
288
100
AcDbEntity
  8
0
100
AcDbLine
 62
7
  6
CONTINUOUS
 10
5.0718928154
 20
2.8085463937
 11
5.0718991603
 21
2.8035428807
  0
LINE
  5
289
100
AcDbEntity
  8
0
100
AcDbLine
 62
7
  6
CONTINUOUS
 10
5.0885400431
 20
2.8085301281
 11
5.0885463872
 21
2.8035257901
  0
LINE
  5
28A
100
AcDbEntity
  8
0
100
AcDbLine
 62
7
  6
CONTINUOUS
 10
5.1002408405
 20
3.7809971406
 11
5.1002088019
 21
3.7984702331
  0
LINE
  5
28B
100
AcDbEntity
  8
0
100
AcDbLine
 62
7
  6
CONTINUOUS
 10
5.1002769644
 20
3.7984732876
 11
5.1002720631
 21
3.7977700234
  0
LINE
  5
28C
100
AcDbEntity
  8
0
100
AcDbLine
 62
7
  6
CONTINUOUS
 10
5.1002652916
 20
3.7768967291
 11
5.100382196
 21
3.7895802054
  0
LWPOLYLINE
  5
28D
100
AcDbEntity
  8
0
100
AcDbPolyline
 62
7
  6
CONTINUOUS
 90
27
 70
0
 10
5.100382196
 20
3.7895802054
 10
5.1005454084
 20
3.8019215376
 10
5.1007579304
 20
3.8144357493
 10
5.101021334
 20
3.8271521599
 10
5.1013364564
 20
3.8400592934
 10
5.1017043804
 20
3.8531632382
 10
5.1021269942
 20
3.8664955378
 10
5.1026054681
 20
3.8800588803
 10
5.1031406659
 20
3.8938507364
 10
5.1037343657
 20
3.9078938641
 10
5.104387823
 20
3.9221968629
 10
5.1051014434
 20
3.9367527214
 10
5.1058757046
 20
3.9515610322
 10
5.1067109976
 20
3.9666235145
 10
5.1076074813
 20
3.9819412945
 10
5.1085649781
 20
3.9975134723
 10
5.1095829509
 20
4.0133374458
 10
5.1106612353
 20
4.0294201194
 10
5.1117999712
 20
4.0457752472
 10
5.11299824
 20
4.0624041503
 10
5.1142550947
 20
4.0793114273
 10
5.1155704462
 20
4.0965161862
 10
5.1169428663
 20
4.1140229649
 10
5.1183705104
 20
4.1318350171
 10
5.1198523761
 20
4.1499700756
 10
5.1213865726
 20
4.1684386481
 10
5.1229699039
 20
4.1872401347
  0
LINE
  5
28E
100
AcDbEntity
  8
0
100
AcDbLine
 62
7
  6
CONTINUOUS
 10
5.0946396175
 20
2.799387627
 11
5.0946387386
 21
2.7993282509
  0
LWPOLYLINE
  5
28F
100
AcDbEntity
  8
0
100
AcDbPolyline
 62
7
  6
CONTINUOUS
 90
48
 70
0
 10
5.0462879914
 20
2.7898487005
 10
5.0462905539
 20
2.7900171536
 10
5.0463105994
 20
2.7903421322
 10
5.0463507213
 20
2.7906695307
 10
5.0464109791
 20
2.7909991408
 10
5.0464919417
 20
2.7913333698
 10
5.0465954491
 20
2.7916768891
 10
5.0467229305
 20
2.7920305963
 10
5.0468750855
 20
2.7923931542
 10
5.0470532572
 20
2.7927650388
 10
5.0472585064
 20
2.7931458203
 10
5.0474910347
 20
2.7935336471
 10
5.0477506447
 20
2.7939265313
 10
5.0480371272
 20
2.794322854
 10
5.0483502445
 20
2.7947212645
 10
5.0486895302
 20
2.7951203179
 10
5.049053855
 20
2.7955180611
 10
5.0494428907
 20
2.7959136806
 10
5.0498577869
 20
2.7963077418
 10
5.0502978268
 20
2.7966989025
 10
5.0507624115
 20
2.7970860812
 10
5.051253715
 20
2.7974703843
 10
5.0517719036
 20
2.7978510712
 10
5.0523159021
 20
2.7982265633
 10
5.0528866487
 20
2.7985967225
 10
5.0534842189
 20
2.7989607587
 10
5.0541075075
 20
2.7993172211
 10
5.054755852
 20
2.7996650308
 10
5.0554285485
 20
2.8000031687
 10
5.0561248069
 20
2.8003306442
 10
5.0568438233
 20
2.8006465208
 10
5.0575847299
 20
2.8009499039
 10
5.0583465609
 20
2.801239923
 10
5.05912836
 20
2.8015157683
 10
5.0599291174
 20
2.8017766755
 10
5.0607477201
 20
2.8020219054
 10
5.0615830489
 20
2.8022507726
 10
5.0624339163
 20
2.8024626367
 10
5.0632991615
 20
2.8026569204
 10
5.0641777012
 20
2.8028331077
 10
5.0650682356
 20
2.8029906934
 10
5.0659695141
 20
2.8031292352
 10
5.0668805222
 20
2.8032483645
 10
5.067799945
 20
2.8033477138
 10
5.0687264782
 20
2.8034269669
 10
5.0696591261
 20
2.8034858685
 10
5.0705965516
 20
2.803524179
 10
5.0715371104
 20
2.8035417041
  0
LINE
  5
290
100
AcDbEntity
  8
0
100
AcDbLine
 62
7
  6
CONTINUOUS
 10
5.0946404646
 20
2.7993876142
 11
5.094638723
 21
2.7993282511
  0
LINE
  5
291
100
AcDbEntity
  8
0
100
AcDbLine
 62
7
  6
CONTINUOUS
 10
5.1091438981
 20
5.7109215367
 11
5.1084387241
 21
5.6885436707
  0
LINE
  5
292
100
AcDbEntity
  8
0
100
AcDbLine
 62
7
  6
CONTINUOUS
 10
5.1086409125
 20
5.6942060841
 11
5.1093745825
 21
5.7168779711
  0
LINE
  5
293
100
AcDbEntity
  8
0
100
AcDbLine
 62
7
  6
CONTINUOUS
 10
5.1095351438
 20
5.722493729
 11
5.1091438981
 21
5.7109215367
  0
LINE
  5
294
100
AcDbEntity
  8
0
100
AcDbLine
 62
7
  6
CONTINUOUS
 10
5.1091604124
 20
5.7109202036
 11
5.1095429826
 21
5.7224928653
  0
LINE
  5
295
100
AcDbEntity
  8
0
100
AcDbLine
 62
7
  6
CONTINUOUS
 10
5.1095639772
 20
5.7224914118
 11
5.1093428071
 21
5.7162307131
  0
LINE
  5
296
100
AcDbEntity
  8
0
100
AcDbLine
 62
7
  6
CONTINUOUS
 10
5.1051792213
 20
5.5932514799
 11
5.1056282479
 21
5.6055167955
  0
LINE
  5
297
100
AcDbEntity
  8
0
100
AcDbLine
 62
7
  6
CONTINUOUS
 10
5.1100384171
 20
5.7362621227
 11
5.1099843302
 21
5.7348440753
  0
LINE
  5
298
100
AcDbEntity
  8
0
100
AcDbLine
 62
7
  6
CONTINUOUS
 10
5.1100003163
 20
5.7348429366
 11
5.1103454085
 21
5.7442992121
  0
LINE
  5
299
100
AcDbEntity
  8
0
100
AcDbLine
 62
7
  6
CONTINUOUS
 10
5.1101715802
 20
5.7396909339
 11
5.1104299061
 21
5.7463913096
  0
LINE
  5
29A
100
AcDbEntity
  8
0
100
AcDbLine
 62
7
  6
CONTINUOUS
 10
5.1110540344
 20
5.7607043346
 11
5.1104487331
 21
5.7462906251
  0
LINE
  5
29B
100
AcDbEntity
  8
0
100
AcDbLine
 62
7
  6
CONTINUOUS
 10
5.1106652324
 20
5.7516674135
 11
5.1101723998
 21
5.7392509037
  0
LINE
  5
29C
100
AcDbEntity
  8
0
100
AcDbLine
 62
7
  6
CONTINUOUS
 10
5.1110694614
 20
5.760702175
 11
5.1109886457
 21
5.7589466728
  0
LINE
  5
29D
100
AcDbEntity
  8
0
100
AcDbLine
 62
7
  6
CONTINUOUS
 10
5.1114853222
 20
5.7694050087
 11
5.1114352859
 21
5.7683567808
  0
LINE
  5
29E
100
AcDbEntity
  8
0
100
AcDbLine
 62
7
  6
CONTINUOUS
 10
5.1114498585
 20
5.7689537354
 11
5.111472464
 21
5.7694060511
  0
LWPOLYLINE
  5
29F
100
AcDbEntity
  8
0
100
AcDbPolyline
 62
7
  6
CONTINUOUS
 90
45
 70
0
 10
5.1332868315
 20
4.3072307242
 10
5.135096346
 20
4.3284497277
 10
5.1369158016
 20
4.3500267963
 10
5.1387383239
 20
4.3719680884
 10
5.140555729
 20
4.3942622959
 10
5.1423645205
 20
4.416912901
 10
5.1441644698
 20
4.4399218742
 10
5.1459538076
 20
4.4632722902
 10
5.147732233
 20
4.4869639494
 10
5.1494994924
 20
4.5109968899
 10
5.1512541996
 20
4.5353545882
 10
5.1529962099
 20
4.560036213
 10
5.1547254733
 20
4.585041477
 10
5.1564409237
 20
4.6103542261
 10
5.1581418686
 20
4.6359620136
 10
5.1598292056
 20
4.6618754237
 10
5.1615043069
 20
4.6881127763
 10
5.163166403
 20
4.7146585992
 10
5.1648166149
 20
4.7415264742
 10
5.1664589686
 20
4.7687788774
 10
5.1680935162
 20
4.7964143238
 10
5.1697204822
 20
4.8244330802
 10
5.1713438676
 20
4.852901097
 10
5.1729638391
 20
4.8818186477
 10
5.1745805845
 20
4.9111846394
 10
5.1761979137
 20
4.9410637135
 10
5.1778183307
 20
4.9714988775
 10
5.1794398276
 20
5.0024468061
 10
5.1810594275
 20
5.0338418811
 10
5.1826801502
 20
5.0657532104
 10
5.1842967387
 20
5.0981106551
 10
5.1858941127
 20
5.1306379705
 10
5.1874716093
 20
5.1633411464
 10
5.1890278989
 20
5.1962130729
 10
5.1905482456
 20
5.2289545021
 10
5.1920321935
 20
5.2615578605
 10
5.1934797715
 20
5.2940261593
 10
5.1948785022
 20
5.3260732961
 10
5.1962258796
 20
5.3576240129
 10
5.1975256318
 20
5.3887463415
 10
5.1987756134
 20
5.4193677763
 10
5.1999746866
 20
5.4494343157
 10
5.2011258109
 20
5.478992926
 10
5.202232992
 20
5.5081228217
 10
5.2037766286
 20
5.5500038184
  0
LINE
  5
2A0
100
AcDbEntity
  8
0
100
AcDbLine
 62
7
  6
CONTINUOUS
 10
5.1229699039
 20
4.1872401347
 11
5.1262703543
 21
4.225854896
  0
LINE
  5
2A1
100
AcDbEntity
  8
0
100
AcDbLine
 62
7
  6
CONTINUOUS
 10
5.1262703543
 20
4.225854896
 11
5.1332868315
 21
4.3072307242
  0
LWPOLYLINE
  5
2A2
100
AcDbEntity
  8
0
100
AcDbPolyline
 62
7
  6
CONTINUOUS
 90
3
 70
0
 10
5.1361857014
 20
2.9007091538
 10
5.1361951493
 20
2.9009442388
 10
5.136199563
 20
2.9012098732
  0
LINE
  5
2A3
100
AcDbEntity
  8
0
100
AcDbLine
 62
7
  6
CONTINUOUS
 10
5.3889363355
 20
6.6963923335
 11
5.3889363355
 21
6.7013923335
  0
LINE
  5
2A4
100
AcDbEntity
  8
0
100
AcDbLine
 62
7
  6
CONTINUOUS
 10
4.2989363355
 20
6.6963923335
 11
4.2991086978
 21
6.6961002707
  0
LWPOLYLINE
  5
2A5
100
AcDbEntity
  8
0
100
AcDbPolyline
 62
7
  6
CONTINUOUS
 90
22
 70
0
 10
4.2991046357
 20
6.6960979484
 10
4.3101090832
 20
6.676849343
 10
4.3210815266
 20
6.6571124764
 10
4.3318528215
 20
6.6371783126
 10
4.3424182803
 20
6.6170509218
 10
4.3527812877
 20
6.5967192781
 10
4.3629523609
 20
6.5761568523
 10
4.3729336874
 20
6.5553519583
 10
4.3827201507
 20
6.5343079834
 10
4.3923105807
 20
6.5130205136
 10
4.4017141137
 20
6.4914612009
 10
4.4109187644
 20
6.4696493421
 10
4.419893234
 20
6.4476526693
 10
4.4286325453
 20
6.4254776878
 10
4.4371402866
 20
6.4031093385
 10
4.4454007568
 20
6.3805844922
 10
4.4535081015
 20
6.3576293483
 10
4.4613627028
 20
6.3345067563
 10
4.4686874703
 20
6.312076626
 10
4.475419938
 20
6.2906424056
 10
4.4816807841
 20
6.2699318141
 10
4.4874945379
 20
6.2499584778
  0
LWPOLYLINE
  5
2A6
100
AcDbEntity
  8
0
100
AcDbPolyline
 62
7
  6
CONTINUOUS
 90
15
 70
0
 10
5.1254961462
 20
2.8277929924
 10
5.1268645574
 20
2.8330416797
 10
5.1282492015
 20
2.8387742504
 10
5.1295276833
 20
2.8445404473
 10
5.1306991631
 20
2.8503391438
 10
5.1317626341
 20
2.8561692856
 10
5.1327170566
 20
2.8620297897
 10
5.1335614714
 20
2.8679196559
 10
5.1342950249
 20
2.8738377535
 10
5.1349168732
 20
2.8797827658
 10
5.1354262149
 20
2.8857535102
 10
5.1358222706
 20
2.8917488086
 10
5.1361042613
 20
2.8977673037
 10
5.1362714799
 20
2.9038077213
 10
5.1363233573
 20
2.9098689202
  0
LINE
  5
2A7
100
AcDbEntity
  8
0
100
AcDbLine
 62
7
  6
CONTINUOUS
 10
4.2989363355
 20
6.6963923335
 11
5.4789363355
 21
6.6963923335
  0
LINE
  5
2A8
100
AcDbEntity
  8
0
100
AcDbLine
 62
7
  6
CONTINUOUS
 10
4.3889363355
 20
6.7013923335
 11
5.3889363355
 21
6.7013923335
  0
ARC
  5
2A9
100
AcDbEntity
  8
0
100
AcDbCircle
 62
7
  6
CONTINUOUS
 10
1.3085556554
 20
3.7755094999
 40
3.3691140239
100
AcDbArc
 50
0.2260390232
 51
0.3842351462
  0
ARC
  5
2AA
100
AcDbEntity
  8
0
100
AcDbCircle
 62
7
  6
CONTINUOUS
 10
1.3926857497
 20
3.7530803813
 40
3.2850070088
100
AcDbArc
 50
0.4304842765
 51
0.7852461818
  0
ARC
  5
2AB
100
AcDbEntity
  8
0
100
AcDbCircle
 62
7
  6
CONTINUOUS
 10
4.8249320724
 20
2.9097601363
 40
0.311388559
100
AcDbArc
 50
359.8092396759
 51
1.0618088253
  0
ARC
  5
2AC
100
AcDbEntity
  8
0
100
AcDbCircle
 62
7
  6
CONTINUOUS
 10
4.8255114679
 20
2.9097591597
 40
0.3108091635
100
AcDbArc
 50
359.5599015911
 51
359.8090640928
  0
ARC
  5
2AD
100
AcDbEntity
  8
0
100
AcDbCircle
 62
7
  6
CONTINUOUS
 10
4.826185737
 20
2.9097516738
 40
0.3101348568
100
AcDbArc
 50
358.4209978254
 51
359.5603277094
  0
ARC
  5
2AE
100
AcDbEntity
  8
0
100
AcDbCircle
 62
7
  6
CONTINUOUS
 10
4.8268911721
 20
2.9097794624
 40
0.3094311402
100
AcDbArc
 50
344.9767735224
 51
358.3195310106
  0
ARC
  5
2AF
100
AcDbEntity
  8
0
100
AcDbCircle
 62
7
  6
CONTINUOUS
 10
4.9426654435
 20
2.8845173512
 40
0.1398687975
100
AcDbArc
 50
317.8436579396
 51
322.1826969792
  0
ARC
  5
2B0
100
AcDbEntity
  8
0
100
AcDbCircle
 62
7
  6
CONTINUOUS
 10
4.9450867439
 20
2.8759046009
 40
0.1340588476
100
AcDbArc
 50
319.0187731787
 51
325.5664978274
  0
ARC
  5
2B1
100
AcDbEntity
  8
0
100
AcDbCircle
 62
7
  6
CONTINUOUS
 10
4.9860608295
 20
2.8025440982
 40
0.108625506
100
AcDbArc
 50
358.3348415953
 51
359.9999016074
  0
ARC
  5
2B2
100
AcDbEntity
  8
0
100
AcDbCircle
 62
7
  6
CONTINUOUS
 10
4.9860954735
 20
2.8025438334
 40
0.108590862
100
AcDbArc
 50
0.0000412995
 51
0.727919359
  0
ARC
  5
2B3
100
AcDbEntity
  8
0
100
AcDbCircle
 62
7
  6
CONTINUOUS
 10
4.780732985
 20
2.7899101575
 40
0.0975466389
100
AcDbArc
 50
173.4619534629
 51
179.9961263923
  0
ARC
  5
2B4
100
AcDbEntity
  8
0
100
AcDbCircle
 62
7
  6
CONTINUOUS
 10
4.7804943251
 20
2.789916934
 40
0.0973079788
100
AcDbArc
 50
180.0001069718
 51
181.8581992676
  0
ARC
  5
2B5
100
AcDbEntity
  8
0
100
AcDbCircle
 62
7
  6
CONTINUOUS
 10
5.1067855971
 20
2.8349910716
 40
0.0197237757
100
AcDbArc
 50
336.4409098717
 51
338.9991250695
  0
ARC
  5
2B6
100
AcDbEntity
  8
0
100
AcDbCircle
 62
7
  6
CONTINUOUS
 10
5.1074640297
 20
2.8347316168
 40
0.0189974242
100
AcDbArc
 50
338.9963572396
 51
344.2387931968
  0
ARC
  5
2B7
100
AcDbEntity
  8
0
100
AcDbCircle
 62
7
  6
CONTINUOUS
 10
5.028519043
 20
2.7845529209
 40
0.017756386
100
AcDbArc
 50
357.2982683413
 51
358.5600087417
  0
ARC
  5
2B8
100
AcDbEntity
  8
0
100
AcDbCircle
 62
7
  6
CONTINUOUS
 10
4.749353537
 20
2.7845529161
 40
0.0177562927
100
AcDbArc
 50
181.4399829798
 51
182.7018306332
  0
ARC
  5
2B9
100
AcDbEntity
  8
0
100
AcDbCircle
 62
7
  6
CONTINUOUS
 10
5.0285883391
 20
2.7845511814
 40
0.017687068
100
AcDbArc
 50
358.5600007467
 51
359.9624883882
  0
ARC
  5
2BA
100
AcDbEntity
  8
0
100
AcDbCircle
 62
7
  6
CONTINUOUS
 10
4.7492842085
 20
2.7845511758
 40
0.0176869423
100
AcDbArc
 50
180.0374933611
 51
181.4399909396
  0
ARC
  5
2BB
100
AcDbEntity
  8
0
100
AcDbCircle
 62
7
  6
CONTINUOUS
 10
4.6696585785
 20
2.8321040805
 40
0.017611117
100
AcDbArc
 50
202.0012256845
 51
204.7452045537
  0
ARC
  5
2BC
100
AcDbEntity
  8
0
100
AcDbCircle
 62
7
  6
CONTINUOUS
 10
4.668910228
 20
2.8318135562
 40
0.01680843
100
AcDbArc
 50
196.3732361642
 51
202.0386701051
  0
ARC
  5
2BD
100
AcDbEntity
  8
0
100
AcDbCircle
 62
7
  6
CONTINUOUS
 10
5.118409146
 20
2.8297003301
 40
0.0073391782
100
AcDbArc
 50
344.9367948215
 51
358.9931881391
  0
ARC
  5
2BE
100
AcDbEntity
  8
0
100
AcDbCircle
 62
7
  6
CONTINUOUS
 10
4.6601067963
 20
2.8272233946
 40
0.007324841
100
AcDbArc
 50
181.1579279185
 51
195.6169040829
  0
ARC
  5
2BF
100
AcDbEntity
  8
0
100
AcDbCircle
 62
7
  6
CONTINUOUS
 10
-21.6236124289
 20
6.5264111982
 40
26.8451473499
100
AcDbArc
 50
357.9594469134
 51
358.2095921257
  0
ARC
  5
2C0
100
AcDbEntity
  8
0
100
AcDbCircle
 62
7
  6
CONTINUOUS
 10
-19.6749132117
 20
6.4764243937
 40
24.8958476863
100
AcDbArc
 50
357.9147236543
 51
358.1441156457
  0
ARC
  5
2C1
100
AcDbEntity
  8
0
100
AcDbCircle
 62
7
  6
CONTINUOUS
 10
-14.0530971691
 20
6.2954884317
 40
19.2711131867
100
AcDbArc
 50
357.8441353952
 51
358.1925883556
  0
ARC
  5
2C2
100
AcDbEntity
  8
0
100
AcDbCircle
 62
7
  6
CONTINUOUS
 10
-0.7117695152
 20
5.5345958709
 40
5.3833726654
100
AcDbArc
 50
1.9250066586
 51
2.0459636061
  0
ARC
  5
2C3
100
AcDbEntity
  8
0
100
AcDbCircle
 62
7
  6
CONTINUOUS
 10
0.4464333653
 20
5.5803857557
 40
4.2242665557
100
AcDbArc
 50
1.9861281022
 51
2.1552799416
  0
ARC
  5
2C4
100
AcDbEntity
  8
0
100
AcDbCircle
 62
7
  6
CONTINUOUS
 10
0.5651977477
 20
5.5793368199
 40
4.1056362334
100
AcDbArc
 50
1.9958595304
 51
2.1754997574
  0
ARC
  5
2C5
100
AcDbEntity
  8
0
100
AcDbCircle
 62
7
  6
CONTINUOUS
 10
0.7172786498
 20
5.5858191035
 40
3.9534067787
100
AcDbArc
 50
2.0434733822
 51
2.2242327462
  0
ARC
  5
2C6
100
AcDbEntity
  8
0
100
AcDbCircle
 62
7
  6
CONTINUOUS
 10
1.5582081776
 20
5.6189499652
 40
3.1118250268
100
AcDbArc
 50
2.2155962894
 51
2.5622207219
  0
ARC
  5
2C7
100
AcDbEntity
  8
0
100
AcDbCircle
 62
7
  6
CONTINUOUS
 10
1.8023747138
 20
5.6313171256
 40
2.8673690169
100
AcDbArc
 50
2.1572524317
 51
2.5334642825
  0
ARC
  5
2C8
100
AcDbEntity
  8
0
100
AcDbCircle
 62
7
  6
CONTINUOUS
 10
1.9969547464
 20
5.6370026595
 40
2.672712172
100
AcDbArc
 50
2.6465400288
 51
2.809588559
  0
ARC
  5
2C9
100
AcDbEntity
  8
0
100
AcDbCircle
 62
7
  6
CONTINUOUS
 10
2.1209430327
 20
5.6429101539
 40
2.5486012789
100
AcDbArc
 50
2.331806653
 51
2.5394152692
  0
ARC
  5
2CA
100
AcDbEntity
  8
0
100
AcDbCircle
 62
7
  6
CONTINUOUS
 10
2.3048033992
 20
5.6571311371
 40
2.2643850815
100
AcDbArc
 50
2.975247737
 51
3.310057157
  0
ARC
  5
2CB
100
AcDbEntity
  8
0
100
AcDbCircle
 62
7
  6
CONTINUOUS
 10
2.3641010783
 20
5.6605577999
 40
2.2049884743
100
AcDbArc
 50
3.3159395198
 51
3.4858400279
  0
ARC
  5
2CC
100
AcDbEntity
  8
0
100
AcDbCircle
 62
7
  6
CONTINUOUS
 10
2.3948891694
 20
5.6605908835
 40
2.1742856178
100
AcDbArc
 50
5.6815627524
 51
5.8271631763
  0
ARC
  5
2CD
100
AcDbEntity
  8
0
100
AcDbCircle
 62
7
  6
CONTINUOUS
 10
2.4092130178
 20
5.6620070289
 40
2.1598919378
100
AcDbArc
 50
5.192476695
 51
5.68179794
  0
ARC
  5
2CE
100
AcDbEntity
  8
0
100
AcDbCircle
 62
7
  6
CONTINUOUS
 10
2.4093659256
 20
5.6633339839
 40
2.1596385764
100
AcDbArc
 50
3.485339647
 51
3.7070736866
  0
ARC
  5
2CF
100
AcDbEntity
  8
0
100
AcDbCircle
 62
7
  6
CONTINUOUS
 10
2.4121849152
 20
5.6625816938
 40
2.1568762833
100
AcDbArc
 50
5.8748618016
 51
13.723230614
  0
ARC
  5
2D0
100
AcDbEntity
  8
0
100
AcDbCircle
 62
7
  6
CONTINUOUS
 10
2.4237806219
 20
5.6639449285
 40
2.145222286
100
AcDbArc
 50
2.8045471845
 51
4.949925831
  0
ARC
  5
2D1
100
AcDbEntity
  8
0
100
AcDbCircle
 62
7
  6
CONTINUOUS
 10
2.4319881779
 20
5.6641003116
 40
2.1370207919
100
AcDbArc
 50
4.9648326096
 51
5.1449152388
  0
ARC
  5
2D2
100
AcDbEntity
  8
0
100
AcDbCircle
 62
7
  6
CONTINUOUS
 10
2.4401101089
 20
5.6688898883
 40
2.1282491653
100
AcDbArc
 50
13.7366008313
 51
14.2735226404
  0
ARC
  5
2D3
100
AcDbEntity
  8
0
100
AcDbCircle
 62
7
  6
CONTINUOUS
 10
2.4469072909
 20
5.6706280307
 40
2.1212332571
100
AcDbArc
 50
14.4034845354
 51
14.7388450844
  0
ARC
  5
2D4
100
AcDbEntity
  8
0
100
AcDbCircle
 62
7
  6
CONTINUOUS
 10
2.4500234211
 20
5.6714474167
 40
2.1180111986
100
AcDbArc
 50
14.7388548659
 51
14.8953771244
  0
ARC
  5
2D5
100
AcDbEntity
  8
0
100
AcDbCircle
 62
7
  6
CONTINUOUS
 10
2.454621602
 20
5.6662774375
 40
2.1142872806
100
AcDbArc
 50
3.7067683848
 51
3.9112947176
  0
ARC
  5
2D6
100
AcDbEntity
  8
0
100
AcDbCircle
 62
7
  6
CONTINUOUS
 10
2.4555396795
 20
5.6729257544
 40
2.112300282
100
AcDbArc
 50
14.9482947653
 51
15.4035555119
  0
ARC
  5
2D7
100
AcDbEntity
  8
0
100
AcDbCircle
 62
7
  6
CONTINUOUS
 10
2.459161729
 20
5.6664297649
 40
2.1097475952
100
AcDbArc
 50
4.0251034292
 51
4.965674554
  0
ARC
  5
2D8
100
AcDbEntity
  8
0
100
AcDbCircle
 62
7
  6
CONTINUOUS
 10
2.4623621256
 20
5.6748099629
 40
2.1052224297
100
AcDbArc
 50
15.4034364361
 51
15.8358139862
  0
ARC
  5
2D9
100
AcDbEntity
  8
0
100
AcDbCircle
 62
7
  6
CONTINUOUS
 10
2.4641747213
 20
5.6749441616
 40
2.1034420376
100
AcDbArc
 50
15.4130444763
 51
15.8457700577
  0
ARC
  5
2DA
100
AcDbEntity
  8
0
100
AcDbCircle
 62
7
  6
CONTINUOUS
 10
8.4156533412
 20
3.775025107
 40
3.315459297
100
AcDbArc
 50
179.6069329094
 51
179.7813627636
  0
ARC
  5
2DB
100
AcDbEntity
  8
0
100
AcDbCircle
 62
7
  6
CONTINUOUS
 10
8.3787661535
 20
3.7525215857
 40
3.2785940001
100
AcDbArc
 50
179.209280649
 51
179.5645107468
  0
ARC
  5
2DC
100
AcDbEntity
  8
0
100
AcDbCircle
 62
7
  6
CONTINUOUS
 10
32.3158157202
 20
6.5587471528
 40
27.760045049
100
AcDbArc
 50
181.7981548745
 51
182.0326157661
  0
ARC
  5
2DD
100
AcDbEntity
  8
0
100
AcDbCircle
 62
7
  6
CONTINUOUS
 10
29.7938342345
 20
6.4899489568
 40
25.2371532335
100
AcDbArc
 50
181.848863038
 51
182.0796026746
  0
ARC
  5
2DE
100
AcDbEntity
  8
0
100
AcDbCircle
 62
7
  6
CONTINUOUS
 10
25.1856543982
 20
6.3500797694
 40
20.5269203805
100
AcDbArc
 50
182.1131502787
 51
182.2408791526
  0
ARC
  5
2DF
100
AcDbEntity
  8
0
100
AcDbCircle
 62
7
  6
CONTINUOUS
 10
24.3026374268
 20
6.3124846934
 40
19.7430829531
100
AcDbArc
 50
181.8135390204
 51
182.143201018
  0
ARC
  5
2E0
100
AcDbEntity
  8
0
100
AcDbCircle
 62
7
  6
CONTINUOUS
 10
10.4557752495
 20
5.5358269383
 40
5.3494833744
100
AcDbArc
 50
177.9514411404
 51
178.0743679515
  0
ARC
  5
2E1
100
AcDbEntity
  8
0
100
AcDbCircle
 62
7
  6
CONTINUOUS
 10
9.2137912876
 20
5.5801485699
 40
4.1067088354
100
AcDbArc
 50
177.7796652315
 51
177.9500006325
  0
ARC
  5
2E2
100
AcDbEntity
  8
0
100
AcDbCircle
 62
7
  6
CONTINUOUS
 10
9.2073240853
 20
5.5796390396
 40
4.1002782432
100
AcDbArc
 50
177.8307036994
 51
178.0033970668
  0
ARC
  5
2E3
100
AcDbEntity
  8
0
100
AcDbCircle
 62
7
  6
CONTINUOUS
 10
9.0657878771
 20
5.5900097961
 40
3.9584410374
100
AcDbArc
 50
177.839316095
 51
178.0160131387
  0
ARC
  5
2E4
100
AcDbEntity
  8
0
100
AcDbCircle
 62
7
  6
CONTINUOUS
 10
8.3427577166
 20
5.6138172095
 40
3.2350248068
100
AcDbArc
 50
177.4426350332
 51
177.7778477964
  0
ARC
  5
2E5
100
AcDbEntity
  8
0
100
AcDbCircle
 62
7
  6
CONTINUOUS
 10
7.7950150939
 20
5.6387243559
 40
2.6867352132
100
AcDbArc
 50
177.4520583355
 51
177.8557176715
  0
ARC
  5
2E6
100
AcDbEntity
  8
0
100
AcDbCircle
 62
7
  6
CONTINUOUS
 10
7.7414607387
 20
5.638828069
 40
2.6332131645
100
AcDbArc
 50
177.1804619501
 51
177.3472077876
  0
ARC
  5
2E7
100
AcDbEntity
  8
0
100
AcDbCircle
 62
7
  6
CONTINUOUS
 10
7.7350445543
 20
5.6394797857
 40
2.6267912223
100
AcDbArc
 50
177.4647427027
 51
177.6673930122
  0
SPLINE
  5
2E8
100
AcDbEntity
  8
0
100
AcDbSpline
 62
7
  6
CONTINUOUS
 70
0
 71
3
 72
27
 73
23
 74
0
 42
0.0000001
 43
0.0000001
 44
0.0000000001
 40
0.0
 40
0.0
 40
0.0
 40
0.0
 40
0.0584385792
 40
0.1175404596
 40
0.1772849373
 40
0.2376504572
 40
0.2986140869
 40
0.3601516852
 40
0.4222374993
 40
0.4848437868
 40
0.5479403569
 40
0.611494131
 40
0.6754682315
 40
0.7398211752
 40
0.7721261762
 40
0.8045078698
 40
0.8369594788
 40
0.8694737847
 40
0.9020431818
 40
0.9346598201
 40
0.9673156018
 40
1.0
 40
1.0
 40
1.0
 40
1.0
 10
5.3789363355
 20
6.6963923335
 30
0.0
 10
5.3691468388
 20
6.6798854059
 30
0.0
 10
5.3500552232
 20
6.646325534
 30
0.0
 10
5.3230275201
 20
6.5947461509
 30
0.0
 10
5.2974606587
 20
6.541723634
 30
0.0
 10
5.2733746212
 20
6.4873436317
 30
0.0
 10
5.2507909091
 20
6.4316870941
 30
0.0
 10
5.2297337869
 20
6.3748327363
 30
0.0
 10
5.2102303604
 20
6.3168576319
 30
0.0
 10
5.1923108357
 20
6.2578384611
 30
0.0
 10
5.1760085874
 20
6.1978526528
 30
0.0
 10
5.1613606462
 20
6.1369794084
 30
0.0
 10
5.148407119
 20
6.0753018066
 30
0.0
 10
5.1390726541
 20
6.0233736668
 30
0.0
 10
5.1324909507
 20
5.9815094724
 30
0.0
 10
5.1279995162
 20
5.9499253848
 30
0.0
 10
5.1239658249
 20
5.9182103475
 30
0.0
 10
5.1203950363
 20
5.8863778078
 30
0.0
 10
5.1172907432
 20
5.8544419431
 30
0.0
 10
5.1146621604
 20
5.8224167044
 30
0.0
 10
5.1125230229
 20
5.7903172757
 30
0.0
 10
5.1114144156
 20
5.7688870495
 30
0.0
 10
5.1109360576
 20
5.7581640175
 30
0.0
  0
SPLINE
  5
2E9
100
AcDbEntity
  8
0
100
AcDbSpline
 62
7
  6
CONTINUOUS
 70
0
 71
3
 72
45
 73
41
 74
0
 42
0.0000001
 43
0.0000001
 44
0.0000000001
 40
0.0
 40
0.0
 40
0.0
 40
0.0
 40
0.013374482
 40
0.0268954959
 40
0.0405744147
 40
0.0544212105
 40
0.0826437022
 40
0.1116211137
 40
0.1413805856
 40
0.1719270532
 40
0.1874939105
 40
0.2032500117
 40
0.235304421
 40
0.2680440615
 40
0.3014026552
 40
0.3353011508
 40
0.369649743
 40
0.4043498725
 40
0.4392961758
 40
0.4743783775
 40
0.5094832083
 40
0.5444962459
 40
0.5793038118
 40
0.6137948424
 40
0.6478627772
 40
0.6814075437
 40
0.7143375147
 40
0.7465715989
 40
0.7780413552
 40
0.8086931851
 40
0.8237030003
 40
0.8384962384
 40
0.86742216
 40
0.895481005
 40
0.9227006885
 40
0.9491341076
 40
0.9620837706
 40
0.9748685414
 40
0.9875021996
 40
1.0
 40
1.0
 40
1.0
 40
1.0
 10
5.0845501718
 20
2.8035272057
 30
0.0
 10
5.0836868931
 20
2.8016007182
 30
0.0
 10
5.0818512269
 20
2.7977704694
 30
0.0
 10
5.078797251
 20
2.7921383608
 30
0.0
 10
5.0754333602
 20
2.7865980491
 30
0.0
 10
5.0705119871
 20
2.7793001644
 30
0.0
 10
5.0635959137
 20
2.7704511295
 30
0.0
 10
5.0542138314
 20
2.7604099065
 30
0.0
 10
5.0437572927
 20
2.7509390052
 30
0.0
 10
5.0342646161
 20
2.7436166684
 30
0.0
 10
5.0262099519
 20
2.738091652
 30
0.0
 10
5.0177576907
 20
2.7327370275
 30
0.0
 10
5.0066575723
 20
2.7265139769
 30
0.0
 10
4.9926501867
 20
2.719868603
 30
0.0
 10
4.9779692744
 20
2.7140426949
 30
0.0
 10
4.9627106012
 20
2.7090718813
 30
0.0
 10
4.9469730832
 20
2.7049859756
 30
0.0
 10
4.9308589075
 20
2.701809224
 30
0.0
 10
4.9144726709
 20
2.6995600064
 30
0.0
 10
4.897920757
 20
2.6982507394
 30
0.0
 10
4.8813106318
 20
2.6978877578
 30
0.0
 10
4.8647501373
 20
2.6984712813
 30
0.0
 10
4.8483467866
 20
2.6999954193
 30
0.0
 10
4.832207059
 20
2.7024482155
 30
0.0
 10
4.8164357083
 20
2.7058117319
 30
0.0
 10
4.8011350634
 20
2.7100621752
 30
0.0
 10
4.7864044224
 20
2.7151700338
 30
0.0
 10
4.7723391991
 20
2.7211004469
 30
0.0
 10
4.7590311478
 20
2.7278129447
 30
0.0
 10
4.7485703869
 20
2.7340649527
 30
0.0
 10
4.7406698693
 20
2.739420264
 30
0.0
 10
4.733202718
 20
2.7449165913
 30
0.0
 10
4.7244829998
 20
2.7521717837
 30
0.0
 10
4.7150100497
 20
2.7615184937
 30
0.0
 10
4.7066681568
 20
2.7713787963
 30
0.0
 10
4.7006635971
 20
2.7800307521
 30
0.0
 10
4.6964960049
 20
2.7871360792
 30
0.0
 10
4.6937051695
 20
2.7925141182
 30
0.0
 10
4.6912331714
 20
2.7979675096
 30
0.0
 10
4.6897930675
 20
2.8016662323
 30
0.0
 10
4.6891287643
 20
2.8035237046
 30
0.0
  0
SPLINE
  5
2EA
100
AcDbEntity
  8
0
100
AcDbSpline
 62
7
  6
CONTINUOUS
 70
0
 71
3
 72
11
 73
7
 74
0
 42
0.0000001
 43
0.0000001
 44
0.0000000001
 40
0.0
 40
0.0
 40
0.0
 40
0.0
 40
0.2421129176
 40
0.4893364068
 40
0.7419125533
 40
1.0
 40
1.0
 40
1.0
 40
1.0
 10
4.7083350625
 20
2.8034743288
 30
0.0
 10
4.7099988755
 20
2.8010397253
 30
0.0
 10
4.7135378696
 20
2.7962373325
 30
0.0
 10
4.7193828316
 20
2.7893378302
 30
0.0
 10
4.7257986576
 20
2.7826928686
 30
0.0
 10
4.7303927041
 20
2.7784934464
 30
0.0
 10
4.7327745633
 20
2.7764421953
 30
0.0
  0
SPLINE
  5
2EB
100
AcDbEntity
  8
0
100
AcDbSpline
 62
7
  6
CONTINUOUS
 70
0
 71
3
 72
22
 73
18
 74
0
 42
0.0000001
 43
0.0000001
 44
0.0000000001
 40
0.0
 40
0.0
 40
0.0
 40
0.0
 40
0.1180920087
 40
0.1790148803
 40
0.2409860772
 40
0.3038460912
 40
0.3674208008
 40
0.4315245917
 40
0.495963514
 40
0.5605383679
 40
0.6250478508
 40
0.6892916849
 40
0.7530738486
 40
0.8162058136
 40
0.8785099811
 40
0.9398231133
 40
1.0
 40
1.0
 40
1.0
 40
1.0
 10
4.7651684556
 20
2.7544127998
 30
0.0
 10
4.7734091443
 20
2.7499966276
 30
0.0
 10
4.7863847426
 20
2.7441650165
 30
0.0
 10
4.8044446842
 20
2.7379916994
 30
0.0
 10
4.818632576
 20
2.7340843809
 30
0.0
 10
4.8332297611
 20
2.7309765819
 30
0.0
 10
4.8481487278
 20
2.728689018
 30
0.0
 10
4.8632974997
 20
2.7272383207
 30
0.0
 10
4.8785828352
 20
2.7266358166
 30
0.0
 10
4.8939100786
 20
2.7268877126
 30
0.0
 10
4.9091839406
 20
2.7279949402
 30
0.0
 10
4.9243090353
 20
2.7299531295
 30
0.0
 10
4.9391905176
 20
2.7327526098
 30
0.0
 10
4.9537345895
 20
2.7363783944
 30
0.0
 10
4.9678494477
 20
2.7408104133
 30
0.0
 10
4.9814446006
 20
2.7460229753
 30
0.0
 10
4.9901933409
 20
2.7500394586
 30
0.0
 10
4.9944532839
 20
2.7521727332
 30
0.0
  0
LINE
  5
2EC
100
AcDbEntity
  8
0
100
AcDbLine
 62
7
  6
CONTINUOUS
 10
4.563705403
 20
5.8145204113
 11
4.5639843937
 21
5.810497123
  0
LINE
  5
2ED
100
AcDbEntity
  8
0
100
AcDbLine
 62
7
  6
CONTINUOUS
 10
4.501883525
 20
6.1966539075
 11
4.5026597338
 21
6.1936122476
  0
SPLINE
  5
2EE
100
AcDbEntity
  8
0
100
AcDbSpline
 62
7
  6
CONTINUOUS
 70
0
 71
3
 72
38
 73
34
 74
0
 42
0.0000001
 43
0.0000001
 44
0.0000000001
 40
0.0
 40
0.0
 40
0.0
 40
0.0
 40
0.025751936
 40
0.0519734325
 40
0.0787181836
 40
0.106028495
 40
0.1339350253
 40
0.1624569214
 40
0.1916020954
 40
0.2213677853
 40
0.2517411306
 40
0.2826999312
 40
0.3142133621
 40
0.3462427903
 40
0.3787425448
 40
0.4116607262
 40
0.444939994
 40
0.4785183491
 40
0.5123299272
 40
0.5463057589
 40
0.5803745675
 40
0.6144635246
 40
0.6484990537
 40
0.6824076064
 40
0.7161164749
 40
0.7495546146
 40
0.7826534727
 40
0.8153478818
 40
0.8475769174
 40
0.8792848757
 40
0.9104221834
 40
0.9409464566
 40
1.0
 40
1.0
 40
1.0
 40
1.0
 10
5.0782772492
 20
2.7408238682
 30
0.0
 10
5.077018262
 20
2.7378976107
 30
0.0
 10
5.0742311062
 20
2.7320946138
 30
0.0
 10
5.0693257769
 20
2.7236718409
 30
0.0
 10
5.0636803417
 20
2.7154906504
 30
0.0
 10
5.0573181682
 20
2.7075851029
 30
0.0
 10
5.0502651409
 20
2.699987112
 30
0.0
 10
5.0425501121
 20
2.6927276749
 30
0.0
 10
5.034204659
 20
2.6858363966
 30
0.0
 10
5.0252630284
 20
2.6793414893
 30
0.0
 10
5.0157620141
 20
2.6732696237
 30
0.0
 10
5.0057408393
 20
2.667645831
 30
0.0
 10
4.9952410198
 20
2.6624933795
 30
0.0
 10
4.9843062145
 20
2.6578336734
 30
0.0
 10
4.9729820639
 20
2.6536861403
 30
0.0
 10
4.961316014
 20
2.6500681404
 30
0.0
 10
4.9493571318
 20
2.6469948696
 30
0.0
 10
4.9371559073
 20
2.6444792834
 30
0.0
 10
4.9247640503
 20
2.6425320198
 30
0.0
 10
4.9122342744
 20
2.6411613407
 30
0.0
 10
4.8996200796
 20
2.6403730768
 30
0.0
 10
4.8869755241
 20
2.6401705884
 30
0.0
 10
4.8743549952
 20
2.6405547338
 30
0.0
 10
4.8618129743
 20
2.6415238507
 30
0.0
 10
4.8494038
 20
2.6430737494
 30
0.0
 10
4.8371814335
 20
2.645197715
 30
0.0
 10
4.825199209
 20
2.6478865305
 30
0.0
 10
4.8135096366
 20
2.651128482
 30
0.0
 10
4.8021640323
 20
2.6549094809
 30
0.0
 10
4.7912127732
 20
2.6592128222
 30
0.0
 10
4.7807033243
 20
2.6640203135
 30
0.0
 10
4.7674936017
 20
2.6709940144
 30
0.0
 10
4.7581534148
 20
2.677025321
 30
0.0
 10
4.7522919536
 20
2.681385133
 30
0.0
  0
LINE
  5
2EF
100
AcDbEntity
  8
0
100
AcDbLine
 62
7
  6
CONTINUOUS
 10
4.6726932031
 20
5.5931892126
 11
4.6722407427
 21
5.6055746433
  0
LINE
  5
2F0
100
AcDbEntity
  8
0
100
AcDbLine
 62
7
  6
CONTINUOUS
 10
4.6722407427
 20
5.6055746433
 11
4.6716876087
 21
5.6210371079
  0
LINE
  5
2F1
100
AcDbEntity
  8
0
100
AcDbLine
 62
7
  6
CONTINUOUS
 10
4.6716876087
 20
5.6210371079
 11
4.6712465666
 21
5.6336430872
  0
LINE
  5
2F2
100
AcDbEntity
  8
0
100
AcDbLine
 62
7
  6
CONTINUOUS
 10
4.6712465666
 20
5.6336430872
 11
4.6708136537
 21
5.6462584961
  0
LINE
  5
2F3
100
AcDbEntity
  8
0
100
AcDbLine
 62
7
  6
CONTINUOUS
 10
4.6708136537
 20
5.6462584961
 11
4.6703902448
 21
5.6588181353
  0
LINE
  5
2F4
100
AcDbEntity
  8
0
100
AcDbLine
 62
7
  6
CONTINUOUS
 10
4.6703902448
 20
5.6588181353
 11
4.6699922405
 21
5.6708116286
  0
LINE
  5
2F5
100
AcDbEntity
  8
0
100
AcDbLine
 62
7
  6
CONTINUOUS
 10
4.6699922405
 20
5.6708116286
 11
4.6694438494
 21
5.6876082904
  0
SPLINE
  5
2F6
100
AcDbEntity
  8
0
100
AcDbSpline
 62
7
  6
CONTINUOUS
 70
0
 71
3
 72
20
 73
16
 74
0
 42
0.0000001
 43
0.0000001
 44
0.0000000001
 40
0.0
 40
0.0
 40
0.0
 40
0.0
 40
0.1392041868
 40
0.2072860512
 40
0.2743003989
 40
0.4050120769
 40
0.5313555878
 40
0.5929620819
 40
0.6535608825
 40
0.7132073239
 40
0.7719701672
 40
0.8299311724
 40
0.8871844129
 40
0.9438354919
 40
1.0
 40
1.0
 40
1.0
 40
1.0
 10
5.0055806675
 20
2.7009022404
 30
0.0
 10
5.0113416336
 20
2.7038423382
 30
0.0
 10
5.0197400562
 20
2.7085912933
 30
0.0
 10
5.030374236
 20
2.7156224303
 30
0.0
 10
5.0403441187
 20
2.7229183847
 30
0.0
 10
5.0518339737
 20
2.7326914224
 30
0.0
 10
5.062063136
 20
2.7434399567
 30
0.0
 10
5.0692851024
 20
2.7524585497
 30
0.0
 10
5.0741751249
 20
2.7593553798
 30
0.0
 10
5.0785698223
 20
2.7664228742
 30
0.0
 10
5.0824574277
 20
2.773642944
 30
0.0
 10
5.0858272731
 20
2.7809967816
 30
0.0
 10
5.0886701488
 20
2.7884654074
 30
0.0
 10
5.0909781132
 20
2.7960288284
 30
0.0
 10
5.0921603118
 20
2.8011406423
 30
0.0
 10
5.0926587721
 20
2.8037021622
 30
0.0
  0
SPLINE
  5
2F7
100
AcDbEntity
  8
0
100
AcDbSpline
 62
7
  6
CONTINUOUS
 70
0
 71
3
 72
39
 73
35
 74
0
 42
0.0000001
 43
0.0000001
 44
0.0000000001
 40
0.0
 40
0.0
 40
0.0
 40
0.0
 40
0.0242645156
 40
0.0487423241
 40
0.073538046
 40
0.0987467305
 40
0.1244520777
 40
0.1507248028
 40
0.177621819
 40
0.2051858989
 40
0.2192298735
 40
0.2334502574
 40
0.2624214243
 40
0.2921063893
 40
0.3224958549
 40
0.3535696454
 40
0.3852976618
 40
0.4176409479
 40
0.4505526399
 40
0.4839790021
 40
0.5178603284
 40
0.5521319276
 40
0.5867249728
 40
0.6215674403
 40
0.6565849212
 40
0.6917015255
 40
0.7268406756
 40
0.7619259899
 40
0.7968820751
 40
0.8316354054
 40
0.8661151328
 40
0.900253968
 40
0.9339890358
 40
1.0
 40
1.0
 40
1.0
 40
1.0
 10
4.6835509047
 20
2.8035964649
 30
0.0
 10
4.6838211616
 20
2.8004790145
 30
0.0
 10
4.6846657225
 20
2.7942388414
 30
0.0
 10
4.686823376
 20
2.7849905722
 30
0.0
 10
4.6898656245
 20
2.7758656065
 30
0.0
 10
4.6937781452
 20
2.7669064963
 30
0.0
 10
4.6985428882
 20
2.7581533384
 30
0.0
 10
4.7041382144
 20
2.7496453698
 30
0.0
 10
4.7105387501
 20
2.741420723
 30
0.0
 10
4.7164832408
 20
2.7348737233
 30
0.0
 10
4.7216038381
 20
2.7298109265
 30
0.0
 10
4.7270332736
 20
2.7248087799
 30
0.0
 10
4.7342724156
 20
2.7188033219
 30
0.0
 10
4.743578006
 20
2.7120618902
 30
0.0
 10
4.7535158647
 20
2.7057706462
 30
0.0
 10
4.7640424368
 20
2.699958039
 30
0.0
 10
4.7751120147
 20
2.6946501735
 30
0.0
 10
4.7866764528
 20
2.6898710998
 30
0.0
 10
4.7986854972
 20
2.6856425877
 30
0.0
 10
4.8110869544
 20
2.6819840595
 30
0.0
 10
4.823826928
 20
2.6789124873
 30
0.0
 10
4.8368500412
 20
2.6764423181
 30
0.0
 10
4.8500996834
 20
2.6745854027
 30
0.0
 10
4.8635182494
 20
2.6733509423
 30
0.0
 10
4.8770473973
 20
2.6727454433
 30
0.0
 10
4.8906282973
 20
2.6727726885
 30
0.0
 10
4.9042018934
 20
2.6734337175
 30
0.0
 10
4.9177091642
 20
2.6747268258
 30
0.0
 10
4.931091356
 20
2.6766475605
 30
0.0
 10
4.9442903474
 20
2.679188786
 30
0.0
 10
4.9572484908
 20
2.6823405504
 30
0.0
 10
4.9699103941
 20
2.6860907497
 30
0.0
 10
4.9862008296
 20
2.6918250504
 30
0.0
 10
4.9979982769
 20
2.697032582
 30
0.0
 10
5.0055806675
 20
2.7009022404
 30
0.0
  0
SPLINE
  5
2F8
100
AcDbEntity
  8
0
100
AcDbSpline
 62
7
  6
CONTINUOUS
 70
0
 71
3
 72
53
 73
49
 74
0
 42
0.0000001
 43
0.0000001
 44
0.0000000001
 40
0.0
 40
0.0
 40
0.0
 40
0.0
 40
0.013207558
 40
0.0264450394
 40
0.0397398235
 40
0.0531205052
 40
0.0666132827
 40
0.0802428272
 40
0.0940317899
 40
0.1080004685
 40
0.1221666601
 40
0.1365455247
 40
0.1511495119
 40
0.1659883401
 40
0.1963860895
 40
0.2277739942
 40
0.2601369514
 40
0.2934242242
 40
0.3275538781
 40
0.3624174019
 40
0.3978843116
 40
0.433806683
 40
0.4700235513
 40
0.5063652581
 40
0.5426576749
 40
0.5787264344
 40
0.6144011824
 40
0.6495198452
 40
0.6839330557
 40
0.7175086631
 40
0.7501365302
 40
0.7660717526
 40
0.7817413885
 40
0.8122559333
 40
0.8271060937
 40
0.8416837572
 40
0.8559937232
 40
0.8700436454
 40
0.8838441236
 40
0.8974087693
 40
0.9107541811
 40
0.9238998893
 40
0.9368682717
 40
0.9496843306
 40
0.9623754219
 40
0.9749709158
 40
0.987501764
 40
1.0
 40
1.0
 40
1.0
 40
1.0
 10
5.0946863355
 20
2.7993869355
 30
0.0
 10
5.0946863355
 20
2.7969402551
 30
0.0
 10
5.0945205875
 20
2.792039746
 30
0.0
 10
5.0937758076
 20
2.7847104649
 30
0.0
 10
5.0925364652
 20
2.7774156272
 30
0.0
 10
5.0908058258
 20
2.77017307
 30
0.0
 10
5.0885881039
 20
2.7629997024
 30
0.0
 10
5.0858888699
 20
2.7559124918
 30
0.0
 10
5.0827148202
 20
2.7489280753
 30
0.0
 10
5.0790737624
 20
2.742062832
 30
0.0
 10
5.0749746286
 20
2.7353327983
 30
0.0
 10
5.0704275116
 20
2.7287536901
 30
0.0
 10
5.0654433375
 20
2.7223406462
 30
0.0
 10
5.0581741604
 20
2.7139653983
 30
0.0
 10
5.0480320425
 20
2.7039960668
 30
0.0
 10
5.0344380566
 20
2.6930293438
 30
0.0
 10
5.0194517507
 20
2.6830586476
 30
0.0
 10
5.0032180015
 20
2.6741746092
 30
0.0
 10
4.9858919709
 20
2.666456526
 30
0.0
 10
4.9676393983
 20
2.6599733542
 30
0.0
 10
4.9486347161
 20
2.6547824547
 30
0.0
 10
4.9290595624
 20
2.6509291715
 30
0.0
 10
4.9091010614
 20
2.6484461749
 30
0.0
 10
4.8889500228
 20
2.6473532701
 30
0.0
 10
4.8687991152
 20
2.647656969
 30
0.0
 10
4.8488410007
 20
2.6493506573
 30
0.0
 10
4.8292664283
 20
2.6524144041
 30
0.0
 10
4.8102625242
 20
2.6568154388
 30
0.0
 10
4.7920105552
 20
2.662508393
 30
0.0
 10
4.7746857059
 20
2.6694354252
 30
0.0
 10
4.7610501953
 20
2.6762330374
 30
0.0
 10
4.7507704353
 20
2.6822330966
 30
0.0
 10
4.7411006727
 20
2.6884768006
 30
0.0
 10
4.7320317864
 20
2.6952641336
 30
0.0
 10
4.7236659047
 20
2.7025718156
 30
0.0
 10
4.7178447937
 20
2.7082133139
 30
0.0
 10
4.7124354667
 20
2.714050218
 30
0.0
 10
4.7074508409
 20
2.7200683026
 30
0.0
 10
4.7029030893
 20
2.7262526585
 30
0.0
 10
4.6988032811
 20
2.7325880138
 30
0.0
 10
4.6951614707
 20
2.7390587044
 30
0.0
 10
4.6919866552
 20
2.7456487212
 30
0.0
 10
4.6892866877
 20
2.7523416972
 30
0.0
 10
4.687068282
 20
2.7591209837
 30
0.0
 10
4.6853370085
 20
2.7659696327
 30
0.0
 10
4.6840972547
 20
2.7728706341
 30
0.0
 10
4.6833521488
 20
2.779806199
 30
0.0
 10
4.6831863326
 20
2.7844444966
 30
0.0
 10
4.6831863396
 20
2.7867597761
 30
0.0
  0
LINE
  5
2F9
100
AcDbEntity
  8
0
100
AcDbLine
 62
7
  6
CONTINUOUS
 10
5.1097197597
 20
5.7270517516
 11
5.1093321305
 21
5.7155811311
  0
LINE
  5
2FA
100
AcDbEntity
  8
0
100
AcDbLine
 62
7
  6
CONTINUOUS
 10
5.1093321305
 20
5.7155811311
 11
5.1088739087
 21
5.701439612
  0
LINE
  5
2FB
100
AcDbEntity
  8
0
100
AcDbLine
 62
7
  6
CONTINUOUS
 10
5.1088739087
 20
5.701439612
 11
5.1084286988
 21
5.6876082949
  0
SPLINE
  5
2FC
100
AcDbEntity
  8
0
100
AcDbSpline
 62
7
  6
CONTINUOUS
 70
0
 71
3
 72
34
 73
30
 74
0
 42
0.0000001
 43
0.0000001
 44
0.0000000001
 40
0.0
 40
0.0
 40
0.0
 40
0.0
 40
0.0162547202
 40
0.0325039906
 40
0.0406262529
 40
0.0487467807
 40
0.0649821685
 40
0.0812092552
 40
0.0974270197
 40
0.1136343755
 40
0.1298303798
 40
0.1621848258
 40
0.1944841169
 40
0.2267220563
 40
0.2588924943
 40
0.2909899014
 40
0.3230089992
 40
0.3549448826
 40
0.3867927937
 40
0.4502057922
 40
0.5132172191
 40
0.5757982484
 40
0.6379234003
 40
0.6995701013
 40
0.7607182703
 40
0.8213500748
 40
0.8814498311
 40
0.9410033534
 40
1.0
 40
1.0
 40
1.0
 40
1.0
 10
5.1109548367
 20
5.7581627869
 30
0.0
 10
5.1111891806
 20
5.7633882121
 30
0.0
 10
5.1116868266
 20
5.7738360383
 30
0.0
 10
5.1123944814
 20
5.7868902888
 30
0.0
 10
5.1130197762
 20
5.797327362
 30
0.0
 10
5.1136867168
 20
5.807757379
 30
0.0
 10
5.1145971548
 20
5.8207851299
 30
0.0
 10
5.1158088488
 20
5.8364033696
 30
0.0
 10
5.1171357647
 20
5.8520031814
 30
0.0
 10
5.1185735841
 20
5.8675831191
 30
0.0
 10
5.1206366094
 20
5.8883195899
 30
0.0
 10
5.1234909813
 20
5.9141805222
 30
0.0
 10
5.1273611724
 20
5.9451196617
 30
0.0
 10
5.1316688934
 20
5.9759411442
 30
0.0
 10
5.1364070927
 20
6.0066336346
 30
0.0
 10
5.141571169
 20
6.0371859326
 30
0.0
 10
5.1471567543
 20
6.0675872248
 30
0.0
 10
5.1531589745
 20
6.0978272232
 30
0.0
 10
5.1616981323
 20
6.1378589444
 30
0.0
 10
5.1733834463
 20
6.1874391792
 30
0.0
 10
5.1890204774
 20
6.2462239423
 30
0.0
 10
5.2062205916
 20
6.3041386717
 30
0.0
 10
5.2249563774
 20
6.3611129584
 30
0.0
 10
5.2452041699
 20
6.4170777506
 30
0.0
 10
5.2669438803
 20
6.471963838
 30
0.0
 10
5.2901590329
 20
6.5257008369
 30
0.0
 10
5.3148369153
 20
6.5782163058
 30
0.0
 10
5.3409677243
 20
6.6294339571
 30
0.0
 10
5.3594418583
 20
6.6628212867
 30
0.0
 10
5.3689236894
 20
6.6792686899
 30
0.0
  0
LINE
  5
2FD
100
AcDbEntity
  8
0
100
AcDbLine
 62
7
  6
CONTINUOUS
 10
5.1084130652
 20
5.6876088188
 11
5.1088497949
 21
5.7014405546
  0
LINE
  5
2FE
100
AcDbEntity
  8
0
100
AcDbLine
 62
7
  6
CONTINUOUS
 10
5.1088497949
 20
5.7014405546
 11
5.1093128166
 21
5.7155818446
  0
LINE
  5
2FF
100
AcDbEntity
  8
0
100
AcDbLine
 62
7
  6
CONTINUOUS
 10
5.1084286988
 20
5.6876082949
 11
5.1078871631
 21
5.6710208986
  0
LINE
  5
300
100
AcDbEntity
  8
0
100
AcDbLine
 62
7
  6
CONTINUOUS
 10
5.1078871631
 20
5.6710208986
 11
5.1074881332
 21
5.6589927788
  0
LINE
  5
301
100
AcDbEntity
  8
0
100
AcDbLine
 62
7
  6
CONTINUOUS
 10
5.1074881332
 20
5.6589927788
 11
5.1070665469
 21
5.6464821049
  0
LINE
  5
302
100
AcDbEntity
  8
0
100
AcDbLine
 62
7
  6
CONTINUOUS
 10
5.1070665469
 20
5.6464821049
 11
5.1066330055
 21
5.6338426077
  0
LINE
  5
303
100
AcDbEntity
  8
0
100
AcDbLine
 62
7
  6
CONTINUOUS
 10
5.1066330055
 20
5.6338426077
 11
5.1061939857
 21
5.6212886963
  0
LINE
  5
304
100
AcDbEntity
  8
0
100
AcDbLine
 62
7
  6
CONTINUOUS
 10
5.1061939857
 20
5.6212886963
 11
5.1056298786
 21
5.6055165076
  0
LINE
  5
305
100
AcDbEntity
  8
0
100
AcDbLine
 62
7
  6
CONTINUOUS
 10
5.1056298786
 20
5.6055165076
 11
5.105181814
 21
5.5932514062
  0
SPLINE
  5
306
100
AcDbEntity
  8
0
100
AcDbSpline
 62
7
  6
CONTINUOUS
 70
0
 71
3
 72
36
 73
32
 74
0
 42
0.0000001
 43
0.0000001
 44
0.0000000001
 40
0.0
 40
0.0
 40
0.0
 40
0.0
 40
0.0163081455
 40
0.0244619459
 40
0.0326154484
 40
0.0489206934
 40
0.0652223348
 40
0.0733714712
 40
0.0815192939
 40
0.0896655967
 40
0.0978101739
 40
0.1140933117
 40
0.1303671664
 40
0.1466304041
 40
0.1628818893
 40
0.1953447194
 40
0.2277469317
 40
0.2600799374
 40
0.2923357945
 40
0.3245069454
 40
0.3885655793
 40
0.4522064632
 40
0.5153842112
 40
0.5780584561
 40
0.6401930447
 40
0.7017552717
 40
0.7627151671
 40
0.8230449298
 40
0.8827185616
 40
0.9417113214
 40
1.0
 40
1.0
 40
1.0
 40
1.0
 10
5.2084286734
 20
5.6876765005
 30
0.0
 10
5.2086116723
 20
5.693412651
 30
0.0
 10
5.2088864202
 20
5.7020167734
 30
0.0
 10
5.2092600187
 20
5.7134885336
 30
0.0
 10
5.2096419351
 20
5.7249589983
 30
0.0
 10
5.2101479719
 20
5.739294259
 30
0.0
 10
5.2107242344
 20
5.7536254057
 30
0.0
 10
5.2112475243
 20
5.7650854039
 30
0.0
 10
5.2116736178
 20
5.7736767986
 30
0.0
 10
5.2121331414
 20
5.7822648645
 30
0.0
 10
5.2127908617
 20
5.7937092655
 30
0.0
 10
5.2136980089
 20
5.808004142
 30
0.0
 10
5.2149253167
 20
5.8251409688
 30
0.0
 10
5.216291548
 20
5.8422561198
 30
0.0
 10
5.2182950265
 20
5.8650349118
 30
0.0
 10
5.2211368447
 20
5.8934404863
 30
0.0
 10
5.2250802393
 20
5.9274191983
 30
0.0
 10
5.2295504206
 20
5.9612591727
 30
0.0
 10
5.2345400863
 20
5.9949443156
 30
0.0
 10
5.2418647838
 20
6.0395645457
 30
0.0
 10
5.2522747651
 20
6.0948639415
 30
0.0
 10
5.266750511
 20
6.1604688735
 30
0.0
 10
5.2831416907
 20
6.2251194966
 30
0.0
 10
5.3014014572
 20
6.2887160703
 30
0.0
 10
5.3214873005
 20
6.3511629782
 30
0.0
 10
5.3433607774
 20
6.4123663624
 30
0.0
 10
5.3669875414
 20
6.4722326379
 30
0.0
 10
5.3923371615
 20
6.5306666706
 30
0.0
 10
5.419382926
 20
6.5875706934
 30
0.0
 10
5.4481003197
 20
6.6428412425
 30
0.0
 10
5.4684717187
 20
6.6787497927
 30
0.0
 10
5.4789363355
 20
6.6963923335
 30
0.0
  0
SPLINE
  5
307
100
AcDbEntity
  8
0
100
AcDbSpline
 62
7
  6
CONTINUOUS
 70
0
 71
3
 72
16
 73
12
 74
0
 42
0.0000001
 43
0.0000001
 44
0.0000000001
 40
0.0
 40
0.0
 40
0.0
 40
0.0
 40
0.2465738067
 40
0.3708512466
 40
0.4957218276
 40
0.6211323946
 40
0.7470251331
 40
0.8101336289
 40
0.8733382935
 40
0.9366301321
 40
1.0
 40
1.0
 40
1.0
 40
1.0
 10
4.4919662984
 20
6.2339877424
 30
0.0
 10
4.5005209442
 20
6.2029582673
 30
0.0
 10
4.5123209601
 20
6.15598573
 30
0.0
 10
4.5259480623
 20
6.0927228476
 30
0.0
 10
4.5351564027
 20
6.0446991654
 30
0.0
 10
4.5433047851
 20
5.9962710811
 30
0.0
 10
4.5491902051
 20
5.9556487679
 30
0.0
 10
4.5533507308
 20
5.9229898154
 30
0.0
 10
4.5561966824
 20
5.8984028485
 30
0.0
 10
4.5587639218
 20
5.873750985
 30
0.0
 10
4.5602874791
 20
5.8572867965
 30
0.0
 10
4.5610019149
 20
5.8490455655
 30
0.0
  0
LINE
  5
308
100
AcDbEntity
  8
0
100
AcDbLine
 62
7
  6
CONTINUOUS
 10
5.2045118675
 20
5.5705402841
 11
5.2037760404
 21
5.550006947
  0
LINE
  5
309
100
AcDbEntity
  8
0
100
AcDbLine
 62
7
  6
CONTINUOUS
 10
5.108635363
 20
5.694205729
 11
5.1091604124
 21
5.7109202036
  0
LINE
  5
30A
100
AcDbEntity
  8
0
100
AcDbLine
 62
7
  6
CONTINUOUS
 10
4.6686998291
 20
5.711265922
 11
4.6692370618
 21
5.694180785
  0
LINE
  5
30B
100
AcDbEntity
  8
0
100
AcDbLine
 62
7
  6
CONTINUOUS
 10
5.1056328136
 20
5.6055166575
 11
5.1062032288
 21
5.6212883954
  0
LINE
  5
30C
100
AcDbEntity
  8
0
100
AcDbLine
 62
7
  6
CONTINUOUS
 10
5.1062032288
 20
5.6212883954
 11
5.1066466674
 21
5.6338421646
  0
LINE
  5
30D
100
AcDbEntity
  8
0
100
AcDbLine
 62
7
  6
CONTINUOUS
 10
5.1066466674
 20
5.6338421646
 11
5.1070821219
 21
5.6464815966
  0
LINE
  5
30E
100
AcDbEntity
  8
0
100
AcDbLine
 62
7
  6
CONTINUOUS
 10
5.1070821219
 20
5.6464815966
 11
5.1075008779
 21
5.658992351
  0
LINE
  5
30F
100
AcDbEntity
  8
0
100
AcDbLine
 62
7
  6
CONTINUOUS
 10
5.1075008779
 20
5.658992351
 11
5.107890732
 21
5.6710207695
  0
LINE
  5
310
100
AcDbEntity
  8
0
100
AcDbLine
 62
7
  6
CONTINUOUS
 10
5.107890732
 20
5.6710207695
 11
5.1084130652
 21
5.6876088188
  0
LINE
  5
311
100
AcDbEntity
  8
0
100
AcDbLine
 62
7
  6
CONTINUOUS
 10
4.573237079
 20
5.5741428521
 11
4.5743134295
 21
5.5441492745
  0
LINE
  5
312
100
AcDbEntity
  8
0
100
AcDbLine
 62
7
  6
CONTINUOUS
 10
4.5688604702
 20
5.7058296759
 11
4.5694439829
 21
5.6876765033
  0
LINE
  5
313
100
AcDbEntity
  8
0
100
AcDbLine
 62
7
  6
CONTINUOUS
 10
4.6694599365
 20
5.6876088303
 11
4.6699888687
 21
5.6708115062
  0
LINE
  5
314
100
AcDbEntity
  8
0
100
AcDbLine
 62
7
  6
CONTINUOUS
 10
4.6699888687
 20
5.6708115062
 11
4.6703776407
 21
5.6588177124
  0
LINE
  5
315
100
AcDbEntity
  8
0
100
AcDbLine
 62
7
  6
CONTINUOUS
 10
4.6703776407
 20
5.6588177124
 11
4.6707981102
 21
5.646257989
  0
LINE
  5
316
100
AcDbEntity
  8
0
100
AcDbLine
 62
7
  6
CONTINUOUS
 10
4.671232846
 20
5.6336426423
 11
4.6716782655
 21
5.6210368039
  0
LINE
  5
317
100
AcDbEntity
  8
0
100
AcDbLine
 62
7
  6
CONTINUOUS
 10
4.6716782655
 20
5.6210368039
 11
4.6722375698
 21
5.6055747907
  0
LINE
  5
318
100
AcDbEntity
  8
0
100
AcDbLine
 62
7
  6
CONTINUOUS
 10
4.6694438494
 20
5.6876082904
 11
4.6690053559
 21
5.7012341236
  0
LINE
  5
319
100
AcDbEntity
  8
0
100
AcDbLine
 62
7
  6
CONTINUOUS
 10
4.6690053559
 20
5.7012341236
 11
4.6685456136
 21
5.7154300908
  0
LINE
  5
31A
100
AcDbEntity
  8
0
100
AcDbLine
 62
7
  6
CONTINUOUS
 10
4.6685456136
 20
5.7154300908
 11
4.6681621812
 21
5.7267884127
  0
SPLINE
  5
31B
100
AcDbEntity
  8
0
100
AcDbSpline
 62
7
  6
CONTINUOUS
 70
0
 71
3
 72
12
 73
8
 74
0
 42
0.0000001
 43
0.0000001
 44
0.0000000001
 40
0.0
 40
0.0
 40
0.0
 40
0.0
 40
0.124952529
 40
0.2499221225
 40
0.4999065101
 40
0.7499391106
 40
1.0
 40
1.0
 40
1.0
 40
1.0
 10
4.5664341365
 20
5.7689086237
 30
0.0
 10
4.5665634229
 20
5.7662825386
 30
0.0
 10
4.5668127521
 20
5.7610295486
 30
0.0
 10
4.567274511
 20
5.7505205801
 30
0.0
 10
4.5677914893
 20
5.7373796366
 30
0.0
 10
4.5683450505
 20
5.7216060981
 30
0.0
 10
4.5686897417
 20
5.7110887157
 30
0.0
 10
4.5688604702
 20
5.7058296759
 30
0.0
  0
LINE
  5
31C
100
AcDbEntity
  8
0
100
AcDbLine
 62
7
  6
CONTINUOUS
 10
4.6685650451
 20
5.7154308082
 11
4.6690296994
 21
5.7012350755
  0
LINE
  5
31D
100
AcDbEntity
  8
0
100
AcDbLine
 62
7
  6
CONTINUOUS
 10
4.6690296994
 20
5.7012350755
 11
4.6694599365
 21
5.6876088303
  0
SPLINE
  5
31E
100
AcDbEntity
  8
0
100
AcDbSpline
 62
7
  6
CONTINUOUS
 70
0
 71
3
 72
27
 73
23
 74
0
 42
0.0000001
 43
0.0000001
 44
0.0000000001
 40
0.0
 40
0.0
 40
0.0
 40
0.0
 40
0.0326843287
 40
0.0653400636
 40
0.0979566778
 40
0.1305260715
 40
0.1630403892
 40
0.1954920229
 40
0.2278737531
 40
0.2601787998
 40
0.3245318528
 40
0.3885060748
 40
0.4520599695
 40
0.5151566481
 40
0.5777630231
 40
0.6398488959
 40
0.7013865175
 40
0.762350129
 40
0.8227155839
 40
0.8824599451
 40
0.9415616533
 40
1.0
 40
1.0
 40
1.0
 40
1.0
 10
4.6669410918
 20
5.7580631111
 30
0.0
 10
4.666463059
 20
5.7687872362
 30
0.0
 10
4.6653553123
 20
5.7902196695
 30
0.0
 10
4.663217595
 20
5.8223224525
 30
0.0
 10
4.6605901113
 20
5.8543510632
 30
0.0
 10
4.6574867914
 20
5.886290322
 30
0.0
 10
4.6539169179
 20
5.9181262796
 30
0.0
 10
4.6498840352
 20
5.9498447479
 30
0.0
 10
4.6453932927
 20
5.981432273
 30
0.0
 10
4.6388123756
 20
6.0233010526
 30
0.0
 10
4.6294786487
 20
6.0752349142
 30
0.0
 10
4.616525617
 20
6.1369193413
 30
0.0
 10
4.6018778003
 20
6.1977993374
 30
0.0
 10
4.5855753178
 20
6.2577917949
 30
0.0
 10
4.5676552147
 20
6.3168174871
 30
0.0
 10
4.5481508777
 20
6.3747989614
 30
0.0
 10
4.5270925238
 20
6.4316595147
 30
0.0
 10
4.5045072684
 20
6.4873220516
 30
0.0
 10
4.4804193844
 20
6.5417078344
 30
0.0
 10
4.4548503804
 20
6.5947358905
 30
0.0
 10
4.4278202449
 20
6.6463205473
 30
0.0
 10
4.4087267968
 20
6.6798837795
 30
0.0
 10
4.3989363355
 20
6.6963923335
 30
0.0
  0
SPLINE
  5
31F
100
AcDbEntity
  8
0
100
AcDbSpline
 62
7
  6
CONTINUOUS
 70
0
 71
3
 72
54
 73
50
 74
0
 42
0.0000001
 43
0.0000001
 44
0.0000000001
 40
0.0
 40
0.0
 40
0.0
 40
0.0
 40
0.014624611
 40
0.0219346157
 40
0.0292538453
 40
0.0365864018
 40
0.043931851
 40
0.0586586074
 40
0.0734291503
 40
0.0882428126
 40
0.1180026084
 40
0.1479381063
 40
0.1780435231
 40
0.2083138619
 40
0.2387440823
 40
0.2693293561
 40
0.2846785717
 40
0.3000646991
 40
0.3154871346
 40
0.3309452572
 40
0.3464382856
 40
0.3541976252
 40
0.3619653756
 40
0.3775256979
 40
0.3931183762
 40
0.4087422351
 40
0.4243960095
 40
0.4400784257
 40
0.4557882534
 40
0.4872857965
 40
0.503071381
 40
0.5188800996
 40
0.5505629958
 40
0.5823266632
 40
0.6141637888
 40
0.6460675436
 40
0.6780314094
 40
0.6940339646
 40
0.7100492501
 40
0.7260766816
 40
0.7421158798
 40
0.774228107
 40
0.8063829363
 40
0.838577109
 40
0.8708072132
 40
0.9030691718
 40
0.9353585979
 40
0.9676706114
 40
1.0
 40
1.0
 40
1.0
 40
1.0
 10
5.0002379762
 20
3.8398489077
 30
0.0
 10
5.0002427819
 20
3.8482472718
 30
0.0
 10
5.0002913109
 20
3.8608435495
 30
0.0
 10
5.0004542855
 20
3.8776421815
 30
0.0
 10
5.0006299371
 20
3.8902528318
 30
0.0
 10
5.0008603381
 20
3.9028829559
 30
0.0
 10
5.0012376257
 20
3.9197648316
 30
0.0
 10
5.0018360483
 20
3.9409139991
 30
0.0
 10
5.0027409989
 20
3.9663442321
 30
0.0
 10
5.0041837342
 20
4.0003929318
 30
0.0
 10
5.0063990555
 20
4.0431243199
 30
0.0
 10
5.0096145073
 20
4.0945939051
 30
0.0
 10
5.0132948696
 20
4.1463260355
 30
0.0
 10
5.0173466174
 20
4.1983151417
 30
0.0
 10
5.0216764179
 20
4.2505581925
 30
0.0
 10
5.0254353403
 20
4.2942502171
 30
0.0
 10
5.0284885993
 20
4.3293317286
 30
0.0
 10
5.0307915672
 20
4.355738176
 30
0.0
 10
5.0330923688
 20
4.3822075909
 30
0.0
 10
5.0353780269
 20
4.4087399374
 30
0.0
 10
5.0372618142
 20
4.4308899656
 30
0.0
 10
5.0387531045
 20
4.4486411253
 30
0.0
 10
5.0402341199
 20
4.4664319232
 30
0.0
 10
5.0420605706
 20
4.4887079123
 30
0.0
 10
5.0442034431
 20
4.5154845166
 30
0.0
 10
5.0463011247
 20
4.5423185269
 30
0.0
 10
5.0483562663
 20
4.5692075107
 30
0.0
 10
5.0503715238
 20
4.5961490189
 30
0.0
 10
5.0530108405
 20
4.6321677046
 30
0.0
 10
5.0555746731
 20
4.6682512859
 30
0.0
 10
5.0580676352
 20
4.7043967062
 30
0.0
 10
5.0605194714
 20
4.7406516263
 30
0.0
 10
5.0635035532
 20
4.7860670799
 30
0.0
 10
5.066965259
 20
4.8406753587
 30
0.0
 10
5.0703211168
 20
4.895417308
 30
0.0
 10
5.0735810098
 20
4.9502802173
 30
0.0
 10
5.0762258071
 20
4.9960703652
 30
0.0
 10
5.0783057081
 20
5.0327537444
 30
0.0
 10
5.0798499826
 20
5.0603010925
 30
0.0
 10
5.081378446
 20
5.0878703975
 30
0.0
 10
5.0833945352
 20
5.1246707257
 30
0.0
 10
5.0858702285
 20
5.1707211123
 30
0.0
 10
5.0887622791
 20
5.226039653
 30
0.0
 10
5.0915662769
 20
5.2814305122
 30
0.0
 10
5.0942717453
 20
5.3368878706
 30
0.0
 10
5.0968700611
 20
5.3924051172
 30
0.0
 10
5.0993536976
 20
5.4479747041
 30
0.0
 10
5.1017077845
 20
5.5035886999
 30
0.0
 10
5.1031796682
 20
5.540680687
 30
0.0
 10
5.1038941456
 20
5.559232489
 30
0.0
  0
LINE
  5
320
100
AcDbEntity
  8
0
100
AcDbLine
 62
7
  6
CONTINUOUS
 10
5.1038941456
 20
5.559232489
 11
5.1051806037
 21
5.5932513687
  0
SPLINE
  5
321
100
AcDbEntity
  8
0
100
AcDbSpline
 62
7
  6
CONTINUOUS
 70
0
 71
3
 72
21
 73
17
 74
0
 42
0.0000001
 43
0.0000001
 44
0.0000000001
 40
0.0
 40
0.0
 40
0.0
 40
0.0
 40
0.05205317
 40
0.1047807924
 40
0.1585111265
 40
0.2135197288
 40
0.2700291556
 40
0.3282043809
 40
0.3881512695
 40
0.4499187989
 40
0.5787540168
 40
0.6457670452
 40
0.7143113182
 40
0.7842198907
 40
0.8552953095
 40
1.0
 40
1.0
 40
1.0
 40
1.0
 10
4.7316169828
 20
2.7837159135
 30
0.0
 10
4.7316503698
 20
2.7830083212
 30
0.0
 10
4.7318030214
 20
2.7815866146
 30
0.0
 10
4.7322834584
 20
2.7794789954
 30
0.0
 10
4.7330123326
 20
2.7774011903
 30
0.0
 10
4.7339839557
 20
2.7753684631
 30
0.0
 10
4.7351909063
 20
2.7733951097
 30
0.0
 10
4.7366241359
 20
2.771495015
 30
0.0
 10
4.7382733016
 20
2.7696812583
 30
0.0
 10
4.7407783395
 20
2.7673631823
 30
0.0
 10
4.7436383079
 20
2.7653068993
 30
0.0
 10
4.7467698072
 20
2.7635311469
 30
0.0
 10
4.7492938931
 20
2.762322632
 30
0.0
 10
4.7519437831
 20
2.7612640185
 30
0.0
 10
4.7556408263
 20
2.7600549782
 30
0.0
 10
4.7585143257
 20
2.7594049086
 30
0.0
 10
4.7604573048
 20
2.7590843032
 30
0.0
  0
SPLINE
  5
322
100
AcDbEntity
  8
0
100
AcDbSpline
 62
7
  6
CONTINUOUS
 70
0
 71
3
 72
15
 73
11
 74
0
 42
0.0000001
 43
0.0000001
 44
0.0000000001
 40
0.0
 40
0.0
 40
0.0
 40
0.0
 40
0.1361834826
 40
0.2717781411
 40
0.4057058015
 40
0.536684808
 40
0.6632339401
 40
0.7837236049
 40
0.8964888141
 40
1.0
 40
1.0
 40
1.0
 40
1.0
 10
5.0124363382
 20
3.3963883469
 30
0.0
 10
5.0136925559
 20
3.3688397059
 30
0.0
 10
5.0163270807
 20
3.3138673037
 30
0.0
 10
5.0205682299
 20
3.2318209497
 30
0.0
 10
5.0249944621
 20
3.1508398812
 30
0.0
 10
5.0294945857
 20
3.0716975541
 30
0.0
 10
5.0339507542
 20
2.9952784371
 30
0.0
 10
5.0382419699
 20
2.9225443058
 30
0.0
 10
5.0422510459
 20
2.8544668459
 30
0.0
 10
5.0447840313
 20
2.8107439875
 30
0.0
 10
5.0459754332
 20
2.789816773
 30
0.0
  0
LINE
  5
323
100
AcDbEntity
  8
0
100
AcDbLine
 62
7
  6
CONTINUOUS
 10
5.0459754332
 20
2.789816773
 11
5.0462754035
 21
2.7845396017
  0
LINE
  5
324
100
AcDbEntity
  8
0
100
AcDbLine
 62
7
  6
CONTINUOUS
 10
4.5733638191
 20
5.5741487831
 11
4.5744975427
 21
5.5441526035
  0
SPLINE
  5
325
100
AcDbEntity
  8
0
100
AcDbSpline
 62
7
  6
CONTINUOUS
 70
0
 71
3
 72
45
 73
41
 74
0
 42
0.0000001
 43
0.0000001
 44
0.0000000001
 40
0.0
 40
0.0
 40
0.0
 40
0.0
 40
0.0323328527
 40
0.0646472617
 40
0.0969380328
 40
0.1292004544
 40
0.193623407
 40
0.2257765232
 40
0.257886872
 40
0.2899515288
 40
0.3219664554
 40
0.3539271356
 40
0.3858275662
 40
0.4494212275
 40
0.5126915868
 40
0.5441863397
 40
0.5755763282
 40
0.5912293146
 40
0.6068527783
 40
0.6224455109
 40
0.6380063043
 40
0.645774349
 40
0.6535339896
 40
0.6690277031
 40
0.684486727
 40
0.6999103232
 40
0.7306483163
 40
0.7612361458
 40
0.7916684899
 40
0.8219402664
 40
0.8520466899
 40
0.8819834741
 40
0.9117467547
 40
0.926562364
 40
0.941333749
 40
0.9560602067
 40
0.9707406175
 40
0.9780643549
 40
0.9853781074
 40
1.0
 40
1.0
 40
1.0
 40
1.0
 10
4.5744975427
 20
5.5441526035
 30
0.0
 10
4.5752215486
 20
5.5253213471
 30
0.0
 10
4.57671582
 20
5.4876713578
 30
0.0
 10
4.5790835459
 20
5.4312207196
 30
0.0
 10
4.5815689531
 20
5.3748162298
 30
0.0
 10
4.5850275934
 20
5.2997221872
 30
0.0
 10
4.5886898516
 20
5.2247179866
 30
0.0
 10
4.5925270786
 20
5.1498114465
 30
0.0
 10
4.5954787344
 20
5.0937443253
 30
0.0
 10
4.5984966813
 20
5.0377613968
 30
0.0
 10
4.6015858104
 20
4.9818697156
 30
0.0
 10
4.6047495181
 20
4.9260780729
 30
0.0
 10
4.6090775531
 20
4.8519173498
 30
0.0
 10
4.6147298939
 20
4.7595541798
 30
0.0
 10
4.6207900972
 20
4.6674536712
 30
0.0
 10
4.6259164369
 20
4.5941031366
 30
0.0
 10
4.6292421601
 20
4.5484483945
 30
0.0
 10
4.6319830527
 20
4.5120262987
 30
0.0
 10
4.6340777739
 20
4.4847890619
 30
0.0
 10
4.6362139543
 20
4.4576089459
 30
0.0
 10
4.6380300518
 20
4.4349963483
 30
0.0
 10
4.6395045188
 20
4.4169365497
 30
0.0
 10
4.6409908905
 20
4.398916957
 30
0.0
 10
4.6428699429
 20
4.3764318604
 30
0.0
 10
4.6451480203
 20
4.3494976282
 30
0.0
 10
4.6481950938
 20
4.3137116086
 30
0.0
 10
4.6519984825
 20
4.2691402726
 30
0.0
 10
4.6564693244
 20
4.2158462815
 30
0.0
 10
4.6607509299
 20
4.1628092687
 30
0.0
 10
4.6647515954
 20
4.1100315641
 30
0.0
 10
4.668380571
 20
4.057516302
 30
0.0
 10
4.6715475131
 20
4.0052678546
 30
0.0
 10
4.6737296764
 20
3.9618903053
 30
0.0
 10
4.6751527533
 20
3.9273271409
 30
0.0
 10
4.6760467449
 20
3.9015143655
 30
0.0
 10
4.6767576897
 20
3.8757747139
 30
0.0
 10
4.6771874634
 20
3.8543703986
 30
0.0
 10
4.6774289296
 20
3.8372841558
 30
0.0
 10
4.6776004873
 20
3.8202311803
 30
0.0
 10
4.6776521715
 20
3.807445959
 30
0.0
 10
4.6776571868
 20
3.7989236058
 30
0.0
  0
LINE
  5
326
100
AcDbEntity
  8
0
100
AcDbLine
 62
7
  6
CONTINUOUS
 10
5.2084363355
 20
5.6876762308
 11
5.2078753067
 21
5.6701567149
  0
LINE
  5
327
100
AcDbEntity
  8
0
100
AcDbLine
 62
7
  6
CONTINUOUS
 10
5.2044478803
 20
5.5705415779
 11
5.2036929413
 21
5.5500066825
  0
SPLINE
  5
328
100
AcDbEntity
  8
0
100
AcDbSpline
 62
7
  6
CONTINUOUS
 70
0
 71
3
 72
44
 73
40
 74
0
 42
0.0000001
 43
0.0000001
 44
0.0000000001
 40
0.0
 40
0.0
 40
0.0
 40
0.0
 40
0.0654112377
 40
0.1306675095
 40
0.1632247035
 40
0.1957278992
 40
0.2281721197
 40
0.2605526482
 40
0.2928645618
 40
0.3251014844
 40
0.3572524983
 40
0.3893059122
 40
0.4530746723
 40
0.4847674113
 40
0.5163173621
 40
0.5477133597
 40
0.5789443
 40
0.5944944483
 40
0.6099992454
 40
0.6254573479
 40
0.640867417
 40
0.6562281224
 40
0.6715390828
 40
0.6868020877
 40
0.7020192084
 40
0.7171924967
 40
0.7323239937
 40
0.7624697395
 40
0.7924725788
 40
0.8223489107
 40
0.8521157978
 40
0.8817911665
 40
0.9113941353
 40
0.9409452837
 40
0.9557084612
 40
0.970467176
 40
0.9852246476
 40
0.9926049108
 40
1.0
 40
1.0
 40
1.0
 40
1.0
 10
5.2036929413
 20
5.5500066825
 30
0.0
 10
5.2022723397
 20
5.5117710218
 30
0.0
 10
5.1992693083
 20
5.4353963443
 30
0.0
 10
5.1951423626
 20
5.3400077159
 30
0.0
 10
5.1916435055
 20
5.2638598152
 30
0.0
 10
5.1889290936
 20
5.206889485
 30
0.0
 10
5.1861284113
 20
5.1500268002
 30
0.0
 10
5.1832472746
 20
5.0932801705
 30
0.0
 10
5.1802916202
 20
5.0366587996
 30
0.0
 10
5.177268249
 20
4.9801754497
 30
0.0
 10
5.1741681185
 20
4.9238476864
 30
0.0
 10
5.1699270104
 20
4.8491104982
 30
0.0
 10
5.165488758
 20
4.7746530527
 30
0.0
 10
5.1608095884
 20
4.7005056462
 30
0.0
 10
5.1571829611
 20
4.645265978
 30
0.0
 10
5.1534225487
 20
4.5903060065
 30
0.0
 10
5.1501649247
 20
4.5446927305
 30
0.0
 10
5.1474816857
 20
4.5083577772
 30
0.0
 10
5.145432661
 20
4.4812274086
 30
0.0
 10
5.143343
 20
4.4541823218
 30
0.0
 10
5.1412116438
 20
4.4272250358
 30
0.0
 10
5.1390368507
 20
4.4003575685
 30
0.0
 10
5.1368191809
 20
4.3735799286
 30
0.0
 10
5.1345710918
 20
4.3468891177
 30
0.0
 10
5.132303575
 20
4.3202807754
 30
0.0
 10
5.1300279636
 20
4.2937503328
 30
0.0
 10
5.1270019356
 20
4.2585197549
 30
0.0
 10
5.1232545262
 20
4.2146447026
 30
0.0
 10
5.1188994573
 20
4.1621652921
 30
0.0
 10
5.1147823059
 20
4.1098888423
 30
0.0
 10
5.1109933277
 20
4.0577794531
 30
0.0
 10
5.1076228271
 20
4.0058012998
 30
0.0
 10
5.1047611449
 20
3.9539187898
 30
0.0
 10
5.1028752218
 20
3.9107210787
 30
0.0
 10
5.1017118827
 20
3.8761858868
 30
0.0
 10
5.1010232579
 20
3.8502937767
 30
0.0
 10
5.1006117408
 20
3.8287150319
 30
0.0
 10
5.1003857209
 20
3.8114413655
 30
0.0
 10
5.1003075732
 20
3.8027989071
 30
0.0
 10
5.1002769644
 20
3.7984732876
 30
0.0
  0
SPLINE
  5
329
100
AcDbEntity
  8
0
100
AcDbSpline
 62
7
  6
CONTINUOUS
 70
0
 71
3
 72
22
 73
18
 74
0
 42
0.0000001
 43
0.0000001
 44
0.0000000001
 40
0.0
 40
0.0
 40
0.0
 40
0.0
 40
0.0538728722
 40
0.109556607
 40
0.1669133794
 40
0.2257984253
 40
0.2860631947
 40
0.3475576695
 40
0.4101329856
 40
0.4736436226
 40
0.537949126
 40
0.602915389
 40
0.6684154481
 40
0.7343298736
 40
0.8005467929
 40
0.8669616093
 40
1.0
 40
1.0
 40
1.0
 40
1.0
 10
5.1257471912
 20
2.8295713714
 30
0.0
 10
5.1262382665
 20
2.8395807212
 30
0.0
 10
5.1270648291
 20
2.859944588
 30
0.0
 10
5.1278684021
 20
2.8909841905
 30
0.0
 10
5.128283132
 20
2.9229637519
 30
0.0
 10
5.1283387738
 20
2.9557979163
 30
0.0
 10
5.1280673468
 20
2.9894005885
 30
0.0
 10
5.1275021312
 20
3.0236860417
 30
0.0
 10
5.1266770445
 20
3.058570099
 30
0.0
 10
5.1256260286
 20
3.0939711463
 30
0.0
 10
5.1243825017
 20
3.1298109308
 30
0.0
 10
5.122979052
 20
3.1660151179
 30
0.0
 10
5.1214470217
 20
3.2025136167
 30
0.0
 10
5.1198164165
 20
3.2392406991
 30
0.0
 10
5.1181157953
 20
3.2761349358
 30
0.0
 10
5.115789958
 20
3.3254999242
 30
0.0
 10
5.1140222308
 20
3.3625599207
 30
0.0
 10
5.1128626125
 20
3.3872804333
 30
0.0
  0
LINE
  5
32A
100
AcDbEntity
  8
0
100
AcDbLine
 62
7
  6
CONTINUOUS
 10
5.11284758
 20
3.3876009157
 11
5.1126591921
 21
3.3916213571
  0
LINE
  5
32B
100
AcDbEntity
  8
0
100
AcDbLine
 62
7
  6
CONTINUOUS
 10
5.1126591921
 20
3.3916213571
 11
5.1124567807
 21
3.3959501318
  0
SPLINE
  5
32C
100
AcDbEntity
  8
0
100
AcDbSpline
 62
7
  6
CONTINUOUS
 70
0
 71
3
 72
48
 73
44
 74
0
 42
0.0000001
 43
0.0000001
 44
0.0000000001
 40
0.0
 40
0.0
 40
0.0
 40
0.0
 40
0.0073133145
 40
0.0146234015
 40
0.0219369431
 40
0.02925813
 40
0.0365909078
 40
0.0439364565
 40
0.0586629193
 40
0.088247072
 40
0.1180083597
 40
0.1479434184
 40
0.1780485249
 40
0.2083194542
 40
0.2387513915
 40
0.2693392492
 40
0.3000776604
 40
0.315501588
 40
0.3309610192
 40
0.3464552177
 40
0.3542151308
 40
0.3619834667
 40
0.3775448757
 40
0.3931382581
 40
0.4087623966
 40
0.4244160746
 40
0.4558074867
 40
0.4873036738
 40
0.5188961341
 40
0.5505768312
 40
0.5823381101
 40
0.6141728818
 40
0.6460742651
 40
0.6780357029
 40
0.7100512092
 40
0.7421163099
 40
0.774227004
 40
0.8063803786
 40
0.8708033457
 40
0.9030653954
 40
0.9353554624
 40
0.967668756
 40
1.0
 40
1.0
 40
1.0
 40
1.0
 10
5.1002086953
 20
3.7984681018
 30
0.0
 10
5.1002109998
 20
3.8027460579
 30
0.0
 10
5.1002310012
 20
3.8113000834
 30
0.0
 10
5.1003106325
 20
3.8241319829
 30
0.0
 10
5.1004410151
 20
3.8369680745
 30
0.0
 10
5.1006224932
 20
3.8498168199
 30
0.0
 10
5.1008558296
 20
3.8626834546
 30
0.0
 10
5.1012350828
 20
3.8798797782
 30
0.0
 10
5.1020718932
 20
3.9100849528
 30
0.0
 10
5.1037258055
 20
3.9533834364
 30
0.0
 10
5.1063528252
 20
4.0055434036
 30
0.0
 10
5.1095339251
 20
4.0579775383
 30
0.0
 10
5.1131787574
 20
4.110680034
 30
0.0
 10
5.117196394
 20
4.1636467079
 30
0.0
 10
5.1214952672
 20
4.2168744563
 30
0.0
 10
5.1259829151
 20
4.2703609458
 30
0.0
 10
5.1297992512
 20
4.3150938249
 30
0.0
 10
5.1328555336
 20
4.3510099583
 30
0.0
 10
5.1351397973
 20
4.378042385
 30
0.0
 10
5.1370232954
 20
4.4006095915
 30
0.0
 10
5.1385127421
 20
4.4186950869
 30
0.0
 10
5.1399899416
 20
4.4368210324
 30
0.0
 10
5.1418093871
 20
4.4595164921
 30
0.0
 10
5.143949381
 20
4.4867962445
 30
0.0
 10
5.1460477468
 20
4.5141333634
 30
0.0
 10
5.1487932677
 20
4.5506890718
 30
0.0
 10
5.1521245043
 20
4.5965113001
 30
0.0
 10
5.1559698908
 20
4.651643971
 30
0.0
 10
5.1596775072
 20
4.7069556701
 30
0.0
 10
5.1632571892
 20
4.762431176
 30
0.0
 10
5.166718965
 20
4.818056172
 30
0.0
 10
5.1700726281
 20
4.8738171082
 30
0.0
 10
5.1733285465
 20
4.9297011123
 30
0.0
 10
5.1764991421
 20
4.9856959056
 30
0.0
 10
5.1795955794
 20
5.0417907589
 30
0.0
 10
5.1826206203
 20
5.0979769397
 30
0.0
 10
5.185578418
 20
5.1542474622
 30
0.0
 10
5.1894217551
 20
5.2294253707
 30
0.0
 10
5.1930870553
 20
5.3047009764
 30
0.0
 10
5.1965454735
 20
5.3800662695
 30
0.0
 10
5.1990288336
 20
5.43667373
 30
0.0
 10
5.2013927306
 20
5.493326815
 30
0.0
 10
5.2028828169
 20
5.5311116052
 30
0.0
 10
5.2036042593
 20
5.5500101484
 30
0.0
  0
LINE
  5
32D
100
AcDbEntity
  8
0
100
AcDbLine
 62
7
  6
CONTINUOUS
 10
5.2036042593
 20
5.5500101484
 11
5.2043790343
 21
5.5705464618
  0
LINE
  5
32E
100
AcDbEntity
  8
0
100
AcDbLine
 62
7
  6
CONTINUOUS
 10
5.1124588342
 20
3.3959500888
 11
5.112681543
 21
3.3916217116
  0
LINE
  5
32F
100
AcDbEntity
  8
0
100
AcDbLine
 62
7
  6
CONTINUOUS
 10
5.112681543
 20
3.3916217116
 11
5.1128865481
 21
3.3876533
  0
SPLINE
  5
330
100
AcDbEntity
  8
0
100
AcDbSpline
 62
7
  6
CONTINUOUS
 70
0
 71
3
 72
19
 73
15
 74
0
 42
0.0000001
 43
0.0000001
 44
0.0000000001
 40
0.0
 40
0.0
 40
0.0
 40
0.0
 40
0.1358933751
 40
0.2704863517
 40
0.4028731532
 40
0.5321468523
 40
0.5953332348
 40
0.6574015541
 40
0.7182386143
 40
0.7777312778
 40
0.8357664564
 40
0.8922312967
 40
0.947013245
 40
1.0
 40
1.0
 40
1.0
 40
1.0
 10
5.1128891662
 20
3.3876027147
 30
0.0
 10
5.113989133
 20
3.3663506984
 30
0.0
 10
5.1162425814
 20
3.3240533441
 30
0.0
 10
5.1197087157
 20
3.2610599921
 30
0.0
 10
5.1231468841
 20
3.199103306
 30
0.0
 10
5.1259219041
 20
3.1483090544
 30
0.0
 10
5.1280265966
 20
3.1085063239
 30
0.0
 10
5.1295198818
 20
3.0794032253
 30
0.0
 10
5.1309267785
 20
3.050874928
 30
0.0
 10
5.132234051
 20
3.0229741355
 30
0.0
 10
5.133428471
 20
2.9957535892
 30
0.0
 10
5.1344968157
 20
2.9692660494
 30
0.0
 10
5.1354258765
 20
2.9435643131
 30
0.0
 10
5.1359527268
 20
2.9266962115
 30
0.0
 10
5.1361874858
 20
2.9184019785
 30
0.0
  0
LINE
  5
331
100
AcDbEntity
  8
0
100
AcDbLine
 62
7
  6
CONTINUOUS
 10
5.1361874858
 20
2.9184019785
 11
5.1362658833
 21
2.9155990858
  0
SPLINE
  5
332
100
AcDbEntity
  8
0
100
AcDbSpline
 62
7
  6
CONTINUOUS
 70
0
 71
3
 72
130
 73
126
 74
0
 42
0.0000001
 43
0.0000001
 44
0.0000000001
 40
0.0
 40
0.0
 40
0.0
 40
0.0
 40
0.0056591045
 40
0.01157071
 40
0.0241079751
 40
0.0375134157
 40
0.0516746116
 40
0.0664726811
 40
0.0817886879
 40
0.0975085087
 40
0.1135259848
 40
0.1216158115
 40
0.1297446563
 40
0.1379020289
 40
0.1460780423
 40
0.1542633973
 40
0.158356825
 40
0.1624493426
 40
0.1665399255
 40
0.1706275923
 40
0.1726700274
 40
0.1747113698
 40
0.1787903256
 40
0.1828635599
 40
0.1869301678
 40
0.1909892802
 40
0.1950400573
 40
0.1990816609
 40
0.2031132779
 40
0.2111433716
 40
0.2191240888
 40
0.2270493583
 40
0.2349131673
 40
0.2427096429
 40
0.2504330768
 40
0.2542654159
 40
0.2580770178
 40
0.2618672122
 40
0.2656356865
 40
0.2693821735
 40
0.2731082107
 40
0.2768198375
 40
0.2805238044
 40
0.2842265087
 40
0.2879313865
 40
0.2916404799
 40
0.2953558251
 40
0.302809069
 40
0.3102902729
 40
0.3177969559
 40
0.3253291389
 40
0.3328871714
 40
0.3404708766
 40
0.3480798031
 40
0.3633716864
 40
0.3787601911
 40
0.3864897478
 40
0.3942422873
 40
0.4020173814
 40
0.4098146409
 40
0.4176336897
 40
0.4215512698
 40
0.4254741391
 40
0.4333353678
 40
0.4412166186
 40
0.4451645187
 40
0.4491171417
 40
0.4570361203
 40
0.4649726635
 40
0.4729258687
 40
0.4808948718
 40
0.4888788997
 40
0.5048889774
 40
0.5209502672
 40
0.5370572731
 40
0.5532048787
 40
0.5693883054
 40
0.5856034783
 40
0.6018469153
 40
0.6181165054
 40
0.6344102509
 40
0.6507255792
 40
0.6670596032
 40
0.6752326227
 40
0.6834090814
 40
0.6915885146
 40
0.6997704552
 40
0.707954376
 40
0.7161396802
 40
0.7202326665
 40
0.724325796
 40
0.7284190214
 40
0.7325122959
 40
0.734558937
 40
0.7366055719
 40
0.7386521774
 40
0.7406987174
 40
0.7447914608
 40
0.748883556
 40
0.7509293087
 40
0.7529748479
 40
0.7550201396
 40
0.7570651314
 40
0.761154007
 40
0.7652410988
 40
0.7693260626
 40
0.7734086347
 40
0.7774885763
 40
0.7815656364
 40
0.7897100489
 40
0.7978400345
 40
0.8059537911
 40
0.8140496483
 40
0.830180929
 40
0.8462228471
 40
0.8621652837
 40
0.8779993466
 40
0.8937172067
 40
0.90931196
 40
0.9247775068
 40
0.9401084514
 40
0.9553000407
 40
0.9703481031
 40
0.985249084
 40
1.0
 40
1.0
 40
1.0
 40
1.0
 10
4.7604573048
 20
2.7590843033
 30
0.0
 10
4.7616804566
 20
2.7665191226
 30
0.0
 10
4.7641408277
 20
2.7817271933
 30
0.0
 10
4.7690926363
 20
2.8134414091
 30
0.0
 10
4.7752685845
 20
2.8554025398
 30
0.0
 10
4.7824157461
 20
2.9083192631
 30
0.0
 10
4.7893040656
 20
2.9643044827
 30
0.0
 10
4.7958309678
 20
3.0228931867
 30
0.0
 10
4.8019231368
 20
3.0836146174
 30
0.0
 10
4.8075317566
 20
3.1460127797
 30
0.0
 10
4.8117629189
 20
3.1988720251
 30
0.0
 10
4.8148907984
 20
3.2416785372
 30
0.0
 10
4.8171088424
 20
3.27405803
 30
0.0
 10
4.8191896725
 20
3.3065616068
 30
0.0
 10
4.8211323021
 20
3.339149108
 30
0.0
 10
4.8226335345
 20
3.3663421433
 30
0.0
 10
4.8237643386
 20
3.3881102206
 30
0.0
 10
4.8245776337
 20
3.404435457
 30
0.0
 10
4.8253555032
 20
3.4207547404
 30
0.0
 10
4.8259726412
 20
3.4343489887
 30
0.0
 10
4.8264467406
 20
3.4452184499
 30
0.0
 10
4.8269072382
 20
3.4560768872
 30
0.0
 10
4.8274600204
 20
3.4696377195
 30
0.0
 10
4.8280935452
 20
3.4858939905
 30
0.0
 10
4.8287044089
 20
3.5021246879
 30
0.0
 10
4.8292955164
 20
3.5183261961
 30
0.0
 10
4.8298670994
 20
3.5344950921
 30
0.0
 10
4.8304202118
 20
3.5506280004
 30
0.0
 10
4.8311317147
 20
3.572056803
 30
0.0
 10
4.8319719013
 20
3.5987289043
 30
0.0
 10
4.8328975608
 20
3.6305849628
 30
0.0
 10
4.8337356722
 20
3.6622219738
 30
0.0
 10
4.8344812062
 20
3.693615932
 30
0.0
 10
4.8351288722
 20
3.7247432755
 30
0.0
 10
4.8355839946
 20
3.7505056776
 30
0.0
 10
4.8358933815
 20
3.7709640955
 30
0.0
 10
4.8360968178
 20
3.7861866178
 30
0.0
 10
4.8362714238
 20
3.8013244607
 30
0.0
 10
4.8364159846
 20
3.8163759207
 30
0.0
 10
4.8365297557
 20
3.8313422212
 30
0.0
 10
4.8366104862
 20
3.8462330521
 30
0.0
 10
4.8366468077
 20
3.8610674555
 30
0.0
 10
4.8366285856
 20
3.8758708404
 30
0.0
 10
4.8365445175
 20
3.8906650233
 30
0.0
 10
4.8363912693
 20
3.9054654781
 30
0.0
 10
4.8361674959
 20
3.9202818725
 30
0.0
 10
4.8357718741
 20
3.9400867426
 30
0.0
 10
4.8350935252
 20
3.9649089688
 30
0.0
 10
4.8340132422
 20
3.9947688046
 30
0.0
 10
4.8326898611
 20
4.0247240189
 30
0.0
 10
4.8311417845
 20
4.0547708403
 30
0.0
 10
4.8293875592
 20
4.0849090117
 30
0.0
 10
4.8274464638
 20
4.1151380767
 30
0.0
 10
4.8246305615
 20
4.1556287609
 30
0.0
 10
4.820739402
 20
4.206460614
 30
0.0
 10
4.8164981372
 20
4.257425216
 30
0.0
 10
4.8129643424
 20
4.298375409
 30
0.0
 10
4.8102583031
 20
4.3292225219
 30
0.0
 10
4.807519594
 20
4.3601572392
 30
0.0
 10
4.8047701962
 20
4.3911799091
 30
0.0
 10
4.8024900197
 20
4.4170879821
 30
0.0
 10
4.8006826752
 20
4.4378591955
 30
0.0
 10
4.7988870577
 20
4.4586877945
 30
0.0
 10
4.7966713408
 20
4.484777136
 30
0.0
 10
4.7945036719
 20
4.5109039608
 30
0.0
 10
4.7928006947
 20
4.5318473378
 30
0.0
 10
4.7911179664
 20
4.5528427451
 30
0.0
 10
4.7890551379
 20
4.5791353408
 30
0.0
 10
4.7866415044
 20
4.6107432489
 30
0.0
 10
4.7842837166
 20
4.6424221586
 30
0.0
 10
4.781977904
 20
4.6741682825
 30
0.0
 10
4.7789680988
 20
4.7166187175
 30
0.0
 10
4.7753286122
 20
4.7698258712
 30
0.0
 10
4.7711436912
 20
4.8338359438
 30
0.0
 10
4.7671172889
 20
4.8980396386
 30
0.0
 10
4.7632307082
 20
4.962414847
 30
0.0
 10
4.759465225
 20
5.0269415033
 30
0.0
 10
4.7558031961
 20
5.0916018993
 30
0.0
 10
4.7522273817
 20
5.1563820166
 30
0.0
 10
4.748755364
 20
5.2212725561
 30
0.0
 10
4.7454040183
 20
5.286265296
 30
0.0
 10
4.7421888867
 20
5.3513508196
 30
0.0
 10
4.739637248
 20
5.405643523
 30
0.0
 10
4.7376804706
 20
5.4491156625
 30
0.0
 10
4.736257079
 20
5.4817434318
 30
0.0
 10
4.7348805356
 20
5.5143851003
 30
0.0
 10
4.7335532094
 20
5.547038752
 30
0.0
 10
4.7322770683
 20
5.5797022672
 30
0.0
 10
4.7312575341
 20
5.6069274183
 30
0.0
 10
4.7304689734
 20
5.6287107271
 30
0.0
 10
4.7298914679
 20
5.6450497412
 30
0.0
 10
4.7293283134
 20
5.66138964
 30
0.0
 10
4.7288714025
 20
5.6750067991
 30
0.0
 10
4.7285133604
 20
5.6859008239
 30
0.0
 10
4.7282490286
 20
5.6940714376
 30
0.0
 10
4.7279864614
 20
5.7022419734
 30
0.0
 10
4.7276328627
 20
5.7131352614
 30
0.0
 10
4.7271743984
 20
5.7267500298
 30
0.0
 10
4.7266668337
 20
5.7403620514
 30
0.0
 10
4.7262152888
 20
5.7512484022
 30
0.0
 10
4.7258495315
 20
5.759410725
 30
0.0
 10
4.7254548757
 20
5.7675706892
 30
0.0
 10
4.7248896345
 20
5.7784460947
 30
0.0
 10
4.7241079557
 20
5.7920323673
 30
0.0
 10
4.7230444697
 20
5.8083225613
 30
0.0
 10
4.7218493834
 20
5.8245952291
 30
0.0
 10
4.7205231807
 20
5.8408481742
 30
0.0
 10
4.7190686849
 20
5.85707958
 30
0.0
 10
4.7169621766
 20
5.87868166
 30
0.0
 10
4.714020265
 20
5.9056194287
 30
0.0
 10
4.7099967092
 20
5.9378418196
 30
0.0
 10
4.7054852705
 20
5.9699343533
 30
0.0
 10
4.6988380329
 20
6.0124795545
 30
0.0
 10
4.689351991
 20
6.0652587548
 30
0.0
 10
4.6761095161
 20
6.1279480213
 30
0.0
 10
4.6610688666
 20
6.1898234043
 30
0.0
 10
4.6442727214
 20
6.2507980099
 30
0.0
 10
4.6257597954
 20
6.310789324
 30
0.0
 10
4.6055639035
 20
6.3697169481
 30
0.0
 10
4.5837144146
 20
6.4275015149
 30
0.0
 10
4.5602362819
 20
6.4840633866
 30
0.0
 10
4.5351502163
 20
6.5393212641
 30
0.0
 10
4.5084726469
 20
6.5931914458
 30
0.0
 10
4.4802169994
 20
6.6455850656
 30
0.0
 10
4.4602305236
 20
6.6796442683
 30
0.0
 10
4.4499723203
 20
6.6963923335
 30
0.0
  0
SPLINE
  5
333
100
AcDbEntity
  8
0
100
AcDbSpline
 62
7
  6
CONTINUOUS
 70
0
 71
3
 72
15
 73
11
 74
0
 42
0.0000001
 43
0.0000001
 44
0.0000000001
 40
0.0
 40
0.0
 40
0.0
 40
0.0
 40
0.1205640744
 40
0.2424707839
 40
0.3656887897
 40
0.4901798735
 40
0.615901502
 40
0.7428115982
 40
0.8708622694
 40
1.0
 40
1.0
 40
1.0
 40
1.0
 10
4.2991087002
 20
6.6961002666
 30
0.0
 10
4.3090368785
 20
6.6792732577
 30
0.0
 10
4.3283959341
 20
6.6450694614
 30
0.0
 10
4.3557993946
 20
6.5925137173
 30
0.0
 10
4.3817145773
 20
6.5385013885
 30
0.0
 10
4.4061165831
 20
6.4831132191
 30
0.0
 10
4.4289774787
 20
6.4264260893
 30
0.0
 10
4.4502688215
 20
6.3685161277
 30
0.0
 10
4.4699563791
 20
6.3094584222
 30
0.0
 10
4.4819385775
 20
6.2695324747
 30
0.0
 10
4.4876538194
 20
6.2494010742
 30
0.0
  0
LINE
  5
334
100
AcDbEntity
  8
0
100
AcDbLine
 62
7
  6
CONTINUOUS
 10
4.6726942615
 20
5.5931891609
 11
4.6744348442
 21
5.5474616375
  0
SPLINE
  5
335
100
AcDbEntity
  8
0
100
AcDbSpline
 62
7
  6
CONTINUOUS
 70
0
 71
3
 72
50
 73
46
 74
0
 42
0.0000001
 43
0.0000001
 44
0.0000000001
 40
0.0
 40
0.0
 40
0.0
 40
0.0
 40
0.0161688157
 40
0.0323337115
 40
0.0646490479
 40
0.0969409465
 40
0.1292046905
 40
0.1614359929
 40
0.1936309487
 40
0.2257862509
 40
0.2578987199
 40
0.2899654067
 40
0.3219829932
 40
0.3539460821
 40
0.3858485791
 40
0.4176839796
 40
0.4494455203
 40
0.4811258939
 40
0.5127173484
 40
0.5442117777
 40
0.5599199757
 40
0.5756007157
 40
0.5912527652
 40
0.6068748679
 40
0.622465776
 40
0.6380243664
 40
0.6535498007
 40
0.6690412653
 40
0.6844979299
 40
0.6999190451
 40
0.7306522115
 40
0.7612359752
 40
0.7916654129
 40
0.8219357689
 40
0.8520420496
 40
0.8819793139
 40
0.9117419217
 40
0.9265574155
 40
0.9413300247
 40
0.956059052
 40
0.9634057607
 40
0.9707396953
 40
0.9780604436
 40
0.9853720739
 40
1.0
 40
1.0
 40
1.0
 40
1.0
 10
4.6744348442
 20
5.5474616375
 30
0.0
 10
4.6747943631
 20
5.5382469921
 30
0.0
 10
4.675524231
 20
5.5198203585
 30
0.0
 10
4.6770305449
 20
5.4829794573
 30
0.0
 10
4.6790019108
 20
5.4369543588
 30
0.0
 10
4.681492174
 20
5.3817614703
 30
0.0
 10
4.6840939259
 20
5.3266217095
 30
0.0
 10
4.6867999831
 20
5.2715423308
 30
0.0
 10
4.6896015463
 20
5.216529661
 30
0.0
 10
4.6924881479
 20
5.1615892618
 30
0.0
 10
4.6954499915
 20
5.1067261335
 30
0.0
 10
4.698481028
 20
5.0519454522
 30
0.0
 10
4.7015736563
 20
4.9972535457
 30
0.0
 10
4.7047389163
 20
4.9426595876
 30
0.0
 10
4.7079896137
 20
4.8881747348
 30
0.0
 10
4.7113363077
 20
4.8338108546
 30
0.0
 10
4.7147887558
 20
4.7795805212
 30
0.0
 10
4.7183576633
 20
4.7254971497
 30
0.0
 10
4.7220548091
 20
4.6715750851
 30
0.0
 10
4.7252530673
 20
4.6267498749
 30
0.0
 10
4.7278845496
 20
4.5909818904
 30
0.0
 10
4.7298937521
 20
4.5642280532
 30
0.0
 10
4.7319428045
 20
4.5375264849
 30
0.0
 10
4.7340341723
 20
4.5108795875
 30
0.0
 10
4.736170762
 20
4.4842897501
 30
0.0
 10
4.7383538686
 20
4.4577590131
 30
0.0
 10
4.7405748066
 20
4.4312883365
 30
0.0
 10
4.7428257806
 20
4.4048785424
 30
0.0
 10
4.7450991336
 20
4.3785303855
 30
0.0
 10
4.7481442872
 20
4.3435236446
 30
0.0
 10
4.751951973
 20
4.2999231308
 30
0.0
 10
4.7564303356
 20
4.2477888336
 30
0.0
 10
4.7607198558
 20
4.1959034132
 30
0.0
 10
4.7647307364
 20
4.1442687023
 30
0.0
 10
4.7683714434
 20
4.0928877498
 30
0.0
 10
4.7715502955
 20
4.041766072
 30
0.0
 10
4.7737391285
 20
3.9993226222
 30
0.0
 10
4.7751640827
 20
3.9655025705
 30
0.0
 10
4.7760576371
 20
3.9402425153
 30
0.0
 10
4.7766483136
 20
3.9192346628
 30
0.0
 10
4.7770206407
 20
3.9024653656
 30
0.0
 10
4.7772479867
 20
3.8899192039
 30
0.0
 10
4.7774212981
 20
3.8773921851
 30
0.0
 10
4.7775820873
 20
3.8607047211
 30
0.0
 10
4.7776299559
 20
3.8481917543
 30
0.0
 10
4.7776346976
 20
3.839848924
 30
0.0
  0
SPLINE
  5
336
100
AcDbEntity
  8
0
100
AcDbSpline
 62
7
  6
CONTINUOUS
 70
0
 71
3
 72
39
 73
35
 74
0
 42
0.0000001
 43
0.0000001
 44
0.0000000001
 40
0.0
 40
0.0
 40
0.0
 40
0.0
 40
0.0242886445
 40
0.0487341949
 40
0.0734491332
 40
0.0985376666
 40
0.1240929869
 40
0.1501952979
 40
0.1769105319
 40
0.2042897671
 40
0.2182426676
 40
0.2323738881
 40
0.2611751336
 40
0.2907060548
 40
0.3209615536
 40
0.3519246255
 40
0.3835674021
 40
0.4158522779
 40
0.4487329531
 40
0.4821555457
 40
0.5160595775
 40
0.5503790384
 40
0.5850433081
 40
0.6199781748
 40
0.6551067067
 40
0.690350237
 40
0.7256292084
 40
0.7608641372
 40
0.7959764545
 40
0.8308894634
 40
0.8655291993
 40
0.8998253869
 40
0.933712355
 40
1.0
 40
1.0
 40
1.0
 40
1.0
 10
4.6832375168
 20
2.7867616245
 30
0.0
 10
4.6833404631
 20
2.7835883894
 30
0.0
 10
4.6838595495
 20
2.7772272524
 30
0.0
 10
4.6855674506
 20
2.7677650702
 30
0.0
 10
4.6881975985
 20
2.7584075882
 30
0.0
 10
4.6917370817
 20
2.749200202
 30
0.0
 10
4.6961688257
 20
2.740185749
 30
0.0
 10
4.7014718232
 20
2.7314061923
 30
0.0
 10
4.7076209897
 20
2.7229023581
 30
0.0
 10
4.713390884
 20
2.716120395
 30
0.0
 10
4.7183911909
 20
2.710868919
 30
0.0
 10
4.7237135032
 20
2.7056741046
 30
0.0
 10
4.7308450111
 20
2.6994273719
 30
0.0
 10
4.7400603513
 20
2.6924017056
 30
0.0
 10
4.7499462223
 20
2.6858309425
 30
0.0
 10
4.7604577304
 20
2.6797458031
 30
0.0
 10
4.7715476041
 20
2.6741745236
 30
0.0
 10
4.7831658953
 20
2.6691431855
 30
0.0
 10
4.7952603267
 20
2.6646754622
 30
0.0
 10
4.8077764737
 20
2.6607925438
 30
0.0
 10
4.820658018
 20
2.6575130206
 30
0.0
 10
4.8338469879
 20
2.6548527985
 30
0.0
 10
4.8472840246
 20
2.6528250169
 30
0.0
 10
4.8609086419
 20
2.6514399882
 30
0.0
 10
4.8746595064
 20
2.6507051446
 30
0.0
 10
4.888474708
 20
2.650625004
 30
0.0
 10
4.9022920458
 20
2.6512011457
 30
0.0
 10
4.9160493111
 20
2.6524322078
 30
0.0
 10
4.9296845445
 20
2.6543138794
 30
0.0
 10
4.9431364286
 20
2.6568389703
 30
0.0
 10
4.9563441312
 20
2.6599972695
 30
0.0
 10
4.9692491953
 20
2.6637762438
 30
0.0
 10
4.9858470244
 20
2.6695765327
 30
0.0
 10
4.9978628182
 20
2.6748661085
 30
0.0
 10
5.0055806675
 20
2.6788048979
 30
0.0
  0
SPLINE
  5
337
100
AcDbEntity
  8
0
100
AcDbSpline
 62
7
  6
CONTINUOUS
 70
0
 71
3
 72
130
 73
126
 74
0
 42
0.0000001
 43
0.0000001
 44
0.0000000001
 40
0.0
 40
0.0
 40
0.0
 40
0.0
 40
0.014750916
 40
0.0296518968
 40
0.0446999591
 40
0.0598915484
 40
0.075222493
 40
0.0906880397
 40
0.106282793
 40
0.1220006531
 40
0.1378347159
 40
0.1537771524
 40
0.1698190705
 40
0.1859503511
 40
0.1940462082
 40
0.2021599648
 40
0.2102899505
 40
0.2184343629
 40
0.2225114229
 40
0.2265913645
 40
0.2306739366
 40
0.2347589005
 40
0.2388459924
 40
0.242934868
 40
0.2449798597
 40
0.2470251511
 40
0.2490706901
 40
0.2511164427
 40
0.2552085382
 40
0.2593012819
 40
0.2613478221
 40
0.2633944277
 40
0.2654410626
 40
0.2674877037
 40
0.271580978
 40
0.2756742034
 40
0.2797673328
 40
0.2838603191
 40
0.2920456234
 40
0.3002295442
 40
0.3084114849
 40
0.3165909182
 40
0.3247673769
 40
0.3329403964
 40
0.3492744205
 40
0.3655897487
 40
0.3818834943
 40
0.3981530843
 40
0.4143965215
 40
0.4306116944
 40
0.4467951209
 40
0.4629427265
 40
0.4790497325
 40
0.4951110222
 40
0.5111210999
 40
0.5191051279
 40
0.527074131
 40
0.5350273362
 40
0.5429638793
 40
0.5508828577
 40
0.5548354807
 40
0.5587833808
 40
0.566664632
 40
0.5745258609
 40
0.5784487302
 40
0.5823663101
 40
0.5901853587
 40
0.5979826181
 40
0.6057577123
 40
0.6135102519
 40
0.6212398086
 40
0.6366283134
 40
0.6519201972
 40
0.6595291243
 40
0.6671128297
 40
0.6746708617
 40
0.6822030439
 40
0.6897097272
 40
0.6971909352
 40
0.7046441817
 40
0.7083595228
 40
0.7120686076
 40
0.7157734805
 40
0.7194761917
 40
0.7231801676
 40
0.7268917971
 40
0.7306178286
 40
0.7343643081
 40
0.7381327843
 40
0.7419229834
 40
0.7457345873
 40
0.7495669259
 40
0.7572903578
 40
0.7650868338
 40
0.772950643
 40
0.7808759123
 40
0.7888566296
 40
0.7968867232
 40
0.8009183402
 40
0.8049599438
 40
0.8090107208
 40
0.8130698333
 40
0.8171364411
 40
0.8212096754
 40
0.8252886312
 40
0.8273299736
 40
0.8293724086
 40
0.8334600754
 40
0.8375506584
 40
0.8416431759
 40
0.8457366036
 40
0.8539219585
 40
0.862097972
 40
0.8702553445
 40
0.8783841892
 40
0.8864740159
 40
0.9024914919
 40
0.9182113126
 40
0.9335273194
 40
0.9483253888
 40
0.9624865845
 40
0.975892025
 40
0.9884292901
 40
0.9943408956
 40
1.0
 40
1.0
 40
1.0
 40
1.0
 10
5.3279003506
 20
6.6963923335
 30
0.0
 10
5.3176421474
 20
6.6796442683
 30
0.0
 10
5.2976556717
 20
6.6455850658
 30
0.0
 10
5.2694000243
 20
6.5931914461
 30
0.0
 10
5.2427224549
 20
6.5393212646
 30
0.0
 10
5.2176363894
 20
6.4840633872
 30
0.0
 10
5.1941582567
 20
6.4275015157
 30
0.0
 10
5.1723087679
 20
6.3697169491
 30
0.0
 10
5.152112876
 20
6.3107893253
 30
0.0
 10
5.13359995
 20
6.2507980114
 30
0.0
 10
5.1168038048
 20
6.189823406
 30
0.0
 10
5.1017631552
 20
6.1279480232
 30
0.0
 10
5.0885206807
 20
6.0652587569
 30
0.0
 10
5.0790346379
 20
6.0124795569
 30
0.0
 10
5.072387401
 20
5.9699343557
 30
0.0
 10
5.0678759636
 20
5.9378418219
 30
0.0
 10
5.0638524047
 20
5.9056194315
 30
0.0
 10
5.0609104898
 20
5.8786816633
 30
0.0
 10
5.0588039873
 20
5.8570795831
 30
0.0
 10
5.0573494993
 20
5.8408481767
 30
0.0
 10
5.0560233008
 20
5.8245952312
 30
0.0
 10
5.0548282124
 20
5.808322563
 30
0.0
 10
5.0537647016
 20
5.7920323704
 30
0.0
 10
5.0529830029
 20
5.778446099
 30
0.0
 10
5.0524177577
 20
5.7675706944
 30
0.0
 10
5.0520231072
 20
5.7594107306
 30
0.0
 10
5.0516573694
 20
5.7512484077
 30
0.0
 10
5.0512058488
 20
5.740362056
 30
0.0
 10
5.0506983065
 20
5.7267500329
 30
0.0
 10
5.050239848
 20
5.7131352632
 30
0.0
 10
5.0498862395
 20
5.7022419745
 30
0.0
 10
5.0496236577
 20
5.6940714388
 30
0.0
 10
5.0493592997
 20
5.6859008259
 30
0.0
 10
5.0490012352
 20
5.675006802
 30
0.0
 10
5.0485443152
 20
5.6613896436
 30
0.0
 10
5.0479811702
 20
5.6450497449
 30
0.0
 10
5.0474036838
 20
5.6287107304
 30
0.0
 10
5.046615147
 20
5.6069274207
 30
0.0
 10
5.0455956183
 20
5.5797022691
 30
0.0
 10
5.0443194659
 20
5.5470387541
 30
0.0
 10
5.0429921307
 20
5.5143851025
 30
0.0
 10
5.0416155878
 20
5.4817434339
 30
0.0
 10
5.0401921996
 20
5.4491156644
 30
0.0
 10
5.0382354253
 20
5.4056435246
 30
0.0
 10
5.0356837845
 20
5.3513508212
 30
0.0
 10
5.0324686525
 20
5.2862652974
 30
0.0
 10
5.029117308
 20
5.2212725576
 30
0.0
 10
5.0256452859
 20
5.1563820181
 30
0.0
 10
5.0220694758
 20
5.0916019004
 30
0.0
 10
5.01840745
 20
5.0269415041
 30
0.0
 10
5.0146419612
 20
4.9624148484
 30
0.0
 10
5.0107553816
 20
4.89803964
 30
0.0
 10
5.0067289806
 20
4.8338359451
 30
0.0
 10
5.0025440584
 20
4.7698258726
 30
0.0
 10
4.998904571
 20
4.716618719
 30
0.0
 10
4.9958947679
 20
4.6741682837
 30
0.0
 10
4.9935889573
 20
4.6424221596
 30
0.0
 10
4.9912311701
 20
4.61074325
 30
0.0
 10
4.9888175316
 20
4.5791353427
 30
0.0
 10
4.9867546979
 20
4.5528427477
 30
0.0
 10
4.9850719641
 20
4.531847341
 30
0.0
 10
4.9833689866
 20
4.5109039636
 30
0.0
 10
4.9812013309
 20
4.4847771369
 30
0.0
 10
4.9789856272
 20
4.4586877936
 30
0.0
 10
4.9771900114
 20
4.4378591944
 30
0.0
 10
4.9753826594
 20
4.4170879822
 30
0.0
 10
4.9731024763
 20
4.3911799105
 30
0.0
 10
4.9703530726
 20
4.3601572413
 30
0.0
 10
4.9676143642
 20
4.3292225238
 30
0.0
 10
4.964908328
 20
4.2983754104
 30
0.0
 10
4.9613745352
 20
4.2574252169
 30
0.0
 10
4.9571332704
 20
4.206460614
 30
0.0
 10
4.9532421098
 20
4.1556287595
 30
0.0
 10
4.9504262065
 20
4.1151380736
 30
0.0
 10
4.9484851108
 20
4.0849090081
 30
0.0
 10
4.9467308868
 20
4.0547708382
 30
0.0
 10
4.945182813
 20
4.0247240179
 30
0.0
 10
4.9438594322
 20
3.9947687991
 30
0.0
 10
4.9427791402
 20
3.9649089541
 30
0.0
 10
4.9421007812
 20
3.9400867246
 30
0.0
 10
4.9417051674
 20
3.9202818678
 30
0.0
 10
4.9414814135
 20
3.9054654966
 30
0.0
 10
4.94132818
 20
3.8906650505
 30
0.0
 10
4.9412440964
 20
3.8758708531
 30
0.0
 10
4.9412258566
 20
3.8610674435
 30
0.0
 10
4.9412621718
 20
3.846233032
 30
0.0
 10
4.9413429106
 20
3.8313422151
 30
0.0
 10
4.9414566972
 20
3.8163759298
 30
0.0
 10
4.941601254
 20
3.8013244709
 30
0.0
 10
4.9417758532
 20
3.7861866165
 30
0.0
 10
4.9419792863
 20
3.7709640858
 30
0.0
 10
4.942288674
 20
3.7505056685
 30
0.0
 10
4.9427438001
 20
3.7247432693
 30
0.0
 10
4.9433914641
 20
3.6936159277
 30
0.0
 10
4.9441369982
 20
3.6622219689
 30
0.0
 10
4.9449751105
 20
3.6305849579
 30
0.0
 10
4.9459007677
 20
3.5987288996
 30
0.0
 10
4.946740957
 20
3.5720567985
 30
0.0
 10
4.9474524617
 20
3.5506279959
 30
0.0
 10
4.9480055727
 20
3.5344950877
 30
0.0
 10
4.9485771486
 20
3.5183261915
 30
0.0
 10
4.9491682512
 20
3.5021246832
 30
0.0
 10
4.9497791237
 20
3.4858939862
 30
0.0
 10
4.9504126579
 20
3.4696377156
 30
0.0
 10
4.9509654433
 20
3.4560768835
 30
0.0
 10
4.9514259372
 20
3.4452184461
 30
0.0
 10
4.9519000309
 20
3.4343489847
 30
0.0
 10
4.9525171658
 20
3.4207547363
 30
0.0
 10
4.9532950348
 20
3.404435453
 30
0.0
 10
4.9541083328
 20
3.3881102168
 30
0.0
 10
4.955239138
 20
3.3663421396
 30
0.0
 10
4.9567403695
 20
3.3391491044
 30
0.0
 10
4.9586829994
 20
3.3065616034
 30
0.0
 10
4.9607638299
 20
3.2740580267
 30
0.0
 10
4.962981874
 20
3.2416785341
 30
0.0
 10
4.9661097538
 20
3.1988720223
 30
0.0
 10
4.9703409163
 20
3.1460127772
 30
0.0
 10
4.9759495364
 20
3.0836146153
 30
0.0
 10
4.9820417057
 20
3.022893185
 30
0.0
 10
4.988568608
 20
2.9643044814
 30
0.0
 10
4.9954569276
 20
2.9083192622
 30
0.0
 10
5.0026040893
 20
2.8554025392
 30
0.0
 10
5.0087800374
 20
2.8134414088
 30
0.0
 10
5.013731846
 20
2.7817271932
 30
0.0
 10
5.016192217
 20
2.7665191226
 30
0.0
 10
5.0174153688
 20
2.7590843033
 30
0.0
  0
LINE
  5
338
100
AcDbEntity
  8
0
100
AcDbLine
 62
7
  6
CONTINUOUS
 10
5.0462754035
 20
2.7845396017
 11
5.0462754702
 21
2.7896444813
  0
SPLINE
  5
339
100
AcDbEntity
  8
0
100
AcDbSpline
 62
7
  6
CONTINUOUS
 70
0
 71
3
 72
44
 73
40
 74
0
 42
0.0000001
 43
0.0000001
 44
0.0000000001
 40
0.0
 40
0.0
 40
0.0
 40
0.0
 40
0.0125331858
 40
0.0252078669
 40
0.0380379786
 40
0.0510359977
 40
0.0775707351
 40
0.1048898984
 40
0.1330389201
 40
0.1620398515
 40
0.1768633767
 40
0.1918982202
 40
0.2225835292
 40
0.2540633282
 40
0.2862839696
 40
0.3191780297
 40
0.3526663519
 40
0.3866599998
 40
0.4210621901
 40
0.4557701302
 40
0.4906768375
 40
0.5256728834
 40
0.560648171
 40
0.5954936415
 40
0.6301030395
 40
0.6643746544
 40
0.6982130806
 40
0.7315310612
 40
0.7642512922
 40
0.796308337
 40
0.8120738591
 40
0.8276554703
 40
0.8582467129
 40
0.8880685093
 40
0.9171215748
 40
0.9454273504
 40
0.973029047
 40
0.9865893361
 40
1.0
 40
1.0
 40
1.0
 40
1.0
 10
4.6903135645
 20
2.8035255255
 30
0.0
 10
4.6910274759
 20
2.8017112696
 30
0.0
 10
4.6925623935
 20
2.7981004191
 30
0.0
 10
4.6951619184
 20
2.7927820154
 30
0.0
 10
4.6980669014
 20
2.7875410451
 30
0.0
 10
4.702369902
 20
2.7806214378
 30
0.0
 10
4.7085087181
 20
2.7722056551
 30
0.0
 10
4.716957417
 20
2.7626259363
 30
0.0
 10
4.7264855941
 20
2.753554886
 30
0.0
 10
4.7352114548
 20
2.746519213
 30
0.0
 10
4.7426609291
 20
2.7411924926
 30
0.0
 10
4.7505251594
 20
2.7360065892
 30
0.0
 10
4.7609118316
 20
2.7299559903
 30
0.0
 10
4.7740930961
 20
2.7234630314
 30
0.0
 10
4.7879943809
 20
2.7177302291
 30
0.0
 10
4.8025281459
 20
2.7127954064
 30
0.0
 10
4.8176035004
 20
2.7086911362
 30
0.0
 10
4.8331259793
 20
2.7054449602
 30
0.0
 10
4.848998345
 20
2.7030790858
 30
0.0
 10
4.8651211387
 20
2.7016102646
 30
0.0
 10
4.8813933178
 20
2.701049666
 30
0.0
 10
4.8977128912
 20
2.7014028045
 30
0.0
 10
4.9139775622
 20
2.7026694834
 30
0.0
 10
4.9300853816
 20
2.7048438054
 30
0.0
 10
4.9459353854
 20
2.7079142172
 30
0.0
 10
4.9614282439
 20
2.7118636008
 30
0.0
 10
4.9764668321
 20
2.7166693585
 30
0.0
 10
4.9909570263
 20
2.7223036793
 30
0.0
 10
5.0048075835
 20
2.7287333066
 30
0.0
 10
5.015806174
 20
2.7347564333
 30
0.0
 10
5.0241986595
 20
2.7399414707
 30
0.0
 10
5.0322115695
 20
2.7452951696
 30
0.0
 10
5.0416792815
 20
2.7523942678
 30
0.0
 10
5.0521515493
 20
2.761582175
 30
0.0
 10
5.0616000623
 20
2.7713330445
 30
0.0
 10
5.0699638964
 20
2.7815875843
 30
0.0
 10
5.0760220785
 20
2.790556767
 30
0.0
 10
5.0802606023
 20
2.7979152923
 30
0.0
 10
5.0821770622
 20
2.8016499521
 30
0.0
 10
5.0830829882
 20
2.8035291503
 30
0.0
  0
SPLINE
  5
33A
100
AcDbEntity
  8
0
100
AcDbSpline
 62
7
  6
CONTINUOUS
 70
0
 71
3
 72
46
 73
42
 74
0
 42
0.0000001
 43
0.0000001
 44
0.0000000001
 40
0.0
 40
0.0
 40
0.0
 40
0.0
 40
0.0331818149
 40
0.0662996586
 40
0.0993464974
 40
0.1323159574
 40
0.1652024513
 40
0.1980008979
 40
0.2307067559
 40
0.2633161721
 40
0.2795839276
 40
0.2958266521
 40
0.3282338577
 40
0.3605292736
 40
0.3927027744
 40
0.4247421652
 40
0.4566345551
 40
0.4883663262
 40
0.5199227078
 40
0.5512878957
 40
0.5824455273
 40
0.5979411509
 40
0.6133778674
 40
0.6287529237
 40
0.6440637504
 40
0.6593088781
 40
0.6744872542
 40
0.6820510824
 40
0.6895980547
 40
0.7046437286
 40
0.7196291447
 40
0.7345592076
 40
0.7642731004
 40
0.7938257542
 40
0.823259994
 40
0.8526215973
 40
0.8819575562
 40
0.9113156855
 40
0.9407443011
 40
0.970290439
 40
1.0
 40
1.0
 40
1.0
 40
1.0
 10
4.5743134295
 20
5.5441492745
 30
0.0
 10
4.5750162686
 20
5.5248225005
 30
0.0
 10
4.5764572589
 20
5.4862075362
 30
0.0
 10
4.5787243958
 20
5.4283492122
 30
0.0
 10
4.5810893428
 20
5.3706186753
 30
0.0
 10
4.5835490956
 20
5.3130270637
 30
0.0
 10
4.5860994376
 20
5.2555843087
 30
0.0
 10
4.5887361642
 20
5.1982992545
 30
0.0
 10
4.5914559454
 20
5.1411797586
 30
0.0
 10
4.593790368
 20
5.0936875676
 30
0.0
 10
4.5956952449
 20
5.0557811903
 30
0.0
 10
4.5976208998
 20
5.017993871
 30
0.0
 10
4.6000723969
 20
4.9708797435
 30
0.0
 10
4.6030951471
 20
4.9144978164
 30
0.0
 10
4.6062036002
 20
4.8583352455
 30
0.0
 10
4.6094076866
 20
4.8024133232
 30
0.0
 10
4.6127164844
 20
4.7467553995
 30
0.0
 10
4.6161383978
 20
4.6913863568
 30
0.0
 10
4.6196822897
 20
4.6363328807
 30
0.0
 10
4.6233576118
 20
4.5816233933
 30
0.0
 10
4.6265417512
 20
4.5362629913
 30
0.0
 10
4.6291631689
 20
4.5001697896
 30
0.0
 10
4.6311641869
 20
4.4732544474
 30
0.0
 10
4.6332053301
 20
4.4464501341
 30
0.0
 10
4.6352887083
 20
4.4197610726
 30
0.0
 10
4.6374127103
 20
4.3931902114
 30
0.0
 10
4.6392167582
 20
4.3711234432
 30
0.0
 10
4.6406784553
 20
4.3535304424
 30
0.0
 10
4.6421485973
 20
4.3360157597
 30
0.0
 10
4.6440041686
 20
4.3141926593
 30
0.0
 10
4.646249816
 20
4.2880840863
 30
0.0
 10
4.6492452241
 20
4.2534592795
 30
0.0
 10
4.6529735163
 20
4.2103758535
 30
0.0
 10
4.6573439531
 20
4.1588628731
 30
0.0
 10
4.6615185587
 20
4.1075395447
 30
0.0
 10
4.6654096793
 20
4.0563204381
 30
0.0
 10
4.668930321
 20
4.0051187691
 30
0.0
 10
4.6719916777
 20
3.9538481879
 30
0.0
 10
4.6745037489
 20
3.902424739
 30
0.0
 10
4.6763746231
 20
3.8507687653
 30
0.0
 10
4.6771312172
 20
3.816239128
 30
0.0
 10
4.6773728465
 20
3.7989250183
 30
0.0
  0
SPLINE
  5
33B
100
AcDbEntity
  8
0
100
AcDbSpline
 62
7
  6
CONTINUOUS
 70
0
 71
3
 72
14
 73
10
 74
0
 42
0.0000001
 43
0.0000001
 44
0.0000000001
 40
0.0
 40
0.0
 40
0.0
 40
0.0
 40
0.1228931745
 40
0.2470451409
 40
0.3721376268
 40
0.4978418908
 40
0.6238231385
 40
0.7497452074
 40
1.0
 40
1.0
 40
1.0
 40
1.0
 10
4.8299197309
 20
2.6777881563
 30
0.0
 10
4.8342542544
 20
2.6768637566
 30
0.0
 10
4.8430202802
 20
2.6752435641
 30
0.0
 10
4.8563344203
 20
2.6735093754
 30
0.0
 10
4.8698225634
 20
2.672467288
 30
0.0
 10
4.8834121793
 20
2.6721244695
 30
0.0
 10
4.8970320412
 20
2.6724843864
 30
0.0
 10
4.9150917792
 20
2.6738972185
 30
0.0
 10
4.9285266355
 20
2.676006679
 30
0.0
 10
4.9373546441
 20
2.6778827165
 30
0.0
  0
SPLINE
  5
33C
100
AcDbEntity
  8
0
100
AcDbSpline
 62
7
  6
CONTINUOUS
 70
0
 71
3
 72
13
 73
9
 74
0
 42
0.0000001
 43
0.0000001
 44
0.0000000001
 40
0.0
 40
0.0
 40
0.0
 40
0.0
 40
0.2470030415
 40
0.372103722
 40
0.497811053
 40
0.6237937383
 40
0.7497190108
 40
1.0
 40
1.0
 40
1.0
 40
1.0
 10
4.8301964612
 20
2.7029836276
 30
0.0
 10
4.8388653738
 20
2.7011454242
 30
0.0
 10
4.85208899
 20
2.6990870259
 30
0.0
 10
4.8699014247
 20
2.6977188317
 30
0.0
 10
4.8834216174
 20
2.6973799924
 30
0.0
 10
4.8969708947
 20
2.6977367399
 30
0.0
 10
4.9149385612
 20
2.6991357425
 30
0.0
 10
4.9283059981
 20
2.7012241109
 30
0.0
 10
4.9370911245
 20
2.703081184
 30
0.0
  0
LINE
  5
33D
100
AcDbEntity
  8
0
100
AcDbLine
 62
7
  6
CONTINUOUS
 10
5.105181814
 20
5.5932514062
 11
5.1038983745
 21
5.5592319439
  0
SPLINE
  5
33E
100
AcDbEntity
  8
0
100
AcDbSpline
 62
7
  6
CONTINUOUS
 70
0
 71
3
 72
44
 73
40
 74
0
 42
0.0000001
 43
0.0000001
 44
0.0000000001
 40
0.0
 40
0.0
 40
0.0
 40
0.0
 40
0.0323294353
 40
0.0646414125
 40
0.1291925132
 40
0.1936161497
 40
0.2257702879
 40
0.2578820129
 40
0.2899485974
 40
0.3219660588
 40
0.3539298431
 40
0.3858340829
 40
0.4176720209
 40
0.4494365857
 40
0.4811204005
 40
0.5127156344
 40
0.5442139249
 40
0.5756064564
 40
0.5912601625
 40
0.606883932
 40
0.6224765363
 40
0.6380367327
 40
0.6535632796
 40
0.6690551451
 40
0.6845117151
 40
0.699932405
 40
0.7306637291
 40
0.7612441926
 40
0.7916689957
 40
0.8219336476
 40
0.8520343351
 40
0.8819681181
 40
0.9117323707
 40
0.9265500087
 40
0.9413233221
 40
0.9560508813
 40
0.9707335696
 40
0.9853764619
 40
1.0
 40
1.0
 40
1.0
 40
1.0
 10
5.1038983745
 20
5.5592319439
 30
0.0
 10
5.1031828849
 20
5.5406801111
 30
0.0
 10
5.1017041014
 20
5.5035883056
 30
0.0
 10
5.0985674869
 20
5.4294639939
 30
0.0
 10
5.0943259578
 20
5.3369397192
 30
0.0
 10
5.0897247925
 20
5.2445235021
 30
0.0
 10
5.0858637896
 20
5.1707226827
 30
0.0
 10
5.0828917378
 20
5.1154823194
 30
0.0
 10
5.0798545343
 20
5.060324111
 30
0.0
 10
5.0767490207
 20
5.005254795
 30
0.0
 10
5.0735708371
 20
4.9502830062
 30
0.0
 10
5.0703102936
 20
4.8954193091
 30
0.0
 10
5.0669541842
 20
4.8406759853
 30
0.0
 10
5.0634912368
 20
4.7860661435
 30
0.0
 10
5.0599110172
 20
4.731603532
 30
0.0
 10
5.0562031174
 20
4.6773027204
 30
0.0
 10
5.0523579922
 20
4.6231791396
 30
0.0
 10
5.0490267671
 20
4.5781969574
 30
0.0
 10
5.0462798441
 20
4.5423128097
 30
0.0
 10
5.0441791674
 20
4.5154791049
 30
0.0
 10
5.0420364268
 20
4.4887025977
 30
0.0
 10
5.0398521115
 20
4.4619854669
 30
0.0
 10
5.037625943
 20
4.4353298422
 30
0.0
 10
5.0353605808
 20
4.4087372484
 30
0.0
 10
5.0330698572
 20
4.3822078485
 30
0.0
 10
5.030001748
 20
4.3469615508
 30
0.0
 10
5.0261666352
 20
4.3030640752
 30
0.0
 10
5.0216523429
 20
4.2505768065
 30
0.0
 10
5.0173224048
 20
4.1983428174
 30
0.0
 10
5.0132707998
 20
4.1463626971
 30
0.0
 10
5.0095920327
 20
4.094637311
 30
0.0
 10
5.0063798303
 20
4.0431685431
 30
0.0
 10
5.0041670835
 20
4.0004330595
 30
0.0
 10
5.0027261526
 20
3.9663777668
 30
0.0
 10
5.0018238159
 20
3.9409430312
 30
0.0
 10
5.0011119417
 20
3.9155797506
 30
0.0
 10
5.000602005
 20
3.8902864932
 30
0.0
 10
5.0002995148
 20
3.8650496238
 30
0.0
 10
5.0002393521
 20
3.8482428883
 30
0.0
 10
5.0002368155
 20
3.8398451199
 30
0.0
  0
SPLINE
  5
33F
100
AcDbEntity
  8
0
100
AcDbSpline
 62
7
  6
CONTINUOUS
 70
0
 71
3
 72
14
 73
10
 74
0
 42
0.0000001
 43
0.0000001
 44
0.0000000001
 40
0.0
 40
0.0
 40
0.0
 40
0.0
 40
0.1229166593
 40
0.2470781367
 40
0.3721695521
 40
0.49786583
 40
0.623835979
 40
0.7497476848
 40
1.0
 40
1.0
 40
1.0
 40
1.0
 10
4.8302730742
 20
2.6524587534
 30
0.0
 10
4.8345854565
 20
2.6515457721
 30
0.0
 10
4.8433054954
 20
2.6499459096
 30
0.0
 10
4.8565476779
 20
2.6482343933
 30
0.0
 10
4.8699607683
 20
2.6472072669
 30
0.0
 10
4.883473456
 20
2.6468715249
 30
0.0
 10
4.897015719
 20
2.6472305487
 30
0.0
 10
4.9149734829
 20
2.6486316358
 30
0.0
 10
4.9283334704
 20
2.650720409
 30
0.0
 10
4.9371136681
 20
2.6525773142
 30
0.0
  0
SPLINE
  5
340
100
AcDbEntity
  8
0
100
AcDbSpline
 62
7
  6
CONTINUOUS
 70
0
 71
3
 72
23
 73
19
 74
0
 42
0.0000001
 43
0.0000001
 44
0.0000000001
 40
0.0
 40
0.0
 40
0.0
 40
0.0
 40
0.0571863894
 40
0.1159994959
 40
0.1763092038
 40
0.2379521441
 40
0.3007372555
 40
0.364451304
 40
0.428864122
 40
0.4937336654
 40
0.558811028
 40
0.62384528
 40
0.6885883523
 40
0.7527999031
 40
0.8162521969
 40
0.8476316246
 40
0.8787442185
 40
1.0
 40
1.0
 40
1.0
 40
1.0
 10
4.7625031955
 20
2.7547659878
 30
0.0
 10
4.7665757837
 20
2.7522277107
 30
0.0
 10
4.775051963
 20
2.7474170311
 30
0.0
 10
4.7884518438
 20
2.7411145974
 30
0.0
 10
4.8026235179
 20
2.7356685598
 30
0.0
 10
4.8174572279
 20
2.731123615
 30
0.0
 10
4.8328395549
 20
2.7275167882
 30
0.0
 10
4.8486524478
 20
2.7248782715
 30
0.0
 10
4.8647746367
 20
2.7232308761
 30
0.0
 10
4.8810824156
 20
2.7225899131
 30
0.0
 10
4.8974506442
 20
2.7229629822
 30
0.0
 10
4.9137536773
 20
2.7243499485
 30
0.0
 10
4.9298664854
 20
2.7267429897
 30
0.0
 10
4.9456650718
 20
2.7301265182
 30
0.0
 10
4.9585162129
 20
2.7337660124
 30
0.0
 10
4.9685290365
 20
2.7371556579
 30
0.0
 10
4.9829566174
 20
2.7425948653
 30
0.0
 10
4.9945494085
 20
2.7481356766
 30
0.0
 10
5.0033624233
 20
2.7532216143
 30
0.0
  0
SPLINE
  5
341
100
AcDbEntity
  8
0
100
AcDbSpline
 62
7
  6
CONTINUOUS
 70
0
 71
3
 72
12
 73
8
 74
0
 42
0.0000001
 43
0.0000001
 44
0.0000000001
 40
0.0
 40
0.0
 40
0.0
 40
0.0
 40
0.2478167927
 40
0.4966697343
 40
0.6216976436
 40
0.7472162208
 40
1.0
 40
1.0
 40
1.0
 40
1.0
 10
4.6414106815
 20
2.9160882953
 30
0.0
 10
4.6412726704
 20
2.9086520395
 30
0.0
 10
4.6415341479
 20
2.8937331144
 30
0.0
 10
4.6432166264
 20
2.8751335252
 30
0.0
 10
4.6453780083
 20
2.8602989941
 30
0.0
 10
4.6480979263
 20
2.8454374111
 30
0.0
 10
4.6507496131
 20
2.8343842781
 30
0.0
 10
4.652783451
 20
2.8270753722
 30
0.0
  0
SPLINE
  5
342
100
AcDbEntity
  8
0
100
AcDbSpline
 62
7
  6
CONTINUOUS
 70
0
 71
3
 72
17
 73
13
 74
0
 42
0.0000001
 43
0.0000001
 44
0.0000000001
 40
0.0
 40
0.0
 40
0.0
 40
0.0
 40
0.0504500092
 40
0.1033159737
 40
0.1584502607
 40
0.2156873791
 40
0.335749484
 40
0.4620000339
 40
0.5929233197
 40
0.7270815039
 40
0.8631638795
 40
1.0
 40
1.0
 40
1.0
 40
1.0
 10
5.0462752254
 20
2.790285595
 30
0.0
 10
5.0456893631
 20
2.8004773568
 30
0.0
 10
5.0444775754
 20
2.8213482551
 30
0.0
 10
5.0425924335
 20
2.8533552865
 30
0.0
 10
5.0406077342
 20
2.886732203
 30
0.0
 10
5.0378013641
 20
2.9336814503
 30
0.0
 10
5.0341306105
 20
2.9949951294
 30
0.0
 10
5.0296284166
 20
3.0711961583
 30
0.0
 10
5.0250850456
 20
3.1502520091
 30
0.0
 10
5.0206209182
 20
3.2313049962
 30
0.0
 10
5.0163489879
 20
3.3135664882
 30
0.0
 10
5.013699576
 20
3.3687283124
 30
0.0
 10
5.012436343
 20
3.3963883449
 30
0.0
  0
SPLINE
  5
343
100
AcDbEntity
  8
0
100
AcDbSpline
 62
7
  6
CONTINUOUS
 70
0
 71
3
 72
15
 73
11
 74
0
 42
0.0000001
 43
0.0000001
 44
0.0000000001
 40
0.0
 40
0.0
 40
0.0
 40
0.0
 40
0.1228052343
 40
0.2474749965
 40
0.3734155888
 40
0.499999868
 40
0.6265841644
 40
0.7525248073
 40
0.8771946525
 40
1.0
 40
1.0
 40
1.0
 40
1.0
 10
4.8158601668
 20
2.7491405715
 30
0.0
 10
4.8216657052
 20
2.7473839195
 30
0.0
 10
4.8335076644
 20
2.7442995703
 30
0.0
 10
4.8516681391
 20
2.7409923106
 30
0.0
 10
4.8702072605
 20
2.738994354
 30
0.0
 10
4.8889358409
 20
2.738326127
 30
0.0
 10
4.9076644263
 20
2.7389942836
 30
0.0
 10
4.9262035627
 20
2.7409921705
 30
0.0
 10
4.9443640622
 20
2.7442993619
 30
0.0
 10
4.956206043
 20
2.7473836662
 30
0.0
 10
4.962011594
 20
2.7491402961
 30
0.0
  0
SPLINE
  5
344
100
AcDbEntity
  8
0
100
AcDbSpline
 62
7
  6
CONTINUOUS
 70
0
 71
3
 72
132
 73
128
 74
0
 42
0.0000001
 43
0.0000001
 44
0.0000000001
 40
0.0
 40
0.0
 40
0.0
 40
0.0
 40
0.0146803808
 40
0.0295089316
 40
0.0444822513
 40
0.0595965688
 40
0.0748476238
 40
0.0902307562
 40
0.1057407591
 40
0.1213718243
 40
0.1371174351
 40
0.1529702346
 40
0.1689218909
 40
0.1769321042
 40
0.1849633951
 40
0.1930143665
 40
0.2010835538
 40
0.2091693597
 40
0.217270131
 40
0.2213256043
 40
0.2253841476
 40
0.2294455132
 40
0.2335094518
 40
0.2375757273
 40
0.2416441012
 40
0.2457142671
 40
0.2497858654
 40
0.251822081
 40
0.2538585047
 40
0.2579318945
 40
0.2620059152
 40
0.2660803763
 40
0.2681176984
 40
0.2701550408
 40
0.2721923863
 40
0.274229729
 40
0.2783043841
 40
0.2823789615
 40
0.2864534159
 40
0.2905276999
 40
0.2986755067
 40
0.306821843
 40
0.3149661686
 40
0.323108014
 40
0.331246947
 40
0.3475143901
 40
0.3637653881
 40
0.3799970664
 40
0.3962068921
 40
0.4123926748
 40
0.420476017
 40
0.4285526979
 40
0.4366223558
 40
0.4446845671
 40
0.4607849405
 40
0.476849949
 40
0.4928751965
 40
0.5088559907
 40
0.5247873931
 40
0.5406641113
 40
0.548580242
 40
0.5564805387
 40
0.5643642145
 40
0.5722304924
 40
0.58007864
 40
0.5879079424
 40
0.5918153017
 40
0.595717682
 40
0.603507275
 40
0.6112763186
 40
0.6190244128
 40
0.6267511464
 40
0.6344560778
 40
0.6497987988
 40
0.665049229
 40
0.6802042567
 40
0.6877450367
 40
0.6952608456
 40
0.7027514411
 40
0.7102166358
 40
0.7176558508
 40
0.721365456
 40
0.7250683437
 40
0.7287647787
 40
0.7324550828
 40
0.7342980393
 40
0.7361396825
 40
0.7398219085
 40
0.7435084459
 40
0.7472061413
 40
0.750920788
 40
0.754655471
 40
0.7584128334
 40
0.7621945828
 40
0.7698265069
 40
0.773673773
 40
0.7775406638
 40
0.7814264672
 40
0.7853304085
 40
0.7892515818
 40
0.7931890707
 40
0.7971419792
 40
0.8011094377
 40
0.8050905775
 40
0.8090845199
 40
0.8171072248
 40
0.8251703164
 40
0.8332663985
 40
0.8495267104
 40
0.8576748252
 40
0.8658235404
 40
0.8739638132
 40
0.8820861427
 40
0.8982363707
 40
0.9141876276
 40
0.9220591913
 40
0.9298446185
 40
0.9375307678
 40
0.945104134
 40
0.9525509554
 40
0.9598573499
 40
0.967009482
 40
0.9739937446
 40
0.9807969889
 40
0.98740666
 40
0.9938112281
 40
1.0
 40
1.0
 40
1.0
 40
1.0
 10
4.3499731046
 20
6.6963923335
 30
0.0
 10
4.360016849
 20
6.6799202639
 30
0.0
 10
4.3796047714
 20
6.646439642
 30
0.0
 10
4.4073578907
 20
6.5949779041
 30
0.0
 10
4.4336203178
 20
6.5421019344
 30
0.0
 10
4.4583723635
 20
6.4878920546
 30
0.0
 10
4.4815909883
 20
6.4324239221
 30
0.0
 10
4.5032519578
 20
6.375772431
 30
0.0
 10
4.523325874
 20
6.3180105576
 30
0.0
 10
4.5417787667
 20
6.2592112626
 30
0.0
 10
4.5585733606
 20
6.1994488975
 30
0.0
 10
4.5736687077
 20
6.1388008898
 30
0.0
 10
4.5847802534
 20
6.0876619907
 30
0.0
 10
4.5927811762
 20
6.0463842467
 30
0.0
 10
4.5983379088
 20
6.0152125861
 30
0.0
 10
4.6034365811
 20
5.9838842808
 30
0.0
 10
4.6080716666
 20
5.9524115792
 30
0.0
 10
4.6122365347
 20
5.9208072223
 30
0.0
 10
4.6153098356
 20
5.8943825572
 30
0.0
 10
4.6175307206
 20
5.8731893176
 30
0.0
 10
4.6190779426
 20
5.8572635143
 30
0.0
 10
4.6205041114
 20
5.8413152491
 30
0.0
 10
4.6218066686
 20
5.8253462096
 30
0.0
 10
4.6229831662
 20
5.8093581451
 30
0.0
 10
4.6240312929
 20
5.7933529571
 30
0.0
 10
4.6249583682
 20
5.7773333202
 30
0.0
 10
4.6256358915
 20
5.7639746961
 30
0.0
 10
4.6261246351
 20
5.7532828651
 30
0.0
 10
4.6265787121
 20
5.7425871473
 30
0.0
 10
4.6270884375
 20
5.7292134234
 30
0.0
 10
4.6276372884
 20
5.7131610656
 30
0.0
 10
4.6280666835
 20
5.6997819892
 30
0.0
 10
4.6284079423
 20
5.689078024
 30
0.0
 10
4.6286667807
 20
5.6810499243
 30
0.0
 10
4.6289300733
 20
5.6730219423
 30
0.0
 10
4.629286364
 20
5.66231818
 30
0.0
 10
4.6297413554
 20
5.648938936
 30
0.0
 10
4.6303013584
 20
5.6328845941
 30
0.0
 10
4.6308741199
 20
5.6168311905
 30
0.0
 10
4.6316528251
 20
5.5954287846
 30
0.0
 10
4.6326535638
 20
5.5686797438
 30
0.0
 10
4.6338987487
 20
5.5365873757
 30
0.0
 10
4.6351886342
 20
5.5045046139
 30
0.0
 10
4.6365217203
 20
5.4724333563
 30
0.0
 10
4.6383534549
 20
5.4296984187
 30
0.0
 10
4.640740087
 20
5.3763206537
 30
0.0
 10
4.6437475857
 20
5.3123248852
 30
0.0
 10
4.6468858615
 20
5.248411213
 30
0.0
 10
4.6501425945
 20
5.1845892919
 30
0.0
 10
4.6529457482
 20
5.1314666144
 30
0.0
 10
4.6552344975
 20
5.0890201162
 30
0.0
 10
4.6569714388
 20
5.0572254014
 30
0.0
 10
4.6587305932
 20
5.0254597196
 30
0.0
 10
4.661107178
 20
4.9831675249
 30
0.0
 10
4.6641421021
 20
4.9303884479
 30
0.0
 10
4.6679042999
 20
4.8671691664
 30
0.0
 10
4.6718013599
 20
4.8041154884
 30
0.0
 10
4.6758495514
 20
4.7412472605
 30
0.0
 10
4.6800658516
 20
4.6785857045
 30
0.0
 10
4.6837337036
 20
4.6265098627
 30
0.0
 10
4.6867654359
 20
4.5849698863
 30
0.0
 10
4.6890893164
 20
4.5539105217
 30
0.0
 10
4.6914686628
 20
4.5229210621
 30
0.0
 10
4.6939080102
 20
4.4920050122
 30
0.0
 10
4.6964040763
 20
4.4611651835
 30
0.0
 10
4.698527547
 20
4.4355149845
 30
0.0
 10
4.7002488867
 20
4.4150347038
 30
0.0
 10
4.701982257
 20
4.39460781
 30
0.0
 10
4.7041701543
 20
4.3691263152
 30
0.0
 10
4.7068113683
 20
4.3386112061
 30
0.0
 10
4.7094468802
 20
4.3081785212
 30
0.0
 10
4.7120569392
 20
4.2778282016
 30
0.0
 10
4.7154757549
 20
4.237529931
 30
0.0
 10
4.7196023394
 20
4.1873686983
 30
0.0
 10
4.7241909943
 20
4.1274223724
 30
0.0
 10
4.7275964069
 20
4.0776698505
 30
0.0
 10
4.7299976949
 20
4.038038897
 30
0.0
 10
4.7316180901
 20
4.0084520296
 30
0.0
 10
4.7330443376
 20
3.9789545802
 30
0.0
 10
4.7342600047
 20
3.9495484153
 30
0.0
 10
4.7350842501
 20
3.9250998868
 30
0.0
 10
4.7356209744
 20
3.9055894262
 30
0.0
 10
4.735959856
 20
3.8909941997
 30
0.0
 10
4.7362338104
 20
3.8764229809
 30
0.0
 10
4.7364066882
 20
3.8642947003
 30
0.0
 10
4.7365108615
 20
3.8546033137
 30
0.0
 10
4.736591925
 20
3.8449223226
 30
0.0
 10
4.7366519984
 20
3.8328183137
 30
0.0
 10
4.7366649536
 20
3.8182749854
 30
0.0
 10
4.7366258918
 20
3.8036891043
 30
0.0
 10
4.736541412
 20
3.789040148
 30
0.0
 10
4.7364141055
 20
3.7743130881
 30
0.0
 10
4.736247004
 20
3.7594982377
 30
0.0
 10
4.7359740521
 20
3.7395626454
 30
0.0
 10
4.7356283096
 20
3.719509945
 30
0.0
 10
4.7352134314
 20
3.6993467157
 30
0.0
 10
4.7348689979
 20
3.6841061808
 30
0.0
 10
4.7344951107
 20
3.6687918397
 30
0.0
 10
4.7340932127
 20
3.653406845
 30
0.0
 10
4.7336577408
 20
3.637954809
 30
0.0
 10
4.7331836017
 20
3.6224395255
 30
0.0
 10
4.7326670221
 20
3.6068647358
 30
0.0
 10
4.7321095499
 20
3.5912339564
 30
0.0
 10
4.7315119334
 20
3.575550695
 30
0.0
 10
4.7306619151
 20
3.5545439246
 30
0.0
 10
4.7295062918
 20
3.5281807952
 30
0.0
 10
4.7279851823
 20
3.4964378391
 30
0.0
 10
4.7257862148
 20
3.4538895603
 30
0.0
 10
4.7233591735
 20
3.4112414943
 30
0.0
 10
4.7207421126
 20
3.3685356892
 30
0.0
 10
4.7186984705
 20
3.3364860371
 30
0.0
 10
4.7165896878
 20
3.3044745781
 30
0.0
 10
4.7137132939
 20
3.2619755486
 30
0.0
 10
4.7100305054
 20
3.2092426802
 30
0.0
 10
4.7062966211
 20
3.1568438368
 30
0.0
 10
4.7033506146
 20
3.1154095622
 30
0.0
 10
4.7011920116
 20
3.0848085506
 30
0.0
 10
4.6990922675
 20
3.0545962567
 30
0.0
 10
4.6970697132
 20
3.0248246879
 30
0.0
 10
4.6951431891
 20
2.9955468652
 30
0.0
 10
4.6933320302
 20
2.9668163176
 30
0.0
 10
4.691655864
 20
2.9386864961
 30
0.0
 10
4.6901345234
 20
2.9112100645
 30
0.0
 10
4.6887879304
 20
2.8844382467
 30
0.0
 10
4.6876358388
 20
2.8584198456
 30
0.0
 10
4.6866974983
 20
2.8332008918
 30
0.0
 10
4.6862181529
 20
2.8166576785
 30
0.0
 10
4.6860220237
 20
2.8085268939
 30
0.0
  0
SPLINE
  5
345
100
AcDbEntity
  8
0
100
AcDbSpline
 62
7
  6
CONTINUOUS
 70
0
 71
3
 72
129
 73
125
 74
0
 42
0.0000001
 43
0.0000001
 44
0.0000000001
 40
0.0
 40
0.0
 40
0.0
 40
0.0
 40
0.014648829
 40
0.0294535989
 40
0.0444096929
 40
0.0595123081
 40
0.0747562768
 40
0.0901360891
 40
0.1056457822
 40
0.1212788627
 40
0.1370281888
 40
0.1528858389
 40
0.1608527662
 40
0.1688433901
 40
0.1768564264
 40
0.1848905419
 40
0.192944302
 40
0.2010162008
 40
0.2091046055
 40
0.2172078388
 40
0.2212644865
 40
0.225324166
 40
0.2293866221
 40
0.2334515983
 40
0.2375188531
 40
0.2415881485
 40
0.2456591883
 40
0.2497316172
 40
0.2517682307
 40
0.2538050392
 40
0.2578791502
 40
0.2619538284
 40
0.266028902
 40
0.2680665227
 40
0.2701041638
 40
0.2721418083
 40
0.2741794497
 40
0.2782546992
 40
0.282329864
 40
0.2864048947
 40
0.29047974
 40
0.2986286269
 40
0.3067759971
 40
0.314921322
 40
0.3230641338
 40
0.3312040028
 40
0.3474732295
 40
0.3637259092
 40
0.3799591851
 40
0.3961705527
 40
0.4123578307
 40
0.4204419027
 40
0.4285193037
 40
0.4365896729
 40
0.4446525812
 40
0.4527075997
 40
0.4607542836
 40
0.4768205177
 40
0.4928468989
 40
0.5088287389
 40
0.5247611001
 40
0.5406386837
 40
0.5485552087
 40
0.5564558756
 40
0.5643399037
 40
0.5722065218
 40
0.5800549948
 40
0.5878845984
 40
0.5917920974
 40
0.5956946157
 40
0.6034845039
 40
0.6112538687
 40
0.6190023087
 40
0.6267294064
 40
0.6344347226
 40
0.6497782963
 40
0.6650297307
 40
0.6801859485
 40
0.6952434553
 40
0.7027346361
 40
0.710200873
 40
0.7176411486
 40
0.7213508361
 40
0.7250532265
 40
0.7287489532
 40
0.7324392923
 40
0.7361255376
 40
0.73980952
 40
0.7434967979
 40
0.7471944989
 40
0.7509096192
 40
0.7546462507
 40
0.7584054455
 40
0.7621880541
 40
0.7698215248
 40
0.7853291722
 40
0.7931893958
 40
0.8011112284
 40
0.8090876568
 40
0.8171116319
 40
0.8211392057
 40
0.8251759486
 40
0.8292209322
 40
0.8332732199
 40
0.8373318459
 40
0.8413958357
 40
0.8495359055
 40
0.8536099254
 40
0.857685196
 40
0.8658350794
 40
0.8739764966
 40
0.8820999101
 40
0.8901952546
 40
0.8982519278
 40
0.9142040965
 40
0.9298606649
 40
0.945118151
 40
0.9598678381
 40
0.9670178343
 40
0.9739998831
 40
0.9808010038
 40
0.98740883
 40
0.9938120087
 40
1.0
 40
1.0
 40
1.0
 40
1.0
 10
4.3643342164
 20
6.6963923335
 30
0.0
 10
4.3739782301
 20
6.6797617693
 30
0.0
 10
4.392774482
 20
6.6459752919
 30
0.0
 10
4.4193622068
 20
6.5941002456
 30
0.0
 10
4.4444851325
 20
6.540840793
 30
0.0
 10
4.4681285316
 20
6.4862802482
 30
0.0
 10
4.4902756785
 20
6.4304970354
 30
0.0
 10
4.510906692
 20
6.3735672653
 30
0.0
 10
4.5299985623
 20
6.3155654418
 30
0.0
 10
4.5475250903
 20
6.2565656253
 30
0.0
 10
4.5634567782
 20
6.1966430569
 30
0.0
 10
4.5753579814
 20
6.1460819136
 30
0.0
 10
4.5840527762
 20
6.1052430969
 30
0.0
 10
4.5901636228
 20
6.0743831537
 30
0.0
 10
4.5958487025
 20
6.0433523622
 30
0.0
 10
4.6011030275
 20
6.0121616832
 30
0.0
 10
4.6059219663
 20
5.980822622
 30
0.0
 10
4.610300586
 20
5.9493470555
 30
0.0
 10
4.6142321151
 20
5.9177471132
 30
0.0
 10
4.6171306533
 20
5.8913316209
 30
0.0
 10
4.6192239816
 20
5.8701487575
 30
0.0
 10
4.6206817794
 20
5.8542322888
 30
0.0
 10
4.6220244224
 20
5.8382947258
 30
0.0
 10
4.6232488738
 20
5.8223376681
 30
0.0
 10
4.6243522137
 20
5.806362772
 30
0.0
 10
4.6253317222
 20
5.7903718413
 30
0.0
 10
4.6261969038
 20
5.7743675473
 30
0.0
 10
4.6268302424
 20
5.7610225438
 30
0.0
 10
4.6272891192
 20
5.7503420985
 30
0.0
 10
4.6277174142
 20
5.7396581721
 30
0.0
 10
4.6282019035
 20
5.7262997408
 30
0.0
 10
4.6287287358
 20
5.7102662748
 30
0.0
 10
4.6291442912
 20
5.6969032357
 30
0.0
 10
4.6294757804
 20
5.6862122021
 30
0.0
 10
4.6297275133
 20
5.6781938204
 30
0.0
 10
4.6299841878
 20
5.670175568
 30
0.0
 10
4.6303322296
 20
5.6594847973
 30
0.0
 10
4.6307778824
 20
5.6461218302
 30
0.0
 10
4.6313278654
 20
5.6300870761
 30
0.0
 10
4.6318914457
 20
5.6140533251
 30
0.0
 10
4.6326584649
 20
5.592677241
 30
0.0
 10
4.6336451475
 20
5.5659612314
 30
0.0
 10
4.6348753172
 20
5.5339086711
 30
0.0
 10
4.6361529762
 20
5.5018659471
 30
0.0
 10
4.6374767907
 20
5.4698349504
 30
0.0
 10
4.6392994396
 20
5.4271540275
 30
0.0
 10
4.6416798129
 20
5.3738442088
 30
0.0
 10
4.6446860876
 20
5.3099304823
 30
0.0
 10
4.6478280124
 20
5.2460993109
 30
0.0
 10
4.6510924336
 20
5.1823602395
 30
0.0
 10
4.653904229
 20
5.1293067858
 30
0.0
 10
4.6561997119
 20
5.086915691
 30
0.0
 10
4.6579412477
 20
5.0551625173
 30
0.0
 10
4.6597040625
 20
5.023438335
 30
0.0
 10
4.6614897545
 20
4.9917448522
 30
0.0
 10
4.6632996862
 20
4.960083878
 30
0.0
 10
4.6657457214
 20
4.917938893
 30
0.0
 10
4.6688721512
 20
4.8653545155
 30
0.0
 10
4.6727542277
 20
4.8023830298
 30
0.0
 10
4.6767808631
 20
4.7395966547
 30
0.0
 10
4.6809680742
 20
4.6770164837
 30
0.0
 10
4.6846060488
 20
4.6250080522
 30
0.0
 10
4.6876112233
 20
4.5835217906
 30
0.0
 10
4.6899131975
 20
4.5525025459
 30
0.0
 10
4.6922681291
 20
4.5215529596
 30
0.0
 10
4.6946793635
 20
4.4906764128
 30
0.0
 10
4.6971451066
 20
4.4598758259
 30
0.0
 10
4.6992443658
 20
4.4342583595
 30
0.0
 10
4.7009486135
 20
4.4138044264
 30
0.0
 10
4.7026665943
 20
4.393403947
 30
0.0
 10
4.7048375824
 20
4.367955531
 30
0.0
 10
4.707463215
 20
4.3374803516
 30
0.0
 10
4.7100883594
 20
4.3070878413
 30
0.0
 10
4.7126943024
 20
4.2767780385
 30
0.0
 10
4.7161158746
 20
4.2365340612
 30
0.0
 10
4.720261
 20
4.1864413329
 30
0.0
 10
4.7248930682
 20
4.1265777762
 30
0.0
 10
4.729033274
 20
4.0670542015
 30
0.0
 10
4.7319608054
 20
4.0176572388
 30
0.0
 10
4.733912818
 20
3.9783149845
 30
0.0
 10
4.7351622631
 20
3.9489474582
 30
0.0
 10
4.736011463
 20
3.924530773
 30
0.0
 10
4.7365643246
 20
3.9050469313
 30
0.0
 10
4.7369126889
 20
3.8904736076
 30
0.0
 10
4.7371938505
 20
3.8759242299
 30
0.0
 10
4.7374074304
 20
3.861394893
 30
0.0
 10
4.7375530981
 20
3.8468801272
 30
0.0
 10
4.7376297221
 20
3.8323688536
 30
0.0
 10
4.737643753
 20
3.8178423623
 30
0.0
 10
4.7376031401
 20
3.8032750673
 30
0.0
 10
4.7375160278
 20
3.7886432135
 30
0.0
 10
4.7373881889
 20
3.7739309577
 30
0.0
 10
4.7372224336
 20
3.7591305085
 30
0.0
 10
4.7369552286
 20
3.739216869
 30
0.0
 10
4.7363708654
 20
3.703887997
 30
0.0
 10
4.7354530441
 20
3.6632129915
 30
0.0
 10
4.7343163119
 20
3.6221653367
 30
0.0
 10
4.7333525905
 20
3.5910004998
 30
0.0
 10
4.7322886758
 20
3.559623913
 30
0.0
 10
4.7313245253
 20
3.533357656
 30
0.0
 10
4.7305073164
 20
3.5122598465
 30
0.0
 10
4.729872267
 20
3.4963807783
 30
0.0
 10
4.7292174679
 20
3.4804700522
 30
0.0
 10
4.7285446468
 20
3.4645313349
 30
0.0
 10
4.7278599801
 20
3.4485681578
 30
0.0
 10
4.7269394352
 20
3.4272455264
 30
0.0
 10
4.7260187358
 20
3.4059026805
 30
0.0
 10
4.7250944963
 20
3.3845451692
 30
0.0
 10
4.7241677802
 20
3.3631748742
 30
0.0
 10
4.7230091299
 20
3.3364717321
 30
0.0
 10
4.7216256261
 20
3.3044607283
 30
0.0
 10
4.720254609
 20
3.2725208273
 30
0.0
 10
4.7189032064
 20
3.2406914036
 30
0.0
 10
4.7171428443
 20
3.1985959529
 30
0.0
 10
4.7150310675
 20
3.1465834856
 30
0.0
 10
4.7126832583
 20
3.0851228874
 30
0.0
 10
4.7105917059
 20
3.0252320147
 30
0.0
 10
4.7090973187
 20
2.9764911311
 30
0.0
 10
4.7080904966
 20
2.9386012371
 30
0.0
 10
4.7074434829
 20
2.9111369674
 30
0.0
 10
4.7069024776
 20
2.8843820616
 30
0.0
 10
4.7064725658
 20
2.8583849148
 30
0.0
 10
4.7061580056
 20
2.8331908191
 30
0.0
 10
4.7060250896
 20
2.8166671382
 30
0.0
 10
4.705979858
 20
2.8085463937
 30
0.0
  0
LINE
  5
346
100
AcDbEntity
  8
0
100
AcDbLine
 62
7
  6
CONTINUOUS
 10
4.7315972032
 20
2.7896444813
 11
4.7315972699
 21
2.7845396018
  0
SPLINE
  5
347
100
AcDbEntity
  8
0
100
AcDbSpline
 62
7
  6
CONTINUOUS
 70
0
 71
3
 72
123
 73
119
 74
0
 42
0.0000001
 43
0.0000001
 44
0.0000000001
 40
0.0
 40
0.0
 40
0.0
 40
0.0
 40
0.0061879961
 40
0.0125911926
 40
0.0191990255
 40
0.026000158
 40
0.0329822177
 40
0.0401322259
 40
0.0548819373
 40
0.0701394476
 40
0.0857960413
 40
0.1017482298
 40
0.1098049166
 40
0.1179002736
 40
0.126023693
 40
0.1341651194
 40
0.1423150163
 40
0.150464316
 40
0.1545360269
 40
0.158604389
 40
0.1626683875
 40
0.1667270171
 40
0.1707793071
 40
0.1748242972
 40
0.1788610406
 40
0.1828886165
 40
0.1909126036
 40
0.1988890412
 40
0.2068108578
 40
0.2146711254
 40
0.2224626539
 40
0.2301785158
 40
0.2340062613
 40
0.2378126052
 40
0.2415959569
 40
0.2453547233
 40
0.2490896084
 40
0.2528046421
 40
0.2565041303
 40
0.2601927581
 40
0.2638760016
 40
0.2675594522
 40
0.2712484742
 40
0.2749451132
 40
0.2823596832
 40
0.2898000604
 40
0.2972655237
 40
0.3047564786
 40
0.3122729218
 40
0.3198144059
 40
0.3349705411
 40
0.3502219409
 40
0.365565527
 40
0.3809979107
 40
0.3887463544
 40
0.396515765
 40
0.4043057185
 40
0.4121156945
 40
0.4199451582
 40
0.4238670352
 40
0.4277935765
 40
0.4356602459
 40
0.4435443431
 40
0.4514450354
 40
0.4593615305
 40
0.4752390866
 40
0.4911714284
 40
0.5071532816
 40
0.5231796151
 40
0.5392458523
 40
0.555347624
 40
0.5634105489
 40
0.5714808296
 40
0.5795581186
 40
0.5876421654
 40
0.6038295378
 40
0.620040908
 40
0.6362741543
 40
0.6525268106
 40
0.6687960425
 40
0.6769359017
 40
0.6850787022
 40
0.6932240119
 40
0.6972974593
 40
0.7013713541
 40
0.7054456354
 40
0.7095202415
 40
0.7135951065
 40
0.7176701645
 40
0.7258206047
 40
0.7339710227
 40
0.7421206364
 40
0.7502684394
 40
0.7543408612
 40
0.7584118061
 40
0.7624810204
 40
0.7665482694
 40
0.7706132878
 40
0.7746757871
 40
0.7827920696
 40
0.7908952813
 40
0.7989836916
 40
0.8070556057
 40
0.8151093682
 40
0.823143486
 40
0.8311565266
 40
0.8391471567
 40
0.8471140873
 40
0.8629717453
 40
0.8787210795
 40
0.8943541679
 40
0.9098638686
 40
0.9252436886
 40
0.9404876639
 40
0.9555902882
 40
0.9705463844
 40
0.9853511695
 40
1.0
 40
1.0
 40
1.0
 40
1.0
 10
5.0718928154
 20
2.8085463937
 30
0.0
 10
5.0718475837
 20
2.8166671444
 30
0.0
 10
5.0717146669
 20
2.8331908548
 30
0.0
 10
5.0714001061
 20
2.8583849888
 30
0.0
 10
5.0709701928
 20
2.884382183
 30
0.0
 10
5.0704291869
 20
2.9111371273
 30
0.0
 10
5.0697821718
 20
2.9386014423
 30
0.0
 10
5.0687753472
 20
2.976491398
 30
0.0
 10
5.0672809542
 20
3.0252323604
 30
0.0
 10
5.0651893989
 20
3.0851233294
 30
0.0
 10
5.0628415813
 20
3.1465840177
 30
0.0
 10
5.0607298092
 20
3.198596562
 30
0.0
 10
5.0589694285
 20
3.2406920718
 30
0.0
 10
5.0576180433
 20
3.272521538
 30
0.0
 10
5.0562470312
 20
3.3044614752
 30
0.0
 10
5.0548633677
 20
3.3364725095
 30
0.0
 10
5.0534734212
 20
3.3685172675
 30
0.0
 10
5.0523151392
 20
3.3952261215
 30
0.0
 10
5.0513921632
 20
3.4165837035
 30
0.0
 10
5.0507024303
 20
3.4325849766
 30
0.0
 10
5.0500152301
 20
3.4485691753
 30
0.0
 10
5.0493310049
 20
3.4645323901
 30
0.0
 10
5.0486565992
 20
3.4804710558
 30
0.0
 10
5.0479989175
 20
3.4963816756
 30
0.0
 10
5.0473639714
 20
3.5122607609
 30
0.0
 10
5.0465482633
 20
3.5333586474
 30
0.0
 10
5.0455844193
 20
3.5596249438
 30
0.0
 10
5.044519887
 20
3.5910015182
 30
0.0
 10
5.0435562832
 20
3.6221664016
 30
0.0
 10
5.0426998853
 20
3.6530916628
 30
0.0
 10
5.0419565821
 20
3.6837494879
 30
0.0
 10
5.0414349142
 20
3.7091188472
 30
0.0
 10
5.0410816794
 20
3.7292604196
 30
0.0
 10
5.0408501185
 20
3.7442424311
 30
0.0
 10
5.0406516185
 20
3.7591343833
 30
0.0
 10
5.0404860236
 20
3.7739329528
 30
0.0
 10
5.0403557382
 20
3.7886422187
 30
0.0
 10
5.0402679549
 20
3.803274011
 30
0.0
 10
5.0402290288
 20
3.8178453159
 30
0.0
 10
5.0402452217
 20
3.8323749511
 30
0.0
 10
5.0403215235
 20
3.8468833541
 30
0.0
 10
5.0404628194
 20
3.861391795
 30
0.0
 10
5.0406748704
 20
3.8759169636
 30
0.0
 10
5.0410522939
 20
3.895336585
 30
0.0
 10
5.0416934286
 20
3.919674844
 30
0.0
 10
5.0427113295
 20
3.9489498658
 30
0.0
 10
5.0439598239
 20
3.9783162611
 30
0.0
 10
5.0454210872
 20
4.0077727378
 30
0.0
 10
5.0470769869
 20
4.0373188018
 30
0.0
 10
5.0495240944
 20
4.0768951167
 30
0.0
 10
5.0529799192
 20
4.126578604
 30
0.0
 10
5.0576110385
 20
4.1864420485
 30
0.0
 10
5.0625929081
 20
4.2466409005
 30
0.0
 10
5.0669165557
 20
4.2970135927
 30
0.0
 10
5.0704101547
 20
4.3374809115
 30
0.0
 10
5.073032657
 20
4.3679565125
 30
0.0
 10
5.075635421
 20
4.3985148553
 30
0.0
 10
5.0782059338
 20
4.4291550209
 30
0.0
 10
5.0803095272
 20
4.4547401888
 30
0.0
 10
5.0819637298
 20
4.4752486072
 30
0.0
 10
5.083599308
 20
4.4958075012
 30
0.0
 10
5.0856067748
 20
4.5215530807
 30
0.0
 10
5.0879589581
 20
4.5525030659
 30
0.0
 10
5.0902597222
 20
4.5835224841
 30
0.0
 10
5.0932659325
 20
4.6250086272
 30
0.0
 10
5.0969053682
 20
4.6770168569
 30
0.0
 10
5.1010918941
 20
4.7395970306
 30
0.0
 10
5.1051180995
 20
4.8023833604
 30
0.0
 10
5.1090009075
 20
4.8653547596
 30
0.0
 10
5.1127548778
 20
4.9284916132
 30
0.0
 10
5.1157875422
 20
4.9812019284
 30
0.0
 10
5.1181668215
 20
5.0234388546
 30
0.0
 10
5.1199312368
 20
5.0551627058
 30
0.0
 10
5.12167459
 20
5.086915483
 30
0.0
 10
5.1239698771
 20
5.1293065325
 30
0.0
 10
5.1267798768
 20
5.182360175
 30
0.0
 10
5.1300443889
 20
5.2460993288
 30
0.0
 10
5.1331864778
 20
5.3099304264
 30
0.0
 10
5.1361923488
 20
5.3738441073
 30
0.0
 10
5.1385744487
 20
5.4271538115
 30
0.0
 10
5.1403968408
 20
5.4698347251
 30
0.0
 10
5.1417187195
 20
5.5018657548
 30
0.0
 10
5.1427810123
 20
5.5285663286
 30
0.0
 10
5.1436091947
 20
5.5499321043
 30
0.0
 10
5.1442198906
 20
5.565959641
 30
0.0
 10
5.1448204531
 20
5.5819890822
 30
0.0
 10
5.1454114766
 20
5.598020152
 30
0.0
 10
5.1459904363
 20
5.6140526835
 30
0.0
 10
5.1467423902
 20
5.6354314037
 30
0.0
 10
5.1476378264
 20
5.66215698
 30
0.0
 10
5.1486179491
 20
5.6942298323
 30
0.0
 10
5.1496509259
 20
5.7262975842
 30
0.0
 10
5.1506783612
 20
5.753010782
 30
0.0
 10
5.1516763199
 20
5.77436748
 30
0.0
 10
5.1525313377
 20
5.7903721049
 30
0.0
 10
5.1535135165
 20
5.806362655
 30
0.0
 10
5.1546210179
 20
5.8223371992
 30
0.0
 10
5.1558490217
 20
5.8382940929
 30
0.0
 10
5.15764087
 20
5.859536512
 30
0.0
 10
5.1601612783
 20
5.8860351779
 30
0.0
 10
5.163639603
 20
5.9177467964
 30
0.0
 10
5.1675720146
 20
5.9493466659
 30
0.0
 10
5.1719508606
 20
5.9808222175
 30
0.0
 10
5.1767696005
 20
6.0121613381
 30
0.0
 10
5.1820238465
 20
6.0433520423
 30
0.0
 10
5.1877089876
 20
6.0743828397
 30
0.0
 10
5.1938198475
 20
6.1052427981
 30
0.0
 10
5.2025146247
 20
6.1460816416
 30
0.0
 10
5.2144158325
 20
6.1966428095
 30
0.0
 10
5.2303475144
 20
6.2565654115
 30
0.0
 10
5.2478740509
 20
6.3155652572
 30
0.0
 10
5.2669659215
 20
6.3735671122
 30
0.0
 10
5.2875969422
 20
6.43049691
 30
0.0
 10
5.309744095
 20
6.486280153
 30
0.0
 10
5.3333875047
 20
6.5408407181
 30
0.0
 10
5.3585104395
 20
6.5941002043
 30
0.0
 10
5.3850981791
 20
6.6459752707
 30
0.0
 10
5.40389444
 20
6.6797617678
 30
0.0
 10
5.4135384546
 20
6.6963923335
 30
0.0
  0
LINE
  5
348
100
AcDbEntity
  8
0
100
AcDbLine
 62
7
  6
CONTINUOUS
 10
4.7315972699
 20
2.7845396018
 11
4.7318972398
 21
2.7898167673
  0
SPLINE
  5
349
100
AcDbEntity
  8
0
100
AcDbSpline
 62
7
  6
CONTINUOUS
 70
0
 71
3
 72
15
 73
11
 74
0
 42
0.0000001
 43
0.0000001
 44
0.0000000001
 40
0.0
 40
0.0
 40
0.0
 40
0.0
 40
0.1035111857
 40
0.2162763948
 40
0.3367660595
 40
0.4633151917
 40
0.5942941983
 40
0.7282218587
 40
0.8638165173
 40
1.0
 40
1.0
 40
1.0
 40
1.0
 10
4.7318972398
 20
2.7898167673
 30
0.0
 10
4.7330886417
 20
2.810743982
 30
0.0
 10
4.7356216271
 20
2.8544668407
 30
0.0
 10
4.7396307028
 20
2.9225443011
 30
0.0
 10
4.7439219183
 20
2.9952784332
 30
0.0
 10
4.7483780865
 20
3.0716975509
 30
0.0
 10
4.7528782098
 20
3.1508398788
 30
0.0
 10
4.7573044417
 20
3.2318209481
 30
0.0
 10
4.7615455906
 20
3.313867303
 30
0.0
 10
4.7641801151
 20
3.3688397057
 30
0.0
 10
4.7654363327
 20
3.396388347
 30
0.0
  0
LINE
  5
34A
100
AcDbEntity
  8
0
100
AcDbLine
 62
7
  6
CONTINUOUS
 10
4.5694363355
 20
5.6876762308
 11
4.5698192322
 21
5.6757189562
  0
LINE
  5
34B
100
AcDbEntity
  8
0
100
AcDbLine
 62
7
  6
CONTINUOUS
 10
4.5733028051
 20
5.5741445284
 11
4.5744080117
 21
5.5441463647
  0
SPLINE
  5
34C
100
AcDbEntity
  8
0
100
AcDbSpline
 62
7
  6
CONTINUOUS
 70
0
 71
3
 72
45
 73
41
 74
0
 42
0.0000001
 43
0.0000001
 44
0.0000000001
 40
0.0
 40
0.0
 40
0.0
 40
0.0
 40
0.0654008879
 40
0.1306460094
 40
0.1631983442
 40
0.1956978894
 40
0.2281400075
 40
0.2605191579
 40
0.2928294931
 40
0.3250641451
 40
0.3572126692
 40
0.3892638527
 40
0.4530294745
 40
0.4847217044
 40
0.5162723922
 40
0.5476712445
 40
0.5789080307
 40
0.5944622895
 40
0.6099718539
 40
0.6254352688
 40
0.6408510835
 40
0.6485406896
 40
0.6562178627
 40
0.671535227
 40
0.6868048339
 40
0.7020285475
 40
0.717208213
 40
0.7323456653
 40
0.7625013814
 40
0.7925114586
 40
0.8223924359
 40
0.8521614348
 40
0.8818361258
 40
0.9114353204
 40
0.9409799426
 40
0.9557393434
 40
0.9704937903
 40
0.9852454444
 40
0.9926209707
 40
1.0
 40
1.0
 40
1.0
 40
1.0
 10
4.5744080117
 20
5.5441463647
 30
0.0
 10
4.5758328262
 20
5.5060547534
 30
0.0
 10
4.578840635
 20
5.4299682216
 30
0.0
 10
4.5829671048
 20
5.3349390403
 30
0.0
 10
4.5864623648
 20
5.259077191
 30
0.0
 10
4.5891726588
 20
5.2023184415
 30
0.0
 10
4.5919678921
 20
5.1456648775
 30
0.0
 10
4.59484228
 20
5.0891256976
 30
0.0
 10
4.5977898361
 20
5.0327113721
 30
0.0
 10
4.60080494
 20
4.9764352266
 30
0.0
 10
4.6038975145
 20
4.9203145465
 30
0.0
 10
4.6081293164
 20
4.8458513707
 30
0.0
 10
4.6125591301
 20
4.771665883
 30
0.0
 10
4.6172303803
 20
4.6977877026
 30
0.0
 10
4.620851405
 20
4.6427456103
 30
0.0
 10
4.6246065126
 20
4.5879785686
 30
0.0
 10
4.6278598736
 20
4.5425225678
 30
0.0
 10
4.6305398086
 20
4.5063103011
 30
0.0
 10
4.6325864575
 20
4.4792696975
 30
0.0
 10
4.6346737215
 20
4.4523131304
 30
0.0
 10
4.6364493618
 20
4.429903897
 30
0.0
 10
4.6378914167
 20
4.4120206168
 30
0.0
 10
4.6393458756
 20
4.3941959119
 30
0.0
 10
4.6411898437
 20
4.3719703919
 30
0.0
 10
4.6434341479
 20
4.3453645798
 30
0.0
 10
4.6456971177
 20
4.3188408989
 30
0.0
 10
4.6479675194
 20
4.2923951626
 30
0.0
 10
4.6509857226
 20
4.257278647
 30
0.0
 10
4.6547219429
 20
4.2135482102
 30
0.0
 10
4.6590620786
 20
4.1612450278
 30
0.0
 10
4.663163418
 20
4.1091485341
 30
0.0
 10
4.6669364234
 20
4.0572230374
 30
0.0
 10
4.6702913286
 20
4.0054331685
 30
0.0
 10
4.6731383579
 20
3.9537436249
 30
0.0
 10
4.6750133157
 20
3.9107094722
 30
0.0
 10
4.6761686614
 20
3.8763069908
 30
0.0
 10
4.6768517302
 20
3.8505161037
 30
0.0
 10
4.6772590151
 20
3.8290236398
 30
0.0
 10
4.6774818387
 20
3.8118276478
 30
0.0
 10
4.6775583611
 20
3.8032284159
 30
0.0
 10
4.6775882857
 20
3.7989277271
 30
0.0
  0
SPLINE
  5
34D
100
AcDbEntity
  8
0
100
AcDbSpline
 62
7
  6
CONTINUOUS
 70
0
 71
3
 72
15
 73
11
 74
0
 42
0.0000001
 43
0.0000001
 44
0.0000000001
 40
0.0
 40
0.0
 40
0.0
 40
0.0
 40
0.1244474213
 40
0.249378784
 40
0.3746156306
 40
0.4999999978
 40
0.625384367
 40
0.7506212164
 40
0.8755525791
 40
1.0
 40
1.0
 40
1.0
 40
1.0
 10
4.7604573048
 20
2.7590843033
 30
0.0
 10
4.7710536335
 20
2.7576871687
 30
0.0
 10
4.7923400185
 20
2.7552729948
 30
0.0
 10
4.8244182127
 20
2.7527288482
 30
0.0
 10
4.8566421877
 20
2.7512165246
 30
0.0
 10
4.8889363364
 20
2.7507146916
 30
0.0
 10
4.9212304854
 20
2.7512165247
 30
0.0
 10
4.9534544607
 20
2.7527288483
 30
0.0
 10
4.9855326552
 20
2.7552729946
 30
0.0
 10
5.00681904
 20
2.7576871696
 30
0.0
 10
5.0174153688
 20
2.7590843033
 30
0.0
  0
SPLINE
  5
34E
100
AcDbEntity
  8
0
100
AcDbSpline
 62
7
  6
CONTINUOUS
 70
0
 71
3
 72
43
 73
39
 74
0
 42
0.0000001
 43
0.0000001
 44
0.0000000001
 40
0.0
 40
0.0
 40
0.0
 40
0.0
 40
0.0165983012
 40
0.0331816821
 40
0.0662998841
 40
0.1323179428
 40
0.1652056249
 40
0.1980053119
 40
0.2307125032
 40
0.2633232039
 40
0.2958344085
 40
0.3282427276
 40
0.3605397829
 40
0.3927150276
 40
0.4566512108
 40
0.4883856237
 40
0.5199449596
 40
0.551313148
 40
0.5824737954
 40
0.5979710889
 40
0.6134097172
 40
0.6287866826
 40
0.6440990005
 40
0.6593447803
 40
0.6745238958
 40
0.689636372
 40
0.7046832767
 40
0.7196690733
 40
0.7345988946
 40
0.7643111066
 40
0.7938610491
 40
0.8232914733
 40
0.8526484142
 40
0.8819791519
 40
0.9113317555
 40
0.9407546892
 40
0.9702953347
 40
1.0
 40
1.0
 40
1.0
 40
1.0
 10
5.2037760404
 20
5.550006947
 30
0.0
 10
5.2034251885
 20
5.5403042568
 30
0.0
 10
5.2027148366
 20
5.5209079211
 30
0.0
 10
5.2012581763
 20
5.4821537428
 30
0.0
 10
5.1986197777
 20
5.4145159544
 30
0.0
 10
5.1954020159
 20
5.3373565787
 30
0.0
 10
5.1919950991
 20
5.2603919804
 30
0.0
 10
5.1893554459
 20
5.2028974766
 30
0.0
 10
5.1866319361
 20
5.1455690883
 30
0.0
 10
5.1838281589
 20
5.0884135179
 30
0.0
 10
5.180948178
 20
5.0314367845
 30
0.0
 10
5.177997573
 20
4.9746473762
 30
0.0
 10
5.1749692701
 20
4.9180588448
 30
0.0
 10
5.1708253267
 20
4.8430617987
 30
0.0
 10
5.1664838427
 20
4.7684053438
 30
0.0
 10
5.1619022243
 20
4.6941244036
 30
0.0
 10
5.1583524856
 20
4.6388665602
 30
0.0
 10
5.1546710263
 20
4.583953698
 30
0.0
 10
5.1514809719
 20
4.5384245338
 30
0.0
 10
5.1488551568
 20
4.5021967093
 30
0.0
 10
5.1468512876
 20
4.4751805905
 30
0.0
 10
5.1448072415
 20
4.448275991
 30
0.0
 10
5.1427204287
 20
4.4214878181
 30
0.0
 10
5.1405903809
 20
4.3948191472
 30
0.0
 10
5.1384219449
 20
4.3682708564
 30
0.0
 10
5.1362188161
 20
4.3418421555
 30
0.0
 10
5.1339852177
 20
4.3155295017
 30
0.0
 10
5.1317338088
 20
4.2893256053
 30
0.0
 10
5.1287290482
 20
4.2545764953
 30
0.0
 10
5.1249876292
 20
4.2113401225
 30
0.0
 10
5.1206018961
 20
4.1596458297
 30
0.0
 10
5.1164115112
 20
4.108143722
 30
0.0
 10
5.1125053038
 20
4.0567477022
 30
0.0
 10
5.1089709913
 20
4.0053701685
 30
0.0
 10
5.1058977077
 20
3.9539240509
 30
0.0
 10
5.1033760049
 20
3.9023246441
 30
0.0
 10
5.1014974354
 20
3.8504915021
 30
0.0
 10
5.1007375559
 20
3.8158432235
 30
0.0
 10
5.1004941344
 20
3.7984694438
 30
0.0
  0
SPLINE
  5
34F
100
AcDbEntity
  8
0
100
AcDbSpline
 62
7
  6
CONTINUOUS
 70
0
 71
3
 72
134
 73
130
 74
0
 42
0.0000001
 43
0.0000001
 44
0.0000000001
 40
0.0
 40
0.0
 40
0.0
 40
0.0
 40
0.0061892897
 40
0.0125943293
 40
0.0192043688
 40
0.0260078514
 40
0.032992215
 40
0.0401443216
 40
0.0474505867
 40
0.0548972038
 40
0.0624703228
 40
0.0701562117
 40
0.0779413911
 40
0.0858127389
 40
0.1017637001
 40
0.1098194869
 40
0.1179138257
 40
0.1260361526
 40
0.1341764381
 40
0.1423251611
 40
0.1504732651
 40
0.154544369
 40
0.1586121129
 40
0.160644404
 40
0.1626754707
 40
0.1667334432
 40
0.170785065
 40
0.1728081911
 40
0.1748293658
 40
0.1788653966
 40
0.1828922353
 40
0.1909146717
 40
0.1988894498
 40
0.2068094941
 40
0.2146678376
 40
0.2224572312
 40
0.2301709797
 40
0.2339976311
 40
0.2378025552
 40
0.2415841595
 40
0.2453412646
 40
0.2490755718
 40
0.2527900128
 40
0.2564877889
 40
0.2601743895
 40
0.2638565162
 40
0.2675408153
 40
0.271231104
 40
0.274927743
 40
0.2823406148
 40
0.2897799063
 40
0.2972451368
 40
0.3047358499
 40
0.3122517999
 40
0.3197926954
 40
0.3349479164
 40
0.3501985408
 40
0.3655414474
 40
0.3732464657
 40
0.3809732866
 40
0.3887214679
 40
0.3964905917
 40
0.4042802535
 40
0.4081826625
 40
0.412090053
 40
0.4199194338
 40
0.427767667
 40
0.4356340206
 40
0.4435177564
 40
0.4514181055
 40
0.4593342891
 40
0.4752111137
 40
0.4911426122
 40
0.5071234844
 40
0.5231488075
 40
0.5392138842
 40
0.5553143102
 40
0.5633765327
 40
0.571446205
 40
0.5795229166
 40
0.5876062944
 40
0.5956961002
 40
0.6037921263
 40
0.6200019785
 40
0.636233691
 40
0.6524847147
 40
0.6687521782
 40
0.6768911186
 40
0.6850329713
 40
0.6931773022
 40
0.7013236465
 40
0.7094714618
 40
0.7176202019
 40
0.7216947758
 40
0.7257694258
 40
0.7278067659
 40
0.7298441088
 40
0.731881449
 40
0.7339187731
 40
0.7379932476
 40
0.7420672822
 40
0.746140672
 40
0.7481770871
 40
0.7502132934
 40
0.754284879
 40
0.7583550411
 40
0.7624234168
 40
0.7664896912
 40
0.7705536238
 40
0.7746149812
 40
0.7786735166
 40
0.7827289822
 40
0.7908297417
 40
0.7989155357
 40
0.8069847095
 40
0.8150356672
 40
0.8230669406
 40
0.8310771302
 40
0.847028711
 40
0.862881355
 40
0.8786266958
 40
0.8942573561
 40
0.9097668266
 40
0.9251493523
 40
0.9403998366
 40
0.9555137959
 40
0.9704872826
 40
0.9853169652
 40
1.0
 40
1.0
 40
1.0
 40
1.0
 10
5.0885400431
 20
2.8085301281
 30
0.0
 10
5.0882844794
 20
2.8166595724
 30
0.0
 10
5.0876923444
 20
2.8331996261
 30
0.0
 10
5.0866072406
 20
2.8584132714
 30
0.0
 10
5.0853303059
 20
2.8844260223
 30
0.0
 10
5.0838829259
 20
2.9111922449
 30
0.0
 10
5.0822866167
 20
2.9386635435
 30
0.0
 10
5.0805626864
 20
2.9667890914
 30
0.0
 10
5.0787319969
 20
2.9955165913
 30
0.0
 10
5.0768148578
 20
3.0247929089
 30
0.0
 10
5.0748309168
 20
3.0545647654
 30
0.0
 10
5.0727990441
 20
3.0847793164
 30
0.0
 10
5.0707373544
 20
3.1153846559
 30
0.0
 10
5.0679594333
 20
3.1568276422
 30
0.0
 10
5.065205144
 20
3.19862864
 30
0.0
 10
5.0625258681
 20
3.240728122
 30
0.0
 10
5.0605584117
 20
3.2725642872
 30
0.0
 10
5.0586534048
 20
3.3045154967
 30
0.0
 10
5.0568236555
 20
3.3365426977
 30
0.0
 10
5.0550822893
 20
3.3686087576
 30
0.0
 10
5.0537140276
 20
3.39533969
 30
0.0
 10
5.0526742166
 20
3.4167174112
 30
0.0
 10
5.0520496113
 20
3.4300689006
 30
0.0
 10
5.0515662507
 20
3.4407431953
 30
0.0
 10
5.0510946749
 20
3.451405164
 30
0.0
 10
5.0505251927
 20
3.4647190279
 30
0.0
 10
5.0499754075
 20
3.4780232718
 30
0.0
 10
5.0495438937
 20
3.4886535194
 30
0.0
 10
5.0491170632
 20
3.4992634512
 30
0.0
 10
5.0485921409
 20
3.5125046818
 30
0.0
 10
5.0477737473
 20
3.5336268339
 30
0.0
 10
5.0467953923
 20
3.5599226423
 30
0.0
 10
5.0457011859
 20
3.5913337353
 30
0.0
 10
5.0446980585
 20
3.6225321307
 30
0.0
 10
5.0437976353
 20
3.6534899523
 30
0.0
 10
5.0430102595
 20
3.6841796787
 30
0.0
 10
5.0424561108
 20
3.7095753519
 30
0.0
 10
5.0420817712
 20
3.7297374661
 30
0.0
 10
5.0418371038
 20
3.7447337551
 30
0.0
 10
5.0416287311
 20
3.7596391915
 30
0.0
 10
5.0414573007
 20
3.7744522952
 30
0.0
 10
5.0413262848
 20
3.7891775516
 30
0.0
 10
5.04123972
 20
3.8038251736
 30
0.0
 10
5.0412011754
 20
3.8184103139
 30
0.0
 10
5.0412163441
 20
3.8329530399
 30
0.0
 10
5.0412912605
 20
3.8474778797
 30
0.0
 10
5.0414326343
 20
3.8620070789
 30
0.0
 10
5.0416431343
 20
3.8765545149
 30
0.0
 10
5.0420126849
 20
3.8959997492
 30
0.0
 10
5.0426369163
 20
3.920367405
 30
0.0
 10
5.043628303
 20
3.9496786386
 30
0.0
 10
5.0448461151
 20
3.9790836875
 30
0.0
 10
5.0462739114
 20
4.0085801003
 30
0.0
 10
5.0478952392
 20
4.0381660591
 30
0.0
 10
5.0502970643
 20
4.0777957618
 30
0.0
 10
5.0537020638
 20
4.1275466978
 30
0.0
 10
5.0582894404
 20
4.1874911336
 30
0.0
 10
5.0624145401
 20
4.2376508065
 30
0.0
 10
5.0658318576
 20
4.2779478326
 30
0.0
 10
5.0684406067
 20
4.3082972189
 30
0.0
 10
5.071074812
 20
4.3387289583
 30
0.0
 10
5.0737150837
 20
4.3692430622
 30
0.0
 10
5.0759023572
 20
4.3947236775
 30
0.0
 10
5.0776354719
 20
4.4151498271
 30
0.0
 10
5.0793562215
 20
4.4356294018
 30
0.0
 10
5.0814781078
 20
4.4612788154
 30
0.0
 10
5.0839719963
 20
4.4921177242
 30
0.0
 10
5.0864101769
 20
4.5230327424
 30
0.0
 10
5.0887889313
 20
4.5540210774
 30
0.0
 10
5.0911122661
 20
4.5850792803
 30
0.0
 10
5.0941431991
 20
4.6266176949
 30
0.0
 10
5.0978097849
 20
4.678691582
 30
0.0
 10
5.1020252999
 20
4.7413506968
 30
0.0
 10
5.1060733089
 20
4.8042163938
 30
0.0
 10
5.1099704518
 20
4.8672674801
 30
0.0
 10
5.1137329836
 20
4.9304841146
 30
0.0
 10
5.1167688366
 20
4.9832609033
 30
0.0
 10
5.1191464722
 20
5.0255512124
 30
0.0
 10
5.1209063683
 20
5.0573154782
 30
0.0
 10
5.1226437223
 20
5.0891088262
 30
0.0
 10
5.1243600484
 20
5.1209298126
 30
0.0
 10
5.1260534588
 20
5.152777445
 30
0.0
 10
5.1282792775
 20
5.1952909907
 30
0.0
 10
5.1309950083
 20
5.248492954
 30
0.0
 10
5.1341337215
 20
5.312403804
 30
0.0
 10
5.1371415343
 20
5.3763967468
 30
0.0
 10
5.1395279958
 20
5.429772158
 30
0.0
 10
5.1413592329
 20
5.4725052161
 30
0.0
 10
5.1426919615
 20
5.5045750538
 30
0.0
 10
5.1439817256
 20
5.5366563858
 30
0.0
 10
5.1452268346
 20
5.5687473245
 30
0.0
 10
5.1464266274
 20
5.6008457867
 30
0.0
 10
5.1473887124
 20
5.6275985823
 30
0.0
 10
5.1481335537
 20
5.6490030851
 30
0.0
 10
5.1485878247
 20
5.6623817295
 30
0.0
 10
5.1489440438
 20
5.6730849933
 30
0.0
 10
5.1492075386
 20
5.6811125933
 30
0.0
 10
5.1494670585
 20
5.6891403018
 30
0.0
 10
5.149808656
 20
5.6998437864
 30
0.0
 10
5.1502375774
 20
5.713222307
 30
0.0
 10
5.1507852431
 20
5.7292740102
 30
0.0
 10
5.1512941925
 20
5.7426471623
 30
0.0
 10
5.1517480596
 20
5.7533423788
 30
0.0
 10
5.152237528
 20
5.7640336501
 30
0.0
 10
5.1529175983
 20
5.7773915065
 30
0.0
 10
5.1538494646
 20
5.7934101181
 30
0.0
 10
5.1549031958
 20
5.8094142039
 30
0.0
 10
5.156085519
 20
5.8254011016
 30
0.0
 10
5.1573944599
 20
5.8413688693
 30
0.0
 10
5.1588273913
 20
5.857315769
 30
0.0
 10
5.1603817559
 20
5.8732401149
 30
0.0
 10
5.1626123598
 20
5.8944313235
 30
0.0
 10
5.165697637
 20
5.920853329
 30
0.0
 10
5.1698750493
 20
5.952454507
 30
0.0
 10
5.1745200594
 20
5.9839242158
 30
0.0
 10
5.1796252286
 20
6.0152499225
 30
0.0
 10
5.185184631
 20
6.0464195497
 30
0.0
 10
5.1931836794
 20
6.0876955294
 30
0.0
 10
5.2042824387
 20
6.1388342713
 30
0.0
 10
5.2193471607
 20
6.1994861458
 30
0.0
 10
5.2361001672
 20
6.2592560207
 30
0.0
 10
5.2545058078
 20
6.3180654878
 30
0.0
 10
5.2745327692
 20
6.3758385999
 30
0.0
 10
5.2961537439
 20
6.4325001242
 30
0.0
 10
5.3193455685
 20
6.4879745003
 30
0.0
 10
5.344089066
 20
6.5421844757
 30
0.0
 10
5.3703690117
 20
6.5950505343
 30
0.0
 10
5.3981730614
 20
6.6464881505
 30
0.0
 10
5.4178193036
 20
6.6799387843
 30
0.0
 10
5.4278983572
 20
6.6963923335
 30
0.0
  0
LINE
  5
350
100
AcDbEntity
  8
0
100
AcDbLine
 62
7
  6
CONTINUOUS
 10
4.6654363355
 20
3.3963883833
 11
4.664329358
 21
3.3751760386
  0
SPLINE
  5
351
100
AcDbEntity
  8
0
100
AcDbSpline
 62
7
  6
CONTINUOUS
 70
0
 71
3
 72
19
 73
15
 74
0
 42
0.0000001
 43
0.0000001
 44
0.0000000001
 40
0.0
 40
0.0
 40
0.0
 40
0.0
 40
0.136065443
 40
0.2706810669
 40
0.4029991477
 40
0.5321547438
 40
0.5952773861
 40
0.6572871408
 40
0.7180770808
 40
0.7775404289
 40
0.8355705992
 40
0.8920612478
 40
0.9469063203
 40
1.0
 40
1.0
 40
1.0
 40
1.0
 10
4.6643106245
 20
3.3748205415
 30
0.0
 10
4.6632211372
 20
3.3541490441
 30
0.0
 10
4.6609965005
 20
3.313029328
 30
0.0
 10
4.6575890967
 20
3.2518141885
 30
0.0
 10
4.6542212855
 20
3.1916497052
 30
0.0
 10
4.6515099198
 20
3.142342012
 30
0.0
 10
4.6494563567
 20
3.1037106777
 30
0.0
 10
4.6480002713
 20
3.0754630465
 30
0.0
 10
4.6466288976
 20
3.0477685399
 30
0.0
 10
4.6453546846
 20
3.0206754676
 30
0.0
 10
4.6441900538
 20
2.9942321385
 30
0.0
 10
4.6431474226
 20
2.9684868568
 30
0.0
 10
4.6422391996
 20
2.9434879602
 30
0.0
 10
4.6417228689
 20
2.9270748274
 30
0.0
 10
4.6414922139
 20
2.9190007643
 30
0.0
  0
LINE
  5
352
100
AcDbEntity
  8
0
100
AcDbLine
 62
7
  6
CONTINUOUS
 10
4.6414922139
 20
2.9190007643
 11
4.641411992
 21
2.9161584806
  0
SPLINE
  5
353
100
AcDbEntity
  8
0
100
AcDbSpline
 62
7
  6
CONTINUOUS
 70
0
 71
3
 72
24
 73
20
 74
0
 42
0.0000001
 43
0.0000001
 44
0.0000000001
 40
0.0
 40
0.0
 40
0.0
 40
0.0
 40
0.0518054232
 40
0.0778713083
 40
0.1041068343
 40
0.1572815194
 40
0.2117501766
 40
0.2395821568
 40
0.2678475977
 40
0.3257538993
 40
0.3856328322
 40
0.4475387872
 40
0.5114467037
 40
0.5772601814
 40
0.6448206758
 40
0.7139164607
 40
0.7842933714
 40
0.8556593579
 40
1.0
 40
1.0
 40
1.0
 40
1.0
 10
5.0462752254
 20
2.7902855949
 30
0.0
 10
5.0462746549
 20
2.7908850057
 30
0.0
 10
5.0463362099
 20
2.7917876311
 30
0.0
 10
5.04654056
 20
2.7929753837
 30
0.0
 10
5.0468281791
 20
2.7941622959
 30
0.0
 10
5.0473433377
 20
2.7956281582
 30
0.0
 10
5.0480490717
 20
2.7970325413
 30
0.0
 10
5.0487241636
 20
2.7981199469
 30
0.0
 10
5.0494847206
 20
2.7991984982
 30
0.0
 10
5.0505757685
 20
2.8004938515
 30
0.0
 10
5.0520788252
 20
2.8019354574
 30
0.0
 10
5.0537718343
 20
2.8032637296
 30
0.0
 10
5.0556383259
 20
2.8044660268
 30
0.0
 10
5.057660367
 20
2.8055310764
 30
0.0
 10
5.0598185636
 20
2.8064487997
 30
0.0
 10
5.0620921554
 20
2.8072105086
 30
0.0
 10
5.0644596057
 20
2.80780896
 30
0.0
 10
5.0677214762
 20
2.8083836024
 30
0.0
 10
5.0702227388
 20
2.8085511658
 30
0.0
 10
5.0718928154
 20
2.8085463936
 30
0.0
  0
SPLINE
  5
354
100
AcDbEntity
  8
0
100
AcDbSpline
 62
7
  6
CONTINUOUS
 70
0
 71
3
 72
20
 73
16
 74
0
 42
0.0000001
 43
0.0000001
 44
0.0000000001
 40
0.0
 40
0.0
 40
0.0
 40
0.0
 40
0.141322132
 40
0.21143385
 40
0.2808446371
 40
0.4166016389
 40
0.4826024506
 40
0.5470984795
 40
0.609949104
 40
0.6710465412
 40
0.7876510677
 40
0.8432421803
 40
0.8970722885
 40
0.949264362
 40
1.0
 40
1.0
 40
1.0
 40
1.0
 10
5.0885400431
 20
2.8085301282
 30
0.0
 10
5.0905619565
 20
2.8085425171
 30
0.0
 10
5.0935894203
 20
2.8087246758
 30
0.0
 10
5.0975683824
 20
2.8092957156
 30
0.0
 10
5.1014312221
 20
2.8100721741
 30
0.0
 10
5.1051666587
 20
2.8111595232
 30
0.0
 10
5.1087124895
 20
2.8125573936
 30
0.0
 10
5.1112179513
 20
2.8137346977
 30
0.0
 10
5.1135780352
 20
2.8150430908
 30
0.0
 10
5.1164644904
 20
2.8169208663
 30
0.0
 10
5.1190582253
 20
2.8190486511
 30
0.0
 10
5.1212763089
 20
2.8214067198
 30
0.0
 10
5.1227041087
 20
2.823229987
 30
0.0
 10
5.1239125022
 20
2.8251234985
 30
0.0
 10
5.1245752608
 20
2.8264421794
 30
0.0
 10
5.1248653636
 20
2.8271075842
 30
0.0
  0
SPLINE
  5
355
100
AcDbEntity
  8
0
100
AcDbSpline
 62
7
  6
CONTINUOUS
 70
0
 71
3
 72
21
 73
17
 74
0
 42
0.0000001
 43
0.0000001
 44
0.0000000001
 40
0.0
 40
0.0
 40
0.0
 40
0.0
 40
0.1447047273
 40
0.2157801617
 40
0.2856887436
 40
0.3542330193
 40
0.4212460537
 40
0.5500812677
 40
0.6118487909
 40
0.6717956721
 40
0.7299708865
 40
0.786480302
 40
0.8414888968
 40
0.8952192162
 40
0.9479468311
 40
1.0
 40
1.0
 40
1.0
 40
1.0
 10
5.0174153688
 20
2.7590843033
 30
0.0
 10
5.01935835
 20
2.7594049078
 30
0.0
 10
5.0222318516
 20
2.760054981
 30
0.0
 10
5.025928898
 20
2.7612640232
 30
0.0
 10
5.02857879
 20
2.7623226383
 30
0.0
 10
5.0311028779
 20
2.7635311544
 30
0.0
 10
5.0342343786
 20
2.7653069097
 30
0.0
 10
5.0370943483
 20
2.7673631953
 30
0.0
 10
5.0395993865
 20
2.7696812743
 30
0.0
 10
5.0412485518
 20
2.7714950333
 30
0.0
 10
5.0426817805
 20
2.7733951303
 30
0.0
 10
5.0438887299
 20
2.775368486
 30
0.0
 10
5.0448603509
 20
2.7774012155
 30
0.0
 10
5.0455892229
 20
2.7794790226
 30
0.0
 10
5.0460696571
 20
2.7815866438
 30
0.0
 10
5.0462223061
 20
2.7830083516
 30
0.0
 10
5.0462556919
 20
2.7837159445
 30
0.0
  0
SPLINE
  5
356
100
AcDbEntity
  8
0
100
AcDbSpline
 62
7
  6
CONTINUOUS
 70
0
 71
3
 72
48
 73
44
 74
0
 42
0.0000001
 43
0.0000001
 44
0.0000000001
 40
0.0
 40
0.0
 40
0.0
 40
0.0
 40
0.0132211815
 40
0.0265495258
 40
0.0400054635
 40
0.0536077782
 40
0.0673734318
 40
0.0813174479
 40
0.0954528144
 40
0.1097904443
 40
0.1390967274
 40
0.1692910369
 40
0.2003861253
 40
0.2323646778
 40
0.2651821558
 40
0.2987699937
 40
0.3330389097
 40
0.367882173
 40
0.4031788622
 40
0.4387970261
 40
0.4745967889
 40
0.5104333986
 40
0.5461602341
 40
0.5816318401
 40
0.6167069363
 40
0.6512515008
 40
0.6851419541
 40
0.7182683789
 40
0.7505379345
 40
0.7818783694
 40
0.8122415972
 40
0.8416073744
 40
0.8699867503
 40
0.8838240447
 40
0.897434799
 40
0.910830395
 40
0.9240245218
 40
0.937033177
 40
0.9498745523
 40
0.962568922
 40
0.9751385369
 40
0.9876071214
 40
1.0
 40
1.0
 40
1.0
 40
1.0
 10
5.0919851534
 20
2.8036490547
 30
0.0
 10
5.0914820098
 20
2.8014142724
 30
0.0
 10
5.0903343553
 20
2.7969563008
 30
0.0
 10
5.0882058726
 20
2.7903557187
 30
0.0
 10
5.0856686418
 20
2.7838301587
 30
0.0
 10
5.082728084
 20
2.7773929672
 30
0.0
 10
5.079390274
 20
2.7710568903
 30
0.0
 10
5.07566222
 20
2.764834586
 30
0.0
 10
5.0715515608
 20
2.7587382305
 30
0.0
 10
5.0655290479
 20
2.7507367845
 30
0.0
 10
5.0570647167
 20
2.7411137486
 30
0.0
 10
5.0456116561
 20
2.7303486037
 30
0.0
 10
5.0328813785
 20
2.720361774
 30
0.0
 10
5.0189790132
 20
2.7112310506
 30
0.0
 10
5.0040179795
 20
2.7030261887
 30
0.0
 10
4.9881202935
 20
2.6958100398
 30
0.0
 10
4.9714153729
 20
2.6896376248
 30
0.0
 10
4.9540392079
 20
2.6845556264
 30
0.0
 10
4.936133221
 20
2.6806020554
 30
0.0
 10
4.9178431618
 20
2.6778059015
 30
0.0
 10
4.8993179396
 20
2.6761867442
 30
0.0
 10
4.8807083798
 20
2.67575472
 30
0.0
 10
4.8621660015
 20
2.6765103661
 30
0.0
 10
4.8438417591
 20
2.6784445433
 30
0.0
 10
4.8258848062
 20
2.6815386674
 30
0.0
 10
4.8084412702
 20
2.6857647765
 30
0.0
 10
4.7916530424
 20
2.6910857806
 30
0.0
 10
4.7756566806
 20
2.6974559258
 30
0.0
 10
4.7605822709
 20
2.7048211221
 30
0.0
 10
4.7465525421
 20
2.7131193636
 30
0.0
 10
4.7336816898
 20
2.7222818119
 30
0.0
 10
4.7220758102
 20
2.7322316351
 30
0.0
 10
4.713464099
 20
2.741188438
 30
0.0
 10
4.7073206621
 20
2.7486646649
 30
0.0
 10
4.7031230431
 20
2.7543663524
 30
0.0
 10
4.6993060998
 20
2.760196866
 30
0.0
 10
4.6958776756
 20
2.7661440981
 30
0.0
 10
4.6928449321
 20
2.7721954629
 30
0.0
 10
4.6902142019
 20
2.778338205
 30
0.0
 10
4.6879910678
 20
2.7845593352
 30
0.0
 10
4.6861802243
 20
2.790845751
 30
0.0
 10
4.6847854956
 20
2.7971837199
 30
0.0
 10
4.6841335004
 20
2.8014452717
 30
0.0
 10
4.6838784881
 20
2.8035772834
 30
0.0
  0
SPLINE
  5
357
100
AcDbEntity
  8
0
100
AcDbSpline
 62
7
  6
CONTINUOUS
 70
0
 71
3
 72
24
 73
20
 74
0
 42
0.0000001
 43
0.0000001
 44
0.0000000001
 40
0.0
 40
0.0
 40
0.0
 40
0.0
 40
0.1443406512
 40
0.2157066382
 40
0.2860835479
 40
0.3551793314
 40
0.4227398265
 40
0.488553308
 40
0.5524612249
 40
0.6143671766
 40
0.6742460991
 40
0.7321524046
 40
0.7604178519
 40
0.7882498363
 40
0.8427184987
 40
0.8958931802
 40
0.922128698
 40
0.9481945777
 40
1.0
 40
1.0
 40
1.0
 40
1.0
 10
4.705979858
 20
2.8085463937
 30
0.0
 10
4.7076499346
 20
2.8085511665
 30
0.0
 10
4.7101511974
 20
2.8083836023
 30
0.0
 10
4.7134130679
 20
2.80780896
 30
0.0
 10
4.7157805182
 20
2.8072105086
 30
0.0
 10
4.7180541101
 20
2.8064488
 30
0.0
 10
4.7202123067
 20
2.8055310765
 30
0.0
 10
4.7222343476
 20
2.8044660265
 30
0.0
 10
4.7241008392
 20
2.8032637293
 30
0.0
 10
4.7257938482
 20
2.8019354572
 30
0.0
 10
4.7272969052
 20
2.8004938518
 30
0.0
 10
4.7283879531
 20
2.7991984983
 30
0.0
 10
4.7291485099
 20
2.7981199467
 30
0.0
 10
4.7298236017
 20
2.7970325409
 30
0.0
 10
4.7305293357
 20
2.7956281577
 30
0.0
 10
4.7310444942
 20
2.7941622955
 30
0.0
 10
4.7313321135
 20
2.7929753835
 30
0.0
 10
4.7315364634
 20
2.791787631
 30
0.0
 10
4.731598018
 20
2.7908850058
 30
0.0
 10
4.731597448
 20
2.790285595
 30
0.0
  0
SPLINE
  5
358
100
AcDbEntity
  8
0
100
AcDbSpline
 62
7
  6
CONTINUOUS
 70
0
 71
3
 72
17
 73
13
 74
0
 42
0.0000001
 43
0.0000001
 44
0.0000000001
 40
0.0
 40
0.0
 40
0.0
 40
0.0
 40
0.1368361204
 40
0.272918496
 40
0.4070766802
 40
0.537999966
 40
0.664250516
 40
0.7843126209
 40
0.8415497393
 40
0.8966840262
 40
0.9495499908
 40
1.0
 40
1.0
 40
1.0
 40
1.0
 10
4.765436328
 20
3.3963883449
 30
0.0
 10
4.764173095
 20
3.3687283124
 30
0.0
 10
4.7615236834
 20
3.3135664883
 30
0.0
 10
4.7572517534
 20
3.2313049963
 30
0.0
 10
4.7527876264
 20
3.1502520091
 30
0.0
 10
4.7482442558
 20
3.0711961584
 30
0.0
 10
4.7437420622
 20
2.9949951294
 30
0.0
 10
4.7400713089
 20
2.9336814503
 30
0.0
 10
4.7372649389
 20
2.886732203
 30
0.0
 10
4.7352802397
 20
2.8533552865
 30
0.0
 10
4.7333950979
 20
2.8213482551
 30
0.0
 10
4.7321833102
 20
2.8004773568
 30
0.0
 10
4.7315974479
 20
2.790285595
 30
0.0
  0
SPLINE
  5
359
100
AcDbEntity
  8
0
100
AcDbSpline
 62
7
  6
CONTINUOUS
 70
0
 71
3
 72
18
 73
14
 74
0
 42
0.0000001
 43
0.0000001
 44
0.0000000001
 40
0.0
 40
0.0
 40
0.0
 40
0.0
 40
0.0507432357
 40
0.1029703547
 40
0.1568536688
 40
0.2125060329
 40
0.3292301734
 40
0.3903713544
 40
0.4532515363
 40
0.5836954731
 40
0.7194053072
 40
0.8587825678
 40
1.0
 40
1.0
 40
1.0
 40
1.0
 10
4.6536645458
 20
2.8247323535
 30
0.0
 10
4.6539334839
 20
2.8241485767
 30
0.0
 10
4.654543407
 20
2.8229925445
 30
0.0
 10
4.6556439368
 20
2.8213348461
 30
0.0
 10
4.6569353337
 20
2.8197401558
 30
0.0
 10
4.6589315278
 20
2.8176795561
 30
0.0
 10
4.6612526515
 20
2.8158228092
 30
0.0
 10
4.6638271805
 20
2.8141855086
 30
0.0
 10
4.6666623961
 20
2.8126472193
 30
0.0
 10
4.6705161682
 20
2.8110290185
 30
0.0
 10
4.6754664341
 20
2.8096165077
 30
0.0
 10
4.6806771611
 20
2.8087435431
 30
0.0
 10
4.6842332961
 20
2.8085360615
 30
0.0
 10
4.6860220237
 20
2.8085268942
 30
0.0
  0
SPLINE
  5
35A
100
AcDbEntity
  8
0
100
AcDbSpline
 62
7
  6
CONTINUOUS
 70
0
 71
3
 72
45
 73
41
 74
0
 42
0.0000001
 43
0.0000001
 44
0.0000000001
 40
0.0
 40
0.0
 40
0.0
 40
0.0
 40
0.01462687
 40
0.0292727189
 40
0.0439581431
 40
0.0586880654
 40
0.0734634441
 40
0.0882829059
 40
0.1180500785
 40
0.1479857838
 40
0.1780874038
 40
0.2083520773
 40
0.2387760761
 40
0.2693549897
 40
0.3000840902
 40
0.3155034348
 40
0.3309585136
 40
0.3464487482
 40
0.3542068747
 40
0.3619735557
 40
0.3775319846
 40
0.3931228165
 40
0.408744826
 40
0.4243967961
 40
0.4557859646
 40
0.4872811249
 40
0.5188735002
 40
0.5505548125
 40
0.6141534615
 40
0.6460564905
 40
0.6780196039
 40
0.7100367836
 40
0.7421034439
 40
0.7742154831
 40
0.8063700795
 40
0.8385646381
 40
0.8707956715
 40
0.9030592665
 40
0.9353510464
 40
1.0
 40
1.0
 40
1.0
 40
1.0
 10
4.7776358375
 20
3.8398451878
 30
0.0
 10
4.7776333137
 20
3.8481874392
 30
0.0
 10
4.7775739735
 20
3.8648828485
 30
0.0
 10
4.7772756532
 20
3.8899523369
 30
0.0
 10
4.7767723814
 20
3.915077315
 30
0.0
 10
4.7760697645
 20
3.9402713891
 30
0.0
 10
4.775178847
 20
3.965535974
 30
0.0
 10
4.7737557147
 20
3.9993626438
 30
0.0
 10
4.7715694293
 20
4.0418103219
 30
0.0
 10
4.7683938275
 20
4.0929313976
 30
0.0
 10
4.7647547517
 20
4.1443058048
 30
0.0
 10
4.7607440623
 20
4.1959316441
 30
0.0
 10
4.7564543854
 20
4.2478080499
 30
0.0
 10
4.7519779437
 20
4.2999344352
 30
0.0
 10
4.7481708991
 20
4.3435290056
 30
0.0
 10
4.7451220326
 20
4.3785312684
 30
0.0
 10
4.7428438323
 20
4.4048764517
 30
0.0
 10
4.7409659148
 20
4.4268704545
 30
0.0
 10
4.7394815723
 20
4.4444971087
 30
0.0
 10
4.7380092817
 20
4.4621638023
 30
0.0
 10
4.7361943987
 20
4.4842847081
 30
0.0
 10
4.7340588029
 20
4.510874504
 30
0.0
 10
4.7319645902
 20
4.5375211072
 30
0.0
 10
4.7292257057
 20
4.5731551598
 30
0.0
 10
4.7259040803
 20
4.6178241055
 30
0.0
 10
4.7220698203
 20
4.6715711861
 30
0.0
 10
4.7183719702
 20
4.7254948321
 30
0.0
 10
4.713605049
 20
4.7976977511
 30
0.0
 10
4.7090794373
 20
4.8700939188
 30
0.0
 10
4.7047492457
 20
4.942662806
 30
0.0
 10
4.7015812557
 20
4.9972568407
 30
0.0
 10
4.6984856991
 20
5.051948497
 30
0.0
 10
4.6954586152
 20
5.1067290521
 30
0.0
 10
4.6924949962
 20
5.1615915663
 30
0.0
 10
4.6896062024
 20
5.2165311237
 30
0.0
 10
4.6868039327
 20
5.2715431231
 30
0.0
 10
4.6840971206
 20
5.3266221458
 30
0.0
 10
4.6814938869
 20
5.3817616838
 30
0.0
 10
4.6781733491
 20
5.4553769338
 30
0.0
 10
4.6758727588
 20
5.5106182639
 30
0.0
 10
4.6744315017
 20
5.5474618043
 30
0.0
  0
LINE
  5
35B
100
AcDbEntity
  8
0
100
AcDbLine
 62
7
  6
CONTINUOUS
 10
4.6654363147
 20
3.3963883914
 11
4.6644230964
 21
3.3748161499
  0
SPLINE
  5
35C
100
AcDbEntity
  8
0
100
AcDbSpline
 62
7
  6
CONTINUOUS
 70
0
 71
3
 72
22
 73
18
 74
0
 42
0.0000001
 43
0.0000001
 44
0.0000000001
 40
0.0
 40
0.0
 40
0.0
 40
0.0
 40
0.1332716384
 40
0.1997930663
 40
0.2661066144
 40
0.3321049824
 40
0.3976734738
 40
0.4626898179
 40
0.5270243389
 40
0.5905405282
 40
0.653096011
 40
0.7145440234
 40
0.774735346
 40
0.8335206006
 40
0.8907527951
 40
0.9462903377
 40
1.0
 40
1.0
 40
1.0
 40
1.0
 10
4.6644230964
 20
3.3748161499
 30
0.0
 10
4.6632764754
 20
3.3504956549
 30
0.0
 10
4.6615396404
 20
3.3140366312
 30
0.0
 10
4.6592774567
 20
3.2654740394
 30
0.0
 10
4.6576360159
 20
3.2291860947
 30
0.0
 10
4.6560756066
 20
3.1930688125
 30
0.0
 10
4.6546242372
 20
3.1571841395
 30
0.0
 10
4.6533109542
 20
3.1215982888
 30
0.0
 10
4.6521657156
 20
3.0863817224
 30
0.0
 10
4.6512192079
 20
3.0516089391
 30
0.0
 10
4.6505024114
 20
3.0173580432
 30
0.0
 10
4.6500462961
 20
2.9837100736
 30
0.0
 10
4.6498812542
 20
2.950748102
 30
0.0
 10
4.6500365956
 20
2.9185561594
 30
0.0
 10
4.6505399224
 20
2.8872179063
 30
0.0
 10
4.6514163638
 20
2.8568154097
 30
0.0
 10
4.6522787477
 20
2.8368746478
 30
0.0
 10
4.652783451
 20
2.8270753722
 30
0.0
  0
SPLINE
  5
35D
100
AcDbEntity
  8
0
100
AcDbSpline
 62
7
  6
CONTINUOUS
 70
0
 71
3
 72
21
 73
17
 74
0
 42
0.0000001
 43
0.0000001
 44
0.0000000001
 40
0.0
 40
0.0
 40
0.0
 40
0.0
 40
0.0563123724
 40
0.1128670754
 40
0.1698409616
 40
0.2273971032
 40
0.2856863389
 40
0.3448435483
 40
0.4049856133
 40
0.4662101098
 40
0.5285944265
 40
0.5921956024
 40
0.7231181419
 40
0.7905138973
 40
0.8591598269
 40
1.0
 40
1.0
 40
1.0
 40
1.0
 10
5.094638723
 20
2.7993282511
 30
0.0
 10
5.0945513657
 20
2.7963781674
 30
0.0
 10
5.0941350184
 20
2.7904696558
 30
0.0
 10
5.0927910504
 20
2.7816609239
 30
0.0
 10
5.0907320487
 20
2.7729240287
 30
0.0
 10
5.0879655254
 20
2.7642897219
 30
0.0
 10
5.084501643
 20
2.7557874369
 30
0.0
 10
5.0803529946
 20
2.7474462557
 30
0.0
 10
5.0755345264
 20
2.7392944748
 30
0.0
 10
5.0700635972
 20
2.7313597598
 30
0.0
 10
5.0639593201
 20
2.7236685087
 30
0.0
 10
5.0549201695
 20
2.7136788842
 30
0.0
 10
5.0447662479
 20
2.7043830568
 30
0.0
 10
5.0336756672
 20
2.6958438237
 30
0.0
 10
5.021702152
 20
2.6876345963
 30
0.0
 10
5.0121554849
 20
2.6821603432
 30
0.0
 10
5.0055806675
 20
2.6788048979
 30
0.0
  0
SPLINE
  5
35E
100
AcDbEntity
  8
0
100
AcDbSpline
 62
7
  6
CONTINUOUS
 70
0
 71
3
 72
20
 73
16
 74
0
 42
0.0000001
 43
0.0000001
 44
0.0000000001
 40
0.0
 40
0.0
 40
0.0
 40
0.0
 40
0.2093908094
 40
0.3958577652
 40
0.5579543509
 40
0.6295585418
 40
0.6947440482
 40
0.7534563043
 40
0.8057030121
 40
0.8515610946
 40
0.8912053298
 40
0.9249892346
 40
0.953540332
 40
0.9779535154
 40
1.0
 40
1.0
 40
1.0
 40
1.0
 10
5.0174153688
 20
2.7590843032
 30
0.0
 10
5.0174129493
 20
2.758779266
 30
0.0
 10
5.0174011371
 20
2.7582025885
 30
0.0
 10
5.0173580299
 20
2.7573907377
 30
0.0
 10
5.0173002233
 20
2.756781071
 30
0.0
 10
5.0172399095
 20
2.756349773
 30
0.0
 10
5.0171907553
 20
2.7560691647
 30
0.0
 10
5.0171359207
 20
2.7558183857
 30
0.0
 10
5.0170755397
 20
2.7555979206
 30
0.0
 10
5.0170097643
 20
2.7554081304
 30
0.0
 10
5.016938652
 20
2.7552492495
 30
0.0
 10
5.0168622047
 20
2.7551213263
 30
0.0
 10
5.0167799741
 20
2.7550243158
 30
0.0
 10
5.016690981
 20
2.7549586865
 30
0.0
 10
5.0166252362
 20
2.7549370502
 30
0.0
 10
5.0165934207
 20
2.7549326526
 30
0.0
  0
SPLINE
  5
35F
100
AcDbEntity
  8
0
100
AcDbSpline
 62
7
  6
CONTINUOUS
 70
0
 71
3
 72
20
 73
16
 74
0
 42
0.0000001
 43
0.0000001
 44
0.0000000001
 40
0.0
 40
0.0
 40
0.0
 40
0.0
 40
0.2093903671
 40
0.3958570322
 40
0.5579534815
 40
0.6295576608
 40
0.6947431924
 40
0.7534555091
 40
0.8057023106
 40
0.8515605161
 40
0.8912048972
 40
0.9249889596
 40
0.9535402066
 40
0.9779534973
 40
1.0
 40
1.0
 40
1.0
 40
1.0
 10
4.7604573048
 20
2.7590843033
 30
0.0
 10
4.7604597292
 20
2.7587792655
 30
0.0
 10
4.7604715504
 20
2.7582025867
 30
0.0
 10
4.7605146705
 20
2.7573907342
 30
0.0
 10
4.7605724868
 20
2.7567810663
 30
0.0
 10
4.7606328075
 20
2.7563497675
 30
0.0
 10
4.7606819661
 20
2.7560691585
 30
0.0
 10
4.7607368047
 20
2.755818379
 30
0.0
 10
4.7607971891
 20
2.7555979134
 30
0.0
 10
4.7608629676
 20
2.7554081227
 30
0.0
 10
4.7609340824
 20
2.7552492414
 30
0.0
 10
4.7610105317
 20
2.7551213179
 30
0.0
 10
4.7610927638
 20
2.7550243072
 30
0.0
 10
4.7611817578
 20
2.7549586777
 30
0.0
 10
4.7612475031
 20
2.7549370411
 30
0.0
 10
4.7612793187
 20
2.7549326435
 30
0.0
  0
ENDSEC
  0
SECTION
  2
OBJECTS
  0
DICTIONARY
  5
C
100
AcDbDictionary
280
0
281
1
  3
ACAD_GROUP
350
D
  3
ACAD_MLINESTYLE
350
17
  3
ACAD_LAYOUT
350
1A
  3
ACAD_PLOTSETTINGS
350
19
  3
ACAD_PLOTSTYLENAME
350
E
  0
DICTIONARY
  5
D
102
{ACAD_REACTORS
330
C
102
}
100
AcDbDictionary
280
0
281
1
  0
ACDBDICTIONARYWDFLT
  5
E
102
{ACAD_REACTORS
330
C
102
}
100
AcDbDictionary
281
1
  3
Normal
350
F
100
AcDbDictionaryWithDefault
340
F
  0
DICTIONARY
  5
17
102
{ACAD_REACTORS
330
C
102
}
100
AcDbDictionary
280
0
281
1
  3
Standard
350
18
  0
DICTIONARY
  5
19
102
{ACAD_REACTORS
330
C
102
}
100
AcDbDictionary
281
1
  0
DICTIONARY
  5
1A
102
{ACAD_REACTORS
330
C
102
}
100
AcDbDictionary
281
1
  3
Model
350
360
  3
Layout1
350
361
  0
ACDBPLACEHOLDER
  5
F
102
{ACAD_REACTORS
330
E
102
}
  0
MLINESTYLE
  5
18
102
{ACAD_REACTORS
330
17
102
}
100
AcDbMlineStyle
  2
STANDARD
 70
0
  3

 62
256
 51
90.0
 52
90.0
 71
2
 49
0.5
 62
256
  6
BYLAYER
 49
-0.5
 62
256
  6
BYLAYER
  0
LAYOUT
  5
360
102
{ACAD_REACTORS
330
1A
102
}
100
AcDbPlotSettings
  1

  2
none_device
  4
ANSI_A_(11.00_x_8.50_Inches)
  6

 40
0.0
 41
0.0
 42
0.0
 43
0.0
 44
279.4
 45
215.9
 46
0.0
 47
0.0
 48
0.0
 49
0.0
140
0.0
141
0.0
142
1.0
143
1.0
 70
1024
 72
0
 73
0
 74
0
  7

 75
0
147
1.0
148
0.0
149
0.0
100
AcDbLayout
  1
Model
 70
0
 71
0
 10
0.0
 20
0.0
 11
11.0
 21
8.5
 12
0.0
 22
0.0
 32
0.0
 14
0.0
 24
0.0
 34
0.0
 15
0.0
 25
0.0
 35
0.0
146
0.0
 13
0.0
 23
0.0
 33
0.0
 16
1.0
 26
0.0
 36
0.0
 17
0.0
 27
1.0
 37
0.0
 76
0
330
202
345
0
346
0
  0
LAYOUT
  5
361
102
{ACAD_REACTORS
330
1A
102
}
100
AcDbPlotSettings
  1

  2
none_device
  4
ANSI_A_(11.00_x_8.50_Inches)
  6

 40
0.0
 41
0.0
 42
0.0
 43
0.0
 44
279.4
 45
215.9
 46
0.0
 47
0.0
 48
0.0
 49
0.0
140
0.0
141
0.0
142
1.0
143
1.0
 70
0
 72
0
 73
0
 74
0
  7

 75
0
147
1.0
148
0.0
149
0.0
100
AcDbLayout
  1
Layout1
 70
0
 71
1
 10
0.0
 20
0.0
 11
11.0
 21
8.5
 12
0.0
 22
0.0
 32
0.0
 14
0.0
 24
0.0
 34
0.0
 15
0.0
 25
0.0
 35
0.0
146
0.0
 13
0.0
 23
0.0
 33
0.0
 16
1.0
 26
0.0
 36
0.0
 17
0.0
 27
1.0
 37
0.0
 76
0
330
203
345
0
346
0
  0
ENDSEC
  0
EOF
