999
DXF file: 202-1_right.dxf
999
Pro/ENGINEER 2013150 by Parametric Technology Corporation
  0
SECTION
  2
HEADER
  9
$ACADVER
  1
AC1021
  9
$DWGCODEPAGE
  3
ANSI_1252
  9
$EXTMAX
 10
11.0
 20
8.5
 30
0.0
  9
$EXTMIN
 10
0.0
 20
0.0
 30
0.0
  9
$LIMMIN
 10
0.0
 20
0.0
  9
$LIMMAX
 10
11.0
 20
8.5
  9
$VIEWCTR
 10
5.5
 20
4.25
  9
$VIEWSIZE
 40
8.5
  9
$CLAYER
  8
0
  9
$LTSCALE
 40
0.605
  9
$CELTYPE
  6
BYLAYER
  9
$DIMSCALE
 40
1.0
  9
$DIMASZ
 40
0.1
  9
$DIMEXO
 40
0.0625
  9
$DIMDLI
 40
0.418
  9
$DIMEXE
 40
0.125
  9
$DIMCEN
 40
0.099
  9
$DIMLFAC
 40
1.0
  9
$DIMBLK
  1
_FILLED
  9
$DIMTXT
 40
0.08
  9
$DIMTOL
 70
1
  9
$DIMLIM
 70
0
  9
$DIMTFAC
 40
1.0
  9
$DIMTP
 40
0.001
  9
$DIMTM
 40
0.001
  9
$DIMGAP
 40
0.09
  9
$DIMDSEP
 70
46
  9
$PDMODE
 70
3
  9
$PDSIZE
 40
0.06
  9
$HANDSEED
  5
392
  9
$TILEMODE
 70
1
  9
$MEASUREMENT
 70
0
  9
$INSUNITS
 70
1
  0
ENDSEC
  0
SECTION
  2
CLASSES
  0
CLASS
  1
ACDBDICTIONARYWDFLT
  2
AcDbDictionaryWithDefault
  3
AutoCAD 2000
 90
0
 91
1
280
0
281
0
  0
CLASS
  1
ACDBPLACEHOLDER
  2
AcDbPlaceHolder
  3
AutoCAD 2000
 90
0
 91
1
280
0
281
0
  0
CLASS
  1
LAYOUT
  2
AcDbLayout
  3
AutoCAD 2000
 90
0
 91
0
280
0
281
0
  0
ENDSEC
  0
SECTION
  2
TABLES
  0
TABLE
  2
VPORT
  5
8
100
AcDbSymbolTable
 70
2
  0
VPORT
  5
1F4
100
AcDbSymbolTableRecord
100
AcDbViewportTableRecord
  2
*ACTIVE
 70
0
 10
0.0
 20
0.0
 11
1.0
 21
1.0
 12
5.5
 22
4.25
 13
0.0
 23
0.0
 14
1.0
 24
1.0
 15
0.0
 25
0.0
 16
0.0
 26
0.0
 36
1.0
 17
0.0
 27
0.0
 37
0.0
 40
8.5
 41
1.2941176471
 42
50.0
 43
0.0
 44
0.0
 50
0.0
 51
0.0
 71
0
 72
100
 73
1
 74
1
 75
0
 76
0
 77
0
 78
0
  0
ENDTAB
  0
TABLE
  2
LTYPE
  5
5
100
AcDbSymbolTable
 70
6
  0
LTYPE
  5
14
100
AcDbSymbolTableRecord
100
AcDbLinetypeTableRecord
  2
BYBLOCK
 70
0
  3

 72
65
 73
0
 40
0.0
  0
LTYPE
  5
15
100
AcDbSymbolTableRecord
100
AcDbLinetypeTableRecord
  2
BYLAYER
 70
0
  3

 72
65
 73
0
 40
0.0
  0
LTYPE
  5
16
100
AcDbSymbolTableRecord
100
AcDbLinetypeTableRecord
  2
CONTINUOUS
 70
64
  3
Solid line
 72
65
 73
0
 40
0.0
  0
LTYPE
  5
1F5
100
AcDbSymbolTableRecord
100
AcDbLinetypeTableRecord
  2
CENTER
 70
64
  3
____ _ ____ _ ____ _ ____ _ ____ _ ____ _ ____
 72
65
 73
4
 40
0.6
 49
0.375
 74
0
 49
-0.075
 74
0
 49
0.075
 74
0
 49
-0.075
 74
0
  0
LTYPE
  5
1F6
100
AcDbSymbolTableRecord
100
AcDbLinetypeTableRecord
  2
HIDDEN
 70
64
  3
- - - - - - - - - - - - - - - - - - - -
 72
65
 73
2
 40
0.2
 49
0.1
 74
0
 49
-0.1
 74
0
  0
LTYPE
  5
1F7
100
AcDbSymbolTableRecord
100
AcDbLinetypeTableRecord
  2
PHANTOM
 70
64
  3
_____ _ _ _____ _ _ _____ _ _ _____
 72
65
 73
6
 40
0.8
 49
0.45
 74
0
 49
-0.05
 74
0
 49
0.1
 74
0
 49
-0.05
 74
0
 49
0.1
 74
0
 49
-0.05
 74
0
  0
LTYPE
  5
1F8
100
AcDbSymbolTableRecord
100
AcDbLinetypeTableRecord
  2
DOT
 70
64
  3
. . . . . . . . . . . . . . . . . . . .
 72
65
 73
2
 40
0.2
 49
0.1
 74
0
 49
-0.1
 74
0
  0
LTYPE
  5
1F9
100
AcDbSymbolTableRecord
100
AcDbLinetypeTableRecord
  2
DASHED
 70
64
  3
- - - - - - - - - - - - - - - - - - - -
 72
65
 73
2
 40
0.2
 49
0.1
 74
0
 49
-0.1
 74
0
  0
ENDTAB
  0
TABLE
  2
LAYER
  5
2
100
AcDbSymbolTable
 70
36
  0
LAYER
  5
10
100
AcDbSymbolTableRecord
100
AcDbLayerTableRecord
  2
0
 70
0
 62
7
  6
CONTINUOUS
370
-3
390
F
  0
LAYER
  5
1FA
100
AcDbSymbolTableRecord
100
AcDbLayerTableRecord
  2
DEFAULT_1
 70
0
 62
7
  6
CENTER
370
-3
390
F
  0
LAYER
  5
1FB
100
AcDbSymbolTableRecord
100
AcDbLayerTableRecord
  2
DEFAULT_2
 70
0
 62
8
  6
HIDDEN
370
-3
390
F
  0
LAYER
  5
1FC
100
AcDbSymbolTableRecord
100
AcDbLayerTableRecord
  2
DEFAULT_3
 70
0
 62
7
  6
PHANTOM
370
-3
390
F
  0
LAYER
  5
1FD
100
AcDbSymbolTableRecord
100
AcDbLayerTableRecord
  2
01___PRT_ALL_DTM_PLN
 70
0
 62
7
  6
CONTINUOUS
370
-3
390
F
  0
LAYER
  5
1FE
100
AcDbSymbolTableRecord
100
AcDbLayerTableRecord
  2
01___PRT_DEF_DTM_PLN
 70
0
 62
7
  6
CONTINUOUS
370
-3
390
F
  0
LAYER
  5
1FF
100
AcDbSymbolTableRecord
100
AcDbLayerTableRecord
  2
02___PRT_ALL_AXES
 70
0
 62
7
  6
CONTINUOUS
370
-3
390
F
  0
LAYER
  5
200
100
AcDbSymbolTableRecord
100
AcDbLayerTableRecord
  2
03___PRT_ALL_CURVES
 70
0
 62
7
  6
CONTINUOUS
370
-3
390
F
  0
LAYER
  5
201
100
AcDbSymbolTableRecord
100
AcDbLayerTableRecord
  2
04___PRT_ALL_DTM_PNT
 70
0
 62
7
  6
CONTINUOUS
370
-3
390
F
  0
LAYER
  5
202
100
AcDbSymbolTableRecord
100
AcDbLayerTableRecord
  2
05___PRT_ALL_DTM_CSYS
 70
0
 62
7
  6
CONTINUOUS
370
-3
390
F
  0
LAYER
  5
203
100
AcDbSymbolTableRecord
100
AcDbLayerTableRecord
  2
05___PRT_DEF_DTM_CSYS
 70
0
 62
7
  6
CONTINUOUS
370
-3
390
F
  0
LAYER
  5
204
100
AcDbSymbolTableRecord
100
AcDbLayerTableRecord
  2
06___PRT_ALL_SURFS
 70
0
 62
7
  6
CONTINUOUS
370
-3
390
F
  0
LAYER
  5
205
100
AcDbSymbolTableRecord
100
AcDbLayerTableRecord
  2
ALL_FEATURES
 70
0
 62
7
  6
CONTINUOUS
370
-3
390
F
  0
LAYER
  5
206
100
AcDbSymbolTableRecord
100
AcDbLayerTableRecord
  2
AXES_FEATURES
 70
0
 62
7
  6
CONTINUOUS
370
-3
390
F
  0
LAYER
  5
207
100
AcDbSymbolTableRecord
100
AcDbLayerTableRecord
  2
DEFAULT_COORDINATE_SYSTEM
 70
0
 62
7
  6
CONTINUOUS
370
-3
390
F
  0
LAYER
  5
208
100
AcDbSymbolTableRecord
100
AcDbLayerTableRecord
  2
DEFAULT_DATUM_AXES
 70
0
 62
7
  6
CONTINUOUS
370
-3
390
F
  0
LAYER
  5
209
100
AcDbSymbolTableRecord
100
AcDbLayerTableRecord
  2
DEFAULT_DATUM_CURVES
 70
0
 62
7
  6
CONTINUOUS
370
-3
390
F
  0
LAYER
  5
20A
100
AcDbSymbolTableRecord
100
AcDbLayerTableRecord
  2
DEFAULT_DATUM_PLANES
 70
0
 62
7
  6
CONTINUOUS
370
-3
390
F
  0
LAYER
  5
20B
100
AcDbSymbolTableRecord
100
AcDbLayerTableRecord
  2
DEFAULT_SURFACES
 70
0
 62
7
  6
CONTINUOUS
370
-3
390
F
  0
LAYER
  5
20C
100
AcDbSymbolTableRecord
100
AcDbLayerTableRecord
  2
DIMENSIONS
 70
0
 62
7
  6
CONTINUOUS
370
-3
390
F
  0
LAYER
  5
20D
100
AcDbSymbolTableRecord
100
AcDbLayerTableRecord
  2
WETTED_SURFACE_AREA
 70
0
 62
7
  6
CONTINUOUS
370
-3
390
F
  0
ENDTAB
  0
TABLE
  2
STYLE
  5
3
100
AcDbSymbolTable
 70
1
  0
STYLE
  5
11
100
AcDbSymbolTableRecord
100
AcDbTextStyleTableRecord
  2
STANDARD
 70
0
 40
0.0
 41
0.8
 50
0.0
 71
0
 42
0.2
  3
txt
  4

  0
STYLE
  5
20E
100
AcDbSymbolTableRecord
100
AcDbTextStyleTableRecord
  2
TEXTSTYLE_1
 70
0
 40
0.0
 41
0.8
 50
0.0
 71
0
 42
0.2
  3
gdt
  4

  0
ENDTAB
  0
TABLE
  2
VIEW
  5
6
100
AcDbSymbolTable
 70
0
  0
ENDTAB
  0
TABLE
  2
UCS
  5
7
100
AcDbSymbolTable
 70
0
  0
ENDTAB
  0
TABLE
  2
APPID
  5
9
100
AcDbSymbolTable
 70
1
  0
APPID
  5
20F
100
AcDbSymbolTableRecord
100
AcDbRegAppTableRecord
  2
ACAD
 70
0
  0
ENDTAB
  0
TABLE
  2
BLOCK_RECORD
  5
1
100
AcDbSymbolTable
 70
0
  0
BLOCK_RECORD
  5
210
100
AcDbSymbolTableRecord
100
AcDbBlockTableRecord
  2
*Model_Space
  0
BLOCK_RECORD
  5
211
100
AcDbSymbolTableRecord
100
AcDbBlockTableRecord
  2
*Paper_Space
  0
ENDTAB
  0
TABLE
  2
DIMSTYLE
  5
A
100
AcDbSymbolTable
 70
1
100
AcDbDimStyleTable
 71
0
  0
DIMSTYLE
105
212
100
AcDbSymbolTableRecord
100
AcDbDimStyleTableRecord
  2
STANDARD
 70
0
  3

  4

 40
1.0
 41
0.1
 42
0.0625
 43
0.38
 44
0.125
 45
0.0
 46
0.0
 47
0.001
 48
0.001
140
0.08
141
0.09
142
0.0
143
25.4
144
1.0
145
0.0
146
1.0
147
0.09
 71
1.0
 72
0.0
 73
1
 74
1
 75
0
 76
0
 77
0
 78
4
170
0
171
2
172
0
173
0
174
0
175
0
176
0
177
0
178
0
270
2
271
3
272
3
273
2
274
2
275
0
280
0
281
0
282
0
283
1
284
4
285
0
286
0
287
3
288
0
340
11
278
46
  0
ENDTAB
  0
ENDSEC
  0
SECTION
  2
BLOCKS
  0
BLOCK
  5
20
100
AcDbEntity
  8
0
100
AcDbBlockBegin
  2
*Model_Space
 70
0
 10
0.0
 20
0.0
 30
0.0
  3
*Model_Space
  1

  0
ENDBLK
  5
21
100
AcDbEntity
  8
0
100
AcDbBlockEnd
  0
BLOCK
  5
1C
100
AcDbEntity
  8
0
100
AcDbBlockBegin
  2
*Paper_Space
 70
0
 10
0.0
 20
0.0
 30
0.0
  3
*Paper_Space
  1

  0
ENDBLK
  5
1D
100
AcDbEntity
  8
0
100
AcDbBlockEnd
  0
ENDSEC
  0
SECTION
  2
ENTITIES
  0
LINE
  5
213
100
AcDbEntity
  8
0
100
AcDbLine
 62
7
  6
CONTINUOUS
 10
0.0
 20
0.0
 11
0.0
 21
8.5
  0
LINE
  5
214
100
AcDbEntity
  8
0
100
AcDbLine
 62
7
  6
CONTINUOUS
 10
0.0
 20
0.0
 11
11.0
 21
0.0
  0
LINE
  5
215
100
AcDbEntity
  8
0
100
AcDbLine
 62
7
  6
CONTINUOUS
 10
0.0
 20
8.5
 11
11.0
 21
8.5
  0
LINE
  5
216
100
AcDbEntity
  8
0
100
AcDbLine
 62
7
  6
CONTINUOUS
 10
11.0
 20
0.0
 11
11.0
 21
8.5
  0
LINE
  5
217
100
AcDbEntity
  8
0
100
AcDbLine
 62
7
  6
CONTINUOUS
 10
1.3304411282
 20
5.2373589661
 11
1.3304411282
 21
3.9495522926
  0
LINE
  5
218
100
AcDbEntity
  8
0
100
AcDbLine
 62
7
  6
CONTINUOUS
 10
1.3304411282
 20
3.9316323399
 11
1.3304411282
 21
3.9220506665
  0
LINE
  5
219
100
AcDbEntity
  8
0
100
AcDbLine
 62
7
  6
CONTINUOUS
 10
1.3304411282
 20
3.8877339661
 11
1.3304411282
 21
3.8863506665
  0
LINE
  5
21A
100
AcDbEntity
  8
0
100
AcDbLine
 62
7
  6
CONTINUOUS
 10
1.3304411282
 20
3.8520339661
 11
1.3304411282
 21
3.8506506665
  0
LINE
  5
21B
100
AcDbEntity
  8
0
100
AcDbLine
 62
7
  6
CONTINUOUS
 10
1.3304411282
 20
3.8163339661
 11
1.3304411282
 21
3.8149506665
  0
LINE
  5
21C
100
AcDbEntity
  8
0
100
AcDbLine
 62
7
  6
CONTINUOUS
 10
1.3304411282
 20
3.7806339661
 11
1.3304411282
 21
3.7792506665
  0
LINE
  5
21D
100
AcDbEntity
  8
0
100
AcDbLine
 62
7
  6
CONTINUOUS
 10
1.344705692
 20
3.9414381244
 11
1.344705692
 21
3.9400881244
  0
LINE
  5
21E
100
AcDbEntity
  8
0
100
AcDbLine
 62
7
  6
CONTINUOUS
 10
1.3589911282
 20
3.9055673163
 11
1.3589911282
 21
3.9042173163
  0
LINE
  5
21F
100
AcDbEntity
  8
0
100
AcDbLine
 62
7
  6
CONTINUOUS
 10
1.3589911282
 20
3.8698673163
 11
1.3589911282
 21
3.8688372758
  0
LINE
  5
220
100
AcDbEntity
  8
0
100
AcDbLine
 62
7
  6
CONTINUOUS
 10
1.3589911282
 20
3.8341673163
 11
1.3589911282
 21
3.8328173163
  0
LINE
  5
221
100
AcDbEntity
  8
0
100
AcDbLine
 62
7
  6
CONTINUOUS
 10
1.3589911282
 20
3.7984673163
 11
1.3589911282
 21
3.7971173163
  0
LINE
  5
222
100
AcDbEntity
  8
0
100
AcDbLine
 62
7
  6
CONTINUOUS
 10
1.3589911282
 20
3.7627673163
 11
1.3589911282
 21
3.7614173163
  0
LINE
  5
223
100
AcDbEntity
  8
0
100
AcDbLine
 62
7
  6
CONTINUOUS
 10
1.367316168
 20
3.9510221287
 11
1.367316168
 21
3.9371178429
  0
LINE
  5
224
100
AcDbEntity
  8
0
100
AcDbLine
 62
7
  6
CONTINUOUS
 10
1.7081411282
 20
3.7792673163
 11
1.7081411282
 21
3.7806173163
  0
LINE
  5
225
100
AcDbEntity
  8
0
100
AcDbLine
 62
7
  6
CONTINUOUS
 10
1.7081411282
 20
3.8149673163
 11
1.7081411282
 21
3.8163173163
  0
LINE
  5
226
100
AcDbEntity
  8
0
100
AcDbLine
 62
7
  6
CONTINUOUS
 10
1.7081411282
 20
3.8506673163
 11
1.7081411282
 21
3.8520173163
  0
LINE
  5
227
100
AcDbEntity
  8
0
100
AcDbLine
 62
7
  6
CONTINUOUS
 10
1.7081411282
 20
3.8863673163
 11
1.7081411282
 21
3.8877173163
  0
LINE
  5
228
100
AcDbEntity
  8
0
100
AcDbLine
 62
7
  6
CONTINUOUS
 10
1.7081411282
 20
3.9220673163
 11
1.7081411282
 21
3.9234173163
  0
LINE
  5
229
100
AcDbEntity
  8
0
100
AcDbLine
 62
7
  6
CONTINUOUS
 10
1.3304411282
 20
3.7792506665
 11
1.3306791073
 21
3.7789756027
  0
LINE
  5
22A
100
AcDbEntity
  8
0
100
AcDbLine
 62
7
  6
CONTINUOUS
 10
1.3306791073
 20
3.8146756027
 11
1.3304411282
 21
3.8149506665
  0
LINE
  5
22B
100
AcDbEntity
  8
0
100
AcDbLine
 62
7
  6
CONTINUOUS
 10
1.3306791073
 20
3.8503756027
 11
1.3304411282
 21
3.8506506665
  0
LINE
  5
22C
100
AcDbEntity
  8
0
100
AcDbLine
 62
7
  6
CONTINUOUS
 10
1.3306791073
 20
3.8860756027
 11
1.3304411282
 21
3.8863506665
  0
LINE
  5
22D
100
AcDbEntity
  8
0
100
AcDbLine
 62
7
  6
CONTINUOUS
 10
1.7366911282
 20
4.8311089661
 11
1.7366911282
 21
3.9399006665
  0
LINE
  5
22E
100
AcDbEntity
  8
0
100
AcDbLine
 62
7
  6
CONTINUOUS
 10
1.7366911282
 20
3.9055839661
 11
1.7366911282
 21
3.9042006665
  0
LINE
  5
22F
100
AcDbEntity
  8
0
100
AcDbLine
 62
7
  6
CONTINUOUS
 10
1.7366911282
 20
3.8698839661
 11
1.7366911282
 21
3.8685006665
  0
LINE
  5
230
100
AcDbEntity
  8
0
100
AcDbLine
 62
7
  6
CONTINUOUS
 10
1.7366911282
 20
3.8341839661
 11
1.7366911282
 21
3.8328006665
  0
LINE
  5
231
100
AcDbEntity
  8
0
100
AcDbLine
 62
7
  6
CONTINUOUS
 10
1.7366911282
 20
3.7984839661
 11
1.7366911282
 21
3.7971006665
  0
LINE
  5
232
100
AcDbEntity
  8
0
100
AcDbLine
 62
7
  6
CONTINUOUS
 10
1.7366911282
 20
3.7627839661
 11
1.7366911282
 21
3.7614006665
  0
LINE
  5
233
100
AcDbEntity
  8
0
100
AcDbLine
 62
7
  6
CONTINUOUS
 10
1.3306791073
 20
3.9217756027
 11
1.3304411282
 21
3.9220506665
  0
LINE
  5
234
100
AcDbEntity
  8
0
100
AcDbLine
 62
7
  6
CONTINUOUS
 10
1.7366911282
 20
3.7627839239
 11
1.7364531492
 21
3.7630590299
  0
LINE
  5
235
100
AcDbEntity
  8
0
100
AcDbLine
 62
7
  6
CONTINUOUS
 10
1.7364531492
 20
3.7987590299
 11
1.7366911282
 21
3.7984839661
  0
LINE
  5
236
100
AcDbEntity
  8
0
100
AcDbLine
 62
7
  6
CONTINUOUS
 10
1.7364531492
 20
3.8344590299
 11
1.7366911282
 21
3.8341839661
  0
LINE
  5
237
100
AcDbEntity
  8
0
100
AcDbLine
 62
7
  6
CONTINUOUS
 10
1.7364531492
 20
3.8701590299
 11
1.7366911282
 21
3.8698839661
  0
LINE
  5
238
100
AcDbEntity
  8
0
100
AcDbLine
 62
7
  6
CONTINUOUS
 10
1.7364531492
 20
3.9058590299
 11
1.7366911282
 21
3.9055839661
  0
LINE
  5
239
100
AcDbEntity
  8
0
100
AcDbLine
 62
7
  6
CONTINUOUS
 10
1.3581555077
 20
3.7630905838
 11
1.3589911282
 21
3.7626073769
  0
LINE
  5
23A
100
AcDbEntity
  8
0
100
AcDbLine
 62
7
  6
CONTINUOUS
 10
1.3306791073
 20
3.7789756027
 11
1.3581555077
 21
3.7630905838
  0
LINE
  5
23B
100
AcDbEntity
  8
0
100
AcDbLine
 62
7
  6
CONTINUOUS
 10
1.3581555077
 20
3.7987905838
 11
1.3589911282
 21
3.7983073769
  0
LINE
  5
23C
100
AcDbEntity
  8
0
100
AcDbLine
 62
7
  6
CONTINUOUS
 10
1.3306791073
 20
3.8146756027
 11
1.3581555077
 21
3.7987905838
  0
LINE
  5
23D
100
AcDbEntity
  8
0
100
AcDbLine
 62
7
  6
CONTINUOUS
 10
1.3581555077
 20
3.8344905838
 11
1.3589911282
 21
3.8340073769
  0
LINE
  5
23E
100
AcDbEntity
  8
0
100
AcDbLine
 62
7
  6
CONTINUOUS
 10
1.3306791073
 20
3.8503756027
 11
1.3581555077
 21
3.8344905838
  0
LINE
  5
23F
100
AcDbEntity
  8
0
100
AcDbLine
 62
7
  6
CONTINUOUS
 10
1.3306791072
 20
3.8880090299
 11
1.3304411282
 21
3.8877339661
  0
LINE
  5
240
100
AcDbEntity
  8
0
100
AcDbLine
 62
7
  6
CONTINUOUS
 10
1.3306791072
 20
3.8523090299
 11
1.3304411282
 21
3.8520339661
  0
LINE
  5
241
100
AcDbEntity
  8
0
100
AcDbLine
 62
7
  6
CONTINUOUS
 10
1.3306791072
 20
3.8166090299
 11
1.3304411282
 21
3.8163339661
  0
LINE
  5
242
100
AcDbEntity
  8
0
100
AcDbLine
 62
7
  6
CONTINUOUS
 10
1.3306791072
 20
3.7809090299
 11
1.3304411282
 21
3.7806339661
  0
LINE
  5
243
100
AcDbEntity
  8
0
100
AcDbLine
 62
7
  6
CONTINUOUS
 10
1.3304837009
 20
3.9495031255
 11
1.344705692
 21
3.9412902041
  0
LINE
  5
244
100
AcDbEntity
  8
0
100
AcDbLine
 62
7
  6
CONTINUOUS
 10
1.3581555077
 20
3.8701905838
 11
1.3589911282
 21
3.8697073769
  0
LINE
  5
245
100
AcDbEntity
  8
0
100
AcDbLine
 62
7
  6
CONTINUOUS
 10
1.3306791073
 20
3.8860756027
 11
1.3581555077
 21
3.8701905838
  0
LINE
  5
246
100
AcDbEntity
  8
0
100
AcDbLine
 62
7
  6
CONTINUOUS
 10
1.3581555077
 20
3.9058905838
 11
1.3589911282
 21
3.9054073769
  0
LINE
  5
247
100
AcDbEntity
  8
0
100
AcDbLine
 62
7
  6
CONTINUOUS
 10
1.3306791073
 20
3.9217756027
 11
1.3581555077
 21
3.9058905838
  0
LINE
  5
248
100
AcDbEntity
  8
0
100
AcDbLine
 62
7
  6
CONTINUOUS
 10
1.7091644899
 20
3.7788354866
 11
1.7081411282
 21
3.7794272559
  0
LINE
  5
249
100
AcDbEntity
  8
0
100
AcDbLine
 62
7
  6
CONTINUOUS
 10
1.7364531492
 20
3.7630590299
 11
1.7091644899
 21
3.7788354866
  0
LINE
  5
24A
100
AcDbEntity
  8
0
100
AcDbLine
 62
7
  6
CONTINUOUS
 10
1.7091644899
 20
3.8145354866
 11
1.7081411282
 21
3.8151272559
  0
LINE
  5
24B
100
AcDbEntity
  8
0
100
AcDbLine
 62
7
  6
CONTINUOUS
 10
1.7364531492
 20
3.7987590299
 11
1.7091644899
 21
3.8145354866
  0
LINE
  5
24C
100
AcDbEntity
  8
0
100
AcDbLine
 62
7
  6
CONTINUOUS
 10
1.7091644899
 20
3.8502354866
 11
1.7081411282
 21
3.8508272559
  0
LINE
  5
24D
100
AcDbEntity
  8
0
100
AcDbLine
 62
7
  6
CONTINUOUS
 10
1.7364531492
 20
3.8344590299
 11
1.7091644899
 21
3.8502354866
  0
LINE
  5
24E
100
AcDbEntity
  8
0
100
AcDbLine
 62
7
  6
CONTINUOUS
 10
1.7091644899
 20
3.8859354866
 11
1.7081411282
 21
3.8865272559
  0
LINE
  5
24F
100
AcDbEntity
  8
0
100
AcDbLine
 62
7
  6
CONTINUOUS
 10
1.7364531492
 20
3.8701590299
 11
1.7091644899
 21
3.8859354866
  0
LINE
  5
250
100
AcDbEntity
  8
0
100
AcDbLine
 62
7
  6
CONTINUOUS
 10
1.7364531492
 20
3.9396256027
 11
1.7366911282
 21
3.9399006665
  0
LINE
  5
251
100
AcDbEntity
  8
0
100
AcDbLine
 62
7
  6
CONTINUOUS
 10
1.7364531492
 20
3.9039256027
 11
1.7366911282
 21
3.9042006665
  0
LINE
  5
252
100
AcDbEntity
  8
0
100
AcDbLine
 62
7
  6
CONTINUOUS
 10
1.7091644899
 20
3.9216354866
 11
1.7081411282
 21
3.9222272559
  0
LINE
  5
253
100
AcDbEntity
  8
0
100
AcDbLine
 62
7
  6
CONTINUOUS
 10
1.7364531492
 20
3.9058590299
 11
1.7091644899
 21
3.9216354866
  0
LINE
  5
254
100
AcDbEntity
  8
0
100
AcDbLine
 62
7
  6
CONTINUOUS
 10
1.7366911282
 20
4.8311089661
 11
1.3304411269
 21
5.2373589674
  0
LINE
  5
255
100
AcDbEntity
  8
0
100
AcDbLine
 62
7
  6
CONTINUOUS
 10
1.7364531492
 20
3.8682256027
 11
1.7366911282
 21
3.8685006665
  0
LINE
  5
256
100
AcDbEntity
  8
0
100
AcDbLine
 62
7
  6
CONTINUOUS
 10
1.7364531492
 20
3.8325256027
 11
1.7366911282
 21
3.8328006665
  0
LINE
  5
257
100
AcDbEntity
  8
0
100
AcDbLine
 62
7
  6
CONTINUOUS
 10
1.7364531492
 20
3.7968256027
 11
1.7366911282
 21
3.7971006665
  0
LINE
  5
258
100
AcDbEntity
  8
0
100
AcDbLine
 62
7
  6
CONTINUOUS
 10
1.3449595674
 20
3.940382346
 11
1.344705692
 21
3.9402352821
  0
LINE
  5
259
100
AcDbEntity
  8
0
100
AcDbLine
 62
7
  6
CONTINUOUS
 10
1.344705692
 20
3.9402352821
 11
1.3310316891
 21
3.9323159169
  0
LINE
  5
25A
100
AcDbEntity
  8
0
100
AcDbLine
 62
7
  6
CONTINUOUS
 10
1.3592678547
 20
3.9045372758
 11
1.3306791072
 21
3.8880090299
  0
LINE
  5
25B
100
AcDbEntity
  8
0
100
AcDbLine
 62
7
  6
CONTINUOUS
 10
1.3592678547
 20
3.7617372758
 11
1.3549387024
 21
3.7592339661
  0
LINE
  5
25C
100
AcDbEntity
  8
0
100
AcDbLine
 62
7
  6
CONTINUOUS
 10
1.3592678547
 20
3.8688372758
 11
1.3306791072
 21
3.8523090299
  0
LINE
  5
25D
100
AcDbEntity
  8
0
100
AcDbLine
 62
7
  6
CONTINUOUS
 10
1.3592678547
 20
3.8331372758
 11
1.3306791072
 21
3.8166090299
  0
LINE
  5
25E
100
AcDbEntity
  8
0
100
AcDbLine
 62
7
  6
CONTINUOUS
 10
1.3592678547
 20
3.7974372758
 11
1.3306791072
 21
3.7809090299
  0
LINE
  5
25F
100
AcDbEntity
  8
0
100
AcDbLine
 62
7
  6
CONTINUOUS
 10
1.7078644019
 20
3.9230973568
 11
1.7364531492
 21
3.9396256027
  0
LINE
  5
260
100
AcDbEntity
  8
0
100
AcDbLine
 62
7
  6
CONTINUOUS
 10
1.7078644019
 20
3.8873973568
 11
1.7364531492
 21
3.9039256027
  0
LINE
  5
261
100
AcDbEntity
  8
0
100
AcDbLine
 62
7
  6
CONTINUOUS
 10
1.7078644019
 20
3.8516973568
 11
1.7364531492
 21
3.8682256027
  0
LINE
  5
262
100
AcDbEntity
  8
0
100
AcDbLine
 62
7
  6
CONTINUOUS
 10
1.7078644019
 20
3.8159973568
 11
1.7364531492
 21
3.8325256027
  0
LINE
  5
263
100
AcDbEntity
  8
0
100
AcDbLine
 62
7
  6
CONTINUOUS
 10
1.7078644019
 20
3.7802973568
 11
1.7364531492
 21
3.7968256027
  0
LINE
  5
264
100
AcDbEntity
  8
0
100
AcDbLine
 62
7
  6
CONTINUOUS
 10
1.7331806398
 20
3.7592339661
 11
1.7364531492
 21
3.7611256027
  0
LINE
  5
265
100
AcDbEntity
  8
0
100
AcDbLine
 62
7
  6
CONTINUOUS
 10
1.7331804401
 20
3.7592339661
 11
1.3549415115
 21
3.7592339661
  0
LINE
  5
266
100
AcDbEntity
  8
0
100
AcDbLine
 62
7
  6
CONTINUOUS
 10
7.4210661282
 20
4.8311279441
 11
1.7366911282
 21
4.8311089661
  0
LINE
  5
267
100
AcDbEntity
  8
0
100
AcDbLine
 62
7
  6
CONTINUOUS
 10
7.4210661282
 20
4.8364339661
 11
7.4219936606
 21
4.8364339661
  0
LINE
  5
268
100
AcDbEntity
  8
0
100
AcDbLine
 62
7
  6
CONTINUOUS
 10
7.4502218955
 20
4.8364339661
 11
7.4545744279
 21
4.8364339661
  0
LINE
  5
269
100
AcDbEntity
  8
0
100
AcDbLine
 62
7
  6
CONTINUOUS
 10
7.4890411282
 20
4.8364339661
 11
7.4902744279
 21
4.8364339661
  0
LINE
  5
26A
100
AcDbEntity
  8
0
100
AcDbLine
 62
7
  6
CONTINUOUS
 10
7.5247411282
 20
4.8364339661
 11
7.5259744279
 21
4.8364339661
  0
LINE
  5
26B
100
AcDbEntity
  8
0
100
AcDbLine
 62
7
  6
CONTINUOUS
 10
7.5604411282
 20
4.8364339661
 11
7.5616744279
 21
4.8364339661
  0
LINE
  5
26C
100
AcDbEntity
  8
0
100
AcDbLine
 62
7
  6
CONTINUOUS
 10
7.5961411282
 20
4.8364339661
 11
7.5973744279
 21
4.8364339661
  0
LINE
  5
26D
100
AcDbEntity
  8
0
100
AcDbLine
 62
7
  6
CONTINUOUS
 10
7.6318411282
 20
4.8364339661
 11
7.6330744279
 21
4.8364339661
  0
LINE
  5
26E
100
AcDbEntity
  8
0
100
AcDbLine
 62
7
  6
CONTINUOUS
 10
7.6675411282
 20
4.8364339661
 11
7.6687744279
 21
4.8364339661
  0
LINE
  5
26F
100
AcDbEntity
  8
0
100
AcDbLine
 62
7
  6
CONTINUOUS
 10
7.4351731958
 20
4.8594889649
 11
7.4366731958
 21
4.8594889649
  0
LINE
  5
270
100
AcDbEntity
  8
0
100
AcDbLine
 62
7
  6
CONTINUOUS
 10
7.4710577781
 20
4.8649839661
 11
7.4725577781
 21
4.8649839661
  0
LINE
  5
271
100
AcDbEntity
  8
0
100
AcDbLine
 62
7
  6
CONTINUOUS
 10
7.5068617848
 20
4.8649839661
 11
7.5082577781
 21
4.8649839661
  0
LINE
  5
272
100
AcDbEntity
  8
0
100
AcDbLine
 62
7
  6
CONTINUOUS
 10
7.5424577781
 20
4.8649839661
 11
7.5439577781
 21
4.8649839661
  0
LINE
  5
273
100
AcDbEntity
  8
0
100
AcDbLine
 62
7
  6
CONTINUOUS
 10
7.5781577781
 20
4.8649839661
 11
7.5796577781
 21
4.8649839661
  0
LINE
  5
274
100
AcDbEntity
  8
0
100
AcDbLine
 62
7
  6
CONTINUOUS
 10
7.6138577781
 20
4.8649839661
 11
7.6153577781
 21
4.8649839661
  0
LINE
  5
275
100
AcDbEntity
  8
0
100
AcDbLine
 62
7
  6
CONTINUOUS
 10
7.6495577781
 20
4.8649839661
 11
7.6510577781
 21
4.8649839661
  0
LINE
  5
276
100
AcDbEntity
  8
0
100
AcDbLine
 62
7
  6
CONTINUOUS
 10
7.6852577781
 20
4.8649839661
 11
7.6867577781
 21
4.8649839661
  0
LINE
  5
277
100
AcDbEntity
  8
0
100
AcDbLine
 62
7
  6
CONTINUOUS
 10
7.7209577781
 20
4.8649839661
 11
7.7224577781
 21
4.8649839661
  0
LINE
  5
278
100
AcDbEntity
  8
0
100
AcDbLine
 62
7
  6
CONTINUOUS
 10
7.4245827781
 20
5.1381708827
 11
7.4230827781
 21
5.1381708827
  0
LINE
  5
279
100
AcDbEntity
  8
0
100
AcDbLine
 62
7
  6
CONTINUOUS
 10
7.4210661282
 20
5.1442161969
 11
7.430859921
 21
5.1442161969
  0
LINE
  5
27A
100
AcDbEntity
  8
0
100
AcDbLine
 62
7
  6
CONTINUOUS
 10
7.4210661282
 20
5.1471770431
 11
7.413731245
 21
5.1471770431
  0
LINE
  5
27B
100
AcDbEntity
  8
0
100
AcDbLine
 62
7
  6
CONTINUOUS
 10
7.7046077781
 20
5.2034839661
 11
7.7031077781
 21
5.2034839661
  0
LINE
  5
27C
100
AcDbEntity
  8
0
100
AcDbLine
 62
7
  6
CONTINUOUS
 10
7.6689077781
 20
5.2034839661
 11
7.6674077781
 21
5.2034839661
  0
LINE
  5
27D
100
AcDbEntity
  8
0
100
AcDbLine
 62
7
  6
CONTINUOUS
 10
7.6332077781
 20
5.2034839661
 11
7.6317077781
 21
5.2034839661
  0
LINE
  5
27E
100
AcDbEntity
  8
0
100
AcDbLine
 62
7
  6
CONTINUOUS
 10
7.5975077781
 20
5.2034839661
 11
7.5960077781
 21
5.2034839661
  0
LINE
  5
27F
100
AcDbEntity
  8
0
100
AcDbLine
 62
7
  6
CONTINUOUS
 10
7.5618077781
 20
5.2034839661
 11
7.5603077781
 21
5.2034839661
  0
LINE
  5
280
100
AcDbEntity
  8
0
100
AcDbLine
 62
7
  6
CONTINUOUS
 10
7.5261077781
 20
5.2034839661
 11
7.5246077781
 21
5.2034839661
  0
LINE
  5
281
100
AcDbEntity
  8
0
100
AcDbLine
 62
7
  6
CONTINUOUS
 10
7.4904077781
 20
5.2034839661
 11
7.4889077781
 21
5.2034839661
  0
LINE
  5
282
100
AcDbEntity
  8
0
100
AcDbLine
 62
7
  6
CONTINUOUS
 10
7.4547077781
 20
5.2034839661
 11
7.4532077781
 21
5.2034839661
  0
LINE
  5
283
100
AcDbEntity
  8
0
100
AcDbLine
 62
7
  6
CONTINUOUS
 10
7.4210661282
 20
5.2320339661
 11
7.4367244279
 21
5.2320339661
  0
LINE
  5
284
100
AcDbEntity
  8
0
100
AcDbLine
 62
7
  6
CONTINUOUS
 10
7.4711911282
 20
5.2320339661
 11
7.4724244279
 21
5.2320339661
  0
LINE
  5
285
100
AcDbEntity
  8
0
100
AcDbLine
 62
7
  6
CONTINUOUS
 10
7.5068911282
 20
5.2320339661
 11
7.5081244279
 21
5.2320339661
  0
LINE
  5
286
100
AcDbEntity
  8
0
100
AcDbLine
 62
7
  6
CONTINUOUS
 10
7.5425911282
 20
5.2320339661
 11
7.5438244279
 21
5.2320339661
  0
LINE
  5
287
100
AcDbEntity
  8
0
100
AcDbLine
 62
7
  6
CONTINUOUS
 10
7.5782911282
 20
5.2320339661
 11
7.5795244279
 21
5.2320339661
  0
LINE
  5
288
100
AcDbEntity
  8
0
100
AcDbLine
 62
7
  6
CONTINUOUS
 10
7.6139911282
 20
5.2320339661
 11
7.6152244279
 21
5.2320339661
  0
LINE
  5
289
100
AcDbEntity
  8
0
100
AcDbLine
 62
7
  6
CONTINUOUS
 10
7.6496911282
 20
5.2320339661
 11
7.6509244279
 21
5.2320339661
  0
LINE
  5
28A
100
AcDbEntity
  8
0
100
AcDbLine
 62
7
  6
CONTINUOUS
 10
7.6853911282
 20
5.2320339661
 11
7.6866244279
 21
5.2320339661
  0
LINE
  5
28B
100
AcDbEntity
  8
0
100
AcDbLine
 62
7
  6
CONTINUOUS
 10
7.4210661282
 20
5.2373589661
 11
1.3304411282
 21
5.2373589661
  0
LINE
  5
28C
100
AcDbEntity
  8
0
100
AcDbLine
 62
7
  6
CONTINUOUS
 10
7.430859921
 20
5.1442161969
 11
7.4245827781
 21
5.1381708827
  0
LINE
  5
28D
100
AcDbEntity
  8
0
100
AcDbLine
 62
7
  6
CONTINUOUS
 10
7.7257912847
 20
4.8589342843
 11
7.7259929795
 21
4.8588608173
  0
LINE
  5
28E
100
AcDbEntity
  8
0
100
AcDbLine
 62
7
  6
CONTINUOUS
 10
7.4219936573
 20
4.8364339661
 11
7.4220441507
 21
4.8364776835
  0
LINE
  5
28F
100
AcDbEntity
  8
0
100
AcDbLine
 62
7
  6
CONTINUOUS
 10
7.4709086674
 20
5.2317895968
 11
7.4543777854
 21
5.203198596
  0
LINE
  5
290
100
AcDbEntity
  8
0
100
AcDbLine
 62
7
  6
CONTINUOUS
 10
7.5066086674
 20
5.2317895968
 11
7.4900777854
 21
5.203198596
  0
LINE
  5
291
100
AcDbEntity
  8
0
100
AcDbLine
 62
7
  6
CONTINUOUS
 10
7.733566129
 20
4.8664339668
 11
7.7259929795
 21
4.8588608173
  0
LINE
  5
292
100
AcDbEntity
  8
0
100
AcDbLine
 62
7
  6
CONTINUOUS
 10
7.7048271506
 20
4.8376949885
 11
7.7034632422
 21
4.8363310801
  0
LINE
  5
293
100
AcDbEntity
  8
0
100
AcDbLine
 62
7
  6
CONTINUOUS
 10
7.4495199865
 20
4.8370402876
 11
7.4502218955
 21
4.8364339661
  0
LINE
  5
294
100
AcDbEntity
  8
0
100
AcDbLine
 62
7
  6
CONTINUOUS
 10
7.4887586674
 20
4.8366783354
 11
7.4890411282
 21
4.8364339661
  0
LINE
  5
295
100
AcDbEntity
  8
0
100
AcDbLine
 62
7
  6
CONTINUOUS
 10
7.5244586674
 20
4.8366783354
 11
7.5247411282
 21
4.8364339661
  0
LINE
  5
296
100
AcDbEntity
  8
0
100
AcDbLine
 62
7
  6
CONTINUOUS
 10
7.4220441507
 20
4.8364776835
 11
7.4354931705
 21
4.859766234
  0
LINE
  5
297
100
AcDbEntity
  8
0
100
AcDbLine
 62
7
  6
CONTINUOUS
 10
7.4189907792
 20
4.8311902275
 11
7.4210661282
 21
4.8347840702
  0
LINE
  5
298
100
AcDbEntity
  8
0
100
AcDbLine
 62
7
  6
CONTINUOUS
 10
7.5423086674
 20
5.2317895968
 11
7.5257777854
 21
5.203198596
  0
LINE
  5
299
100
AcDbEntity
  8
0
100
AcDbLine
 62
7
  6
CONTINUOUS
 10
7.5780086674
 20
5.2317895968
 11
7.5614777854
 21
5.203198596
  0
LINE
  5
29A
100
AcDbEntity
  8
0
100
AcDbLine
 62
7
  6
CONTINUOUS
 10
7.6137086674
 20
5.2317895968
 11
7.5971777854
 21
5.203198596
  0
LINE
  5
29B
100
AcDbEntity
  8
0
100
AcDbLine
 62
7
  6
CONTINUOUS
 10
7.6494086674
 20
5.2317895968
 11
7.6328777854
 21
5.203198596
  0
LINE
  5
29C
100
AcDbEntity
  8
0
100
AcDbLine
 62
7
  6
CONTINUOUS
 10
7.4548568885
 20
4.8366783351
 11
7.4713877721
 21
4.8652693387
  0
LINE
  5
29D
100
AcDbEntity
  8
0
100
AcDbLine
 62
7
  6
CONTINUOUS
 10
7.6851086675
 20
5.231789597
 11
7.6685777853
 21
5.2031985959
  0
LINE
  5
29E
100
AcDbEntity
  8
0
100
AcDbLine
 62
7
  6
CONTINUOUS
 10
7.4905568885
 20
4.8366783351
 11
7.5070877721
 21
4.8652693387
  0
LINE
  5
29F
100
AcDbEntity
  8
0
100
AcDbLine
 62
7
  6
CONTINUOUS
 10
7.7144870165
 20
5.2208544921
 11
7.7042777853
 21
5.2031985959
  0
LINE
  5
2A0
100
AcDbEntity
  8
0
100
AcDbLine
 62
7
  6
CONTINUOUS
 10
7.5262568885
 20
4.8366783351
 11
7.5427877721
 21
4.8652693387
  0
LINE
  5
2A1
100
AcDbEntity
  8
0
100
AcDbLine
 62
7
  6
CONTINUOUS
 10
7.7057133222
 20
4.8385811619
 11
7.7063931702
 21
4.839508906
  0
LINE
  5
2A2
100
AcDbEntity
  8
0
100
AcDbLine
 62
7
  6
CONTINUOUS
 10
7.5601586674
 20
4.8366783354
 11
7.5604411282
 21
4.8364339661
  0
LINE
  5
2A3
100
AcDbEntity
  8
0
100
AcDbLine
 62
7
  6
CONTINUOUS
 10
7.5958586674
 20
4.8366783354
 11
7.5961411282
 21
4.8364339661
  0
LINE
  5
2A4
100
AcDbEntity
  8
0
100
AcDbLine
 62
7
  6
CONTINUOUS
 10
7.6315586674
 20
4.8366783354
 11
7.6318411282
 21
4.8364339661
  0
LINE
  5
2A5
100
AcDbEntity
  8
0
100
AcDbLine
 62
7
  6
CONTINUOUS
 10
7.6672586674
 20
4.8366783354
 11
7.6675411282
 21
4.8364339661
  0
LINE
  5
2A6
100
AcDbEntity
  8
0
100
AcDbLine
 62
7
  6
CONTINUOUS
 10
7.5619568885
 20
4.8366783351
 11
7.5784877721
 21
4.8652693387
  0
LINE
  5
2A7
100
AcDbEntity
  8
0
100
AcDbLine
 62
7
  6
CONTINUOUS
 10
7.5976568885
 20
4.8366783351
 11
7.6141877721
 21
4.8652693387
  0
LINE
  5
2A8
100
AcDbEntity
  8
0
100
AcDbLine
 62
7
  6
CONTINUOUS
 10
7.6333568885
 20
4.8366783351
 11
7.6498877721
 21
4.8652693387
  0
LINE
  5
2A9
100
AcDbEntity
  8
0
100
AcDbLine
 62
7
  6
CONTINUOUS
 10
7.6690568885
 20
4.8366783351
 11
7.6855877721
 21
4.8652693387
  0
LINE
  5
2AA
100
AcDbEntity
  8
0
100
AcDbLine
 62
7
  6
CONTINUOUS
 10
7.7063931702
 20
4.839508906
 11
7.7212877721
 21
4.8652693387
  0
LINE
  5
2AB
100
AcDbEntity
  8
0
100
AcDbLine
 62
7
  6
CONTINUOUS
 10
7.4370068885
 20
5.2317895971
 11
7.4367244279
 21
5.2320339661
  0
LINE
  5
2AC
100
AcDbEntity
  8
0
100
AcDbLine
 62
7
  6
CONTINUOUS
 10
7.4727068885
 20
5.2317895971
 11
7.4724244279
 21
5.2320339661
  0
LINE
  5
2AD
100
AcDbEntity
  8
0
100
AcDbLine
 62
7
  6
CONTINUOUS
 10
7.5084068885
 20
5.2317895971
 11
7.5081244279
 21
5.2320339661
  0
LINE
  5
2AE
100
AcDbEntity
  8
0
100
AcDbLine
 62
7
  6
CONTINUOUS
 10
7.5441068885
 20
5.2317895971
 11
7.5438244279
 21
5.2320339661
  0
LINE
  5
2AF
100
AcDbEntity
  8
0
100
AcDbLine
 62
7
  6
CONTINUOUS
 10
7.5798068885
 20
5.2317895971
 11
7.5795244279
 21
5.2320339661
  0
LINE
  5
2B0
100
AcDbEntity
  8
0
100
AcDbLine
 62
7
  6
CONTINUOUS
 10
7.6155068885
 20
5.2317895971
 11
7.6152244279
 21
5.2320339661
  0
LINE
  5
2B1
100
AcDbEntity
  8
0
100
AcDbLine
 62
7
  6
CONTINUOUS
 10
7.6512068885
 20
5.2317895971
 11
7.6509244279
 21
5.2320339661
  0
LINE
  5
2B2
100
AcDbEntity
  8
0
100
AcDbLine
 62
7
  6
CONTINUOUS
 10
7.6869068885
 20
5.2317895971
 11
7.6866244279
 21
5.2320339661
  0
LINE
  5
2B3
100
AcDbEntity
  8
0
100
AcDbLine
 62
7
  6
CONTINUOUS
 10
7.4230827781
 20
5.1381708827
 11
7.413731245
 21
5.1471770431
  0
LINE
  5
2B4
100
AcDbEntity
  8
0
100
AcDbLine
 62
7
  6
CONTINUOUS
 10
7.733566129
 20
5.2020339654
 11
7.714676533
 21
5.2209235614
  0
LINE
  5
2B5
100
AcDbEntity
  8
0
100
AcDbLine
 62
7
  6
CONTINUOUS
 10
7.4363555602
 20
4.8597628599
 11
7.4495199865
 21
4.8370402876
  0
LINE
  5
2B6
100
AcDbEntity
  8
0
100
AcDbLine
 62
7
  6
CONTINUOUS
 10
7.4722277854
 20
4.8652693362
 11
7.4887586674
 21
4.8366783354
  0
LINE
  5
2B7
100
AcDbEntity
  8
0
100
AcDbLine
 62
7
  6
CONTINUOUS
 10
7.5079277854
 20
4.8652693362
 11
7.5244586674
 21
4.8366783354
  0
LINE
  5
2B8
100
AcDbEntity
  8
0
100
AcDbLine
 62
7
  6
CONTINUOUS
 10
7.5436277854
 20
4.8652693362
 11
7.5601586674
 21
4.8366783354
  0
LINE
  5
2B9
100
AcDbEntity
  8
0
100
AcDbLine
 62
7
  6
CONTINUOUS
 10
7.5793277854
 20
4.8652693362
 11
7.5958586674
 21
4.8366783354
  0
LINE
  5
2BA
100
AcDbEntity
  8
0
100
AcDbLine
 62
7
  6
CONTINUOUS
 10
7.6150277854
 20
4.8652693362
 11
7.6315586674
 21
4.8366783354
  0
LINE
  5
2BB
100
AcDbEntity
  8
0
100
AcDbLine
 62
7
  6
CONTINUOUS
 10
7.4210661282
 20
4.8510056811
 11
7.4210661282
 21
4.8311279441
  0
LINE
  5
2BC
100
AcDbEntity
  8
0
100
AcDbLine
 62
7
  6
CONTINUOUS
 10
7.4210661282
 20
5.1442161969
 11
7.4210661282
 21
5.2373589661
  0
LINE
  5
2BD
100
AcDbEntity
  8
0
100
AcDbLine
 62
7
  6
CONTINUOUS
 10
7.7335661282
 20
5.202033966
 11
7.7335661282
 21
4.8664339661
  0
LINE
  5
2BE
100
AcDbEntity
  8
0
100
AcDbLine
 62
7
  6
CONTINUOUS
 10
7.7221277853
 20
4.8652693363
 11
7.7253444109
 21
4.8597070741
  0
LINE
  5
2BF
100
AcDbEntity
  8
0
100
AcDbLine
 62
7
  6
CONTINUOUS
 10
7.4535377721
 20
5.2031985935
 11
7.4370068885
 21
5.2317895971
  0
LINE
  5
2C0
100
AcDbEntity
  8
0
100
AcDbLine
 62
7
  6
CONTINUOUS
 10
7.6507277854
 20
4.8652693362
 11
7.6672586674
 21
4.8366783354
  0
LINE
  5
2C1
100
AcDbEntity
  8
0
100
AcDbLine
 62
7
  6
CONTINUOUS
 10
7.4892377721
 20
5.2031985935
 11
7.4727068885
 21
5.2317895971
  0
LINE
  5
2C2
100
AcDbEntity
  8
0
100
AcDbLine
 62
7
  6
CONTINUOUS
 10
7.6864277853
 20
4.8652693363
 11
7.7021239392
 21
4.8381223216
  0
LINE
  5
2C3
100
AcDbEntity
  8
0
100
AcDbLine
 62
7
  6
CONTINUOUS
 10
7.5249377721
 20
5.2031985935
 11
7.5084068885
 21
5.2317895971
  0
LINE
  5
2C4
100
AcDbEntity
  8
0
100
AcDbLine
 62
7
  6
CONTINUOUS
 10
7.5606377721
 20
5.2031985935
 11
7.5441068885
 21
5.2317895971
  0
LINE
  5
2C5
100
AcDbEntity
  8
0
100
AcDbLine
 62
7
  6
CONTINUOUS
 10
7.5963377721
 20
5.2031985935
 11
7.5798068885
 21
5.2317895971
  0
LINE
  5
2C6
100
AcDbEntity
  8
0
100
AcDbLine
 62
7
  6
CONTINUOUS
 10
7.6320377721
 20
5.2031985935
 11
7.6155068885
 21
5.2317895971
  0
LINE
  5
2C7
100
AcDbEntity
  8
0
100
AcDbLine
 62
7
  6
CONTINUOUS
 10
7.6677377721
 20
5.2031985935
 11
7.6512068885
 21
5.2317895971
  0
LINE
  5
2C8
100
AcDbEntity
  8
0
100
AcDbLine
 62
7
  6
CONTINUOUS
 10
7.7034377721
 20
5.2031985935
 11
7.6869068885
 21
5.2317895971
  0
ARC
  5
2C9
100
AcDbEntity
  8
0
100
AcDbCircle
 62
7
  6
CONTINUOUS
 10
8.1852377129
 20
4.8700438063
 40
0.7676207663
100
AcDbArc
 50
181.6972732054
 51
182.1316433719
  0
ARC
  5
2CA
100
AcDbEntity
  8
0
100
AcDbCircle
 62
7
  6
CONTINUOUS
 10
8.1483035294
 20
4.8743196188
 40
0.7276110068
100
AcDbArc
 50
181.8361719346
 51
182.231899023
  0
ARC
  5
2CB
100
AcDbEntity
  8
0
100
AcDbCircle
 62
7
  6
CONTINUOUS
 10
8.0338254006
 20
4.8946780802
 40
0.5830842774
100
AcDbArc
 50
183.4797525474
 51
184.1582324636
  0
ARC
  5
2CC
100
AcDbEntity
  8
0
100
AcDbCircle
 62
7
  6
CONTINUOUS
 10
8.2268956193
 20
4.8932350748
 40
0.5619054225
100
AcDbArc
 50
183.5167466843
 51
184.2084422361
  0
ARC
  5
2CD
100
AcDbEntity
  8
0
100
AcDbCircle
 62
7
  6
CONTINUOUS
 10
8.1190367671
 20
4.8931800831
 40
0.5611445845
100
AcDbArc
 50
183.5213885071
 51
184.2080564324
  0
ARC
  5
2CE
100
AcDbEntity
  8
0
100
AcDbCircle
 62
7
  6
CONTINUOUS
 10
7.0248636165
 20
5.175558364
 40
0.557200497
100
AcDbArc
 50
3.5282113545
 51
4.2178867391
  0
ARC
  5
2CF
100
AcDbEntity
  8
0
100
AcDbCircle
 62
7
  6
CONTINUOUS
 10
1.6935674777
 20
4.1393625088
 40
0.3798184578
100
AcDbArc
 50
274.1298026161
 51
274.7606220642
  0
ARC
  5
2D0
100
AcDbEntity
  8
0
100
AcDbCircle
 62
7
  6
CONTINUOUS
 10
7.7690896214
 20
4.8541953455
 40
0.3511713376
100
AcDbArc
 50
182.0731338702
 51
182.8151193679
  0
ARC
  5
2D1
100
AcDbEntity
  8
0
100
AcDbCircle
 62
7
  6
CONTINUOUS
 10
8.0245514389
 20
4.875579044
 40
0.3232081128
100
AcDbArc
 50
184.0640089682
 51
185.1030652709
  0
ARC
  5
2D2
100
AcDbEntity
  8
0
100
AcDbCircle
 62
7
  6
CONTINUOUS
 10
7.3309199916
 20
5.1930169666
 40
0.32189636
100
AcDbArc
 50
4.0675690239
 51
5.1097282152
  0
ARC
  5
2D3
100
AcDbEntity
  8
0
100
AcDbCircle
 62
7
  6
CONTINUOUS
 10
7.9515662602
 20
4.8754281573
 40
0.32161613
100
AcDbArc
 50
184.0684594685
 51
185.1113286044
  0
ARC
  5
2D4
100
AcDbEntity
  8
0
100
AcDbCircle
 62
7
  6
CONTINUOUS
 10
7.1884063633
 20
5.1930405078
 40
0.3216090257
100
AcDbArc
 50
4.0687365663
 51
5.111189561
  0
ARC
  5
2D5
100
AcDbEntity
  8
0
100
AcDbCircle
 62
7
  6
CONTINUOUS
 10
7.8084901088
 20
4.8754054757
 40
0.3213390533
100
AcDbArc
 50
184.069542472
 51
185.1127424387
  0
ARC
  5
2D6
100
AcDbEntity
  8
0
100
AcDbCircle
 62
7
  6
CONTINUOUS
 10
7.2260385109
 20
5.1931996069
 40
0.3196703652
100
AcDbArc
 50
4.0767962144
 51
5.1208991626
  0
ARC
  5
2D7
100
AcDbEntity
  8
0
100
AcDbCircle
 62
7
  6
CONTINUOUS
 10
7.9126596624
 20
4.8751631205
 40
0.3183986385
100
AcDbArc
 50
184.0832399927
 51
185.126506267
  0
ARC
  5
2D8
100
AcDbEntity
  8
0
100
AcDbCircle
 62
7
  6
CONTINUOUS
 10
7.4863051845
 20
5.2016575945
 40
0.0033156092
100
AcDbArc
 50
21.8061525702
 51
23.6687296542
  0
ARC
  5
2D9
100
AcDbEntity
  8
0
100
AcDbCircle
 62
7
  6
CONTINUOUS
 10
7.6293468802
 20
5.2017604352
 40
0.0030530556
100
AcDbArc
 50
22.1732321297
 51
24.6154503325
  0
ARC
  5
2DA
100
AcDbEntity
  8
0
100
AcDbCircle
 62
7
  6
CONTINUOUS
 10
7.4510519386
 20
5.2018467525
 40
0.0028302891
100
AcDbArc
 50
22.738386395
 51
25.3468708926
  0
ARC
  5
2DB
100
AcDbEntity
  8
0
100
AcDbCircle
 62
7
  6
CONTINUOUS
 10
7.70095702
 20
5.2018498331
 40
0.0028251403
100
AcDbArc
 50
22.7052559949
 51
25.3189698516
  0
ARC
  5
2DC
100
AcDbEntity
  8
0
100
AcDbCircle
 62
7
  6
CONTINUOUS
 10
7.5940454914
 20
5.2019349268
 40
0.0026175968
100
AcDbArc
 50
23.3292329286
 51
26.1054177447
  0
ARC
  5
2DD
100
AcDbEntity
  8
0
100
AcDbCircle
 62
7
  6
CONTINUOUS
 10
7.5591420994
 20
5.2023321291
 40
0.0017277925
100
AcDbArc
 50
27.3235493467
 51
30.0427644476
  0
SPLINE
  5
2DE
100
AcDbEntity
  8
0
100
AcDbSpline
 62
7
  6
CONTINUOUS
 70
0
 71
3
 72
11
 73
7
 74
0
 42
0.0000001
 43
0.0000001
 44
0.0000000001
 40
0.0
 40
0.0
 40
0.0
 40
0.0
 40
0.3296489927
 40
0.5973798736
 40
0.8140854449
 40
1.0
 40
1.0
 40
1.0
 40
1.0
 10
1.3310322851
 20
3.9323159152
 30
0.0
 10
1.3309428878
 20
3.9322641558
 30
0.0
 10
1.3307849524
 20
3.9321626023
 30
0.0
 10
1.3305931079
 20
3.9319923362
 30
0.0
 10
1.3304712455
 20
3.9318175494
 30
0.0
 10
1.3304411282
 20
3.9316905989
 30
0.0
 10
1.3304411282
 20
3.9316323399
 30
0.0
  0
LINE
  5
2DF
100
AcDbEntity
  8
0
100
AcDbLine
 62
7
  6
CONTINUOUS
 10
1.7366908213
 20
3.7614006385
 11
1.736604395
 21
3.7612346199
  0
LINE
  5
2E0
100
AcDbEntity
  8
0
100
AcDbLine
 62
7
  6
CONTINUOUS
 10
1.736604395
 20
3.7612346199
 11
1.7364532082
 21
3.7611256028
  0
LINE
  5
2E1
100
AcDbEntity
  8
0
100
AcDbLine
 62
7
  6
CONTINUOUS
 10
1.358991568
 20
3.905567317
 11
1.3592673731
 21
3.9058867599
  0
SPLINE
  5
2E2
100
AcDbEntity
  8
0
100
AcDbSpline
 62
7
  6
CONTINUOUS
 70
0
 71
3
 72
51
 73
47
 74
0
 42
0.0000001
 43
0.0000001
 44
0.0000000001
 40
0.0
 40
0.0
 40
0.0
 40
0.0
 40
0.0008877142
 40
0.0020315223
 40
0.0034391957
 40
0.0051142611
 40
0.0092699337
 40
0.0144992073
 40
0.020796367
 40
0.0281525783
 40
0.0365520795
 40
0.0459759902
 40
0.0564050523
 40
0.0678186528
 40
0.0934920397
 40
0.1227704595
 40
0.1553958329
 40
0.1910797806
 40
0.2295059325
 40
0.27033423
 40
0.3132020141
 40
0.3577296056
 40
0.4035214116
 40
0.4972654951
 40
0.5911137467
 40
0.637034573
 40
0.6817419367
 40
0.7248371677
 40
0.7659404287
 40
0.8046842595
 40
0.8407286238
 40
0.8737505001
 40
0.9034619139
 40
0.9295963226
 40
0.9412513249
 40
0.9519288538
 40
0.9616048783
 40
0.9702607793
 40
0.9778788307
 40
0.9844419311
 40
0.9899376304
 40
0.9943604692
 40
0.9961692547
 40
0.997710317
 40
0.9989856592
 40
1.0
 40
1.0
 40
1.0
 40
1.0
 10
1.3592673731
 20
3.9058867599
 30
0.0
 10
1.3593567484
 20
3.9059385613
 30
0.0
 10
1.3595725897
 20
3.9060371797
 30
0.0
 10
1.3599509306
 20
3.9061682447
 30
0.0
 10
1.3604250627
 20
3.9063000636
 30
0.0
 10
1.3612457503
 20
3.9064904167
 30
0.0
 10
1.3625127604
 20
3.9067200872
 30
0.0
 10
1.3643188055
 20
3.906982743
 30
0.0
 10
1.366500427
 20
3.907246664
 30
0.0
 10
1.3690530508
 20
3.9075116137
 30
0.0
 10
1.3719711702
 20
3.907777199
 30
0.0
 10
1.3752481246
 20
3.9080432802
 30
0.0
 10
1.3788768331
 20
3.9083097131
 30
0.0
 10
1.3843938329
 20
3.9086798739
 30
0.0
 10
1.3921033134
 20
3.9091359696
 30
0.0
 10
1.402280817
 20
3.9096657779
 30
0.0
 10
1.4136245912
 20
3.9101966298
 30
0.0
 10
1.4260338863
 20
3.9107282905
 30
0.0
 10
1.4393985275
 20
3.9112605051
 30
0.0
 10
1.4535997444
 20
3.9117931091
 30
0.0
 10
1.4685114382
 20
3.9123260111
 30
0.0
 10
1.4840010739
 20
3.9128591156
 30
0.0
 10
1.5054082932
 20
3.913575683
 30
0.0
 10
1.5325524917
 20
3.9144595159
 30
0.0
 10
1.5597117265
 20
3.9153428875
 30
0.0
 10
1.5811670409
 20
3.9160590727
 30
0.0
 10
1.5967191143
 20
3.9165921828
 30
0.0
 10
1.6117102409
 20
3.917125135
 30
0.0
 10
1.6260069561
 20
3.9176577531
 30
0.0
 10
1.639482586
 20
3.9181900601
 30
0.0
 10
1.6520170415
 20
3.9187217549
 30
0.0
 10
1.6634994236
 20
3.919252778
 30
0.0
 10
1.6738272956
 20
3.9197826849
 30
0.0
 10
1.6816691296
 20
3.9202386626
 30
0.0
 10
1.687297046
 20
3.9206085007
 30
0.0
 10
1.6910123212
 20
3.9208749524
 30
0.0
 10
1.6943776355
 20
3.9211411403
 30
0.0
 10
1.6973857384
 20
3.9214068869
 30
0.0
 10
1.7000300647
 20
3.9216720255
 30
0.0
 10
1.7023046989
 20
3.9219361814
 30
0.0
 10
1.7042046486
 20
3.9221992912
 30
0.0
 10
1.7055503719
 20
3.9224290354
 30
0.0
 10
1.7064348917
 20
3.9226186866
 30
0.0
 10
1.7069568629
 20
3.9227507832
 30
0.0
 10
1.7073829966
 20
3.9228822235
 30
0.0
 10
1.7076314625
 20
3.9229800708
 30
0.0
 10
1.7077378993
 20
3.9230311007
 30
0.0
  0
LINE
  5
2E3
100
AcDbEntity
  8
0
100
AcDbLine
 62
7
  6
CONTINUOUS
 10
1.7077378993
 20
3.9230311007
 11
1.7078642422
 21
3.9230973573
  0
SPLINE
  5
2E4
100
AcDbEntity
  8
0
100
AcDbSpline
 62
7
  6
CONTINUOUS
 70
0
 71
3
 72
15
 73
11
 74
0
 42
0.0000001
 43
0.0000001
 44
0.0000000001
 40
0.0
 40
0.0
 40
0.0
 40
0.0
 40
0.0540291085
 40
0.1203801478
 40
0.2061813693
 40
0.3147712119
 40
0.4477622719
 40
0.6060054698
 40
0.7899866635
 40
1.0
 40
1.0
 40
1.0
 40
1.0
 10
1.7366911282
 20
3.8698839661
 30
0.0
 10
1.7366911282
 20
3.8698555718
 30
0.0
 10
1.7366723839
 20
3.869792069
 30
0.0
 10
1.7366008016
 20
3.8697085061
 30
0.0
 10
1.7364898628
 20
3.8696270189
 30
0.0
 10
1.7363377053
 20
3.8695458746
 30
0.0
 10
1.7361437826
 20
3.8694644919
 30
0.0
 10
1.7359076148
 20
3.8693828825
 30
0.0
 10
1.7356290857
 20
3.8693010697
 30
0.0
 10
1.7354284262
 20
3.8692498305
 30
0.0
 10
1.7353211396
 20
3.869223926
 30
0.0
  0
LINE
  5
2E5
100
AcDbEntity
  8
0
100
AcDbLine
 62
7
  6
CONTINUOUS
 10
1.7353211396
 20
3.869223926
 11
1.7336035466
 21
3.8688920326
  0
SPLINE
  5
2E6
100
AcDbEntity
  8
0
100
AcDbSpline
 62
7
  6
CONTINUOUS
 70
0
 71
3
 72
46
 73
42
 74
0
 42
0.0000001
 43
0.0000001
 44
0.0000000001
 40
0.0
 40
0.0
 40
0.0
 40
0.0
 40
0.004548939
 40
0.0101110195
 40
0.016676481
 40
0.0242344729
 40
0.0327716785
 40
0.0422692557
 40
0.0640655903
 40
0.0894491827
 40
0.1182081085
 40
0.150108032
 40
0.1848819859
 40
0.2222435328
 40
0.2618802805
 40
0.34664892
 40
0.436378197
 40
0.5280969636
 40
0.6187635545
 40
0.662758417
 40
0.7053706496
 40
0.7462481707
 40
0.7850490905
 40
0.8214538333
 40
0.8551574938
 40
0.8858838701
 40
0.9133757484
 40
0.9374091766
 40
0.9480644175
 40
0.9577838569
 40
0.9665475797
 40
0.974336173
 40
0.9811348992
 40
0.9869327043
 40
0.9917195306
 40
0.9937312888
 40
0.9954881137
 40
0.996990781
 40
0.9982408911
 40
0.9992416573
 40
1.0
 40
1.0
 40
1.0
 40
1.0
 10
1.7336035466
 20
3.8688920326
 30
0.0
 10
1.7329996389
 20
3.8687947458
 30
0.0
 10
1.7316526845
 20
3.8686074783
 30
0.0
 10
1.7294246367
 20
3.8683525959
 30
0.0
 10
1.7267898261
 20
3.8680966559
 30
0.0
 10
1.7237534366
 20
3.8678399468
 30
0.0
 10
1.7203215689
 20
3.8675827606
 30
0.0
 10
1.7149775838
 20
3.8672225669
 30
0.0
 10
1.7073688753
 20
3.8667804092
 30
0.0
 10
1.6971701661
 20
3.8662689793
 30
0.0
 10
1.6856113976
 20
3.8657561468
 30
0.0
 10
1.6727888538
 20
3.8652423458
 30
0.0
 10
1.6588087035
 20
3.8647278094
 30
0.0
 10
1.6437875534
 20
3.8642128127
 30
0.0
 10
1.6220461775
 20
3.8635098581
 30
0.0
 10
1.5932645616
 20
3.8626445186
 30
0.0
 10
1.5574810189
 20
3.8616258157
 30
0.0
 10
1.5209040888
 20
3.8606064554
 30
0.0
 10
1.4904749183
 20
3.8597489706
 30
0.0
 10
1.4666471298
 20
3.8590542106
 30
0.0
 10
1.4495120875
 20
3.8585384698
 30
0.0
 10
1.4330757914
 20
3.858022991
 30
0.0
 10
1.4174746349
 20
3.8575077475
 30
0.0
 10
1.4028386827
 20
3.8569929746
 30
0.0
 10
1.3892892115
 20
3.856478669
 30
0.0
 10
1.3769391418
 20
3.8559652704
 30
0.0
 10
1.3658906269
 20
3.8554528064
 30
0.0
 10
1.3575407895
 20
3.855011497
 30
0.0
 10
1.3515799922
 20
3.8546530618
 30
0.0
 10
1.3476702195
 20
3.8543954007
 30
0.0
 10
1.3441468098
 20
3.854138138
 30
0.0
 10
1.3410172778
 20
3.8538812992
 30
0.0
 10
1.3382879975
 20
3.853625168
 30
0.0
 10
1.3359643459
 20
3.8533699191
 30
0.0
 10
1.3342848604
 20
3.8531478265
 30
0.0
 10
1.3331488588
 20
3.8529656731
 30
0.0
 10
1.3324516558
 20
3.8528373454
 30
0.0
 10
1.3318587996
 20
3.8527094497
 30
0.0
 10
1.3313700489
 20
3.8525822091
 30
0.0
 10
1.3309854831
 20
3.8524558782
 30
0.0
 10
1.3307680826
 20
3.8523599938
 30
0.0
 10
1.3306797574
 20
3.8523090295
 30
0.0
  0
LINE
  5
2E7
100
AcDbEntity
  8
0
100
AcDbLine
 62
7
  6
CONTINUOUS
 10
1.3592679506
 20
3.8331372765
 11
1.3597761347
 21
3.833356206
  0
SPLINE
  5
2E8
100
AcDbEntity
  8
0
100
AcDbSpline
 62
7
  6
CONTINUOUS
 70
0
 71
3
 72
53
 73
49
 74
0
 42
0.0000001
 43
0.0000001
 44
0.0000000001
 40
0.0
 40
0.0
 40
0.0
 40
0.0
 40
0.0013262114
 40
0.0029232081
 40
0.0047931573
 40
0.0069370675
 40
0.0120475849
 40
0.0182499564
 40
0.025531307
 40
0.0338771684
 40
0.0432720853
 40
0.0536954057
 40
0.0775277561
 40
0.105166469
 40
0.1363593328
 40
0.1708295843
 40
0.2082622689
 40
0.2483228746
 40
0.2906460754
 40
0.3348519061
 40
0.4272935357
 40
0.5223099709
 40
0.569711694
 40
0.6164699848
 40
0.6621616594
 40
0.7063734183
 40
0.7487052217
 40
0.7887745758
 40
0.8262187085
 40
0.8607003475
 40
0.89190695
 40
0.9195594173
 40
0.943407153
 40
0.9538373603
 40
0.9632411181
 40
0.9715960389
 40
0.9788846643
 40
0.9850945401
 40
0.9877915018
 40
0.9902148369
 40
0.9923636239
 40
0.9942377655
 40
0.9958384853
 40
0.9971682123
 40
0.9982316776
 40
0.9986665964
 40
0.9990396119
 40
1.0
 40
1.0
 40
1.0
 40
1.0
 10
1.3597761347
 20
3.833356206
 30
0.0
 10
1.3599220984
 20
3.8334063497
 30
0.0
 10
1.3602483135
 20
3.8335037763
 30
0.0
 10
1.3607900328
 20
3.8336372186
 30
0.0
 10
1.3614292321
 20
3.8337710972
 30
0.0
 10
1.3624739833
 20
3.8339613147
 30
0.0
 10
1.3640230817
 20
3.8341931893
 30
0.0
 10
1.366170631
 20
3.8344595333
 30
0.0
 10
1.3686970356
 20
3.8347268658
 30
0.0
 10
1.3715966505
 20
3.8349949952
 30
0.0
 10
1.3748632446
 20
3.8352635708
 30
0.0
 10
1.3799291827
 20
3.8356391019
 30
0.0
 10
1.3871174572
 20
3.8361004001
 30
0.0
 10
1.3967226322
 20
3.8366343578
 30
0.0
 10
1.4075673927
 20
3.8371697642
 30
0.0
 10
1.4195531071
 20
3.8377060896
 30
0.0
 10
1.4325717062
 20
3.8382431858
 30
0.0
 10
1.4465048877
 20
3.8387806873
 30
0.0
 10
1.4612268222
 20
3.83931862
 30
0.0
 10
1.4820416332
 20
3.840046982
 30
0.0
 10
1.5089863773
 20
3.8409443817
 30
0.0
 10
1.5363035969
 20
3.8418305083
 30
0.0
 10
1.5583071018
 20
3.842549053
 30
0.0
 10
1.5745733039
 20
3.8430874937
 30
0.0
 10
1.5904680741
 20
3.8436258176
 30
0.0
 10
1.6058474192
 20
3.8441639615
 30
0.0
 10
1.6205720659
 20
3.8447018586
 30
0.0
 10
1.6345086
 20
3.8452393944
 30
0.0
 10
1.6475308791
 20
3.8457764594
 30
0.0
 10
1.6595208523
 20
3.8463128225
 30
0.0
 10
1.6703701445
 20
3.8468481977
 30
0.0
 10
1.6799803144
 20
3.8473822023
 30
0.0
 10
1.6871727931
 20
3.8478434386
 30
0.0
 10
1.6922423597
 20
3.8482190182
 30
0.0
 10
1.6955118448
 20
3.8484875862
 30
0.0
 10
1.6984144198
 20
3.8487556399
 30
0.0
 10
1.7009435667
 20
3.8490231193
 30
0.0
 10
1.7028142087
 20
3.8492545832
 30
0.0
 10
1.7041192686
 20
3.8494429338
 30
0.0
 10
1.7049545096
 20
3.8495773136
 30
0.0
 10
1.7056926519
 20
3.8497114512
 30
0.0
 10
1.7063333862
 20
3.8498453679
 30
0.0
 10
1.7068764322
 20
3.8499786923
 30
0.0
 10
1.7073223391
 20
3.8501118507
 30
0.0
 10
1.7076300096
 20
3.8502276371
 30
0.0
 10
1.7078269985
 20
3.8503246257
 30
0.0
 10
1.7079992643
 20
3.8504266529
 30
0.0
 10
1.7081410377
 20
3.8505555517
 30
0.0
 10
1.708141111
 20
3.850667316
 30
0.0
  0
LINE
  5
2E9
100
AcDbEntity
  8
0
100
AcDbLine
 62
7
  6
CONTINUOUS
 10
1.3589911815
 20
3.8698673168
 11
1.359168089
 21
3.8701228726
  0
SPLINE
  5
2EA
100
AcDbEntity
  8
0
100
AcDbSpline
 62
7
  6
CONTINUOUS
 70
0
 71
3
 72
52
 73
48
 74
0
 42
0.0000001
 43
0.0000001
 44
0.0000000001
 40
0.0
 40
0.0
 40
0.0
 40
0.0
 40
0.0007750186
 40
0.001801788
 40
0.0030912094
 40
0.0046484089
 40
0.0064760321
 40
0.0085753875
 40
0.0135879337
 40
0.0196792464
 40
0.0268390093
 40
0.035055333
 40
0.0443109903
 40
0.0545842528
 40
0.0658529923
 40
0.0912809543
 40
0.120365802
 40
0.1528528574
 40
0.1884482665
 40
0.2268376749
 40
0.2676743211
 40
0.3105957619
 40
0.3552152092
 40
0.4011352034
 40
0.495220271
 40
0.5894878915
 40
0.6356341741
 40
0.6805684333
 40
0.7238887089
 40
0.7652067228
 40
0.8041530891
 40
0.8403791663
 40
0.8735611752
 40
0.9034032213
 40
0.9296388714
 40
0.9413302346
 40
0.9520368343
 40
0.9617337757
 40
0.9703990604
 40
0.9780165528
 40
0.9845713535
 40
0.9900496414
 40
0.9944432463
 40
0.9962337165
 40
0.9977545299
 40
0.9990081969
 40
1.0
 40
1.0
 40
1.0
 40
1.0
 10
1.359168089
 20
3.8701228726
 30
0.0
 10
1.3592411985
 20
3.8701757487
 30
0.0
 10
1.3594271982
 20
3.8702757601
 30
0.0
 10
1.359762514
 20
3.8704069139
 30
0.0
 10
1.3601940866
 20
3.8705389996
 30
0.0
 10
1.3607219455
 20
3.8706717073
 30
0.0
 10
1.3613464834
 20
3.8708048839
 30
0.0
 10
1.3623699443
 20
3.8709941751
 30
0.0
 10
1.363889988
 20
3.8712248497
 30
0.0
 10
1.3659997595
 20
3.871489849
 30
0.0
 10
1.3684848957
 20
3.8717558131
 30
0.0
 10
1.3713401298
 20
3.8720225076
 30
0.0
 10
1.3745591826
 20
3.8722896551
 30
0.0
 10
1.3781346483
 20
3.8725572202
 30
0.0
 10
1.3835901887
 20
3.872929487
 30
0.0
 10
1.3912348094
 20
3.8733877047
 30
0.0
 10
1.4013493116
 20
3.8739198413
 30
0.0
 10
1.4126489077
 20
3.8744529326
 30
0.0
 10
1.4250327692
 20
3.8749869925
 30
0.0
 10
1.4383894926
 20
3.8755215278
 30
0.0
 10
1.4525997217
 20
3.8760565586
 30
0.0
 10
1.4675357224
 20
3.8765918245
 30
0.0
 10
1.4830638745
 20
3.8771273613
 30
0.0
 10
1.5045456132
 20
3.8778473554
 30
0.0
 10
1.531804945
 20
3.8787353277
 30
0.0
 10
1.5590906603
 20
3.8796224971
 30
0.0
 10
1.5806567152
 20
3.8803418138
 30
0.0
 10
1.5962943572
 20
3.88087737
 30
0.0
 10
1.6113695653
 20
3.881412712
 30
0.0
 10
1.6257472218
 20
3.8819477854
 30
0.0
 10
1.6392983938
 20
3.8824824618
 30
0.0
 10
1.6519016176
 20
3.8830166123
 30
0.0
 10
1.6634439405
 20
3.8835499735
 30
0.0
 10
1.6738218697
 20
3.8840823251
 30
0.0
 10
1.681698276
 20
3.8845403297
 30
0.0
 10
1.6873479675
 20
3.8849119861
 30
0.0
 10
1.6910748526
 20
3.8851796417
 30
0.0
 10
1.6944484778
 20
3.8854469691
 30
0.0
 10
1.6974612647
 20
3.8857139248
 30
0.0
 10
1.7001066882
 20
3.8859802819
 30
0.0
 10
1.7023791155
 20
3.8862455659
 30
0.0
 10
1.7042733086
 20
3.8865096779
 30
0.0
 10
1.7056117996
 20
3.8867405137
 30
0.0
 10
1.7064884209
 20
3.8869312296
 30
0.0
 10
1.7070032703
 20
3.8870638776
 30
0.0
 10
1.7074215852
 20
3.8871958434
 30
0.0
 10
1.7076644584
 20
3.8872942868
 30
0.0
 10
1.7077678284
 20
3.8873457333
 30
0.0
  0
LINE
  5
2EB
100
AcDbEntity
  8
0
100
AcDbLine
 62
7
  6
CONTINUOUS
 10
1.7077678284
 20
3.8873457333
 11
1.7078643539
 21
3.8873973563
  0
SPLINE
  5
2EC
100
AcDbEntity
  8
0
100
AcDbSpline
 62
7
  6
CONTINUOUS
 70
0
 71
3
 72
15
 73
11
 74
0
 42
0.0000001
 43
0.0000001
 44
0.0000000001
 40
0.0
 40
0.0
 40
0.0
 40
0.0
 40
0.0541010098
 40
0.1205018077
 40
0.2063278904
 40
0.314921242
 40
0.4478976188
 40
0.6061100646
 40
0.7900458301
 40
1.0
 40
1.0
 40
1.0
 40
1.0
 10
1.3304411282
 20
3.8506506665
 30
0.0
 10
1.3304411282
 20
3.8506790053
 30
0.0
 10
1.3304597894
 20
3.8507423668
 30
0.0
 10
1.3305311019
 20
3.8508257879
 30
0.0
 10
1.3306416389
 20
3.8509071322
 30
0.0
 10
1.3307932416
 20
3.850988132
 30
0.0
 10
1.3309864555
 20
3.8510693671
 30
0.0
 10
1.3312217582
 20
3.8511508276
 30
0.0
 10
1.331499266
 20
3.8512324904
 30
0.0
 10
1.3316991923
 20
3.8512836361
 30
0.0
 10
1.3318060864
 20
3.8513094932
 30
0.0
  0
LINE
  5
2ED
100
AcDbEntity
  8
0
100
AcDbLine
 62
7
  6
CONTINUOUS
 10
1.3318060864
 20
3.8513094932
 11
1.3335089795
 21
3.8516394175
  0
SPLINE
  5
2EE
100
AcDbEntity
  8
0
100
AcDbSpline
 62
7
  6
CONTINUOUS
 70
0
 71
3
 72
46
 73
42
 74
0
 42
0.0000001
 43
0.0000001
 44
0.0000000001
 40
0.0
 40
0.0
 40
0.0
 40
0.0
 40
0.0045370665
 40
0.0100876166
 40
0.0166419391
 40
0.0241892195
 40
0.0327160099
 40
0.0422035655
 40
0.0639819756
 40
0.0893501163
 40
0.1180963188
 40
0.1499856539
 40
0.1847515843
 40
0.222107221
 40
0.2617404432
 40
0.3465083115
 40
0.4362464183
 40
0.5279818572
 40
0.6186670963
 40
0.662671503
 40
0.7052930755
 40
0.7461798841
 40
0.784990498
 40
0.8214052191
 40
0.8551187144
 40
0.8858543583
 40
0.9133539759
 40
0.937394055
 40
0.9480520942
 40
0.9577739264
 40
0.9665398315
 40
0.9743304821
 40
0.9811308269
 40
0.9869298874
 40
0.9917177357
 40
0.9937299527
 40
0.9954871807
 40
0.9969901867
 40
0.9982405672
 40
0.9992415321
 40
1.0
 40
1.0
 40
1.0
 40
1.0
 10
1.3335089795
 20
3.8516394175
 30
0.0
 10
1.3341112922
 20
3.8517367567
 30
0.0
 10
1.3354551315
 20
3.8519240843
 30
0.0
 10
1.3376786134
 20
3.8521789903
 30
0.0
 10
1.3403090436
 20
3.8524349588
 30
0.0
 10
1.3433412279
 20
3.852691697
 30
0.0
 10
1.3467690637
 20
3.8529489186
 30
0.0
 10
1.3521081388
 20
3.853309196
 30
0.0
 10
1.3597113762
 20
3.8537514244
 30
0.0
 10
1.3699043804
 20
3.8542629446
 30
0.0
 10
1.381458501
 20
3.8547758633
 30
0.0
 10
1.3942774599
 20
3.8552897652
 30
0.0
 10
1.4082550005
 20
3.8558043923
 30
0.0
 10
1.4232745429
 20
3.8563194912
 30
0.0
 10
1.4450156187
 20
3.8570225967
 30
0.0
 10
1.4737992658
 20
3.857888127
 30
0.0
 10
1.5095879036
 20
3.8589070439
 30
0.0
 10
1.5461725802
 20
3.8599266271
 30
0.0
 10
1.5766092899
 20
3.8607842894
 30
0.0
 10
1.6004433052
 20
3.8614791843
 30
0.0
 10
1.6175829844
 20
3.8619950203
 30
0.0
 10
1.6340239029
 20
3.862510594
 30
0.0
 10
1.6496297264
 20
3.8630259342
 30
0.0
 10
1.6642703715
 20
3.8635408082
 30
0.0
 10
1.6778244241
 20
3.8640552254
 30
0.0
 10
1.6901787151
 20
3.8645687254
 30
0.0
 10
1.7012309583
 20
3.8650812977
 30
0.0
 10
1.709583521
 20
3.8655226855
 30
0.0
 10
1.7155462061
 20
3.8658811855
 30
0.0
 10
1.7194571639
 20
3.8661388948
 30
0.0
 10
1.7229816398
 20
3.8663962044
 30
0.0
 10
1.7261121155
 20
3.8666530787
 30
0.0
 10
1.7288421945
 20
3.8669092489
 30
0.0
 10
1.7311664855
 20
3.867164536
 30
0.0
 10
1.7328464222
 20
3.8673866633
 30
0.0
 10
1.7339827339
 20
3.8675688426
 30
0.0
 10
1.7346801331
 20
3.8676971909
 30
0.0
 10
1.7352731546
 20
3.8678251083
 30
0.0
 10
1.7357620377
 20
3.8679523712
 30
0.0
 10
1.7361467012
 20
3.8680787246
 30
0.0
 10
1.7363641545
 20
3.8681746276
 30
0.0
 10
1.7364524986
 20
3.868225603
 30
0.0
  0
SPLINE
  5
2EF
100
AcDbEntity
  8
0
100
AcDbSpline
 62
7
  6
CONTINUOUS
 70
0
 71
3
 72
15
 73
11
 74
0
 42
0.0000001
 43
0.0000001
 44
0.0000000001
 40
0.0
 40
0.0
 40
0.0
 40
0.0
 40
0.0543049267
 40
0.1208466096
 40
0.2067427054
 40
0.3153454105
 40
0.4482796754
 40
0.60640481
 40
0.7902122578
 40
1.0
 40
1.0
 40
1.0
 40
1.0
 10
1.7366911282
 20
3.9055839661
 30
0.0
 10
1.7366911282
 20
3.9055557839
 30
0.0
 10
1.7366727014
 20
3.9054928218
 30
0.0
 10
1.7366021496
 20
3.9054098024
 30
0.0
 10
1.7364927455
 20
3.9053288623
 30
0.0
 10
1.7363427061
 20
3.9052482716
 30
0.0
 10
1.7361514886
 20
3.9051674539
 30
0.0
 10
1.7359186218
 20
3.9050864145
 30
0.0
 10
1.7356439884
 20
3.9050051756
 30
0.0
 10
1.7354461252
 20
3.9049542937
 30
0.0
 10
1.7353403357
 20
3.9049285705
 30
0.0
  0
LINE
  5
2F0
100
AcDbEntity
  8
0
100
AcDbLine
 62
7
  6
CONTINUOUS
 10
1.7353403357
 20
3.9049285705
 11
1.7336535883
 21
3.9046001241
  0
SPLINE
  5
2F1
100
AcDbEntity
  8
0
100
AcDbSpline
 62
7
  6
CONTINUOUS
 70
0
 71
3
 72
46
 73
42
 74
0
 42
0.0000001
 43
0.0000001
 44
0.0000000001
 40
0.0
 40
0.0
 40
0.0
 40
0.0
 40
0.0045188208
 40
0.010051762
 40
0.0165892563
 40
0.0241206156
 40
0.0326323988
 40
0.0421058024
 40
0.0638583367
 40
0.0892039074
 40
0.1179306411
 40
0.1498035828
 40
0.1845558967
 40
0.2219006279
 40
0.2615264811
 40
0.3462905771
 40
0.4360381863
 40
0.5277919799
 40
0.6185020727
 40
0.6625210405
 40
0.7051589031
 40
0.7460632118
 40
0.7848913569
 40
0.8213230572
 40
0.8550521831
 40
0.8858020206
 40
0.9133142499
 40
0.9373652459
 40
0.9480281366
 40
0.9577544204
 40
0.9665243281
 40
0.9743185399
 40
0.9811221767
 40
0.9869241385
 40
0.9917143394
 40
0.9937274831
 40
0.9954854886
 40
0.9969891284
 40
0.9982400005
 40
0.9992413167
 40
1.0
 40
1.0
 40
1.0
 40
1.0
 10
1.7336535883
 20
3.9046001241
 30
0.0
 10
1.7330537278
 20
3.9045027019
 30
0.0
 10
1.7317146624
 20
3.9043152762
 30
0.0
 10
1.7294981453
 20
3.9040603254
 30
0.0
 10
1.7268743219
 20
3.9038043011
 30
0.0
 10
1.7238483559
 20
3.9035474986
 30
0.0
 10
1.7204263426
 20
3.9032902057
 30
0.0
 10
1.7150942873
 20
3.9029297823
 30
0.0
 10
1.7074989101
 20
3.9024874017
 30
0.0
 10
1.6973142798
 20
3.9019757491
 30
0.0
 10
1.6857671501
 20
3.9014626954
 30
0.0
 10
1.6729538789
 20
3.9009486627
 30
0.0
 10
1.6589807841
 20
3.9004339097
 30
0.0
 10
1.6439643932
 20
3.899918684
 30
0.0
 10
1.6222246343
 20
3.8992153749
 30
0.0
 10
1.5934390231
 20
3.8983495858
 30
0.0
 10
1.5576444273
 20
3.8973303904
 30
0.0
 10
1.5210498809
 20
3.8963105208
 30
0.0
 10
1.4906030875
 20
3.8954526308
 30
0.0
 10
1.4667597678
 20
3.894757545
 30
0.0
 10
1.4496122826
 20
3.8942415461
 30
0.0
 10
1.4331632116
 20
3.8937258045
 30
0.0
 10
1.4175492066
 20
3.893210288
 30
0.0
 10
1.4029007046
 20
3.8926952441
 30
0.0
 10
1.3893393266
 20
3.8921806594
 30
0.0
 10
1.3769783884
 20
3.8916670006
 30
0.0
 10
1.3659202309
 20
3.8911542751
 30
0.0
 10
1.3575632156
 20
3.8907127596
 30
0.0
 10
1.3515973568
 20
3.8903541615
 30
0.0
 10
1.3476843114
 20
3.8900963825
 30
0.0
 10
1.3441579508
 20
3.8898390018
 30
0.0
 10
1.341025777
 20
3.8895820482
 30
0.0
 10
1.3382941781
 20
3.8893258001
 30
0.0
 10
1.3359685606
 20
3.8890704332
 30
0.0
 10
1.3342876645
 20
3.8888482361
 30
0.0
 10
1.3331507215
 20
3.8886659947
 30
0.0
 10
1.3324529553
 20
3.8885376054
 30
0.0
 10
1.3318596334
 20
3.8884096482
 30
0.0
 10
1.3313705153
 20
3.8882823467
 30
0.0
 10
1.3309856819
 20
3.8881559559
 30
0.0
 10
1.330768138
 20
3.8880600226
 30
0.0
 10
1.3306797618
 20
3.8880090295
 30
0.0
  0
LINE
  5
2F2
100
AcDbEntity
  8
0
100
AcDbLine
 62
7
  6
CONTINUOUS
 10
1.6983169518
 20
3.7592339661
 11
1.7209205815
 21
3.7605302654
  0
LINE
  5
2F3
100
AcDbEntity
  8
0
100
AcDbLine
 62
7
  6
CONTINUOUS
 10
1.7250897356
 20
3.7608543739
 11
1.7338136968
 21
3.7618265501
  0
LINE
  5
2F4
100
AcDbEntity
  8
0
100
AcDbLine
 62
7
  6
CONTINUOUS
 10
1.7338136968
 20
3.7618265501
 11
1.7363900236
 21
3.762474705
  0
LINE
  5
2F5
100
AcDbEntity
  8
0
100
AcDbLine
 62
7
  6
CONTINUOUS
 10
1.7363900236
 20
3.762474705
 11
1.7366908079
 21
3.7627839239
  0
SPLINE
  5
2F6
100
AcDbEntity
  8
0
100
AcDbSpline
 62
7
  6
CONTINUOUS
 70
0
 71
3
 72
11
 73
7
 74
0
 42
0.0000001
 43
0.0000001
 44
0.0000000001
 40
0.0
 40
0.0
 40
0.0
 40
0.0
 40
0.3392787916
 40
0.4709807969
 40
0.6245399281
 40
1.0
 40
1.0
 40
1.0
 40
1.0
 10
1.3589913158
 20
3.8341673154
 30
0.0
 10
1.3589911475
 20
3.834278401
 30
0.0
 10
1.3591314572
 20
3.8344070486
 30
0.0
 10
1.3593025154
 20
3.834508679
 30
0.0
 10
1.359498055
 20
3.8346053286
 30
0.0
 10
1.3596598717
 20
3.8346662656
 30
0.0
 10
1.3597761347
 20
3.834706206
 30
0.0
  0
SPLINE
  5
2F7
100
AcDbEntity
  8
0
100
AcDbSpline
 62
7
  6
CONTINUOUS
 70
0
 71
3
 72
47
 73
43
 74
0
 42
0.0000001
 43
0.0000001
 44
0.0000000001
 40
0.0
 40
0.0
 40
0.0
 40
0.0
 40
0.0012978209
 40
0.0028556145
 40
0.0067579995
 40
0.0117138258
 40
0.0177187853
 40
0.0247609811
 40
0.032826889
 40
0.0519682002
 40
0.0749801591
 40
0.101669785
 40
0.1318044293
 40
0.1651270437
 40
0.2013464494
 40
0.2401517037
 40
0.2812040222
 40
0.3241496267
 40
0.4142135297
 40
0.507224916
 40
0.599962713
 40
0.6452223984
 40
0.6892153753
 40
0.7315620159
 40
0.7718926251
 40
0.8098604517
 40
0.8451332183
 40
0.8774092028
 40
0.9064054111
 40
0.9318760212
 40
0.9432173995
 40
0.9535981945
 40
0.962996886
 40
0.9713922186
 40
0.9787664102
 40
0.9851072821
 40
0.9904041227
 40
0.9946483503
 40
0.9963753073
 40
0.9978404646
 40
0.9990467652
 40
1.0
 40
1.0
 40
1.0
 40
1.0
 10
1.3597761347
 20
3.834706206
 30
0.0
 10
1.3599187642
 20
3.8347552043
 30
0.0
 10
1.3602368715
 20
3.8348505359
 30
0.0
 10
1.3609993259
 20
3.8350392724
 30
0.0
 10
1.3621889322
 20
3.8352663911
 30
0.0
 10
1.3638966381
 20
3.8355257767
 30
0.0
 10
1.36597255
 20
3.8357864085
 30
0.0
 10
1.368412017
 20
3.8360483399
 30
0.0
 10
1.3723746231
 20
3.8364199718
 30
0.0
 10
1.3781929909
 20
3.8368725719
 30
0.0
 10
1.3861758918
 20
3.8373935628
 30
0.0
 10
1.395438491
 20
3.8379163082
 30
0.0
 10
1.4059007793
 20
3.838440709
 30
0.0
 10
1.4174716673
 20
3.8389659415
 30
0.0
 10
1.4300510189
 20
3.8394919319
 30
0.0
 10
1.4435292985
 20
3.8400183286
 30
0.0
 10
1.4577897282
 20
3.8405451388
 30
0.0
 10
1.4780037075
 20
3.8412591576
 30
0.0
 10
1.5042533771
 20
3.8421391602
 30
0.0
 10
1.5362868806
 20
3.8431803998
 30
0.0
 10
1.5631166579
 20
3.8440548418
 30
0.0
 10
1.5842526935
 20
3.8447636094
 30
0.0
 10
1.5995358963
 20
3.845290786
 30
0.0
 10
1.6142459813
 20
3.8458177086
 30
0.0
 10
1.6282554635
 20
3.8463444132
 30
0.0
 10
1.641442345
 20
3.8468706556
 30
0.0
 10
1.6536924754
 20
3.8473964629
 30
0.0
 10
1.6648990835
 20
3.8479213775
 30
0.0
 10
1.674965312
 20
3.8484454302
 30
0.0
 10
1.6825992573
 20
3.8488962445
 30
0.0
 10
1.6880710266
 20
3.8492621482
 30
0.0
 10
1.6916777958
 20
3.8495256112
 30
0.0
 10
1.6949412538
 20
3.8497887222
 30
0.0
 10
1.6978541253
 20
3.8500514053
 30
0.0
 10
1.7004100903
 20
3.8503135788
 30
0.0
 10
1.7026040136
 20
3.8505747143
 30
0.0
 10
1.7044312924
 20
3.8508346366
 30
0.0
 10
1.7057213767
 20
3.8510617529
 30
0.0
 10
1.7065649884
 20
3.8512495587
 30
0.0
 10
1.7070593729
 20
3.8513801131
 30
0.0
 10
1.707460231
 20
3.8515099983
 30
0.0
 10
1.7076924159
 20
3.85160695
 30
0.0
 10
1.7077909242
 20
3.8516576051
 30
0.0
  0
SPLINE
  5
2F8
100
AcDbEntity
  8
0
100
AcDbSpline
 62
7
  6
CONTINUOUS
 70
0
 71
3
 72
9
 73
5
 74
0
 42
0.0000001
 43
0.0000001
 44
0.0000000001
 40
0.0
 40
0.0
 40
0.0
 40
0.0
 40
0.2584626003
 40
1.0
 40
1.0
 40
1.0
 40
1.0
 10
1.7077909242
 20
3.8516576051
 30
0.0
 10
1.7077972961
 20
3.8516608816
 30
0.0
 10
1.7078218783
 20
3.8516736953
 30
0.0
 10
1.7078461699
 20
3.8516870703
 30
0.0
 10
1.707863968
 20
3.8516973561
 30
0.0
  0
SPLINE
  5
2F9
100
AcDbEntity
  8
0
100
AcDbSpline
 62
7
  6
CONTINUOUS
 70
0
 71
3
 72
17
 73
13
 74
0
 42
0.0000001
 43
0.0000001
 44
0.0000000001
 40
0.0
 40
0.0
 40
0.0
 40
0.0
 40
0.0189549108
 40
0.0435054461
 40
0.0738123593
 40
0.1099534367
 40
0.1998722254
 40
0.3134051616
 40
0.4504826706
 40
0.6108253064
 40
0.7941098153
 40
1.0
 40
1.0
 40
1.0
 40
1.0
 10
1.7364532082
 20
3.7611256028
 30
0.0
 10
1.7363738126
 20
3.7610797081
 30
0.0
 10
1.7361813005
 20
3.7609925739
 30
0.0
 10
1.7358432417
 20
3.7608770045
 30
0.0
 10
1.7354183573
 20
3.760760709
 30
0.0
 10
1.7346806328
 20
3.7605925309
 30
0.0
 10
1.7335387777
 20
3.7603896971
 30
0.0
 10
1.7319075282
 20
3.7601578628
 30
0.0
 10
1.7299328188
 20
3.7599249533
 30
0.0
 10
1.7276188461
 20
3.7596910016
 30
0.0
 10
1.7249705196
 20
3.7594565737
 30
0.0
 10
1.7230934444
 20
3.7593086248
 30
0.0
 10
1.7221001261
 20
3.7592339661
 30
0.0
  0
SPLINE
  5
2FA
100
AcDbEntity
  8
0
100
AcDbSpline
 62
7
  6
CONTINUOUS
 70
0
 71
3
 72
15
 73
11
 74
0
 42
0.0000001
 43
0.0000001
 44
0.0000000001
 40
0.0
 40
0.0
 40
0.0
 40
0.0
 40
0.0541464631
 40
0.1205782924
 40
0.2064193615
 40
0.3150141609
 40
0.4479807211
 40
0.6061736963
 40
0.7900814783
 40
1.0
 40
1.0
 40
1.0
 40
1.0
 10
1.3304411282
 20
3.8863506665
 30
0.0
 10
1.3304411282
 20
3.8863789702
 30
0.0
 10
1.3304597363
 20
3.8864422421
 30
0.0
 10
1.3305308772
 20
3.8865255734
 30
0.0
 10
1.3306411591
 20
3.8866068273
 30
0.0
 10
1.3307924102
 20
3.8866877355
 30
0.0
 10
1.3309851757
 20
3.8867688771
 30
0.0
 10
1.3312199322
 20
3.8868502434
 30
0.0
 10
1.3314967963
 20
3.8869318115
 30
0.0
 10
1.331696261
 20
3.8869828983
 30
0.0
 10
1.3318029081
 20
3.8870087255
 30
0.0
  0
LINE
  5
2FB
100
AcDbEntity
  8
0
100
AcDbLine
 62
7
  6
CONTINUOUS
 10
1.3318029081
 20
3.8870087255
 11
1.3335116043
 21
3.8873398414
  0
SPLINE
  5
2FC
100
AcDbEntity
  8
0
100
AcDbSpline
 62
7
  6
CONTINUOUS
 70
0
 71
3
 72
46
 73
42
 74
0
 42
0.0000001
 43
0.0000001
 44
0.0000000001
 40
0.0
 40
0.0
 40
0.0
 40
0.0
 40
0.0045387354
 40
0.0100909681
 40
0.0166469795
 40
0.0241959523
 40
0.0327245719
 40
0.0422140178
 40
0.0639956152
 40
0.0893664334
 40
0.1181139797
 40
0.1500035705
 40
0.1847688334
 40
0.222123282
 40
0.2617554673
 40
0.3465217251
 40
0.4362574321
 40
0.5279873425
 40
0.6186666856
 40
0.6626697665
 40
0.7052911867
 40
0.746178691
 40
0.7849901353
 40
0.8214054702
 40
0.8551190563
 40
0.8858542549
 40
0.9133533991
 40
0.937392954
 40
0.9480509887
 40
0.9577730247
 40
0.9665390889
 40
0.9743297356
 40
0.9811302708
 40
0.9869296127
 40
0.9917176673
 40
0.9937299157
 40
0.99548716
 40
0.996990176
 40
0.9982405621
 40
0.9992415301
 40
1.0
 40
1.0
 40
1.0
 40
1.0
 10
1.3335116043
 20
3.8873398414
 30
0.0
 10
1.3341141412
 20
3.887437175
 30
0.0
 10
1.3354584268
 20
3.8876244978
 30
0.0
 10
1.3376825758
 20
3.887879406
 30
0.0
 10
1.3403136722
 20
3.8881353773
 30
0.0
 10
1.343346539
 20
3.8883921214
 30
0.0
 10
1.3467750816
 20
3.8886493454
 30
0.0
 10
1.3521150525
 20
3.8890096177
 30
0.0
 10
1.3597192836
 20
3.8894518542
 30
0.0
 10
1.3699131918
 20
3.8899633558
 30
0.0
 10
1.3814678125
 20
3.8904762569
 30
0.0
 10
1.3942868134
 20
3.8909901228
 30
0.0
 10
1.4082640476
 20
3.8915047123
 30
0.0
 10
1.4232831026
 20
3.8920197765
 30
0.0
 10
1.44502352
 20
3.8927228387
 30
0.0
 10
1.4738062989
 20
3.893588331
 30
0.0
 10
1.5095934183
 20
3.8946071979
 30
0.0
 10
1.546175995
 20
3.8956267222
 30
0.0
 10
1.5766107896
 20
3.8964843329
 30
0.0
 10
1.6004436562
 20
3.8971791942
 30
0.0
 10
1.617583117
 20
3.8976950251
 30
0.0
 10
1.6340241116
 20
3.8982106002
 30
0.0
 10
1.6496301195
 20
3.8987259481
 30
0.0
 10
1.6642708741
 20
3.8992408273
 30
0.0
 10
1.677824872
 20
3.8997552426
 30
0.0
 10
1.69017897
 20
3.9002687391
 30
0.0
 10
1.7012309467
 20
3.9007812936
 30
0.0
 10
1.7095833192
 20
3.9012226783
 30
0.0
 10
1.7155459214
 20
3.9015811716
 30
0.0
 10
1.719456902
 20
3.9018388749
 30
0.0
 10
1.7229814032
 20
3.9020961797
 30
0.0
 10
1.726111904
 20
3.9023530625
 30
0.0
 10
1.7288420277
 20
3.9026092363
 30
0.0
 10
1.7311663944
 20
3.902864528
 30
0.0
 10
1.7328463899
 20
3.9030866585
 30
0.0
 10
1.7339827273
 20
3.9032688453
 30
0.0
 10
1.7346801292
 20
3.9033971954
 30
0.0
 10
1.7352731509
 20
3.9035251132
 30
0.0
 10
1.7357620333
 20
3.9036523755
 30
0.0
 10
1.7361466961
 20
3.9037787274
 30
0.0
 10
1.736364149
 20
3.9038746287
 30
0.0
 10
1.7364524932
 20
3.903925603
 30
0.0
  0
SPLINE
  5
2FD
100
AcDbEntity
  8
0
100
AcDbSpline
 62
7
  6
CONTINUOUS
 70
0
 71
3
 72
18
 73
14
 74
0
 42
0.0000001
 43
0.0000001
 44
0.0000000001
 40
0.0
 40
0.0
 40
0.0
 40
0.0
 40
0.0167777057
 40
0.0395395595
 40
0.0684369016
 40
0.1035236829
 40
0.1448144326
 40
0.1923048605
 40
0.3058106022
 40
0.4437607572
 40
0.6057584372
 40
0.7913781421
 40
1.0
 40
1.0
 40
1.0
 40
1.0
 10
1.3449595731
 20
3.9403823456
 30
0.0
 10
1.3450683393
 20
3.9404453708
 30
0.0
 10
1.3453424281
 20
3.9405619926
 30
0.0
 10
1.3458321953
 20
3.9407140468
 30
0.0
 10
1.3464642627
 20
3.9408672945
 30
0.0
 10
1.3472379257
 20
3.9410213968
 30
0.0
 10
1.3481531625
 20
3.9411759738
 30
0.0
 10
1.3496528674
 20
3.9413956935
 30
0.0
 10
1.3518770554
 20
3.9416628782
 30
0.0
 10
1.3549597669
 20
3.9419693439
 30
0.0
 10
1.3585849971
 20
3.9422765358
 30
0.0
 10
1.3627413052
 20
3.9425841524
 30
0.0
 10
1.3656888118
 20
3.94277819
 30
0.0
 10
1.3672488378
 20
3.9428761698
 30
0.0
  0
SPLINE
  5
2FE
100
AcDbEntity
  8
0
100
AcDbSpline
 62
7
  6
CONTINUOUS
 70
0
 71
3
 72
15
 73
11
 74
0
 42
0.0000001
 43
0.0000001
 44
0.0000000001
 40
0.0
 40
0.0
 40
0.0
 40
0.0
 40
0.0540739323
 40
0.120456011
 40
0.2062727656
 40
0.3148648329
 40
0.4478467655
 40
0.6060707945
 40
0.790023633
 40
1.0
 40
1.0
 40
1.0
 40
1.0
 10
1.3304411282
 20
3.9220506665
 30
0.0
 10
1.3304411282
 20
3.9220790262
 30
0.0
 10
1.3304598207
 20
3.922142441
 30
0.0
 10
1.3305312349
 20
3.9222259156
 30
0.0
 10
1.3306419232
 20
3.9223073137
 30
0.0
 10
1.3307937348
 20
3.922388368
 30
0.0
 10
1.3309872156
 20
3.9224696588
 30
0.0
 10
1.331222844
 20
3.9225511754
 30
0.0
 10
1.3315007361
 20
3.9226328947
 30
0.0
 10
1.3317009384
 20
3.9226840756
 30
0.0
 10
1.3318079802
 20
3.9227099506
 30
0.0
  0
SPLINE
  5
2FF
100
AcDbEntity
  8
0
100
AcDbSpline
 62
7
  6
CONTINUOUS
 70
0
 71
3
 72
48
 73
44
 74
0
 42
0.0000001
 43
0.0000001
 44
0.0000000001
 40
0.0
 40
0.0
 40
0.0
 40
0.0
 40
0.0015198139
 40
0.0033029075
 40
0.0076610307
 40
0.0130708222
 40
0.0195224274
 40
0.0270045875
 40
0.0355040192
 40
0.0554763428
 40
0.0792716013
 40
0.1066854499
 40
0.1374850356
 40
0.171402562
 40
0.208148117
 40
0.2474012703
 40
0.288825149
 40
0.3320592826
 40
0.4224572097
 40
0.5154824915
 40
0.6079221238
 40
0.6529210834
 40
0.6965851206
 40
0.7385381566
 40
0.778416624
 40
0.8158780564
 40
0.8505966976
 40
0.8822757681
 40
0.9106385292
 40
0.9354451124
 40
0.9464453818
 40
0.9564797475
 40
0.96552733
 40
0.9735675382
 40
0.9805836555
 40
0.9865638696
 40
0.9914975723
 40
0.9935692649
 40
0.9953768388
 40
0.9969210335
 40
0.9982034606
 40
0.9992273992
 40
1.0
 40
1.0
 40
1.0
 40
1.0
 10
1.3318079802
 20
3.9227099506
 30
0.0
 10
1.3320074908
 20
3.9227581777
 30
0.0
 10
1.3324435901
 20
3.9228525874
 30
0.0
 10
1.3334612681
 20
3.9230397817
 30
0.0
 10
1.335005158
 20
3.9232664095
 30
0.0
 10
1.3371803478
 20
3.9235259603
 30
0.0
 10
1.3397798617
 20
3.9237866317
 30
0.0
 10
1.342798289
 20
3.9240483108
 30
0.0
 10
1.3476399732
 20
3.9244180401
 30
0.0
 10
1.3546845957
 20
3.9248696524
 30
0.0
 10
1.3642839111
 20
3.9253899738
 30
0.0
 10
1.3753472583
 20
3.9259120827
 30
0.0
 10
1.3877789189
 20
3.926435528
 30
0.0
 10
1.4014718294
 20
3.9269599135
 30
0.0
 10
1.4163071693
 20
3.9274848574
 30
0.0
 10
1.4321568427
 20
3.9280103012
 30
0.0
 10
1.4488832672
 20
3.9285360199
 30
0.0
 10
1.472514528
 20
3.9292478972
 30
0.0
 10
1.5031129026
 20
3.9301253997
 30
0.0
 10
1.5403547397
 20
3.9311645576
 30
0.0
 10
1.5714675192
 20
3.9320378513
 30
0.0
 10
1.5959158807
 20
3.9327457085
 30
0.0
 10
1.6135482354
 20
3.9332717226
 30
0.0
 10
1.6304887378
 20
3.9337974917
 30
0.0
 10
1.6465911419
 20
3.9343230053
 30
0.0
 10
1.661715981
 20
3.9348480595
 30
0.0
 10
1.6757327647
 20
3.9353726383
 30
0.0
 10
1.6885198497
 20
3.935896288
 30
0.0
 10
1.6999670723
 20
3.9364189902
 30
0.0
 10
1.7086218312
 20
3.9368690603
 30
0.0
 10
1.7148020868
 20
3.9372346337
 30
0.0
 10
1.7188563216
 20
3.9374974558
 30
0.0
 10
1.7225098994
 20
3.9377598687
 30
0.0
 10
1.7257547179
 20
3.938021821
 30
0.0
 10
1.7285838426
 20
3.9382830564
 30
0.0
 10
1.7309914266
 20
3.9385433808
 30
0.0
 10
1.7327307728
 20
3.9387699133
 30
0.0
 10
1.733906474
 20
3.9389557443
 30
0.0
 10
1.7346272422
 20
3.9390866199
 30
0.0
 10
1.7352394593
 20
3.9392170473
 30
0.0
 10
1.7357433779
 20
3.9393467838
 30
0.0
 10
1.7361388956
 20
3.9394755634
 30
0.0
 10
1.736362124
 20
3.9395734545
 30
0.0
 10
1.7364525007
 20
3.939625603
 30
0.0
  0
SPLINE
  5
300
100
AcDbEntity
  8
0
100
AcDbSpline
 62
7
  6
CONTINUOUS
 70
0
 71
3
 72
19
 73
15
 74
0
 42
0.0000001
 43
0.0000001
 44
0.0000000001
 40
0.0
 40
0.0
 40
0.0
 40
0.0
 40
0.2032677667
 40
0.3855406142
 40
0.5458488633
 40
0.6835033354
 40
0.7979875784
 40
0.8464144001
 40
0.8889238749
 40
0.9255007561
 40
0.9561499576
 40
0.9809259699
 40
0.991159929
 40
1.0
 40
1.0
 40
1.0
 40
1.0
 10
1.367316168
 20
3.9371178429
 30
0.0
 10
1.3648372837
 20
3.9369274842
 30
0.0
 10
1.3601367539
 20
3.9365503357
 30
0.0
 10
1.353486876
 20
3.9359555622
 30
0.0
 10
1.3476429132
 20
3.9353622283
 30
0.0
 10
1.3426327912
 20
3.9347709053
 30
0.0
 10
1.3389920199
 20
3.9342570494
 30
0.0
 10
1.3365148352
 20
3.9338361201
 30
0.0
 10
1.3349836345
 20
3.9335388716
 30
0.0
 10
1.3336742087
 20
3.9332426163
 30
0.0
 10
1.3325880031
 20
3.9329474169
 30
0.0
 10
1.3318264065
 20
3.9326892328
 30
0.0
 10
1.3313336069
 20
3.9324769159
 30
0.0
 10
1.3311258568
 20
3.9323700913
 30
0.0
 10
1.3310322851
 20
3.9323159152
 30
0.0
  0
SPLINE
  5
301
100
AcDbEntity
  8
0
100
AcDbSpline
 62
7
  6
CONTINUOUS
 70
0
 71
3
 72
13
 73
9
 74
0
 42
0.0000001
 43
0.0000001
 44
0.0000000001
 40
0.0
 40
0.0
 40
0.0
 40
0.0
 40
0.0715420855
 40
0.1508638466
 40
0.2437736065
 40
0.3539407495
 40
0.633734747
 40
1.0
 40
1.0
 40
1.0
 40
1.0
 10
1.3589912888
 20
3.7984673171
 30
0.0
 10
1.3589913194
 20
3.7984887725
 30
0.0
 10
1.3589996576
 20
3.7985342712
 30
0.0
 10
1.359034904
 20
3.79859929
 30
0.0
 10
1.3590914649
 20
3.798663023
 30
0.0
 10
1.3592042521
 20
3.7987545442
 30
0.0
 10
1.3594042145
 20
3.7988644097
 30
0.0
 10
1.3595839791
 20
3.7989370455
 30
0.0
 10
1.3596871605
 20
3.798974716
 30
0.0
  0
SPLINE
  5
302
100
AcDbEntity
  8
0
100
AcDbSpline
 62
7
  6
CONTINUOUS
 70
0
 71
3
 72
49
 73
45
 74
0
 42
0.0000001
 43
0.0000001
 44
0.0000000001
 40
0.0
 40
0.0
 40
0.0
 40
0.0
 40
0.0012366224
 40
0.0027332078
 40
0.0044926336
 40
0.0065160264
 40
0.0113534161
 40
0.0172399616
 40
0.0241669187
 40
0.0321233641
 40
0.041092107
 40
0.0510532479
 40
0.07387063
 40
0.1003816399
 40
0.1303577518
 40
0.1635397288
 40
0.1996404552
 40
0.2383461842
 40
0.2793216429
 40
0.3222101805
 40
0.4122242434
 40
0.5052663852
 40
0.5981090525
 40
0.6434453619
 40
0.6875316464
 40
0.7299829197
 40
0.7704327659
 40
0.8085271515
 40
0.843938541
 40
0.8763564431
 40
0.9055036961
 40
0.9311247996
 40
0.9425449691
 40
0.9530033386
 40
0.9624775195
 40
0.9709496286
 40
0.9784023661
 40
0.9848192276
 40
0.9901891776
 40
0.9945070299
 40
0.9962711424
 40
0.9977727843
 40
0.9990140345
 40
1.0
 40
1.0
 40
1.0
 40
1.0
 10
1.3596871605
 20
3.798974716
 30
0.0
 10
1.3598221673
 20
3.7990240056
 30
0.0
 10
1.3601253927
 20
3.7991196593
 30
0.0
 10
1.360631034
 20
3.7992503792
 30
0.0
 10
1.3612305616
 20
3.7993815264
 30
0.0
 10
1.3622149955
 20
3.7995680589
 30
0.0
 10
1.3636793388
 20
3.7997953201
 30
0.0
 10
1.3657142115
 20
3.800056337
 30
0.0
 10
1.368114003
 20
3.800318302
 30
0.0
 10
1.3708737413
 20
3.800580971
 30
0.0
 10
1.373987475
 20
3.8008441555
 30
0.0
 10
1.3788254795
 20
3.8012124696
 30
0.0
 10
1.3857015585
 20
3.8016646018
 30
0.0
 10
1.394903705
 20
3.8021879558
 30
0.0
 10
1.4053120927
 20
3.8027126041
 30
0.0
 10
1.4168362229
 20
3.8032382966
 30
0.0
 10
1.4293758613
 20
3.8037646449
 30
0.0
 10
1.4428219915
 20
3.8042914971
 30
0.0
 10
1.4570575706
 20
3.8048186989
 30
0.0
 10
1.477253431
 20
3.8055335111
 30
0.0
 10
1.5034984759
 20
3.8064143771
 30
0.0
 10
1.5355471245
 20
3.8074564607
 30
0.0
 10
1.5624059183
 20
3.8083314415
 30
0.0
 10
1.5835773227
 20
3.8090406996
 30
0.0
 10
1.5988949207
 20
3.8095682831
 30
0.0
 10
1.6136442614
 20
3.8100957061
 30
0.0
 10
1.627696759
 20
3.8106227976
 30
0.0
 10
1.6409304729
 20
3.8111495734
 30
0.0
 10
1.6532299339
 20
3.8116757475
 30
0.0
 10
1.6644885488
 20
3.8122012424
 30
0.0
 10
1.6746080036
 20
3.8127256417
 30
0.0
 10
1.6822874397
 20
3.8131769297
 30
0.0
 10
1.6877958329
 20
3.8135429714
 30
0.0
 10
1.6914301914
 20
3.8138066544
 30
0.0
 10
1.6947209559
 20
3.8140700626
 30
0.0
 10
1.6976612092
 20
3.8143330283
 30
0.0
 10
1.7002445957
 20
3.8145953851
 30
0.0
 10
1.7024654842
 20
3.8148567898
 30
0.0
 10
1.7043191488
 20
3.8151171287
 30
0.0
 10
1.7056310724
 20
3.8153444755
 30
0.0
 10
1.706492364
 20
3.8155322001
 30
0.0
 10
1.7069998212
 20
3.8156629016
 30
0.0
 10
1.7074133969
 20
3.8157929653
 30
0.0
 10
1.7076540895
 20
3.8158898463
 30
0.0
 10
1.7077569384
 20
3.8159403758
 30
0.0
  0
LINE
  5
303
100
AcDbEntity
  8
0
100
AcDbLine
 62
7
  6
CONTINUOUS
 10
1.7077569384
 20
3.8159403758
 11
1.7078641574
 21
3.8159973577
  0
SPLINE
  5
304
100
AcDbEntity
  8
0
100
AcDbSpline
 62
7
  6
CONTINUOUS
 70
0
 71
3
 72
15
 73
11
 74
0
 42
0.0000001
 43
0.0000001
 44
0.0000000001
 40
0.0
 40
0.0
 40
0.0
 40
0.0
 40
0.0540277474
 40
0.120377854
 40
0.2061786204
 40
0.3147684126
 40
0.4477597614
 40
0.6060035418
 40
0.7899855799
 40
1.0
 40
1.0
 40
1.0
 40
1.0
 10
1.7366911282
 20
3.7984839661
 30
0.0
 10
1.7366911282
 20
3.7984555708
 30
0.0
 10
1.7366723823
 20
3.7983920653
 30
0.0
 10
1.7366007949
 20
3.7983084996
 30
0.0
 10
1.7364898484
 20
3.7982270098
 30
0.0
 10
1.7363376803
 20
3.7981458627
 30
0.0
 10
1.7361437441
 20
3.7980644772
 30
0.0
 10
1.7359075599
 20
3.7979828649
 30
0.0
 10
1.7356290114
 20
3.7979010493
 30
0.0
 10
1.735428338
 20
3.7978498084
 30
0.0
 10
1.7353210439
 20
3.797823903
 30
0.0
  0
LINE
  5
305
100
AcDbEntity
  8
0
100
AcDbLine
 62
7
  6
CONTINUOUS
 10
1.7353210439
 20
3.797823903
 11
1.733603499
 21
3.797492025
  0
SPLINE
  5
306
100
AcDbEntity
  8
0
100
AcDbSpline
 62
7
  6
CONTINUOUS
 70
0
 71
3
 72
46
 73
42
 74
0
 42
0.0000001
 43
0.0000001
 44
0.0000000001
 40
0.0
 40
0.0
 40
0.0
 40
0.0
 40
0.0045489659
 40
0.0101110712
 40
0.016676555
 40
0.0242345667
 40
0.0327717871
 40
0.0422693747
 40
0.0640657285
 40
0.0894493307
 40
0.1182082766
 40
0.1501082227
 40
0.1848822016
 40
0.2222437644
 40
0.2618805288
 40
0.3466491819
 40
0.4363784645
 40
0.5280972806
 40
0.6187638891
 40
0.6627587397
 40
0.705370951
 40
0.7462484379
 40
0.7850493099
 40
0.8214540103
 40
0.8551576538
 40
0.8858840247
 40
0.9133758811
 40
0.9374092856
 40
0.9480645117
 40
0.9577839343
 40
0.966547643
 40
0.9743362266
 40
0.9811349394
 40
0.9869327305
 40
0.9917195462
 40
0.9937313014
 40
0.9954881234
 40
0.9969907878
 40
0.9982408952
 40
0.9992416591
 40
1.0
 40
1.0
 40
1.0
 40
1.0
 10
1.733603499
 20
3.797492025
 30
0.0
 10
1.7329995876
 20
3.7973947383
 30
0.0
 10
1.7316526263
 20
3.797207471
 30
0.0
 10
1.7294245687
 20
3.7969525888
 30
0.0
 10
1.7267897495
 20
3.796696649
 30
0.0
 10
1.7237533526
 20
3.7964399402
 30
0.0
 10
1.7203214792
 20
3.7961827543
 30
0.0
 10
1.7149774887
 20
3.7958225609
 30
0.0
 10
1.7073687758
 20
3.795380404
 30
0.0
 10
1.6971700612
 20
3.7948689743
 30
0.0
 10
1.685611287
 20
3.7943561422
 30
0.0
 10
1.6727887355
 20
3.7938423413
 30
0.0
 10
1.6588085784
 20
3.793327805
 30
0.0
 10
1.6437874223
 20
3.7928128083
 30
0.0
 10
1.6220460427
 20
3.792109854
 30
0.0
 10
1.5932644254
 20
3.7912445147
 30
0.0
 10
1.5574808777
 20
3.7902258117
 30
0.0
 10
1.5209039422
 20
3.7892064513
 30
0.0
 10
1.4904747679
 20
3.7883489663
 30
0.0
 10
1.4666469842
 20
3.7876542063
 30
0.0
 10
1.449511953
 20
3.7871384656
 30
0.0
 10
1.4330756727
 20
3.7866229872
 30
0.0
 10
1.4174745348
 20
3.7861077441
 30
0.0
 10
1.4028385988
 20
3.7855929715
 30
0.0
 10
1.3892891379
 20
3.785078666
 30
0.0
 10
1.3769390756
 20
3.7845652676
 30
0.0
 10
1.3658905688
 20
3.7840528035
 30
0.0
 10
1.3575407406
 20
3.7836114943
 30
0.0
 10
1.3515799514
 20
3.7832530593
 30
0.0
 10
1.3476701853
 20
3.7829953983
 30
0.0
 10
1.3441467816
 20
3.7827381357
 30
0.0
 10
1.3410172549
 20
3.7824812972
 30
0.0
 10
1.3382879799
 20
3.7822251662
 30
0.0
 10
1.3359643337
 20
3.7819699176
 30
0.0
 10
1.3342848521
 20
3.7817478253
 30
0.0
 10
1.3331488528
 20
3.7815656723
 30
0.0
 10
1.332451651
 20
3.7814373448
 30
0.0
 10
1.331858796
 20
3.7813094493
 30
0.0
 10
1.3313700465
 20
3.7811822088
 30
0.0
 10
1.3309854816
 20
3.7810558781
 30
0.0
 10
1.3307680818
 20
3.7809599938
 30
0.0
 10
1.3306797568
 20
3.7809090295
 30
0.0
  0
SPLINE
  5
307
100
AcDbEntity
  8
0
100
AcDbSpline
 62
7
  6
CONTINUOUS
 70
0
 71
3
 72
13
 73
9
 74
0
 42
0.0000001
 43
0.0000001
 44
0.0000000001
 40
0.0
 40
0.0
 40
0.0
 40
0.0
 40
0.065891098
 40
0.1408277755
 40
0.2311662977
 40
0.3406086104
 40
0.6240454355
 40
1.0
 40
1.0
 40
1.0
 40
1.0
 10
1.3589915237
 20
3.7627673175
 30
0.0
 10
1.3589915358
 20
3.7627918468
 30
0.0
 10
1.3590026459
 20
3.7628446025
 30
0.0
 10
1.3590487178
 20
3.7629186324
 30
0.0
 10
1.3591219392
 20
3.7629909074
 30
0.0
 10
1.3592688966
 20
3.7630955223
 30
0.0
 10
1.3595281898
 20
3.7632202372
 30
0.0
 10
1.3597596303
 20
3.7633023491
 30
0.0
 10
1.3598929049
 20
3.7633450782
 30
0.0
  0
SPLINE
  5
308
100
AcDbEntity
  8
0
100
AcDbSpline
 62
7
  6
CONTINUOUS
 70
0
 71
3
 72
47
 73
43
 74
0
 42
0.0000001
 43
0.0000001
 44
0.0000000001
 40
0.0
 40
0.0
 40
0.0
 40
0.0
 40
0.001368175
 40
0.0029955544
 40
0.007031821
 40
0.0121107548
 40
0.0182279813
 40
0.0253748956
 40
0.0335360567
 40
0.052832127
 40
0.0759614568
 40
0.1027238583
 40
0.1328953944
 40
0.1662140311
 40
0.2023974271
 40
0.2411319805
 40
0.2820874254
 40
0.3249096294
 40
0.4146724147
 40
0.5073391871
 40
0.5997286137
 40
0.6448249177
 40
0.6886689389
 40
0.730884362
 40
0.7711073831
 40
0.8089934333
 40
0.8442156758
 40
0.8764735585
 40
0.9054884908
 40
0.9310149302
 40
0.9424000441
 40
0.9528328805
 40
0.962293414
 40
0.9707620567
 40
0.9782197654
 40
0.9846523285
 40
0.9900503361
 40
0.9944063437
 40
0.9961925054
 40
0.9977180541
 40
0.9989855706
 40
1.0
 40
1.0
 40
1.0
 40
1.0
 10
1.3598929049
 20
3.7633450782
 30
0.0
 10
1.3600442129
 20
3.763393589
 30
0.0
 10
1.3603792096
 20
3.763488204
 30
0.0
 10
1.3611742121
 20
3.7636756074
 30
0.0
 10
1.3624017842
 20
3.7639017262
 30
0.0
 10
1.364151955
 20
3.7641603232
 30
0.0
 10
1.3662665283
 20
3.7644201192
 30
0.0
 10
1.3687411427
 20
3.764680973
 30
0.0
 10
1.372742986
 20
3.7650505766
 30
0.0
 10
1.3786008785
 20
3.7655013283
 30
0.0
 10
1.3866194106
 20
3.7660200945
 30
0.0
 10
1.3959031352
 20
3.7665408469
 30
0.0
 10
1.4063717418
 20
3.7670629486
 30
0.0
 10
1.4179356377
 20
3.7675860539
 30
0.0
 10
1.4304949081
 20
3.7681097323
 30
0.0
 10
1.4439417793
 20
3.7686339371
 30
0.0
 10
1.4581601931
 20
3.7691584398
 30
0.0
 10
1.4783019507
 20
3.7698693058
 30
0.0
 10
1.5044471273
 20
3.7707454712
 30
0.0
 10
1.5363466553
 20
3.7717823414
 30
0.0
 10
1.5630614632
 20
3.7726530572
 30
0.0
 10
1.5841085501
 20
3.7733587416
 30
0.0
 10
1.5993314105
 20
3.7738836336
 30
0.0
 10
1.6139879683
 20
3.7744083057
 30
0.0
 10
1.6279521388
 20
3.7749327294
 30
0.0
 10
1.6411035637
 20
3.7754567432
 30
0.0
 10
1.6533291869
 20
3.7759802868
 30
0.0
 10
1.6645235779
 20
3.7765030151
 30
0.0
 10
1.6745906295
 20
3.777024844
 30
0.0
 10
1.6822340037
 20
3.7774736836
 30
0.0
 10
1.6877203499
 20
3.777837774
 30
0.0
 10
1.6913434474
 20
3.7781001436
 30
0.0
 10
1.6946268935
 20
3.7783621863
 30
0.0
 10
1.6975636522
 20
3.7786237825
 30
0.0
 10
1.7001472383
 20
3.7788848644
 30
0.0
 10
1.7023722897
 20
3.77914505
 30
0.0
 10
1.7042343319
 20
3.7794041161
 30
0.0
 10
1.7055558357
 20
3.7796302397
 30
0.0
 10
1.7064266963
 20
3.7798168065
 30
0.0
 10
1.7069425355
 20
3.7799469388
 30
0.0
 10
1.707365493
 20
3.7800764745
 30
0.0
 10
1.7076130271
 20
3.7801726215
 30
0.0
 10
1.7077196878
 20
3.7802226525
 30
0.0
  0
LINE
  5
309
100
AcDbEntity
  8
0
100
AcDbLine
 62
7
  6
CONTINUOUS
 10
1.7077196878
 20
3.7802226525
 11
1.7078639121
 21
3.7802973568
  0
SPLINE
  5
30A
100
AcDbEntity
  8
0
100
AcDbSpline
 62
7
  6
CONTINUOUS
 70
0
 71
3
 72
28
 73
24
 74
0
 42
0.0000001
 43
0.0000001
 44
0.0000000001
 40
0.0
 40
0.0
 40
0.0
 40
0.0
 40
0.0015991345
 40
0.0030023703
 40
0.004869666
 40
0.0072166388
 40
0.0100508024
 40
0.017194685
 40
0.0263183865
 40
0.0374276874
 40
0.0505244593
 40
0.0656087234
 40
0.1017260902
 40
0.1457247279
 40
0.1975372838
 40
0.2570944885
 40
0.3243201936
 40
0.3991144136
 40
0.4813710345
 40
0.5709837021
 40
0.6678330767
 40
0.7717449118
 40
1.0
 40
1.0
 40
1.0
 40
1.0
 10
1.3304411282
 20
3.9495522926
 30
0.0
 10
1.3304411282
 20
3.9495719864
 30
0.0
 10
1.3304770984
 20
3.9496002244
 30
0.0
 10
1.3305290726
 20
3.9496238547
 30
0.0
 10
1.3305955316
 20
3.9496468294
 30
0.0
 10
1.3306790604
 20
3.949669132
 30
0.0
 10
1.3308274588
 20
3.9497020172
 30
0.0
 10
1.3310593901
 20
3.9497413375
 30
0.0
 10
1.3313935973
 20
3.9497863552
 30
0.0
 10
1.3318015792
 20
3.9498315669
 30
0.0
 10
1.3322833291
 20
3.9498770183
 30
0.0
 10
1.3330725471
 20
3.9499417003
 30
0.0
 10
1.3342423673
 20
3.950020456
 30
0.0
 10
1.335864599
 20
3.9501109004
 30
0.0
 10
1.337775863
 20
3.9502016749
 30
0.0
 10
1.3399734346
 20
3.9502927245
 30
0.0
 10
1.3424542387
 20
3.950383927
 30
0.0
 10
1.3452147545
 20
3.9504752645
 30
0.0
 10
1.3482511044
 20
3.9505667048
 30
0.0
 10
1.3515591788
 20
3.9506582245
 30
0.0
 10
1.3551340353
 20
3.9507497926
 30
0.0
 10
1.3604159743
 20
3.9508759232
 30
0.0
 10
1.3645057444
 20
3.9509643004
 30
0.0
 10
1.367316168
 20
3.9510221287
 30
0.0
  0
SPLINE
  5
30B
100
AcDbEntity
  8
0
100
AcDbSpline
 62
7
  6
CONTINUOUS
 70
0
 71
3
 72
15
 73
11
 74
0
 42
0.0000001
 43
0.0000001
 44
0.0000000001
 40
0.0
 40
0.0
 40
0.0
 40
0.0
 40
0.0540969208
 40
0.1204948915
 40
0.2063195649
 40
0.3149127221
 40
0.4478899377
 40
0.6061041327
 40
0.790042477
 40
1.0
 40
1.0
 40
1.0
 40
1.0
 10
1.3304411282
 20
3.7792506665
 30
0.0
 10
1.3304411282
 20
3.7792790085
 30
0.0
 10
1.3304597941
 20
3.779342378
 30
0.0
 10
1.330531122
 20
3.7794258072
 30
0.0
 10
1.3306416818
 20
3.7795071596
 30
0.0
 10
1.330793316
 20
3.7795881676
 30
0.0
 10
1.3309865702
 20
3.7796694112
 30
0.0
 10
1.331221922
 20
3.7797508801
 30
0.0
 10
1.3314994878
 20
3.7798325514
 30
0.0
 10
1.3316994558
 20
3.7798837025
 30
0.0
 10
1.3318063722
 20
3.7799095623
 30
0.0
  0
LINE
  5
30C
100
AcDbEntity
  8
0
100
AcDbLine
 62
7
  6
CONTINUOUS
 10
1.3318063722
 20
3.7799095623
 11
1.3335097738
 21
3.7802395458
  0
SPLINE
  5
30D
100
AcDbEntity
  8
0
100
AcDbSpline
 62
7
  6
CONTINUOUS
 70
0
 71
3
 72
46
 73
42
 74
0
 42
0.0000001
 43
0.0000001
 44
0.0000000001
 40
0.0
 40
0.0
 40
0.0
 40
0.0
 40
0.0045375448
 40
0.0100885579
 40
0.0166433249
 40
0.0241910284
 40
0.0327182231
 40
0.0422061634
 40
0.0639852698
 40
0.0893540163
 40
0.1181007297
 40
0.1499904893
 40
0.1847567464
 40
0.2221126231
 40
0.2617459993
 40
0.3465139013
 40
0.4362516644
 40
0.5279865446
 40
0.6186710896
 40
0.6626751234
 40
0.7052963208
 40
0.7461827417
 40
0.7849929375
 40
0.8214072355
 40
0.855120343
 40
0.8858556341
 40
0.9133549369
 40
0.9373947392
 40
0.9480526576
 40
0.9577743824
 40
0.9665401907
 40
0.9743307532
 40
0.9811310224
 40
0.9869300199
 40
0.9917178174
 40
0.9937300133
 40
0.9954872231
 40
0.9969902137
 40
0.9982405819
 40
0.9992415378
 40
1.0
 40
1.0
 40
1.0
 40
1.0
 10
1.3335097738
 20
3.7802395458
 30
0.0
 10
1.3341121508
 20
3.7803368829
 30
0.0
 10
1.3354561154
 20
3.780524208
 30
0.0
 10
1.3376797805
 20
3.7807791129
 30
0.0
 10
1.3403103853
 20
3.7810350801
 30
0.0
 10
1.3433427353
 20
3.7812918169
 30
0.0
 10
1.3467707277
 20
3.7815490368
 30
0.0
 10
1.3521099926
 20
3.7819093106
 30
0.0
 10
1.3597134422
 20
3.7823515355
 30
0.0
 10
1.3699066703
 20
3.7828630521
 30
0.0
 10
1.3814609755
 20
3.7833759673
 30
0.0
 10
1.3942800787
 20
3.7838898654
 30
0.0
 10
1.4082577249
 20
3.7844044889
 30
0.0
 10
1.4232773344
 20
3.7849195839
 30
0.0
 10
1.4450184246
 20
3.7856226834
 30
0.0
 10
1.4738019935
 20
3.7864882062
 30
0.0
 10
1.5095904433
 20
3.787507115
 30
0.0
 10
1.5461748324
 20
3.78852669
 30
0.0
 10
1.5766112628
 20
3.7893843457
 30
0.0
 10
1.6004450367
 20
3.7900792356
 30
0.0
 10
1.6175845289
 20
3.7905950678
 30
0.0
 10
1.634025256
 20
3.7911106376
 30
0.0
 10
1.6496308831
 20
3.7916259736
 30
0.0
 10
1.6642713337
 20
3.7921408434
 30
0.0
 10
1.6778252027
 20
3.7926552564
 30
0.0
 10
1.6901793272
 20
3.7931687523
 30
0.0
 10
1.7012314214
 20
3.7936813207
 30
0.0
 10
1.7095838716
 20
3.7941227052
 30
0.0
 10
1.715546477
 20
3.7944812027
 30
0.0
 10
1.7194573832
 20
3.79473891
 30
0.0
 10
1.7229818128
 20
3.7949962177
 30
0.0
 10
1.7261122472
 20
3.7952530903
 30
0.0
 10
1.7288422902
 20
3.7955092587
 30
0.0
 10
1.7311665512
 20
3.7957645441
 30
0.0
 10
1.7328464664
 20
3.7959866697
 30
0.0
 10
1.7339827637
 20
3.7961688478
 30
0.0
 10
1.7346801541
 20
3.7962971951
 30
0.0
 10
1.7352731683
 20
3.7964251115
 30
0.0
 10
1.7357620455
 20
3.7965523734
 30
0.0
 10
1.7361467047
 20
3.7966787259
 30
0.0
 10
1.7363641556
 20
3.7967746281
 30
0.0
 10
1.7364524988
 20
3.796825603
 30
0.0
  0
SPLINE
  5
30E
100
AcDbEntity
  8
0
100
AcDbSpline
 62
7
  6
CONTINUOUS
 70
0
 71
3
 72
15
 73
11
 74
0
 42
0.0000001
 43
0.0000001
 44
0.0000000001
 40
0.0
 40
0.0
 40
0.0
 40
0.0
 40
0.0541595135
 40
0.120600338
 40
0.2064458535
 40
0.3150412173
 40
0.4480050603
 40
0.6061924483
 40
0.790092052
 40
1.0
 40
1.0
 40
1.0
 40
1.0
 10
1.3304411282
 20
3.8149506665
 30
0.0
 10
1.3304411282
 20
3.8149789602
 30
0.0
 10
1.3304597212
 20
3.8150422064
 30
0.0
 10
1.3305308133
 20
3.8151255121
 30
0.0
 10
1.3306410224
 20
3.81520674
 30
0.0
 10
1.3307921731
 20
3.815287622
 30
0.0
 10
1.3309848105
 20
3.8153687369
 30
0.0
 10
1.3312194107
 20
3.8154500763
 30
0.0
 10
1.3314960904
 20
3.8155316172
 30
0.0
 10
1.3316954227
 20
3.8155826871
 30
0.0
 10
1.331801999
 20
3.8156085057
 30
0.0
  0
LINE
  5
30F
100
AcDbEntity
  8
0
100
AcDbLine
 62
7
  6
CONTINUOUS
 10
1.331801999
 20
3.8156085057
 11
1.333509648
 21
3.8159395255
  0
SPLINE
  5
310
100
AcDbEntity
  8
0
100
AcDbSpline
 62
7
  6
CONTINUOUS
 70
0
 71
3
 72
46
 73
42
 74
0
 42
0.0000001
 43
0.0000001
 44
0.0000000001
 40
0.0
 40
0.0
 40
0.0
 40
0.0
 40
0.0045375651
 40
0.0100886679
 40
0.0166435953
 40
0.0241915344
 40
0.03271917
 40
0.0422076826
 40
0.063987581
 40
0.0893569259
 40
0.1181032394
 40
0.1499918335
 40
0.1847563088
 40
0.2221101703
 40
0.2617419901
 40
0.3465081597
 40
0.4362445367
 40
0.5279757379
 40
0.6186567643
 40
0.6626607724
 40
0.7052831692
 40
0.7461716761
 40
0.7849841184
 40
0.8214004321
 40
0.8551149542
 40
0.8858510278
 40
0.9133509534
 40
0.9373911967
 40
0.9480495371
 40
0.9577718507
 40
0.9665381661
 40
0.9743290383
 40
0.9811297694
 40
0.9869292764
 40
0.9917174643
 40
0.9937297673
 40
0.9954870579
 40
0.9969901119
 40
0.9982405277
 40
0.999241517
 40
1.0
 40
1.0
 40
1.0
 40
1.0
 10
1.333509648
 20
3.8159395255
 30
0.0
 10
1.3341120277
 20
3.8160368644
 30
0.0
 10
1.3354560071
 20
3.8162241935
 30
0.0
 10
1.3376797088
 20
3.8164791046
 30
0.0
 10
1.3403103792
 20
3.8167350794
 30
0.0
 10
1.3433428421
 20
3.8169918275
 30
0.0
 10
1.3467710034
 20
3.8172490558
 30
0.0
 10
1.3521105126
 20
3.817609337
 30
0.0
 10
1.3597142276
 20
3.8180515825
 30
0.0
 10
1.3699075925
 20
3.8185630928
 30
0.0
 10
1.3814617712
 20
3.819076003
 30
0.0
 10
1.3942804287
 20
3.8195898784
 30
0.0
 10
1.4082574123
 20
3.8201044773
 30
0.0
 10
1.4232763067
 20
3.8206195508
 30
0.0
 10
1.4450166905
 20
3.8213226277
 30
0.0
 10
1.4737996394
 20
3.8221881376
 30
0.0
 10
1.5095871861
 20
3.8232070235
 30
0.0
 10
1.5461704323
 20
3.8242265671
 30
0.0
 10
1.5766059009
 20
3.8250841933
 30
0.0
 10
1.6004393669
 20
3.8257790672
 30
0.0
 10
1.6175793026
 20
3.826294908
 30
0.0
 10
1.6340207783
 20
3.826810493
 30
0.0
 10
1.6496272635
 20
3.8273258508
 30
0.0
 10
1.6642684817
 20
3.8278407398
 30
0.0
 10
1.6778229213
 20
3.8283551651
 30
0.0
 10
1.6901774286
 20
3.8288686712
 30
0.0
 10
1.7012297749
 20
3.8293812354
 30
0.0
 10
1.7095824272
 20
3.8298226281
 30
0.0
 10
1.7155452297
 20
3.8301811279
 30
0.0
 10
1.7194563417
 20
3.8304388359
 30
0.0
 10
1.7229809618
 20
3.8306961455
 30
0.0
 10
1.7261115684
 20
3.8309530329
 30
0.0
 10
1.7288417844
 20
3.8312092114
 30
0.0
 10
1.731166229
 20
3.8314645079
 30
0.0
 10
1.7328462802
 20
3.8316866425
 30
0.0
 10
1.7339826547
 20
3.8318688328
 30
0.0
 10
1.7346800787
 20
3.8319971853
 30
0.0
 10
1.7352731186
 20
3.8321251055
 30
0.0
 10
1.7357620153
 20
3.8322523701
 30
0.0
 10
1.7361466885
 20
3.8323787244
 30
0.0
 10
1.736364147
 20
3.8324746276
 30
0.0
 10
1.7364524931
 20
3.832525603
 30
0.0
  0
LINE
  5
311
100
AcDbEntity
  8
0
100
AcDbLine
 62
7
  6
CONTINUOUS
 10
1.3592682625
 20
3.904537275
 11
1.3601914413
 21
3.904883983
  0
SPLINE
  5
312
100
AcDbEntity
  8
0
100
AcDbSpline
 62
7
  6
CONTINUOUS
 70
0
 71
3
 72
50
 73
46
 74
0
 42
0.0000001
 43
0.0000001
 44
0.0000000001
 40
0.0
 40
0.0
 40
0.0
 40
0.0
 40
0.001571594
 40
0.0034129722
 40
0.0079062319
 40
0.0134779145
 40
0.0201213574
 40
0.0278259139
 40
0.0365739867
 40
0.0571234943
 40
0.0815975109
 40
0.1097762634
 40
0.1414146284
 40
0.1762280045
 40
0.2139100615
 40
0.2541226129
 40
0.2965097826
 40
0.3406920219
 40
0.4328572915
 40
0.5273393319
 40
0.5743986766
 40
0.6207762247
 40
0.6660593663
 40
0.7098434181
 40
0.7517394828
 40
0.791372618
 40
0.8283919263
 40
0.8624654306
 40
0.8932932247
 40
0.9205983173
 40
0.9441433661
 40
0.963717544
 40
0.9719633775
 40
0.9791579402
 40
0.985285065
 40
0.9879453582
 40
0.9903359258
 40
0.9924564092
 40
0.9943068246
 40
0.9958878219
 40
0.997201208
 40
0.9982512362
 40
0.9986805961
 40
0.9990489167
 40
1.0
 40
1.0
 40
1.0
 40
1.0
 10
1.3601914413
 20
3.904883983
 30
0.0
 10
1.3603674312
 20
3.9049329127
 30
0.0
 10
1.3607525286
 20
3.9050287297
 30
0.0
 10
1.3616517293
 20
3.9052187042
 30
0.0
 10
1.3630168024
 20
3.9054489391
 30
0.0
 10
1.3649409427
 20
3.9057126991
 30
0.0
 10
1.3672411444
 20
3.905977551
 30
0.0
 10
1.3699124626
 20
3.9062433334
 30
0.0
 10
1.3741968341
 20
3.9066189529
 30
0.0
 10
1.3804300666
 20
3.90707768
 30
0.0
 10
1.3889219734
 20
3.9076061733
 30
0.0
 10
1.3987047795
 20
3.9081365743
 30
0.0
 10
1.4096907894
 20
3.9086682608
 30
0.0
 10
1.4217824804
 20
3.9092009138
 30
0.0
 10
1.4348716008
 20
3.9097341217
 30
0.0
 10
1.4488416757
 20
3.9102678338
 30
0.0
 10
1.4635677694
 20
3.9108018358
 30
0.0
 10
1.4843293954
 20
3.911524347
 30
0.0
 10
1.5111437609
 20
3.9124147568
 30
0.0
 10
1.5382930283
 20
3.9132950709
 30
0.0
 10
1.5601230338
 20
3.9140087279
 30
0.0
 10
1.5762374912
 20
3.914543231
 30
0.0
 10
1.5919710557
 20
3.9150775937
 30
0.0
 10
1.6071834379
 20
3.9156118033
 30
0.0
 10
1.6217387151
 20
3.9161457273
 30
0.0
 10
1.6355071893
 20
3.9166793447
 30
0.0
 10
1.6483657521
 20
3.9172124227
 30
0.0
 10
1.6601999629
 20
3.917744885
 30
0.0
 10
1.6709039005
 20
3.9182763073
 30
0.0
 10
1.6803825524
 20
3.9188062793
 30
0.0
 10
1.6885509799
 20
3.919334163
 30
0.0
 10
1.6945037436
 20
3.9197930775
 30
0.0
 10
1.6985560863
 20
3.920169758
 30
0.0
 10
1.7010488495
 20
3.9204352024
 30
0.0
 10
1.702892334
 20
3.9206649804
 30
0.0
 10
1.704178058
 20
3.9208519799
 30
0.0
 10
1.7050008818
 20
3.9209853867
 30
0.0
 10
1.7057282343
 20
3.9211185481
 30
0.0
 10
1.7063598227
 20
3.9212514631
 30
0.0
 10
1.7068952457
 20
3.9213837859
 30
0.0
 10
1.7073348328
 20
3.9215159286
 30
0.0
 10
1.7076380288
 20
3.9216308768
 30
0.0
 10
1.7078319358
 20
3.9217271609
 30
0.0
 10
1.7080017976
 20
3.9218286145
 30
0.0
 10
1.7081406868
 20
3.9219567718
 30
0.0
 10
1.7081406914
 20
3.9220673154
 30
0.0
  0
LINE
  5
313
100
AcDbEntity
  8
0
100
AcDbLine
 62
7
  6
CONTINUOUS
 10
1.3447060039
 20
3.9414381244
 11
1.3450870519
 21
3.9417987076
  0
SPLINE
  5
314
100
AcDbEntity
  8
0
100
AcDbSpline
 62
7
  6
CONTINUOUS
 70
0
 71
3
 72
18
 73
14
 74
0
 42
0.0000001
 43
0.0000001
 44
0.0000000001
 40
0.0
 40
0.0
 40
0.0
 40
0.0
 40
0.0188131152
 40
0.0434102102
 40
0.0738857192
 40
0.1102730513
 40
0.1525785176
 40
0.2007946706
 40
0.3148785076
 40
0.4522421251
 40
0.6125136981
 40
0.7952952899
 40
1.0
 40
1.0
 40
1.0
 40
1.0
 10
1.3450870519
 20
3.9417987076
 30
0.0
 10
1.3452136831
 20
3.9418585458
 30
0.0
 10
1.3455176738
 20
3.9419710174
 30
0.0
 10
1.34604737
 20
3.9421198048
 30
0.0
 10
1.3467118947
 20
3.9422694766
 30
0.0
 10
1.3475106885
 20
3.9424197839
 30
0.0
 10
1.3484434829
 20
3.9425704474
 30
0.0
 10
1.3499517678
 20
3.9427837278
 30
0.0
 10
1.3521677341
 20
3.9430437377
 30
0.0
 10
1.3552183576
 20
3.9433424287
 30
0.0
 10
1.3587824517
 20
3.9436417273
 30
0.0
 10
1.3628493555
 20
3.9439413557
 30
0.0
 10
1.3657278751
 20
3.9441306434
 30
0.0
 10
1.3672488378
 20
3.9442261698
 30
0.0
  0
SPLINE
  5
315
100
AcDbEntity
  8
0
100
AcDbSpline
 62
7
  6
CONTINUOUS
 70
0
 71
3
 72
15
 73
11
 74
0
 42
0.0000001
 43
0.0000001
 44
0.0000000001
 40
0.0
 40
0.0
 40
0.0
 40
0.0
 40
0.05428169
 40
0.1208074497
 40
0.2066958
 40
0.3152976905
 40
0.4482369325
 40
0.6063720317
 40
0.7901938659
 40
1.0
 40
1.0
 40
1.0
 40
1.0
 10
1.7366911282
 20
3.8341839661
 30
0.0
 10
1.7366911282
 20
3.8341557661
 30
0.0
 10
1.7366726747
 20
3.8340927587
 30
0.0
 10
1.7366020364
 20
3.8340096938
 30
0.0
 10
1.7364925035
 20
3.8339287078
 30
0.0
 10
1.7363422866
 20
3.8338480707
 30
0.0
 10
1.7361508428
 20
3.8337672058
 30
0.0
 10
1.7359177001
 20
3.8336861186
 30
0.0
 10
1.7356427416
 20
3.8336048317
 30
0.0
 10
1.7354446452
 20
3.8335539199
 30
0.0
 10
1.7353387309
 20
3.8335281815
 30
0.0
  0
LINE
  5
316
100
AcDbEntity
  8
0
100
AcDbLine
 62
7
  6
CONTINUOUS
 10
1.7353387309
 20
3.8335281815
 11
1.7336522865
 21
3.8331999128
  0
SPLINE
  5
317
100
AcDbEntity
  8
0
100
AcDbSpline
 62
7
  6
CONTINUOUS
 70
0
 71
3
 72
46
 73
42
 74
0
 42
0.0000001
 43
0.0000001
 44
0.0000000001
 40
0.0
 40
0.0
 40
0.0
 40
0.0
 40
0.0045195703
 40
0.0100532205
 40
0.0165913903
 40
0.024123398
 40
0.0326357754
 40
0.0421097226
 40
0.0638632871
 40
0.0892097392
 40
0.1179372687
 40
0.1498108756
 40
0.1845638446
 40
0.221909125
 40
0.2615352245
 40
0.3462991305
 40
0.4360464399
 40
0.5277998319
 40
0.6185094624
 40
0.6625280369
 40
0.705165263
 40
0.7460688031
 40
0.7848962017
 40
0.8213271923
 40
0.8550556124
 40
0.8858047962
 40
0.9133164212
 40
0.9373668836
 40
0.9480295089
 40
0.9577555233
 40
0.9665251897
 40
0.9743192057
 40
0.9811226541
 40
0.986924446
 40
0.9917145133
 40
0.9937276086
 40
0.9954855741
 40
0.9969891817
 40
0.998240029
 40
0.9992413275
 40
1.0
 40
1.0
 40
1.0
 40
1.0
 10
1.7336522865
 20
3.8331999128
 30
0.0
 10
1.7330523252
 20
3.8331024946
 30
0.0
 10
1.7317130657
 20
3.832915074
 30
0.0
 10
1.7294962667
 20
3.8326601266
 30
0.0
 10
1.7268721769
 20
3.8324041062
 30
0.0
 10
1.7238459616
 20
3.8321473084
 30
0.0
 10
1.7204237184
 20
3.8318900193
 30
0.0
 10
1.7150913879
 20
3.8315296021
 30
0.0
 10
1.7074957045
 20
3.8310872298
 30
0.0
 10
1.6973107427
 20
3.8305755824
 30
0.0
 10
1.6857633351
 20
3.8300625354
 30
0.0
 10
1.6729498209
 20
3.8295485068
 30
0.0
 10
1.65897652
 20
3.8290337589
 30
0.0
 10
1.6439599829
 20
3.8285185375
 30
0.0
 10
1.6222202133
 20
3.8278152381
 30
0.0
 10
1.5934347286
 20
3.8269494613
 30
0.0
 10
1.5576403694
 20
3.8259302767
 30
0.0
 10
1.5210460991
 20
3.8249104154
 30
0.0
 10
1.4905995742
 20
3.8240525304
 30
0.0
 10
1.4667565331
 20
3.8233574493
 30
0.0
 10
1.4496093457
 20
3.822841456
 30
0.0
 10
1.4331606178
 20
3.8223257211
 30
0.0
 10
1.417546963
 20
3.8218102114
 30
0.0
 10
1.4028987996
 20
3.8212951746
 30
0.0
 10
1.3893377442
 20
3.8207805965
 30
0.0
 10
1.3769771105
 20
3.8202669446
 30
0.0
 10
1.3659192301
 20
3.819754225
 30
0.0
 10
1.3575624309
 20
3.8193127159
 30
0.0
 10
1.3515967352
 20
3.8189541229
 30
0.0
 10
1.347683807
 20
3.8186963474
 30
0.0
 10
1.3441575531
 20
3.8184389702
 30
0.0
 10
1.3410254735
 20
3.8181820217
 30
0.0
 10
1.338293958
 20
3.817925778
 30
0.0
 10
1.3359684143
 20
3.8176704157
 30
0.0
 10
1.3342875711
 20
3.8174482225
 30
0.0
 10
1.3331506615
 20
3.8172659847
 30
0.0
 10
1.3324529138
 20
3.8171375976
 30
0.0
 10
1.3318596068
 20
3.8170096424
 30
0.0
 10
1.3313705002
 20
3.8168823428
 30
0.0
 10
1.3309856752
 20
3.8167559537
 30
0.0
 10
1.3307681358
 20
3.8166600218
 30
0.0
 10
1.3306797612
 20
3.8166090295
 30
0.0
  0
LINE
  5
318
100
AcDbEntity
  8
0
100
AcDbLine
 62
7
  6
CONTINUOUS
 10
1.359268562
 20
3.7617372745
 11
1.3599218507
 21
3.7620041035
  0
SPLINE
  5
319
100
AcDbEntity
  8
0
100
AcDbSpline
 62
7
  6
CONTINUOUS
 70
0
 71
3
 72
51
 73
47
 74
0
 42
0.0000001
 43
0.0000001
 44
0.0000000001
 40
0.0
 40
0.0
 40
0.0
 40
0.0
 40
0.001417266
 40
0.0031052717
 40
0.0072998493
 40
0.0125852278
 40
0.0189530921
 40
0.0263927357
 40
0.0348913367
 40
0.0549853198
 40
0.079059958
 40
0.106902267
 40
0.1382639349
 40
0.1728633887
 40
0.210391108
 40
0.2505087832
 40
0.2928570662
 40
0.3370538358
 40
0.4293919657
 40
0.5242074383
 40
0.5714799858
 40
0.6180951085
 40
0.6636322698
 40
0.707683302
 40
0.7498500528
 40
0.7897555227
 40
0.827038603
 40
0.8613668816
 40
0.8924298534
 40
0.9199516943
 40
0.9436847456
 40
0.9634207325
 40
0.9717336263
 40
0.9789875066
 40
0.9851671358
 40
0.987849886
 40
0.9902600935
 40
0.9923976372
 40
0.9942627696
 40
0.9958563738
 40
0.9971804816
 40
0.9977428099
 40
0.9982397491
 40
0.9986727184
 40
0.9990439412
 40
1.0
 40
1.0
 40
1.0
 40
1.0
 10
1.3599218507
 20
3.7620041035
 30
0.0
 10
1.3600790554
 20
3.7620537591
 30
0.0
 10
1.3604272706
 20
3.762150593
 30
0.0
 10
1.3612546116
 20
3.7623424176
 30
0.0
 10
1.3625336061
 20
3.7625736426
 30
0.0
 10
1.3643581528
 20
3.762838024
 30
0.0
 10
1.3665633282
 20
3.7631037123
 30
0.0
 10
1.369144355
 20
3.763370595
 30
0.0
 10
1.373318742
 20
3.7637485608
 30
0.0
 10
1.3794280716
 20
3.7642094957
 30
0.0
 10
1.3877878706
 20
3.7647401317
 30
0.0
 10
1.3974605258
 20
3.7652726541
 30
0.0
 10
1.4083589839
 20
3.7658066832
 30
0.0
 10
1.4203852478
 20
3.76634165
 30
0.0
 10
1.4334309254
 20
3.7668772643
 30
0.0
 10
1.4473786541
 20
3.7674133723
 30
0.0
 10
1.4621026721
 20
3.7679498081
 30
0.0
 10
1.4828982182
 20
3.7686759954
 30
0.0
 10
1.5097947044
 20
3.7695707618
 30
0.0
 10
1.5370495084
 20
3.7704547092
 30
0.0
 10
1.5589883068
 20
3.7711714318
 30
0.0
 10
1.5751977214
 20
3.7717083833
 30
0.0
 10
1.591032194
 20
3.7722452409
 30
0.0
 10
1.6063489213
 20
3.7727818855
 30
0.0
 10
1.6210101445
 20
3.7733183219
 30
0.0
 10
1.6348835638
 20
3.7738543551
 30
0.0
 10
1.647844485
 20
3.7743899645
 30
0.0
 10
1.659775915
 20
3.7749248144
 30
0.0
 10
1.6705706849
 20
3.7754587896
 30
0.0
 10
1.6801314281
 20
3.7759911053
 30
0.0
 10
1.688372344
 20
3.7765215629
 30
0.0
 10
1.6943784184
 20
3.7769824663
 30
0.0
 10
1.6984675573
 20
3.7773609455
 30
0.0
 10
1.7009831422
 20
3.7776276699
 30
0.0
 10
1.7028437511
 20
3.7778584451
 30
0.0
 10
1.7041415289
 20
3.7780463135
 30
0.0
 10
1.7049719012
 20
3.7781803378
 30
0.0
 10
1.7057058335
 20
3.7783141435
 30
0.0
 10
1.7063430756
 20
3.7784476207
 30
0.0
 10
1.7068834266
 20
3.7785807547
 30
0.0
 10
1.7072715525
 20
3.778696484
 30
0.0
 10
1.7075323723
 20
3.7787911942
 30
0.0
 10
1.7076922802
 20
3.7788579101
 30
0.0
 10
1.7078291724
 20
3.7789255909
 30
0.0
 10
1.708000461
 20
3.7790272915
 30
0.0
 10
1.7081409419
 20
3.7791561057
 30
0.0
 10
1.708140788
 20
3.7792673172
 30
0.0
  0
LINE
  5
31A
100
AcDbEntity
  8
0
100
AcDbLine
 62
7
  6
CONTINUOUS
 10
1.3592681012
 20
3.7974372748
 11
1.3598153442
 21
3.7976696529
  0
SPLINE
  5
31B
100
AcDbEntity
  8
0
100
AcDbSpline
 62
7
  6
CONTINUOUS
 70
0
 71
3
 72
51
 73
47
 74
0
 42
0.0000001
 43
0.0000001
 44
0.0000000001
 40
0.0
 40
0.0
 40
0.0
 40
0.0
 40
0.0013520207
 40
0.0029753562
 40
0.0070409688
 40
0.0121997966
 40
0.0184474284
 40
0.0257744687
 40
0.0341642164
 40
0.0435983485
 40
0.0540581026
 40
0.0779605338
 40
0.1056548711
 40
0.1368967812
 40
0.1714021273
 40
0.2088626855
 40
0.248938497
 40
0.2912694835
 40
0.3354722563
 40
0.4278848885
 40
0.5228447935
 40
0.5702104776
 40
0.6169280896
 40
0.6625768029
 40
0.706742656
 40
0.7490288665
 40
0.7890510464
 40
0.8264511021
 40
0.8608881301
 40
0.8920559187
 40
0.9196698415
 40
0.9434871604
 40
0.9632914633
 40
0.9716357029
 40
0.9789153562
 40
0.9851153483
 40
0.9878077813
 40
0.9902273493
 40
0.9923734838
 40
0.9942459934
 40
0.9958453249
 40
0.9971732933
 40
0.9982348214
 40
0.9986688274
 40
0.999041032
 40
1.0
 40
1.0
 40
1.0
 40
1.0
 10
1.3598153442
 20
3.7976696529
 30
0.0
 10
1.3599645026
 20
3.7977196708
 30
0.0
 10
1.360297032
 20
3.7978169466
 30
0.0
 10
1.361093541
 20
3.7980094906
 30
0.0
 10
1.3623350718
 20
3.7982411596
 30
0.0
 10
1.3641159733
 20
3.7985058991
 30
0.0
 10
1.3662797126
 20
3.7987719434
 30
0.0
 10
1.3688215695
 20
3.7990391297
 30
0.0
 10
1.3717359154
 20
3.7993070143
 30
0.0
 10
1.3750160782
 20
3.7995754514
 30
0.0
 10
1.3800984343
 20
3.7999506627
 30
0.0
 10
1.3873047791
 20
3.8004114445
 30
0.0
 10
1.3969291772
 20
3.8009451711
 30
0.0
 10
1.4077889423
 20
3.8014800796
 30
0.0
 10
1.419786278
 20
3.8020161033
 30
0.0
 10
1.4328124382
 20
3.802552725
 30
0.0
 10
1.4467498843
 20
3.8030898789
 30
0.0
 10
1.4614723902
 20
3.8036273603
 30
0.0
 10
1.4822818991
 20
3.8043551361
 30
0.0
 10
1.509213123
 20
3.8052517796
 30
0.0
 10
1.536512933
 20
3.8061373062
 30
0.0
 10
1.5584983031
 20
3.8068553271
 30
0.0
 10
1.5747486341
 20
3.8073933656
 30
0.0
 10
1.59062643
 20
3.8079312562
 30
0.0
 10
1.6059882886
 20
3.8084690085
 30
0.0
 10
1.6206950385
 20
3.8090064572
 30
0.0
 10
1.6346139801
 20
3.8095436203
 30
0.0
 10
1.6476188925
 20
3.8100802169
 30
0.0
 10
1.6595925944
 20
3.8106162209
 30
0.0
 10
1.6704263868
 20
3.8111511522
 30
0.0
 10
1.6800228976
 20
3.8116846501
 30
0.0
 10
1.6882949306
 20
3.8122160154
 30
0.0
 10
1.6943243185
 20
3.8126779946
 30
0.0
 10
1.6984293748
 20
3.8130571105
 30
0.0
 10
1.7009547862
 20
3.8133243453
 30
0.0
 10
1.7028224767
 20
3.8135556684
 30
0.0
 10
1.704125258
 20
3.8137438921
 30
0.0
 10
1.7049591205
 20
3.8138781811
 30
0.0
 10
1.7056962368
 20
3.8140122201
 30
0.0
 10
1.7063362423
 20
3.8141460092
 30
0.0
 10
1.7068786822
 20
3.8142791956
 30
0.0
 10
1.7073239432
 20
3.8144122476
 30
0.0
 10
1.707631037
 20
3.8145279623
 30
0.0
 10
1.7078275393
 20
3.8146248876
 30
0.0
 10
1.7079994218
 20
3.814726885
 30
0.0
 10
1.7081405846
 20
3.81485573
 30
0.0
 10
1.7081407059
 20
3.8149673155
 30
0.0
  0
LINE
  5
31C
100
AcDbEntity
  8
0
100
AcDbLine
 62
7
  6
CONTINUOUS
 10
1.3592683272
 20
3.8688372764
 11
1.3599730173
 21
3.8691200933
  0
SPLINE
  5
31D
100
AcDbEntity
  8
0
100
AcDbSpline
 62
7
  6
CONTINUOUS
 70
0
 71
3
 72
51
 73
47
 74
0
 42
0.0000001
 43
0.0000001
 44
0.0000000001
 40
0.0
 40
0.0
 40
0.0
 40
0.0
 40
0.0014481026
 40
0.0031667478
 40
0.0074213439
 40
0.0127645518
 40
0.0191877894
 40
0.0266801946
 40
0.0352288898
 40
0.0554147867
 40
0.0795694342
 40
0.1074796859
 40
0.1388967896
 40
0.1735395142
 40
0.2110981715
 40
0.2512351236
 40
0.2935911939
 40
0.3377851903
 40
0.4300886725
 40
0.524837193
 40
0.5720667964
 40
0.6186342964
 40
0.6641202091
 40
0.708117784
 40
0.7502298049
 40
0.790080849
 40
0.8273104455
 40
0.8615879519
 40
0.8926030514
 40
0.920081888
 40
0.9437764391
 40
0.9634805655
 40
0.9717795719
 40
0.9790211613
 40
0.9851906599
 40
0.9878692071
 40
0.9902754811
 40
0.9924094045
 40
0.9942713036
 40
0.9958621351
 40
0.9971840026
 40
0.9977454318
 40
0.9982416293
 40
0.9986740202
 40
0.9990448288
 40
1.0
 40
1.0
 40
1.0
 40
1.0
 10
1.3599730173
 20
3.8691200933
 30
0.0
 10
1.3601340011
 20
3.8691695916
 30
0.0
 10
1.3604896167
 20
3.8692662137
 30
0.0
 10
1.361331401
 20
3.8694576627
 30
0.0
 10
1.3626277411
 20
3.8696886883
 30
0.0
 10
1.364472375
 20
3.8699529381
 30
0.0
 10
1.36669666
 20
3.8702184656
 30
0.0
 10
1.3692958059
 20
3.870485152
 30
0.0
 10
1.3734923331
 20
3.8708626384
 30
0.0
 10
1.3796266435
 20
3.8713231197
 30
0.0
 10
1.3880131334
 20
3.8718533485
 30
0.0
 10
1.3977080142
 20
3.8723854308
 30
0.0
 10
1.408624224
 20
3.8729190067
 30
0.0
 10
1.4206637539
 20
3.8734534997
 30
0.0
 10
1.4337183287
 20
3.8739886414
 30
0.0
 10
1.4476706848
 20
3.874524264
 30
0.0
 10
1.4623952864
 20
3.8750602176
 30
0.0
 10
1.4831842166
 20
3.8757856653
 30
0.0
 10
1.5100644566
 20
3.8766795628
 30
0.0
 10
1.5372982802
 20
3.877562781
 30
0.0
 10
1.5592154006
 20
3.8782788948
 30
0.0
 10
1.5754058403
 20
3.8788153512
 30
0.0
 10
1.5912201718
 20
3.879351717
 30
0.0
 10
1.6065160102
 20
3.8798878646
 30
0.0
 10
1.6211560746
 20
3.8804238115
 30
0.0
 10
1.6350084526
 20
3.8809593444
 30
0.0
 10
1.6479489317
 20
3.8814944691
 30
0.0
 10
1.65986084
 20
3.8820288137
 30
0.0
 10
1.6706374793
 20
3.8825623133
 30
0.0
 10
1.68018171
 20
3.883094116
 30
0.0
 10
1.6884081744
 20
3.8836241125
 30
0.0
 10
1.6944035295
 20
3.8840845676
 30
0.0
 10
1.6984852885
 20
3.884462706
 30
0.0
 10
1.7009962619
 20
3.8847291936
 30
0.0
 10
1.7028534865
 20
3.8849597599
 30
0.0
 10
1.7041489418
 20
3.8851474386
 30
0.0
 10
1.7049778184
 20
3.8852813398
 30
0.0
 10
1.7057103815
 20
3.8854150229
 30
0.0
 10
1.7063464031
 20
3.8855483788
 30
0.0
 10
1.706885708
 20
3.8856813928
 30
0.0
 10
1.707273083
 20
3.8857970173
 30
0.0
 10
1.707533409
 20
3.8858916385
 30
0.0
 10
1.7076930345
 20
3.885958294
 30
0.0
 10
1.707829702
 20
3.8860259152
 30
0.0
 10
1.7080007637
 20
3.8861275248
 30
0.0
 10
1.7081410477
 20
3.8862562261
 30
0.0
 10
1.7081408781
 20
3.8863673172
 30
0.0
  0
SPLINE
  5
31E
100
AcDbEntity
  8
0
100
AcDbSpline
 62
7
  6
CONTINUOUS
 70
0
 71
3
 72
27
 73
23
 74
0
 42
0.0000001
 43
0.0000001
 44
0.0000000001
 40
0.0
 40
0.0
 40
0.0
 40
0.0
 40
0.14960151
 40
0.3131650517
 40
0.3967682177
 40
0.4797107
 40
0.5605934509
 40
0.6380518631
 40
0.7107851102
 40
0.7775525879
 40
0.8372435128
 40
0.8888458024
 40
0.911347293
 40
0.9315178437
 40
0.9492709651
 40
0.9645448875
 40
0.9772836733
 40
0.9874380182
 40
0.9915395558
 40
0.9949938623
 40
0.9978084836
 40
1.0
 40
1.0
 40
1.0
 40
1.0
 10
7.430859921
 20
5.1442161969
 30
0.0
 10
7.4316958158
 20
5.1288824566
 30
0.0
 10
7.4332923371
 20
5.096775622
 30
0.0
 10
7.4351556994
 20
5.056090273
 30
0.0
 10
7.4366863261
 20
5.0222393415
 30
0.0
 10
7.4378425764
 20
4.9968672932
 30
0.0
 10
7.4389982541
 20
4.9721266363
 30
0.0
 10
7.4401532017
 20
4.948435093
 30
0.0
 10
7.4413064876
 20
4.9261941996
 30
0.0
 10
7.4424576153
 20
4.9057796124
 30
0.0
 10
7.4436050865
 20
4.8875377026
 30
0.0
 10
7.4445964673
 20
4.8738391851
 30
0.0
 10
7.4454057619
 20
4.8641957732
 30
0.0
 10
7.4459835822
 20
4.8580200074
 30
0.0
 10
7.4465602153
 20
4.8525896791
 30
0.0
 10
7.4471344412
 20
4.8479266889
 30
0.0
 10
7.4477058218
 20
4.8440504531
 30
0.0
 10
7.4482056834
 20
4.8413235602
 30
0.0
 10
7.4486202401
 20
4.8395531816
 30
0.0
 10
7.4489074983
 20
4.8385275376
 30
0.0
 10
7.4491930125
 20
4.837706927
 30
0.0
 10
7.4494074694
 20
4.8372378555
 30
0.0
 10
7.4495199913
 20
4.837043061
 30
0.0
  0
SPLINE
  5
31F
100
AcDbEntity
  8
0
100
AcDbSpline
 62
7
  6
CONTINUOUS
 70
0
 71
3
 72
16
 73
12
 74
0
 42
0.0000001
 43
0.0000001
 44
0.0000000001
 40
0.0
 40
0.0
 40
0.0
 40
0.0
 40
0.0324612826
 40
0.0561315272
 40
0.0861030358
 40
0.1664488989
 40
0.2751588196
 40
0.4127411609
 40
0.5793828144
 40
0.7751386782
 40
1.0
 40
1.0
 40
1.0
 40
1.0
 10
7.5782911282
 20
5.2320339661
 30
0.0
 10
7.5783549211
 20
5.2320339661
 30
0.0
 10
7.5784579447
 20
5.2319620531
 30
0.0
 10
7.5785545725
 20
5.2318262433
 30
0.0
 10
7.5786796625
 20
5.2315924443
 30
0.0
 10
7.5788241509
 20
5.2311861835
 30
0.0
 10
7.5789898284
 20
5.2305655887
 30
0.0
 10
7.5791560116
 20
5.2297710204
 30
0.0
 10
7.5793236849
 20
5.2288027474
 30
0.0
 10
7.5794918451
 20
5.2276608927
 30
0.0
 10
7.5795969858
 20
5.2268409699
 30
0.0
 10
7.5796502078
 20
5.2264022898
 30
0.0
  0
LINE
  5
320
100
AcDbEntity
  8
0
100
AcDbLine
 62
7
  6
CONTINUOUS
 10
7.5796502078
 20
5.2264022898
 11
7.5805549721
 21
5.216540203
  0
SPLINE
  5
321
100
AcDbEntity
  8
0
100
AcDbSpline
 62
7
  6
CONTINUOUS
 70
0
 71
3
 72
20
 73
16
 74
0
 42
0.0000001
 43
0.0000001
 44
0.0000000001
 40
0.0
 40
0.0
 40
0.0
 40
0.0
 40
0.0408115086
 40
0.0905924446
 40
0.1483643556
 40
0.2129761608
 40
0.3574457721
 40
0.5124949061
 40
0.665824895
 40
0.7380036484
 40
0.8052464253
 40
0.8661978264
 40
0.9196562829
 40
0.9645527746
 40
1.0
 40
1.0
 40
1.0
 40
1.0
 10
7.5810080059
 20
5.2098484797
 30
0.0
 10
7.5813114622
 20
5.2049865532
 30
0.0
 10
7.5818889288
 20
5.1941882256
 30
0.0
 10
7.5826745585
 20
5.1764963529
 30
0.0
 10
7.5834640749
 20
5.1559613204
 30
0.0
 10
7.5845619191
 20
5.1241277656
 30
0.0
 10
7.5858859486
 20
5.0806840717
 30
0.0
 10
7.58743155
 20
5.0266527824
 30
0.0
 10
7.5887422687
 20
4.9812471067
 30
0.0
 10
7.5898238122
 20
4.946320109
 30
0.0
 10
7.5906170571
 20
4.9224161026
 30
0.0
 10
7.5914083226
 20
4.9007478883
 30
0.0
 10
7.5921953179
 20
4.8817487205
 30
0.0
 10
7.5929773002
 20
4.8657967573
 30
0.0
 10
7.59355995
 20
4.8562237687
 30
0.0
 10
7.5938716338
 20
4.8520041744
 30
0.0
  0
SPLINE
  5
322
100
AcDbEntity
  8
0
100
AcDbSpline
 62
7
  6
CONTINUOUS
 70
0
 71
3
 72
15
 73
11
 74
0
 42
0.0000001
 43
0.0000001
 44
0.0000000001
 40
0.0
 40
0.0
 40
0.0
 40
0.0
 40
0.3898718872
 40
0.5503670145
 40
0.6874455751
 40
0.8008875158
 40
0.8906596222
 40
0.9568557175
 40
0.9812436372
 40
1.0
 40
1.0
 40
1.0
 40
1.0
 10
7.5938716338
 20
4.8520041744
 30
0.0
 10
7.5940199357
 20
4.8499964541
 30
0.0
 10
7.594246649
 20
4.8471633245
 30
0.0
 10
7.5945972126
 20
4.8436307606
 30
0.0
 10
7.5948420546
 20
4.841522493
 30
0.0
 10
7.5950851258
 20
4.8397818014
 30
0.0
 10
7.5953265634
 20
4.8384117796
 30
0.0
 10
7.5955383276
 20
4.8375031499
 30
0.0
 10
7.5957187857
 20
4.8369678858
 30
0.0
 10
7.5958103691
 20
4.8367638145
 30
0.0
 10
7.5958586679
 20
4.8366798641
 30
0.0
  0
SPLINE
  5
323
100
AcDbEntity
  8
0
100
AcDbSpline
 62
7
  6
CONTINUOUS
 70
0
 71
3
 72
16
 73
12
 74
0
 42
0.0000001
 43
0.0000001
 44
0.0000000001
 40
0.0
 40
0.0
 40
0.0
 40
0.0
 40
0.0323935829
 40
0.0560419665
 40
0.0859977352
 40
0.1663259772
 40
0.2750328387
 40
0.4126254409
 40
0.5792908883
 40
0.7750849336
 40
1.0
 40
1.0
 40
1.0
 40
1.0
 10
7.6139911282
 20
5.2320339661
 30
0.0
 10
7.6140551449
 20
5.2320339661
 30
0.0
 10
7.6141585033
 20
5.2319615565
 30
0.0
 10
7.6142553486
 20
5.2318250363
 30
0.0
 10
7.6143808174
 20
5.2315898703
 30
0.0
 10
7.6145257097
 20
5.2311812779
 30
0.0
 10
7.6146918693
 20
5.2305571046
 30
0.0
 10
7.6148585332
 20
5.2297579281
 30
0.0
 10
7.6150266979
 20
5.2287840049
 30
0.0
 10
7.6151953533
 20
5.2276354529
 30
0.0
 10
7.6153008038
 20
5.2268107151
 30
0.0
 10
7.6153541835
 20
5.2263694518
 30
0.0
  0
LINE
  5
324
100
AcDbEntity
  8
0
100
AcDbLine
 62
7
  6
CONTINUOUS
 10
7.6153541835
 20
5.2263694518
 11
7.6162790832
 21
5.2162126954
  0
SPLINE
  5
325
100
AcDbEntity
  8
0
100
AcDbSpline
 62
7
  6
CONTINUOUS
 70
0
 71
3
 72
22
 73
18
 74
0
 42
0.0000001
 43
0.0000001
 44
0.0000000001
 40
0.0
 40
0.0
 40
0.0
 40
0.0
 40
0.0371903729
 40
0.0847111091
 40
0.1414919716
 40
0.206239777
 40
0.2774944102
 40
0.3536308274
 40
0.5135623011
 40
0.6716077557
 40
0.7454120108
 40
0.8134689106
 40
0.8742265649
 40
0.926312022
 40
0.9685574523
 40
0.9856757155
 40
1.0
 40
1.0
 40
1.0
 40
1.0
 10
7.6162790832
 20
5.2162126954
 30
0.0
 10
7.6166142117
 20
5.2116409156
 30
0.0
 10
7.6172363701
 20
5.2012173311
 30
0.0
 10
7.6180688766
 20
5.183796996
 30
0.0
 10
7.6189069941
 20
5.1629768235
 30
0.0
 10
7.6197500008
 20
5.1392294789
 30
0.0
 10
7.6205952626
 20
5.1130950973
 30
0.0
 10
7.6217430674
 20
5.0752322242
 30
0.0
 10
7.6231303342
 20
5.0266740316
 30
0.0
 10
7.6245242151
 20
4.9784035887
 30
0.0
 10
7.6256788647
 20
4.9414554204
 30
0.0
 10
7.6265232311
 20
4.9164950868
 30
0.0
 10
7.6273637599
 20
4.8942132714
 30
0.0
 10
7.6282002679
 20
4.8751154555
 30
0.0
 10
7.6289286078
 20
4.8613971477
 30
0.0
 10
7.6295351071
 20
4.8523345939
 30
0.0
 10
7.6298426382
 20
4.848471032
 30
0.0
 10
7.6300013716
 20
4.8467125855
 30
0.0
  0
SPLINE
  5
326
100
AcDbEntity
  8
0
100
AcDbSpline
 62
7
  6
CONTINUOUS
 70
0
 71
3
 72
14
 73
10
 74
0
 42
0.0000001
 43
0.0000001
 44
0.0000000001
 40
0.0
 40
0.0
 40
0.0
 40
0.0
 40
0.3818779108
 40
0.5399751773
 40
0.6759732963
 40
0.7898526106
 40
0.88165024
 40
0.9515283072
 40
1.0
 40
1.0
 40
1.0
 40
1.0
 10
7.6300013716
 20
4.8467125855
 30
0.0
 10
7.6301178936
 20
4.8454217564
 30
0.0
 10
7.6302962064
 20
4.8435975498
 30
0.0
 10
7.6305708921
 20
4.8413197596
 30
0.0
 10
7.6307631447
 20
4.8399483446
 30
0.0
 10
7.6309544925
 20
4.8388045993
 30
0.0
 10
7.6311438914
 20
4.8378879438
 30
0.0
 10
7.6313311743
 20
4.8372001736
 30
0.0
 10
7.6314766316
 20
4.8368224687
 30
0.0
 10
7.6315586681
 20
4.8366798718
 30
0.0
  0
SPLINE
  5
327
100
AcDbEntity
  8
0
100
AcDbSpline
 62
7
  6
CONTINUOUS
 70
0
 71
3
 72
16
 73
12
 74
0
 42
0.0000001
 43
0.0000001
 44
0.0000000001
 40
0.0
 40
0.0
 40
0.0
 40
0.0
 40
0.0321179146
 40
0.0556862809
 40
0.0855911676
 40
0.1658805192
 40
0.274606867
 40
0.4122617785
 40
0.579023091
 40
0.7749400612
 40
1.0
 40
1.0
 40
1.0
 40
1.0
 10
7.6496911282
 20
5.2320339661
 30
0.0
 10
7.6497561073
 20
5.2320339661
 30
0.0
 10
7.649860888
 20
5.2319593519
 30
0.0
 10
7.6499586399
 20
5.2318197384
 30
0.0
 10
7.6500857168
 20
5.2315786111
 30
0.0
 10
7.6502323213
 20
5.2311599214
 30
0.0
 10
7.6504005312
 20
5.2305203253
 30
0.0
 10
7.6505692339
 20
5.2297014197
 30
0.0
 10
7.6507394753
 20
5.2287034642
 30
0.0
 10
7.6509102113
 20
5.227526617
 30
0.0
 10
7.6510169638
 20
5.2266815967
 30
0.0
 10
7.6510710029
 20
5.2262294867
 30
0.0
  0
LINE
  5
328
100
AcDbEntity
  8
0
100
AcDbLine
 62
7
  6
CONTINUOUS
 10
7.6510710029
 20
5.2262294867
 11
7.6515371219
 21
5.221686155
  0
SPLINE
  5
329
100
AcDbEntity
  8
0
100
AcDbSpline
 62
7
  6
CONTINUOUS
 70
0
 71
3
 72
22
 73
18
 74
0
 42
0.0000001
 43
0.0000001
 44
0.0000000001
 40
0.0
 40
0.0
 40
0.0
 40
0.0
 40
0.0374674667
 40
0.0852016993
 40
0.1421306691
 40
0.2069653234
 40
0.2782526411
 40
0.3543777807
 40
0.5141705428
 40
0.6719783407
 40
0.7456553207
 40
0.8135977981
 40
0.8742692221
 40
0.9263018532
 40
0.9685326917
 40
0.985658129
 40
1.0
 40
1.0
 40
1.0
 40
1.0
 10
7.6520055245
 20
5.2158499942
 30
0.0
 10
7.6523391387
 20
5.2112491972
 30
0.0
 10
7.6529595299
 20
5.2007770888
 30
0.0
 10
7.6537904231
 20
5.1832980787
 30
0.0
 10
7.6546268308
 20
5.1624466285
 30
0.0
 10
7.6554679894
 20
5.138693658
 30
0.0
 10
7.6563113985
 20
5.112576043
 30
0.0
 10
7.6574563998
 20
5.0747712242
 30
0.0
 10
7.6588404758
 20
5.0263167123
 30
0.0
 10
7.6602314144
 20
4.9781639117
 30
0.0
 10
7.6613833802
 20
4.9413173423
 30
0.0
 10
7.6622257605
 20
4.9164261465
 30
0.0
 10
7.6630643339
 20
4.8942012119
 30
0.0
 10
7.663899012
 20
4.8751443095
 30
0.0
 10
7.6646257033
 20
4.8614492064
 30
0.0
 10
7.665230715
 20
4.8523957937
 30
0.0
 10
7.6655374648
 20
4.8485335969
 30
0.0
 10
7.6656957468
 20
4.8467749795
 30
0.0
  0
SPLINE
  5
32A
100
AcDbEntity
  8
0
100
AcDbSpline
 62
7
  6
CONTINUOUS
 70
0
 71
3
 72
14
 73
10
 74
0
 42
0.0000001
 43
0.0000001
 44
0.0000000001
 40
0.0
 40
0.0
 40
0.0
 40
0.0
 40
0.3820129431
 40
0.5401471498
 40
0.6761595325
 40
0.7900296241
 40
0.8817936941
 40
0.9516129266
 40
1.0
 40
1.0
 40
1.0
 40
1.0
 10
7.6656957468
 20
4.8467749795
 30
0.0
 10
7.665812685
 20
4.8454757201
 30
0.0
 10
7.6659916303
 20
4.843639658
 30
0.0
 10
7.6662673162
 20
4.8413471337
 30
0.0
 10
7.6664602581
 20
4.8399670688
 30
0.0
 10
7.6666522901
 20
4.8388163066
 30
0.0
 10
7.6668423531
 20
4.8378942604
 30
0.0
 10
7.6670302892
 20
4.83720276
 30
0.0
 10
7.6671762725
 20
4.8368231026
 30
0.0
 10
7.6672586681
 20
4.8366798783
 30
0.0
  0
LINE
  5
32B
100
AcDbEntity
  8
0
100
AcDbLine
 62
7
  6
CONTINUOUS
 10
7.7035661282
 20
4.8389560109
 11
7.7030944458
 21
4.8422426249
  0
LINE
  5
32C
100
AcDbEntity
  8
0
100
AcDbLine
 62
7
  6
CONTINUOUS
 10
7.7030944458
 20
4.8422426249
 11
7.7026244234
 21
4.8468304632
  0
SPLINE
  5
32D
100
AcDbEntity
  8
0
100
AcDbSpline
 62
7
  6
CONTINUOUS
 70
0
 71
3
 72
34
 73
30
 74
0
 42
0.0000001
 43
0.0000001
 44
0.0000000001
 40
0.0
 40
0.0
 40
0.0
 40
0.0
 40
0.0190508195
 40
0.0413175418
 40
0.0948778304
 40
0.159198833
 40
0.2324899462
 40
0.3126869114
 40
0.3975368376
 40
0.4846551164
 40
0.5716038458
 40
0.6559543772
 40
0.7353363111
 40
0.7724612702
 40
0.8075177805
 40
0.8402688055
 40
0.8704814971
 40
0.8979398611
 40
0.9224620982
 40
0.9438711948
 40
0.962013406
 40
0.9767769514
 40
0.982859081
 40
0.9880585012
 40
0.9923694551
 40
0.9957913587
 40
0.9983281511
 40
0.9992697185
 40
1.0
 40
1.0
 40
1.0
 40
1.0
 10
7.7021560335
 20
4.8526730019
 30
0.0
 10
7.7019819369
 20
4.8550768908
 30
0.0
 10
7.7016428123
 20
4.8602932441
 30
0.0
 10
7.7009738936
 20
4.8722780043
 30
0.0
 10
7.7001662899
 20
4.8899905861
 30
0.0
 10
7.6992360459
 20
4.9141586339
 30
0.0
 10
7.6983018714
 20
4.9416986498
 30
0.0
 10
7.6973642737
 20
4.9718370482
 30
0.0
 10
7.6964252268
 20
5.0037255189
 30
0.0
 10
7.6954855389
 20
5.0364685114
 30
0.0
 10
7.6945458951
 20
5.069148301
 30
0.0
 10
7.6936070223
 20
5.100848949
 30
0.0
 10
7.6928092798
 20
5.126247619
 30
0.0
 10
7.6921625355
 20
5.1454115274
 30
0.0
 10
7.6916885163
 20
5.1586784444
 30
0.0
 10
7.6912149944
 20
5.1710702936
 30
0.0
 10
7.6907419876
 20
5.1825001435
 30
0.0
 10
7.6902694985
 20
5.1928879994
 30
0.0
 10
7.6897981694
 20
5.2021608636
 30
0.0
 10
7.6893286932
 20
5.2102535341
 30
0.0
 10
7.6888610144
 20
5.2171092759
 30
0.0
 10
7.6884534522
 20
5.2220252668
 30
0.0
 10
7.6881171434
 20
5.2253032554
 30
0.0
 10
7.6878820675
 20
5.2272619309
 30
0.0
 10
7.6876486875
 20
5.2288816894
 30
0.0
 10
7.6874168837
 20
5.2301600985
 30
0.0
 10
7.6872134957
 20
5.2310106445
 30
0.0
 10
7.6870406369
 20
5.231514533
 30
0.0
 10
7.6869529502
 20
5.2317078878
 30
0.0
 10
7.6869068881
 20
5.2317879769
 30
0.0
  0
SPLINE
  5
32E
100
AcDbEntity
  8
0
100
AcDbSpline
 62
7
  6
CONTINUOUS
 70
0
 71
3
 72
16
 73
12
 74
0
 42
0.0000001
 43
0.0000001
 44
0.0000000001
 40
0.0
 40
0.0
 40
0.0
 40
0.0
 40
0.0322547454
 40
0.0558637127
 40
0.0857951959
 40
0.1661072747
 40
0.2748273414
 40
0.4124535442
 40
0.5791672229
 40
0.7750197812
 40
1.0
 40
1.0
 40
1.0
 40
1.0
 10
7.6853911282
 20
5.2320339661
 30
0.0
 10
7.6854556296
 20
5.2320339661
 30
0.0
 10
7.6855597045
 20
5.2319604438
 30
0.0
 10
7.6856570054
 20
5.2318223634
 30
0.0
 10
7.6857832838
 20
5.2315841943
 30
0.0
 10
7.6859290382
 20
5.2311705209
 30
0.0
 10
7.6860962303
 20
5.2305385954
 30
0.0
 10
7.6862639206
 20
5.2297295152
 30
0.0
 10
7.6864331295
 20
5.2287435448
 30
0.0
 10
7.6866028296
 20
5.2275808285
 30
0.0
 10
7.6867089336
 20
5.2267459437
 30
0.0
 10
7.6867626439
 20
5.2262992578
 30
0.0
  0
LINE
  5
32F
100
AcDbEntity
  8
0
100
AcDbLine
 62
7
  6
CONTINUOUS
 10
7.6867626439
 20
5.2262992578
 11
7.6876809069
 21
5.216187852
  0
SPLINE
  5
330
100
AcDbEntity
  8
0
100
AcDbSpline
 62
7
  6
CONTINUOUS
 70
0
 71
3
 72
22
 73
18
 74
0
 42
0.0000001
 43
0.0000001
 44
0.0000000001
 40
0.0
 40
0.0
 40
0.0
 40
0.0
 40
0.0364024198
 40
0.0826650006
 40
0.1378145081
 40
0.2006727548
 40
0.269913845
 40
0.3440505359
 40
0.5006109979
 40
0.6570750716
 40
0.7311012029
 40
0.8001972987
 40
0.8628778468
 40
0.9178213815
 40
0.9638542844
 40
0.9832190679
 40
1.0
 40
1.0
 40
1.0
 40
1.0
 10
7.6876809069
 20
5.216187852
 30
0.0
 10
7.6880039605
 20
5.211777422
 30
0.0
 10
7.6886061551
 20
5.2017524972
 30
0.0
 10
7.6894134019
 20
5.1850298888
 30
0.0
 10
7.6902259398
 20
5.1650903471
 30
0.0
 10
7.6910430735
 20
5.142357592
 30
0.0
 10
7.6918623204
 20
5.1173169524
 30
0.0
 10
7.6929768767
 20
5.0808968333
 30
0.0
 10
7.6943262453
 20
5.0338829871
 30
0.0
 10
7.6956752019
 20
4.986882567
 30
0.0
 10
7.6967904944
 20
4.9505052402
 30
0.0
 10
7.6976104244
 20
4.925517294
 30
0.0
 10
7.6984240728
 20
4.9028486542
 30
0.0
 10
7.6992385417
 20
4.8829838203
 30
0.0
 10
7.699954839
 20
4.8683817892
 30
0.0
 10
7.700528877
 20
4.8584150375
 30
0.0
 10
7.7008115209
 20
4.8540329927
 30
0.0
 10
7.7009569128
 20
4.8519995997
 30
0.0
  0
SPLINE
  5
331
100
AcDbEntity
  8
0
100
AcDbSpline
 62
7
  6
CONTINUOUS
 70
0
 71
3
 72
14
 73
10
 74
0
 42
0.0000001
 43
0.0000001
 44
0.0000000001
 40
0.0
 40
0.0
 40
0.0
 40
0.0
 40
0.3694989482
 40
0.5247918062
 40
0.6601284997
 40
0.7753321195
 40
0.8703476322
 40
0.94519018
 40
1.0
 40
1.0
 40
1.0
 40
1.0
 10
7.7009569128
 20
4.8519995997
 30
0.0
 10
7.7010895482
 20
4.8501446146
 30
0.0
 10
7.7012933889
 20
4.8475108906
 30
0.0
 10
7.7016195366
 20
4.8442043373
 30
0.0
 10
7.7018586483
 20
4.8421755794
 30
0.0
 10
7.7021093788
 20
4.8404543299
 30
0.0
 10
7.7023658137
 20
4.8390421022
 30
0.0
 10
7.7026221257
 20
4.8379406182
 30
0.0
 10
7.7028159856
 20
4.8373156969
 30
0.0
 10
7.7029200199
 20
4.8370602031
 30
0.0
  0
LINE
  5
332
100
AcDbEntity
  8
0
100
AcDbLine
 62
7
  6
CONTINUOUS
 10
7.7029200199
 20
4.8370602031
 11
7.7031072862
 21
4.8366800216
  0
SPLINE
  5
333
100
AcDbEntity
  8
0
100
AcDbSpline
 62
7
  6
CONTINUOUS
 70
0
 71
3
 72
16
 73
12
 74
0
 42
0.0000001
 43
0.0000001
 44
0.0000000001
 40
0.0
 40
0.0
 40
0.0
 40
0.0
 40
0.0322083478
 40
0.0558033698
 40
0.0857255767
 40
0.1660293145
 40
0.2747508988
 40
0.4123864459
 40
0.5791163004
 40
0.774991328
 40
1.0
 40
1.0
 40
1.0
 40
1.0
 10
7.4545744279
 20
4.8364339661
 30
0.0
 10
7.454509766
 20
4.8364339661
 30
0.0
 10
7.4544054534
 20
4.8365078537
 30
0.0
 10
7.4543080002
 20
4.8366464484
 30
0.0
 10
7.4541814529
 20
4.8368856095
 30
0.0
 10
7.4540354121
 20
4.8373009664
 30
0.0
 10
7.4538678772
 20
4.8379354676
 30
0.0
 10
7.453699846
 20
4.8387478493
 30
0.0
 10
7.4535302893
 20
4.83973785
 30
0.0
 10
7.45336024
 20
4.8409053217
 30
0.0
 10
7.4532539175
 20
4.8417436186
 30
0.0
 10
7.4532000964
 20
4.8421921311
 30
0.0
  0
LINE
  5
334
100
AcDbEntity
  8
0
100
AcDbLine
 62
7
  6
CONTINUOUS
 10
7.4532000964
 20
4.8421921311
 11
7.4522760334
 21
4.8523979661
  0
SPLINE
  5
335
100
AcDbEntity
  8
0
100
AcDbSpline
 62
7
  6
CONTINUOUS
 70
0
 71
3
 72
33
 73
29
 74
0
 42
0.0000001
 43
0.0000001
 44
0.0000000001
 40
0.0
 40
0.0
 40
0.0
 40
0.0
 40
0.046416676
 40
0.1040097592
 40
0.1712666704
 40
0.2464218857
 40
0.3274759824
 40
0.4122817384
 40
0.4985921426
 40
0.584127237
 40
0.6666333545
 40
0.743925923
 40
0.7799715557
 40
0.8139559898
 40
0.8456625592
 40
0.8748781706
 40
0.9014065523
 40
0.9250818797
 40
0.9457422279
 40
0.9632481963
 40
0.977498418
 40
0.9833730065
 40
0.98839916
 40
0.992571723
 40
0.9958905709
 40
0.998360018
 40
0.9992812956
 40
1.0
 40
1.0
 40
1.0
 40
1.0
 10
7.4518161501
 20
4.8592873076
 30
0.0
 10
7.4514616729
 20
4.8650461801
 30
0.0
 10
7.4507951775
 20
4.8779583133
 30
0.0
 10
7.4498950001
 20
4.8992284521
 30
0.0
 10
7.4489892815
 20
4.9240734906
 30
0.0
 10
7.4480795206
 20
4.9518363271
 30
0.0
 10
7.447167613
 20
4.981781566
 30
0.0
 10
7.4462546119
 20
5.0131140042
 30
0.0
 10
7.4453412605
 20
5.0450036671
 30
0.0
 10
7.4444281291
 20
5.0766073668
 30
0.0
 10
7.4435158643
 20
5.1070896609
 30
0.0
 10
7.4427401394
 20
5.1314215344
 30
0.0
 10
7.4421113842
 20
5.1497235188
 30
0.0
 10
7.4416510053
 20
5.1623614033
 30
0.0
 10
7.4411911054
 20
5.1741497102
 30
0.0
 10
7.4407316836
 20
5.1850104637
 30
0.0
 10
7.4402727744
 20
5.1948719586
 30
0.0
 10
7.4398149791
 20
5.2036687816
 30
0.0
 10
7.4393589385
 20
5.2113425088
 30
0.0
 10
7.4389046302
 20
5.2178423442
 30
0.0
 10
7.4385087271
 20
5.2225035741
 30
0.0
 10
7.4381821359
 20
5.225612968
 30
0.0
 10
7.4379538043
 20
5.2274727465
 30
0.0
 10
7.4377270683
 20
5.2290124849
 30
0.0
 10
7.4375018483
 20
5.2302300281
 30
0.0
 10
7.4373041818
 20
5.2310418057
 30
0.0
 10
7.4371364839
 20
5.2315245907
 30
0.0
 10
7.4370514433
 20
5.2317106713
 30
0.0
 10
7.437006888
 20
5.2317881055
 30
0.0
  0
SPLINE
  5
336
100
AcDbEntity
  8
0
100
AcDbSpline
 62
7
  6
CONTINUOUS
 70
0
 71
3
 72
10
 73
6
 74
0
 42
0.0000001
 43
0.0000001
 44
0.0000000001
 40
0.0
 40
0.0
 40
0.0
 40
0.0
 40
0.381394573
 40
0.674558939
 40
1.0
 40
1.0
 40
1.0
 40
1.0
 10
7.7035661282
 20
4.8389560109
 30
0.0
 10
7.7035661282
 20
4.838642654
 30
0.0
 10
7.7035758628
 20
4.8380873742
 30
0.0
 10
7.7035964294
 20
4.837270116
 30
0.0
 10
7.7035399477
 20
4.8367508875
 30
0.0
 10
7.7034368142
 20
4.8365041929
 30
0.0
  0
SPLINE
  5
337
100
AcDbEntity
  8
0
100
AcDbSpline
 62
7
  6
CONTINUOUS
 70
0
 71
3
 72
8
 73
4
 74
0
 42
0.0000001
 43
0.0000001
 44
0.0000000001
 40
0.0
 40
0.0
 40
0.0
 40
0.0
 40
1.0
 40
1.0
 40
1.0
 40
1.0
 10
7.7034368142
 20
4.8365041929
 30
0.0
 10
7.7034257522
 20
4.836480784
 30
0.0
 10
7.7034146902
 20
4.836457375
 30
0.0
 10
7.7034036282
 20
4.8364339661
 30
0.0
  0
SPLINE
  5
338
100
AcDbEntity
  8
0
100
AcDbSpline
 62
7
  6
CONTINUOUS
 70
0
 71
3
 72
16
 73
12
 74
0
 42
0.0000001
 43
0.0000001
 44
0.0000000001
 40
0.0
 40
0.0
 40
0.0
 40
0.0
 40
0.0321337235
 40
0.0557066598
 40
0.0856144437
 40
0.165905988
 40
0.2746311915
 40
0.412282519
 40
0.579038344
 40
0.7749483012
 40
1.0
 40
1.0
 40
1.0
 40
1.0
 10
7.4902744279
 20
4.8364339661
 30
0.0
 10
7.4902095048
 20
4.8364339661
 30
0.0
 10
7.4901048067
 20
4.8365084513
 30
0.0
 10
7.4900071072
 20
4.8366478845
 30
0.0
 10
7.4898801237
 20
4.8368886636
 30
0.0
 10
7.4897336186
 20
4.8373067639
 30
0.0
 10
7.4895655278
 20
4.8379454597
 30
0.0
 10
7.4893969434
 20
4.8387632136
 30
0.0
 10
7.4892268226
 20
4.8397597664
 30
0.0
 10
7.4890562072
 20
4.8409349621
 30
0.0
 10
7.4889495303
 20
4.8417787987
 30
0.0
 10
7.4888955295
 20
4.8422302756
 30
0.0
  0
LINE
  5
339
100
AcDbEntity
  8
0
100
AcDbLine
 62
7
  6
CONTINUOUS
 10
7.4888955295
 20
4.8422302756
 11
7.4884295766
 21
4.8467690851
  0
SPLINE
  5
33A
100
AcDbEntity
  8
0
100
AcDbSpline
 62
7
  6
CONTINUOUS
 70
0
 71
3
 72
22
 73
18
 74
0
 42
0.0000001
 43
0.0000001
 44
0.0000000001
 40
0.0
 40
0.0
 40
0.0
 40
0.0
 40
0.0374540955
 40
0.0851774724
 40
0.1420978142
 40
0.2069276734
 40
0.2782144701
 40
0.3543407969
 40
0.5141389242
 40
0.6719535549
 40
0.7456343625
 40
0.8135814885
 40
0.8742584809
 40
0.9262959161
 40
0.9685302347
 40
0.9856570453
 40
1.0
 40
1.0
 40
1.0
 40
1.0
 10
7.4879612641
 20
4.8526009394
 30
0.0
 10
7.4876275873
 20
4.8572002861
 30
0.0
 10
7.4870071286
 20
4.8676698692
 30
0.0
 10
7.4861761805
 20
4.8851456029
 30
0.0
 10
7.485339707
 20
4.9059949844
 30
0.0
 10
7.4844984735
 20
4.9297472879
 30
0.0
 10
7.4836549781
 20
4.9558655498
 30
0.0
 10
7.4825098463
 20
4.9936727839
 30
0.0
 10
7.481125653
 20
5.0421310895
 30
0.0
 10
7.4797346176
 20
5.0902879962
 30
0.0
 10
7.4785825844
 20
5.1271380833
 30
0.0
 10
7.4777401413
 20
5.1520321111
 30
0.0
 10
7.4769015006
 20
5.1742598799
 30
0.0
 10
7.4760667558
 20
5.1933193324
 30
0.0
 10
7.4753400026
 20
5.2070162314
 30
0.0
 10
7.4747349417
 20
5.2160707763
 30
0.0
 10
7.4744281661
 20
5.2199334467
 30
0.0
 10
7.4742698702
 20
5.2216922754
 30
0.0
  0
SPLINE
  5
33B
100
AcDbEntity
  8
0
100
AcDbSpline
 62
7
  6
CONTINUOUS
 70
0
 71
3
 72
14
 73
10
 74
0
 42
0.0000001
 43
0.0000001
 44
0.0000000001
 40
0.0
 40
0.0
 40
0.0
 40
0.0
 40
0.3820141362
 40
0.5401486733
 40
0.6761612147
 40
0.7900312681
 40
0.8817950685
 40
0.9516137637
 40
1.0
 40
1.0
 40
1.0
 40
1.0
 10
7.4742698702
 20
5.2216922754
 30
0.0
 10
7.4741529277
 20
5.2229916254
 30
0.0
 10
7.4739739757
 20
5.224827815
 30
0.0
 10
7.473698279
 20
5.227120498
 30
0.0
 10
7.4735053295
 20
5.2285006568
 30
0.0
 10
7.47331329
 20
5.2296514956
 30
0.0
 10
7.4731232197
 20
5.2305736012
 30
0.0
 10
7.4729352765
 20
5.231265143
 30
0.0
 10
7.4727892873
 20
5.2316448221
 30
0.0
 10
7.4727068879
 20
5.2317880536
 30
0.0
  0
SPLINE
  5
33C
100
AcDbEntity
  8
0
100
AcDbSpline
 62
7
  6
CONTINUOUS
 70
0
 71
3
 72
16
 73
12
 74
0
 42
0.0000001
 43
0.0000001
 44
0.0000000001
 40
0.0
 40
0.0
 40
0.0
 40
0.0
 40
0.0324879214
 40
0.0561651111
 40
0.0861403486
 40
0.1664869486
 40
0.2751920021
 40
0.4127663745
 40
0.5793988159
 40
0.775145798
 40
1.0
 40
1.0
 40
1.0
 40
1.0
 10
7.6687744279
 20
4.8364339661
 30
0.0
 10
7.668710729
 20
4.8364339661
 30
0.0
 10
7.6686078439
 20
4.836505661
 30
0.0
 10
7.6685113034
 20
4.8366411667
 30
0.0
 10
7.6683863696
 20
4.8368743819
 30
0.0
 10
7.6682420476
 20
4.8372796591
 30
0.0
 10
7.6680765697
 20
4.8378987588
 30
0.0
 10
7.6679105845
 20
4.838691426
 30
0.0
 10
7.6677431122
 20
4.8396573976
 30
0.0
 10
7.667575152
 20
4.8407965598
 30
0.0
 10
7.6674701366
 20
4.8416145581
 30
0.0
 10
7.6674169776
 20
4.8420522121
 30
0.0
  0
LINE
  5
33D
100
AcDbEntity
  8
0
100
AcDbLine
 62
7
  6
CONTINUOUS
 10
7.6674169776
 20
4.8420522121
 11
7.6665052764
 21
4.8519995637
  0
SPLINE
  5
33E
100
AcDbEntity
  8
0
100
AcDbSpline
 62
7
  6
CONTINUOUS
 70
0
 71
3
 72
20
 73
16
 74
0
 42
0.0000001
 43
0.0000001
 44
0.0000000001
 40
0.0
 40
0.0
 40
0.0
 40
0.0
 40
0.0408659907
 40
0.0906619753
 40
0.1484135917
 40
0.212974481
 40
0.3572775977
 40
0.5121422341
 40
0.6653434325
 40
0.7374968347
 40
0.8047505069
 40
0.8657546103
 40
0.9193114712
 40
0.9643549817
 40
1.0
 40
1.0
 40
1.0
 40
1.0
 10
7.6660483141
 20
4.8587676408
 30
0.0
 10
7.6657457568
 20
4.863630337
 30
0.0
 10
7.6651697457
 20
4.874424182
 30
0.0
 10
7.664385767
 20
4.8921009587
 30
0.0
 10
7.6635979841
 20
4.9126049412
 30
0.0
 10
7.6625027374
 20
4.9443723919
 30
0.0
 10
7.6611816372
 20
4.9877166127
 30
0.0
 10
7.6596393524
 20
5.0416265763
 30
0.0
 10
7.6583315699
 20
5.0869379968
 30
0.0
 10
7.657252599
 20
5.1218064835
 30
0.0
 10
7.6564610883
 20
5.1456866994
 30
0.0
 10
7.655671521
 20
5.1673485443
 30
0.0
 10
7.6548861457
 20
5.1863607539
 30
0.0
 10
7.6541057208
 20
5.2023467157
 30
0.0
 10
7.6535246516
 20
5.2119495584
 30
0.0
 10
7.6532142066
 20
5.216187852
 30
0.0
  0
SPLINE
  5
33F
100
AcDbEntity
  8
0
100
AcDbSpline
 62
7
  6
CONTINUOUS
 70
0
 71
3
 72
15
 73
11
 74
0
 42
0.0000001
 43
0.0000001
 44
0.0000000001
 40
0.0
 40
0.0
 40
0.0
 40
0.0
 40
0.3901750075
 40
0.5507660472
 40
0.6878896541
 40
0.8013171268
 40
0.89101217
 40
0.9570658113
 40
0.9813570581
 40
1.0
 40
1.0
 40
1.0
 40
1.0
 10
7.6532142066
 20
5.216187852
 30
0.0
 10
7.6530643966
 20
5.2182331054
 30
0.0
 10
7.6528353936
 20
5.2211190661
 30
0.0
 10
7.6524812432
 20
5.2247173191
 30
0.0
 10
7.6522339186
 20
5.2268641193
 30
0.0
 10
7.6519884011
 20
5.2286359106
 30
0.0
 10
7.6517445384
 20
5.2300294712
 30
0.0
 10
7.6515306747
 20
5.2309530118
 30
0.0
 10
7.6513483103
 20
5.2314963155
 30
0.0
 10
7.6512557506
 20
5.2317031266
 30
0.0
 10
7.6512068879
 20
5.23178806
 30
0.0
  0
SPLINE
  5
340
100
AcDbEntity
  8
0
100
AcDbSpline
 62
7
  6
CONTINUOUS
 70
0
 71
3
 72
16
 73
12
 74
0
 42
0.0000001
 43
0.0000001
 44
0.0000000001
 40
0.0
 40
0.0
 40
0.0
 40
0.0
 40
0.0329906426
 40
0.0567631619
 40
0.0867774272
 40
0.1671646558
 40
0.2759715468
 40
0.4136437584
 40
0.5802588385
 40
0.775754202
 40
1.0
 40
1.0
 40
1.0
 40
1.0
 10
7.5781577824
 20
4.8649858628
 30
0.0
 10
7.5780852681
 20
4.8649856516
 30
0.0
 10
7.5779675565
 20
4.8650641941
 30
0.0
 10
7.5778562317
 20
4.8652159333
 30
0.0
 10
7.5777131736
 20
4.8654760932
 30
0.0
 10
7.5775478129
 20
4.8659297509
 30
0.0
 10
7.5773586337
 20
4.8666233144
 30
0.0
 10
7.5771688366
 20
4.8675115875
 30
0.0
 10
7.5769773914
 20
4.8685934565
 30
0.0
 10
7.5767853735
 20
4.8698680132
 30
0.0
 10
7.5766651991
 20
4.8707828058
 30
0.0
 10
7.5766043594
 20
4.8712719371
 30
0.0
  0
SPLINE
  5
341
100
AcDbEntity
  8
0
100
AcDbSpline
 62
7
  6
CONTINUOUS
 70
0
 71
3
 72
33
 73
29
 74
0
 42
0.0000001
 43
0.0000001
 44
0.0000000001
 40
0.0
 40
0.0
 40
0.0
 40
0.0
 40
0.0139370211
 40
0.0314979286
 40
0.052542012
 40
0.0769113652
 40
0.1348972122
 40
0.2036896485
 40
0.2812089643
 40
0.365106101
 40
0.4528258102
 40
0.5417093384
 40
0.6290522968
 40
0.712203958
 40
0.7886415351
 40
0.8236026204
 40
0.8560359836
 40
0.8856995258
 40
0.912356304
 40
0.9358127574
 40
0.9558989823
 40
0.9724517734
 40
0.9793667018
 40
0.9853607961
 40
0.990425299
 40
0.9945531447
 40
0.9977410868
 40
1.0
 40
1.0
 40
1.0
 40
1.0
 10
7.5766043594
 20
4.8712719371
 30
0.0
 10
7.5764138433
 20
4.8728036246
 30
0.0
 10
7.576053028
 20
4.8762738221
 30
0.0
 10
7.5755682867
 20
4.8820726239
 30
0.0
 10
7.5750802938
 20
4.8890299632
 30
0.0
 10
7.5743859879
 20
4.9004602082
 30
0.0
 10
7.5735463045
 20
4.9171787336
 30
0.0
 10
7.5725777081
 20
4.9397835097
 30
0.0
 10
7.5716052002
 20
4.9652600901
 30
0.0
 10
7.5706297579
 20
4.9928340662
 30
0.0
 10
7.5696529272
 20
5.0216672989
 30
0.0
 10
7.5686757665
 20
5.0508823458
 30
0.0
 10
7.5676991166
 20
5.0795912309
 30
0.0
 10
7.5667238135
 20
5.106920977
 30
0.0
 10
7.5658909666
 20
5.1284509087
 30
0.0
 10
7.5652132445
 20
5.1443655466
 30
0.0
 10
7.5647205938
 20
5.1551032061
 30
0.0
 10
7.5642288524
 20
5.1649201873
 30
0.0
 10
7.5637378229
 20
5.1737416645
 30
0.0
 10
7.5632482978
 20
5.1815007659
 30
0.0
 10
7.5627610074
 20
5.1881384364
 30
0.0
 10
7.5623367462
 20
5.1929436129
 30
0.0
 10
7.561987798
 20
5.1961878069
 30
0.0
 10
7.5617428083
 20
5.1981633601
 30
0.0
 10
7.5614988886
 20
5.1998274896
 30
0.0
 10
7.5612572648
 20
5.2011778284
 30
0.0
 10
7.5610179717
 20
5.2022106258
 30
0.0
 10
7.5608333237
 20
5.202787715
 30
0.0
 10
7.5607300975
 20
5.2030155941
 30
0.0
  0
LINE
  5
342
100
AcDbEntity
  8
0
100
AcDbLine
 62
7
  6
CONTINUOUS
 10
7.5607300975
 20
5.2030155941
 11
7.5606771197
 21
5.2031252113
  0
SPLINE
  5
343
100
AcDbEntity
  8
0
100
AcDbSpline
 62
7
  6
CONTINUOUS
 70
0
 71
3
 72
16
 73
12
 74
0
 42
0.0000001
 43
0.0000001
 44
0.0000000001
 40
0.0
 40
0.0
 40
0.0
 40
0.0
 40
0.032310053
 40
0.0559340187
 40
0.0858741413
 40
0.1661900792
 40
0.2749023746
 40
0.4125135768
 40
0.5792081195
 40
0.7750399237
 40
1.0
 40
1.0
 40
1.0
 40
1.0
 10
7.5259744279
 20
4.8364339661
 30
0.0
 10
7.5259101232
 20
4.8364339661
 30
0.0
 10
7.5258063378
 20
4.8365070322
 30
0.0
 10
7.5257092199
 20
4.8366444768
 30
0.0
 10
7.5255832686
 20
4.8368814221
 30
0.0
 10
7.5254378624
 20
4.8372930297
 30
0.0
 10
7.5252710878
 20
4.8379218093
 30
0.0
 10
7.5251038121
 20
4.8387268799
 30
0.0
 10
7.5249350243
 20
4.839707985
 30
0.0
 10
7.5247657444
 20
4.8408649955
 30
0.0
 10
7.5246599031
 20
4.8416957974
 30
0.0
 10
7.5246063255
 20
4.842140304
 30
0.0
  0
LINE
  5
344
100
AcDbEntity
  8
0
100
AcDbLine
 62
7
  6
CONTINUOUS
 10
7.5246063255
 20
4.842140304
 11
7.5236778784
 21
4.8523727132
  0
SPLINE
  5
345
100
AcDbEntity
  8
0
100
AcDbSpline
 62
7
  6
CONTINUOUS
 70
0
 71
3
 72
22
 73
18
 74
0
 42
0.0000001
 43
0.0000001
 44
0.0000000001
 40
0.0
 40
0.0
 40
0.0
 40
0.0
 40
0.0372800252
 40
0.08486938
 40
0.1416974113
 40
0.2064713129
 40
0.2777328483
 40
0.3538620376
 40
0.5137436084
 40
0.6717123639
 40
0.7454781331
 40
0.8135008099
 40
0.8742324806
 40
0.926302997
 40
0.9685466029
 40
0.9856685896
 40
1.0
 40
1.0
 40
1.0
 40
1.0
 10
7.5236778784
 20
4.8523727132
 30
0.0
 10
7.5233432509
 20
4.8569538577
 30
0.0
 10
7.5227216768
 20
4.8673930255
 30
0.0
 10
7.5218897108
 20
4.8848320899
 30
0.0
 10
7.5210521697
 20
4.9056618498
 30
0.0
 10
7.5202097914
 20
4.9294100594
 30
0.0
 10
7.5193651656
 20
4.9555376902
 30
0.0
 10
7.5182183196
 20
4.9933799902
 30
0.0
 10
7.5168321171
 20
5.0419032377
 30
0.0
 10
7.5154392179
 20
5.0901349898
 30
0.0
 10
7.5142854387
 20
5.1270507043
 30
0.0
 10
7.5134417109
 20
5.1519893904
 30
0.0
 10
7.5126018186
 20
5.1742534794
 30
0.0
 10
7.511765899
 20
5.1933387731
 30
0.0
 10
7.511038103
 20
5.2070502678
 30
0.0
 10
7.510432091
 20
5.216110507
 30
0.0
 10
7.5101248181
 20
5.2199739509
 30
0.0
 10
7.5099662352
 20
5.2217326184
 30
0.0
  0
SPLINE
  5
346
100
AcDbEntity
  8
0
100
AcDbSpline
 62
7
  6
CONTINUOUS
 70
0
 71
3
 72
14
 73
10
 74
0
 42
0.0000001
 43
0.0000001
 44
0.0000000001
 40
0.0
 40
0.0
 40
0.0
 40
0.0
 40
0.3819282469
 40
0.5400392481
 40
0.6760425558
 40
0.7899182798
 40
0.8817033137
 40
0.9515595234
 40
1.0
 40
1.0
 40
1.0
 40
1.0
 10
7.5099662352
 20
5.2217326184
 30
0.0
 10
7.5098495611
 20
5.2230265221
 30
0.0
 10
7.5096710171
 20
5.2248550516
 30
0.0
 10
7.5093959666
 20
5.2271382136
 30
0.0
 10
7.5092034628
 20
5.2285127798
 30
0.0
 10
7.5090118658
 20
5.2296590795
 30
0.0
 10
7.508822225
 20
5.2305776959
 30
0.0
 10
7.5086347042
 20
5.2312668218
 30
0.0
 10
7.5084890552
 20
5.2316452358
 30
0.0
 10
7.5084068879
 20
5.2317880602
 30
0.0
  0
SPLINE
  5
347
100
AcDbEntity
  8
0
100
AcDbSpline
 62
7
  6
CONTINUOUS
 70
0
 71
3
 72
13
 73
9
 74
0
 42
0.0000001
 43
0.0000001
 44
0.0000000001
 40
0.0
 40
0.0
 40
0.0
 40
0.0
 40
0.0960694116
 40
0.1783551155
 40
0.2871979665
 40
0.4234998784
 40
0.5876479366
 40
1.0
 40
1.0
 40
1.0
 40
1.0
 10
7.613857782
 20
4.8649842816
 30
0.0
 10
7.6137360933
 20
4.8649838569
 30
0.0
 10
7.6135561942
 20
4.8651934227
 30
0.0
 10
7.6134051375
 20
4.8655072606
 30
0.0
 10
7.6132597846
 20
4.8659022754
 30
0.0
 10
7.6131185884
 20
4.8663992685
 30
0.0
 10
7.6129107822
 20
4.8672791171
 30
0.0
 10
7.6127809557
 20
4.8679977917
 30
0.0
 10
7.6126957295
 20
4.8685131109
 30
0.0
  0
SPLINE
  5
348
100
AcDbEntity
  8
0
100
AcDbSpline
 62
7
  6
CONTINUOUS
 70
0
 71
3
 72
34
 73
30
 74
0
 42
0.0000001
 43
0.0000001
 44
0.0000000001
 40
0.0
 40
0.0
 40
0.0
 40
0.0
 40
0.0112284834
 40
0.0262992529
 40
0.0450890447
 40
0.0674541286
 40
0.0932327541
 40
0.1222082981
 40
0.188820387
 40
0.265179283
 40
0.3488655423
 40
0.4372094821
 40
0.5274044219
 40
0.6165803785
 40
0.701897423
 40
0.7806484442
 40
0.8167627223
 40
0.85032231
 40
0.8810534279
 40
0.9087081018
 40
0.9330801174
 40
0.9539685019
 40
0.9712066084
 40
0.978420437
 40
0.9846794424
 40
0.9899711552
 40
0.9942857177
 40
0.9976240997
 40
1.0
 40
1.0
 40
1.0
 40
1.0
 10
7.6126957295
 20
4.8685131109
 30
0.0
 10
7.6124911524
 20
4.8697500839
 30
0.0
 10
7.612117678
 20
4.8726642378
 30
0.0
 10
7.6116257835
 20
4.8776748477
 30
0.0
 10
7.6111293972
 20
4.8839337407
 30
0.0
 10
7.6106293345
 20
4.8913908804
 30
0.0
 10
7.6101278586
 20
4.8999875202
 30
0.0
 10
7.609424105
 20
4.9135210854
 30
0.0
 10
7.6085668246
 20
4.9327017512
 30
0.0
 10
7.6075729661
 20
4.9579908915
 30
0.0
 10
7.6065762525
 20
4.9857082141
 30
0.0
 10
7.6055774519
 20
5.0149713157
 30
0.0
 10
7.6045780757
 20
5.0448477247
 30
0.0
 10
7.6035791174
 20
5.0743859779
 30
0.0
 10
7.6025813327
 20
5.1026456857
 30
0.0
 10
7.6017299583
 20
5.1249819519
 30
0.0
 10
7.6010369563
 20
5.1415406456
 30
0.0
 10
7.6005328977
 20
5.1527405824
 30
0.0
 10
7.6000295726
 20
5.1629949248
 30
0.0
 10
7.5995269491
 20
5.1722220586
 30
0.0
 10
7.5990261629
 20
5.1803484723
 30
0.0
 10
7.5985273254
 20
5.1873093335
 30
0.0
 10
7.5980930354
 20
5.1923537561
 30
0.0
 10
7.5977361734
 20
5.1957644132
 30
0.0
 10
7.5974854628
 20
5.1978447732
 30
0.0
 10
7.5972358861
 20
5.1995986832
 30
0.0
 10
7.5969884329
 20
5.2010234343
 30
0.0
 10
7.5967432067
 20
5.2021158894
 30
0.0
 10
7.5965544547
 20
5.2027280611
 30
0.0
 10
7.5964490852
 20
5.2029715319
 30
0.0
  0
LINE
  5
349
100
AcDbEntity
  8
0
100
AcDbLine
 62
7
  6
CONTINUOUS
 10
7.5963960567
 20
5.2030867324
 11
7.5963377737
 21
5.2031964309
  0
SPLINE
  5
34A
100
AcDbEntity
  8
0
100
AcDbSpline
 62
7
  6
CONTINUOUS
 70
0
 71
3
 72
16
 73
12
 74
0
 42
0.0000001
 43
0.0000001
 44
0.0000000001
 40
0.0
 40
0.0
 40
0.0
 40
0.0
 40
0.0324044965
 40
0.0560579994
 40
0.0860186744
 40
0.1663557056
 40
0.2750688826
 40
0.4126635977
 40
0.5793250601
 40
0.7751070546
 40
1.0
 40
1.0
 40
1.0
 40
1.0
 10
7.5616744279
 20
4.8364339661
 30
0.0
 10
7.5616104414
 20
4.8364339661
 30
0.0
 10
7.5615071299
 20
4.8365063185
 30
0.0
 10
7.5614103178
 20
4.8366427491
 30
0.0
 10
7.5612849026
 20
4.8368777416
 30
0.0
 10
7.5611400678
 20
4.8372860261
 30
0.0
 10
7.5609739758
 20
4.8379097131
 30
0.0
 10
7.5608073802
 20
4.8387082399
 30
0.0
 10
7.5606392869
 20
4.8396813381
 30
0.0
 10
7.5604707056
 20
4.8408288778
 30
0.0
 10
7.5603653016
 20
4.8416528771
 30
0.0
 10
7.5603119461
 20
4.8420937379
 30
0.0
  0
LINE
  5
34B
100
AcDbEntity
  8
0
100
AcDbLine
 62
7
  6
CONTINUOUS
 10
7.5603119461
 20
4.8420937379
 11
7.5594049334
 21
4.8520041744
  0
SPLINE
  5
34C
100
AcDbEntity
  8
0
100
AcDbSpline
 62
7
  6
CONTINUOUS
 70
0
 71
3
 72
20
 73
16
 74
0
 42
0.0000001
 43
0.0000001
 44
0.0000000001
 40
0.0
 40
0.0
 40
0.0
 40
0.0
 40
0.0408806933
 40
0.0907246416
 40
0.148552357
 40
0.2132118078
 40
0.3577490777
 40
0.5128215217
 40
0.6661242551
 40
0.738273486
 40
0.8054776052
 40
0.8663817128
 40
0.9197852301
 40
0.9646203865
 40
1.0
 40
1.0
 40
1.0
 40
1.0
 10
7.5589516575
 20
4.8587139436
 30
0.0
 10
7.5586483042
 20
4.8635839046
 30
0.0
 10
7.5580709219
 20
4.8743974905
 30
0.0
 10
7.5572852823
 20
4.8921109319
 30
0.0
 10
7.556495747
 20
4.9126648111
 30
0.0
 10
7.5553979964
 20
4.9445172001
 30
0.0
 10
7.5540740256
 20
4.9879752589
 30
0.0
 10
7.5525284335
 20
5.0420114347
 30
0.0
 10
7.5512176728
 20
5.0874108261
 30
0.0
 10
7.5501360942
 20
5.122324667
 30
0.0
 10
7.5493428862
 20
5.1462136803
 30
0.0
 10
7.5485516623
 20
5.1678639768
 30
0.0
 10
7.5477647098
 20
5.1868426499
 30
0.0
 10
7.5469827828
 20
5.2027718362
 30
0.0
 10
7.5464000755
 20
5.2123289231
 30
0.0
 10
7.5460882718
 20
5.216540203
 30
0.0
  0
SPLINE
  5
34D
100
AcDbEntity
  8
0
100
AcDbSpline
 62
7
  6
CONTINUOUS
 70
0
 71
3
 72
15
 73
11
 74
0
 42
0.0000001
 43
0.0000001
 44
0.0000000001
 40
0.0
 40
0.0
 40
0.0
 40
0.0
 40
0.3897879133
 40
0.5502562376
 40
0.6873223406
 40
0.8007682198
 40
0.8905615441
 40
0.9567971262
 40
0.9812119634
 40
1.0
 40
1.0
 40
1.0
 40
1.0
 10
7.5460882718
 20
5.216540203
 30
0.0
 10
7.5459403891
 20
5.2185375343
 30
0.0
 10
7.5457143123
 20
5.2213560384
 30
0.0
 10
7.5453647464
 20
5.2248704159
 30
0.0
 10
7.5451205968
 20
5.2269680105
 30
0.0
 10
7.5448782078
 20
5.2287000836
 30
0.0
 10
7.5446374465
 20
5.2300635753
 30
0.0
 10
7.5444262681
 20
5.2309680639
 30
0.0
 10
7.5442463413
 20
5.2315010914
 30
0.0
 10
7.5441550299
 20
5.2317043991
 30
0.0
 10
7.5441068881
 20
5.2317880747
 30
0.0
  0
SPLINE
  5
34E
100
AcDbEntity
  8
0
100
AcDbSpline
 62
7
  6
CONTINUOUS
 70
0
 71
3
 72
16
 73
12
 74
0
 42
0.0000001
 43
0.0000001
 44
0.0000000001
 40
0.0
 40
0.0
 40
0.0
 40
0.0
 40
0.0321271937
 40
0.055698203
 40
0.0856047319
 40
0.1658952241
 40
0.2746207569
 40
0.412273472
 40
0.5790315673
 40
0.7749445663
 40
1.0
 40
1.0
 40
1.0
 40
1.0
 10
7.6330744279
 20
4.8364339661
 30
0.0
 10
7.6330094819
 20
4.8364339661
 30
0.0
 10
7.6329047498
 20
4.8365085039
 30
0.0
 10
7.6328070287
 20
4.8366480109
 30
0.0
 10
7.6326800068
 20
4.8368889326
 30
0.0
 10
7.6325334608
 20
4.8373072744
 30
0.0
 10
7.6323653211
 20
4.8379463395
 30
0.0
 10
7.6321966881
 20
4.8387645665
 30
0.0
 10
7.6320265177
 20
4.839761696
 30
0.0
 10
7.6318558527
 20
4.8409375717
 30
0.0
 10
7.6317491447
 20
4.8417818959
 30
0.0
 10
7.6316951281
 20
4.8422336337
 30
0.0
  0
LINE
  5
34F
100
AcDbEntity
  8
0
100
AcDbLine
 62
7
  6
CONTINUOUS
 10
7.6316951281
 20
4.8422336337
 11
7.6312290465
 21
4.8467749795
  0
SPLINE
  5
350
100
AcDbEntity
  8
0
100
AcDbSpline
 62
7
  6
CONTINUOUS
 70
0
 71
3
 72
22
 73
18
 74
0
 42
0.0000001
 43
0.0000001
 44
0.0000000001
 40
0.0
 40
0.0
 40
0.0
 40
0.0
 40
0.0374600706
 40
0.0851875875
 40
0.1421107581
 40
0.2069398542
 40
0.2782217418
 40
0.3543427908
 40
0.5141322588
 40
0.6719433612
 40
0.7456244952
 40
0.8135719608
 40
0.8742484396
 40
0.9262870717
 40
0.9685249346
 40
0.9856541752
 40
1.0
 40
1.0
 40
1.0
 40
1.0
 10
7.630760606
 20
4.8526100216
 30
0.0
 10
7.6304269787
 20
4.8572099185
 30
0.0
 10
7.6298065809
 20
4.8676803182
 30
0.0
 10
7.628975693
 20
4.8851569272
 30
0.0
 10
7.6281392923
 20
4.9060062138
 30
0.0
 10
7.6272981413
 20
4.929757188
 30
0.0
 10
7.6264547447
 20
4.9558730247
 30
0.0
 10
7.6253097484
 20
4.9936763791
 30
0.0
 10
7.6239256659
 20
5.0421305344
 30
0.0
 10
7.6225347368
 20
5.0902839931
 30
0.0
 10
7.6213827698
 20
5.1271322067
 30
0.0
 10
7.6205403856
 20
5.1520252263
 30
0.0
 10
7.6197018081
 20
5.1742522044
 30
0.0
 10
7.6188671299
 20
5.1933113924
 30
0.0
 10
7.6181404416
 20
5.2070086115
 30
0.0
 10
7.6175354411
 20
5.2160638761
 30
0.0
 10
7.6172286975
 20
5.2199270429
 30
0.0
 10
7.6170704215
 20
5.221686155
 30
0.0
  0
SPLINE
  5
351
100
AcDbEntity
  8
0
100
AcDbSpline
 62
7
  6
CONTINUOUS
 70
0
 71
3
 72
14
 73
10
 74
0
 42
0.0000001
 43
0.0000001
 44
0.0000000001
 40
0.0
 40
0.0
 40
0.0
 40
0.0
 40
0.3820267347
 40
0.5401647301
 40
0.6761786778
 40
0.7900479625
 40
0.881808685
 40
0.9516218496
 40
1.0
 40
1.0
 40
1.0
 40
1.0
 10
7.6170704215
 20
5.221686155
 30
0.0
 10
7.6169534384
 20
5.2229863299
 30
0.0
 10
7.6167744246
 20
5.2248236798
 30
0.0
 10
7.6164986299
 20
5.2271178056
 30
0.0
 10
7.6163056128
 20
5.2284988126
 30
0.0
 10
7.6161135062
 20
5.2296503408
 30
0.0
 10
7.6159233706
 20
5.2305729768
 30
0.0
 10
7.6157353633
 20
5.2312648864
 30
0.0
 10
7.6155893226
 20
5.2316447583
 30
0.0
 10
7.6155068879
 20
5.2317880519
 30
0.0
  0
SPLINE
  5
352
100
AcDbEntity
  8
0
100
AcDbSpline
 62
7
  6
CONTINUOUS
 70
0
 71
3
 72
16
 73
12
 74
0
 42
0.0000001
 43
0.0000001
 44
0.0000000001
 40
0.0
 40
0.0
 40
0.0
 40
0.0
 40
0.0385806454
 40
0.0641925788
 40
0.0954825863
 40
0.1770436454
 40
0.2855726967
 40
0.4218749336
 40
0.5862961035
 40
0.7789864174
 40
1.0
 40
1.0
 40
1.0
 40
1.0
 10
7.4351731934
 20
4.8594892224
 30
0.0
 10
7.4351183472
 20
4.8594893798
 30
0.0
 10
7.4350291544
 20
4.859535495
 30
0.0
 10
7.4349381599
 20
4.8596352256
 30
0.0
 10
7.4348273971
 20
4.8597991972
 30
0.0
 10
7.4346971834
 20
4.8600871035
 30
0.0
 10
7.4345492843
 20
4.8605271913
 30
0.0
 10
7.434400903
 20
4.8610901096
 30
0.0
 10
7.4342516614
 20
4.8617756095
 30
0.0
 10
7.4341021022
 20
4.8625838615
 30
0.0
 10
7.4340086328
 20
4.8631645543
 30
0.0
 10
7.4339613439
 20
4.8634751692
 30
0.0
  0
SPLINE
  5
353
100
AcDbEntity
  8
0
100
AcDbSpline
 62
7
  6
CONTINUOUS
 70
0
 71
3
 72
20
 73
16
 74
0
 42
0.0000001
 43
0.0000001
 44
0.0000000001
 40
0.0
 40
0.0
 40
0.0
 40
0.0
 40
0.0096451078
 40
0.0216152166
 40
0.0523356476
 40
0.0917088576
 40
0.1391070518
 40
0.1938209391
 40
0.2550090435
 40
0.3217711056
 40
0.3931119524
 40
0.5453575494
 40
0.7030586455
 40
0.8574199807
 40
1.0
 40
1.0
 40
1.0
 40
1.0
 10
7.4339613439
 20
4.8634751692
 30
0.0
 10
7.4338282996
 20
4.8643490654
 30
0.0
 10
7.4335744687
 20
4.8663141955
 30
0.0
 10
7.4330751839
 20
4.8710848491
 30
0.0
 10
7.4324828227
 20
4.8785835252
 30
0.0
 10
7.4318078539
 20
4.8893304546
 30
0.0
 10
7.4311308457
 20
4.9022799966
 30
0.0
 10
7.4304528007
 20
4.9172310031
 30
0.0
 10
7.4297751294
 20
4.9339583358
 30
0.0
 10
7.4290987718
 20
4.9522106787
 30
0.0
 10
7.4281790203
 20
4.9788049857
 30
0.0
 10
7.4270620541
 20
5.013731838
 30
0.0
 10
7.4257547619
 20
5.0562651735
 30
0.0
 10
7.4244573857
 20
5.0979125504
 30
0.0
 10
7.4235508299
 20
5.1251119336
 30
0.0
 10
7.4230827781
 20
5.1381708827
 30
0.0
  0
SPLINE
  5
354
100
AcDbEntity
  8
0
100
AcDbSpline
 62
7
  6
CONTINUOUS
 70
0
 71
3
 72
16
 73
12
 74
0
 42
0.0000001
 43
0.0000001
 44
0.0000000001
 40
0.0
 40
0.0
 40
0.0
 40
0.0
 40
0.0321797819
 40
0.0557662029
 40
0.0856826732
 40
0.1659812071
 40
0.2747036555
 40
0.4123449081
 40
0.5790847204
 40
0.7749736501
 40
1.0
 40
1.0
 40
1.0
 40
1.0
 10
7.5973744279
 20
4.8364339661
 30
0.0
 10
7.5973096668
 20
4.8364339661
 30
0.0
 10
7.5972052075
 20
4.8365080795
 30
0.0
 10
7.5971076604
 20
4.836646992
 30
0.0
 10
7.5969809472
 20
4.8368867662
 30
0.0
 10
7.5968347297
 20
4.8373031637
 30
0.0
 10
7.5966669834
 20
4.8379392571
 30
0.0
 10
7.5964987417
 20
4.8387536802
 30
0.0
 10
7.5963289703
 20
4.839746173
 30
0.0
 10
7.5961587053
 20
4.8409165857
 30
0.0
 10
7.5960522477
 20
4.8417569929
 30
0.0
 10
7.5959983581
 20
4.8422066352
 30
0.0
  0
LINE
  5
355
100
AcDbEntity
  8
0
100
AcDbLine
 62
7
  6
CONTINUOUS
 10
7.5959983581
 20
4.8422066352
 11
7.5955346712
 21
4.8467125855
  0
SPLINE
  5
356
100
AcDbEntity
  8
0
100
AcDbSpline
 62
7
  6
CONTINUOUS
 70
0
 71
3
 72
21
 73
17
 74
0
 42
0.0000001
 43
0.0000001
 44
0.0000000001
 40
0.0
 40
0.0
 40
0.0
 40
0.0
 40
0.0365357686
 40
0.0828805364
 40
0.1380606548
 40
0.2009052084
 40
0.2700967927
 40
0.3441559883
 40
0.5005192546
 40
0.6567964192
 40
0.7307578323
 40
0.799822919
 40
0.8625174871
 40
0.9175251345
 40
0.9636765276
 40
1.0
 40
1.0
 40
1.0
 40
1.0
 10
7.5950692297
 20
4.8524913313
 30
0.0
 10
7.5947474414
 20
4.8569123912
 30
0.0
 10
7.5941469667
 20
4.8669507015
 30
0.0
 10
7.5933415628
 20
4.8836818113
 30
0.0
 10
7.5925309274
 20
4.9036078564
 30
0.0
 10
7.5917158193
 20
4.9263075475
 30
0.0
 10
7.5908986267
 20
4.9512990388
 30
0.0
 10
7.5897869051
 20
4.9876331591
 30
0.0
 10
7.5884410143
 20
5.034530757
 30
0.0
 10
7.5870949037
 20
5.0814164808
 30
0.0
 10
7.5859830812
 20
5.1177129232
 30
0.0
 10
7.5851660086
 20
5.1426589864
 30
0.0
 10
7.5843510177
 20
5.1653041767
 30
0.0
 10
7.5835405052
 20
5.1851675943
 30
0.0
 10
7.5827352512
 20
5.2018284847
 30
0.0
 10
7.5821345678
 20
5.2118174903
 30
0.0
 10
7.5818123828
 20
5.2162126954
 30
0.0
  0
SPLINE
  5
357
100
AcDbEntity
  8
0
100
AcDbSpline
 62
7
  6
CONTINUOUS
 70
0
 71
3
 72
15
 73
11
 74
0
 42
0.0000001
 43
0.0000001
 44
0.0000000001
 40
0.0
 40
0.0
 40
0.0
 40
0.0
 40
0.3901601942
 40
0.550745612
 40
0.6878678371
 40
0.8012952557
 40
0.8909922672
 40
0.9570523681
 40
0.9813493237
 40
1.0
 40
1.0
 40
1.0
 40
1.0
 10
7.5818123828
 20
5.2162126954
 30
0.0
 10
7.5816627008
 20
5.2182546378
 30
0.0
 10
7.5814338924
 20
5.2211359273
 30
0.0
 10
7.5810800525
 20
5.224728367
 30
0.0
 10
7.5808329576
 20
5.2268717263
 30
0.0
 10
7.5805876674
 20
5.2286407046
 30
0.0
 10
7.5803440296
 20
5.2300320851
 30
0.0
 10
7.5801303596
 20
5.2309542127
 30
0.0
 10
7.5799481693
 20
5.2314967324
 30
0.0
 10
7.5798556988
 20
5.2317032685
 30
0.0
 10
7.5798068879
 20
5.2317881003
 30
0.0
  0
SPLINE
  5
358
100
AcDbEntity
  8
0
100
AcDbSpline
 62
7
  6
CONTINUOUS
 70
0
 71
3
 72
16
 73
12
 74
0
 42
0.0000001
 43
0.0000001
 44
0.0000000001
 40
0.0
 40
0.0
 40
0.0
 40
0.0
 40
0.0382271017
 40
0.0637152847
 40
0.0949093501
 40
0.1763442471
 40
0.2848226033
 40
0.421154259
 40
0.5856983367
 40
0.7786224122
 40
1.0
 40
1.0
 40
1.0
 40
1.0
 10
7.6495577723
 20
4.8649845431
 30
0.0
 10
7.6495002672
 20
4.8649847822
 30
0.0
 10
7.6494067973
 20
4.8650338855
 30
0.0
 10
7.6493117172
 20
4.86513929
 30
0.0
 10
7.6491956278
 20
4.8653129347
 30
0.0
 10
7.6490591557
 20
4.8656176938
 30
0.0
 10
7.648903983
 20
4.8660835963
 30
0.0
 10
7.6487481774
 20
4.8666797328
 30
0.0
 10
7.6485913234
 20
4.8674059405
 30
0.0
 10
7.6484340023
 20
4.8682624911
 30
0.0
 10
7.64833562
 20
4.8688779637
 30
0.0
 10
7.6482858254
 20
4.8692072417
 30
0.0
  0
SPLINE
  5
359
100
AcDbEntity
  8
0
100
AcDbSpline
 62
7
  6
CONTINUOUS
 70
0
 71
3
 72
34
 73
30
 74
0
 42
0.0000001
 43
0.0000001
 44
0.0000000001
 40
0.0
 40
0.0
 40
0.0
 40
0.0
 40
0.0119864609
 40
0.0277268886
 40
0.0471072402
 40
0.0699946284
 40
0.0961993603
 40
0.1255175237
 40
0.1925814845
 40
0.2690814746
 40
0.3526300755
 40
0.4406176927
 40
0.5302853137
 40
0.6188323526
 40
0.7034836312
 40
0.7815923933
 40
0.8174222209
 40
0.8507226544
 40
0.8812251474
 40
0.9087040145
 40
0.9329417952
 40
0.9537404687
 40
0.9709558217
 40
0.978178488
 40
0.984456453
 40
0.9897783164
 40
0.9941409451
 40
0.99754515
 40
1.0
 40
1.0
 40
1.0
 40
1.0
 10
7.6482858254
 20
4.8692072417
 30
0.0
 10
7.648086159
 20
4.8705275791
 30
0.0
 10
7.6477173331
 20
4.8735954678
 30
0.0
 10
7.6472276819
 20
4.8788206365
 30
0.0
 10
7.646734327
 20
4.8852644673
 30
0.0
 10
7.6462382915
 20
4.892876559
 30
0.0
 10
7.6457403889
 20
4.9015977193
 30
0.0
 10
7.6450434176
 20
4.9152367415
 30
0.0
 10
7.6441935589
 20
4.9344780713
 30
0.0
 10
7.6432073323
 20
4.9597603142
 30
0.0
 10
7.6422183424
 20
4.9873750666
 30
0.0
 10
7.6412275986
 20
5.0164575604
 30
0.0
 10
7.6402362092
 20
5.0460971955
 30
0.0
 10
7.6392453202
 20
5.0753649586
 30
0.0
 10
7.6382556731
 20
5.10334429
 30
0.0
 10
7.6374110258
 20
5.1254520894
 30
0.0
 10
7.636723869
 20
5.1418408443
 30
0.0
 10
7.636223996
 20
5.1529291725
 30
0.0
 10
7.6357245979
 20
5.1630861704
 30
0.0
 10
7.6352262365
 20
5.1722322596
 30
0.0
 10
7.6347295803
 20
5.1802956417
 30
0.0
 10
7.6342343826
 20
5.1872131981
 30
0.0
 10
7.6338039119
 20
5.1922347158
 30
0.0
 10
7.6334503277
 20
5.1956383898
 30
0.0
 10
7.6332016244
 20
5.1977206506
 30
0.0
 10
7.6329537907
 20
5.1994816638
 30
0.0
 10
7.6327080134
 20
5.2009195349
 30
0.0
 10
7.6324644595
 20
5.2020318427
 30
0.0
 10
7.6322776333
 20
5.2026595346
 30
0.0
 10
7.6321741531
 20
5.2029126834
 30
0.0
  0
LINE
  5
35A
100
AcDbEntity
  8
0
100
AcDbLine
 62
7
  6
CONTINUOUS
 10
7.6321224857
 20
5.2030321121
 11
7.632037778
 21
5.2031977265
  0
SPLINE
  5
35B
100
AcDbEntity
  8
0
100
AcDbSpline
 62
7
  6
CONTINUOUS
 70
0
 71
3
 72
16
 73
12
 74
0
 42
0.0000001
 43
0.0000001
 44
0.0000000001
 40
0.0
 40
0.0
 40
0.0
 40
0.0
 40
0.0336326041
 40
0.0576311665
 40
0.0877955778
 40
0.1682423683
 40
0.276820223
 40
0.4141522525
 40
0.5805027592
 40
0.7758500059
 40
1.0
 40
1.0
 40
1.0
 40
1.0
 10
7.6852577728
 20
4.8649855945
 30
0.0
 10
7.685187109
 20
4.8649858509
 30
0.0
 10
7.6850727418
 20
4.8650607463
 30
0.0
 10
7.6849634054
 20
4.8652064827
 30
0.0
 10
7.6848239353
 20
4.8654546329
 30
0.0
 10
7.6846622334
 20
4.8658869787
 30
0.0
 10
7.6844773167
 20
4.866547704
 30
0.0
 10
7.6842918266
 20
4.8673941416
 30
0.0
 10
7.6841048772
 20
4.8684259734
 30
0.0
 10
7.6839173908
 20
4.8696426251
 30
0.0
 10
7.6838000486
 20
4.8705162163
 30
0.0
 10
7.6837406323
 20
4.870983407
 30
0.0
  0
SPLINE
  5
35C
100
AcDbEntity
  8
0
100
AcDbSpline
 62
7
  6
CONTINUOUS
 70
0
 71
3
 72
33
 73
29
 74
0
 42
0.0000001
 43
0.0000001
 44
0.0000000001
 40
0.0
 40
0.0
 40
0.0
 40
0.0
 40
0.0137107209
 40
0.0310583728
 40
0.0519309258
 40
0.0761592997
 40
0.1339346236
 40
0.2026319093
 40
0.2801627989
 40
0.3641487868
 40
0.452027942
 40
0.5411130615
 40
0.6286780731
 40
0.7120508005
 40
0.7886748667
 40
0.8237205241
 40
0.8562160936
 40
0.8859237609
 40
0.9126173249
 40
0.9360816242
 40
0.9561518792
 40
0.9726794944
 40
0.9795706496
 40
0.9855317219
 40
0.9905567651
 40
0.9946415883
 40
0.9977858954
 40
1.0
 40
1.0
 40
1.0
 40
1.0
 10
7.6837406323
 20
4.870983407
 30
0.0
 10
7.6835488756
 20
4.8724911906
 30
0.0
 10
7.6831866441
 20
4.8759157502
 30
0.0
 10
7.6827001438
 20
4.8816521905
 30
0.0
 10
7.6822110981
 20
4.8885579469
 30
0.0
 10
7.6815141739
 20
4.8999412758
 30
0.0
 10
7.6806715852
 20
4.9166266498
 30
0.0
 10
7.6797001666
 20
4.9392210435
 30
0.0
 10
7.6787248198
 20
4.9647233065
 30
0.0
 10
7.6777462383
 20
4.9923532709
 30
0.0
 10
7.6767664096
 20
5.0212648195
 30
0.0
 10
7.6757861559
 20
5.0505733307
 30
0.0
 10
7.6748063831
 20
5.0793820139
 30
0.0
 10
7.6738281446
 20
5.1068085283
 30
0.0
 10
7.6729924089
 20
5.1284142447
 30
0.0
 10
7.6723126498
 20
5.1443815241
 30
0.0
 10
7.6718183903
 20
5.155150925
 30
0.0
 10
7.6713249173
 20
5.164993427
 30
0.0
 10
7.6708325654
 20
5.1738334262
 30
0.0
 10
7.6703415063
 20
5.181603314
 30
0.0
 10
7.669852407
 20
5.1882437407
 30
0.0
 10
7.6694270602
 20
5.1930463898
 30
0.0
 10
7.6690768523
 20
5.1962845509
 30
0.0
 10
7.6688310893
 20
5.1982512486
 30
0.0
 10
7.6685864053
 20
5.1999039885
 30
0.0
 10
7.6683440919
 20
5.2012414426
 30
0.0
 10
7.6681041634
 20
5.202260101
 30
0.0
 10
7.6679190002
 20
5.2028276132
 30
0.0
 10
7.6678148093
 20
5.2030498503
 30
0.0
  0
LINE
  5
35D
100
AcDbEntity
  8
0
100
AcDbLine
 62
7
  6
CONTINUOUS
 10
7.6678148093
 20
5.2030498503
 11
7.667737771
 21
5.2031985653
  0
SPLINE
  5
35E
100
AcDbEntity
  8
0
100
AcDbSpline
 62
7
  6
CONTINUOUS
 70
0
 71
3
 72
11
 73
7
 74
0
 42
0.0000001
 43
0.0000001
 44
0.0000000001
 40
0.0
 40
0.0
 40
0.0
 40
0.0
 40
0.1504864311
 40
0.3665513345
 40
0.6496128986
 40
1.0
 40
1.0
 40
1.0
 40
1.0
 10
7.4722277825
 20
4.8652694939
 30
0.0
 10
7.4721337887
 20
4.8654322631
 30
0.0
 10
7.4719667751
 20
4.865862258
 30
0.0
 10
7.4717517101
 20
4.8666441478
 30
0.0
 10
7.4715343064
 20
4.8676836053
 30
0.0
 10
7.4714020037
 20
4.8684636464
 30
0.0
 10
7.4713340563
 20
4.8688959767
 30
0.0
  0
SPLINE
  5
35F
100
AcDbEntity
  8
0
100
AcDbSpline
 62
7
  6
CONTINUOUS
 70
0
 71
3
 72
39
 73
35
 74
0
 42
0.0000001
 43
0.0000001
 44
0.0000000001
 40
0.0
 40
0.0
 40
0.0
 40
0.0
 40
0.0120068856
 40
0.0280197656
 40
0.0479003562
 40
0.0714902915
 40
0.098607811
 40
0.1290142864
 40
0.1986779951
 40
0.2781654704
 40
0.3648388247
 40
0.4558054601
 40
0.5480356852
 40
0.6384594383
 40
0.6820443784
 40
0.7240587275
 40
0.7641545813
 40
0.8019886941
 40
0.8372530186
 40
0.8696565487
 40
0.8989174039
 40
0.9248042468
 40
0.9471043459
 40
0.965621102
 40
0.980221941
 40
0.9860196275
 40
0.9907990198
 40
0.9928046449
 40
0.9945549039
 40
0.9960514001
 40
0.9972969415
 40
0.9982967338
 40
0.9990613869
 40
1.0
 40
1.0
 40
1.0
 40
1.0
 10
7.4713340563
 20
4.8688959767
 30
0.0
 10
7.4711257101
 20
4.8702216272
 30
0.0
 10
7.4707438943
 20
4.8733311399
 30
0.0
 10
7.4702401553
 20
4.8786609239
 30
0.0
 10
7.4697318827
 20
4.8852898451
 30
0.0
 10
7.4692200634
 20
4.8931624153
 30
0.0
 10
7.4687068041
 20
4.9022134823
 30
0.0
 10
7.4679874306
 20
4.9164101756
 30
0.0
 10
7.4671110203
 20
4.9364590946
 30
0.0
 10
7.4660941933
 20
4.9627959216
 30
0.0
 10
7.4650745611
 20
4.9915151406
 30
0.0
 10
7.4640530134
 20
5.0216592851
 30
0.0
 10
7.4630309937
 20
5.052222803
 30
0.0
 10
7.462169795
 20
5.0774932329
 30
0.0
 10
7.4614717037
 20
5.0971536731
 30
0.0
 10
7.4609547001
 20
5.1111922011
 30
0.0
 10
7.4604380686
 20
5.1245875619
 30
0.0
 10
7.4599216412
 20
5.1372279401
 30
0.0
 10
7.4594057039
 20
5.1490078629
 30
0.0
 10
7.4588906024
 20
5.1598286642
 30
0.0
 10
7.458376234
 20
5.1696001647
 30
0.0
 10
7.4578632062
 20
5.1782407963
 30
0.0
 10
7.4573530621
 20
5.1856785131
 30
0.0
 10
7.4568451366
 20
5.1918514167
 30
0.0
 10
7.4564013423
 20
5.196178755
 30
0.0
 10
7.4560312078
 20
5.1989684584
 30
0.0
 10
7.4558085127
 20
5.2003573009
 30
0.0
 10
7.4556257725
 20
5.2012937156
 30
0.0
 10
7.455497273
 20
5.2018664562
 30
0.0
 10
7.4553686849
 20
5.2023523894
 30
0.0
 10
7.4552420894
 20
5.2027499106
 30
0.0
 10
7.4551122853
 20
5.2030646267
 30
0.0
 10
7.4549733737
 20
5.2033218451
 30
0.0
 10
7.454812685
 20
5.2034821144
 30
0.0
 10
7.4547077839
 20
5.2034825535
 30
0.0
  0
LINE
  5
360
100
AcDbEntity
  8
0
100
AcDbLine
 62
7
  6
CONTINUOUS
 10
7.7209577765
 20
4.8649860898
 11
7.7206456559
 21
4.8652409793
  0
SPLINE
  5
361
100
AcDbEntity
  8
0
100
AcDbSpline
 62
7
  6
CONTINUOUS
 70
0
 71
3
 72
11
 73
7
 74
0
 42
0.0000001
 43
0.0000001
 44
0.0000000001
 40
0.0
 40
0.0
 40
0.0
 40
0.0
 40
0.1428360765
 40
0.3561286312
 40
0.6418189893
 40
1.0
 40
1.0
 40
1.0
 40
1.0
 10
7.7206456559
 20
4.8652409793
 30
0.0
 10
7.7205374071
 20
4.8654176571
 30
0.0
 10
7.7203506142
 20
4.8659049637
 30
0.0
 10
7.720111733
 20
4.8668036164
 30
0.0
 10
7.7198703163
 20
4.8680248012
 30
0.0
 10
7.7197237199
 20
4.8689471309
 30
0.0
 10
7.7196482133
 20
4.8694612037
 30
0.0
  0
SPLINE
  5
362
100
AcDbEntity
  8
0
100
AcDbSpline
 62
7
  6
CONTINUOUS
 70
0
 71
3
 72
34
 73
30
 74
0
 42
0.0000001
 43
0.0000001
 44
0.0000000001
 40
0.0
 40
0.0
 40
0.0
 40
0.0
 40
0.0122504781
 40
0.0282377401
 40
0.0478602315
 40
0.0709557092
 40
0.0973465254
 40
0.1268405265
 40
0.1941635694
 40
0.2708394938
 40
0.3544693886
 40
0.4424497732
 40
0.5320383586
 40
0.6204372174
 40
0.7048950674
 40
0.7827720798
 40
0.8184777486
 40
0.8516438434
 40
0.8820231607
 40
0.9093742183
 40
0.9334772932
 40
0.9541604256
 40
0.9712596449
 40
0.9784201864
 40
0.9846405929
 40
0.9899129246
 40
0.994230789
 40
0.9975911491
 40
1.0
 40
1.0
 40
1.0
 40
1.0
 10
7.7196482133
 20
4.8694612037
 30
0.0
 10
7.7194500205
 20
4.8708105614
 30
0.0
 10
7.719081898
 20
4.8739335989
 30
0.0
 10
7.7185925458
 20
4.8792394294
 30
0.0
 10
7.7181001597
 20
4.8857567368
 30
0.0
 10
7.7176045154
 20
4.8934346508
 30
0.0
 10
7.717107241
 20
4.9022134642
 30
0.0
 10
7.7164121107
 20
4.9159125179
 30
0.0
 10
7.7155633685
 20
4.9352088696
 30
0.0
 10
7.7145788167
 20
4.9605315074
 30
0.0
 10
7.7135912895
 20
4.9881553836
 30
0.0
 10
7.7126020578
 20
5.0172176027
 30
0.0
 10
7.7116123362
 20
5.0468110281
 30
0.0
 10
7.7106229617
 20
5.0760120882
 30
0.0
 10
7.7096350285
 20
5.1039085857
 30
0.0
 10
7.7087915873
 20
5.1259401952
 30
0.0
 10
7.7081055749
 20
5.1422632232
 30
0.0
 10
7.7076063269
 20
5.1533015001
 30
0.0
 10
7.7071079305
 20
5.1634086834
 30
0.0
 10
7.7066105246
 20
5.1725055944
 30
0.0
 10
7.7061143667
 20
5.1805213435
 30
0.0
 10
7.7056202856
 20
5.1873933621
 30
0.0
 10
7.7051907026
 20
5.1923787028
 30
0.0
 10
7.7048373568
 20
5.1957536709
 30
0.0
 10
7.7045889943
 20
5.1978155692
 30
0.0
 10
7.7043416668
 20
5.1995583514
 30
0.0
 10
7.704096489
 20
5.2009797506
 30
0.0
 10
7.703853652
 20
5.2020760292
 30
0.0
 10
7.7036670198
 20
5.2026930388
 30
0.0
 10
7.7035632195
 20
5.2029403109
 30
0.0
  0
LINE
  5
363
100
AcDbEntity
  8
0
100
AcDbLine
 62
7
  6
CONTINUOUS
 10
7.7035107801
 20
5.2030580247
 11
7.7034377668
 21
5.2031979217
  0
SPLINE
  5
364
100
AcDbEntity
  8
0
100
AcDbSpline
 62
7
  6
CONTINUOUS
 70
0
 71
3
 72
18
 73
14
 74
0
 42
0.0000001
 43
0.0000001
 44
0.0000000001
 40
0.0
 40
0.0
 40
0.0
 40
0.0
 40
0.2220714156
 40
0.416928296
 40
0.5842196506
 40
0.7236003367
 40
0.8347914472
 40
0.8798011858
 40
0.9177622878
 40
0.9486911054
 40
0.9726222917
 40
0.9896387772
 40
1.0
 40
1.0
 40
1.0
 40
1.0
 10
7.4212444959
 20
4.845983437
 30
0.0
 10
7.4212725102
 20
4.8452755487
 30
0.0
 10
7.4213278926
 20
4.8439466287
 30
0.0
 10
7.4214161812
 20
4.8420849594
 30
0.0
 10
7.4215041119
 20
4.8404873931
 30
0.0
 10
7.4215916118
 20
4.8391572066
 30
0.0
 10
7.4216680869
 20
4.838217254
 30
0.0
 10
7.4217313968
 20
4.8376011016
 30
0.0
 10
7.4217752359
 20
4.837240291
 30
0.0
 10
7.421818841
 20
4.8369475704
 30
0.0
 10
7.4218615617
 20
4.8367216502
 30
0.0
 10
7.421903828
 20
4.8365644719
 30
0.0
 10
7.4219371131
 20
4.8364814104
 30
0.0
 10
7.4219580311
 20
4.8364558174
 30
0.0
  0
SPLINE
  5
365
100
AcDbEntity
  8
0
100
AcDbSpline
 62
7
  6
CONTINUOUS
 70
0
 71
3
 72
12
 73
8
 74
0
 42
0.0000001
 43
0.0000001
 44
0.0000000001
 40
0.0
 40
0.0
 40
0.0
 40
0.0
 40
0.0584588395
 40
0.1354500163
 40
0.3467030433
 40
0.6349802067
 40
1.0
 40
1.0
 40
1.0
 40
1.0
 10
7.5793277904
 20
4.8652698867
 30
0.0
 10
7.5792677262
 20
4.8653734919
 30
0.0
 10
7.5791544839
 20
4.865628166
 30
0.0
 10
7.5789317354
 20
4.8663028919
 30
0.0
 10
7.5786717119
 20
4.8674571839
 30
0.0
 10
7.5783749087
 20
4.8692031002
 30
0.0
 10
7.578196658
 20
4.8705298866
 30
0.0
 10
7.5781043594
 20
4.8712719371
 30
0.0
  0
SPLINE
  5
366
100
AcDbEntity
  8
0
100
AcDbSpline
 62
7
  6
CONTINUOUS
 70
0
 71
3
 72
37
 73
33
 74
0
 42
0.0000001
 43
0.0000001
 44
0.0000000001
 40
0.0
 40
0.0
 40
0.0
 40
0.0
 40
0.0143298347
 40
0.0324679963
 40
0.0542612034
 40
0.0795388149
 40
0.1397434974
 40
0.2111526656
 40
0.2914868071
 40
0.3781827831
 40
0.468458611
 40
0.5594284378
 40
0.6481791927
 40
0.6908292948
 40
0.7318674704
 40
0.7709717555
 40
0.8078227356
 40
0.8421231149
 40
0.8736087715
 40
0.9020193561
 40
0.9271262528
 40
0.9487430207
 40
0.9666887957
 40
0.980825081
 40
0.9864377837
 40
0.9910681439
 40
0.9947104707
 40
0.9961616595
 40
0.9973692045
 40
0.9983386979
 40
0.9990811366
 40
1.0
 40
1.0
 40
1.0
 40
1.0
 10
7.5781043594
 20
4.8712719371
 30
0.0
 10
7.5779080919
 20
4.8728498636
 30
0.0
 10
7.5775373434
 20
4.8764341278
 30
0.0
 10
7.5770400927
 20
4.8824346913
 30
0.0
 10
7.5765393567
 20
4.8896533388
 30
0.0
 10
7.5758266093
 20
4.9015357256
 30
0.0
 10
7.5749651203
 20
4.918923974
 30
0.0
 10
7.57397145
 20
4.9424214861
 30
0.0
 10
7.572973646
 20
4.9688607462
 30
0.0
 10
7.5719728705
 20
4.9973947296
 30
0.0
 10
7.5709707722
 20
5.0271095296
 30
0.0
 10
7.5699684189
 20
5.0570524483
 30
0.0
 10
7.5691230174
 20
5.0817129576
 30
0.0
 10
7.568438042
 20
5.1008351025
 30
0.0
 10
7.5679312116
 20
5.1144511469
 30
0.0
 10
7.5674247493
 20
5.1274232517
 30
0.0
 10
7.5669186106
 20
5.1396471226
 30
0.0
 10
7.5664128034
 20
5.15102485
 30
0.0
 10
7.5659078219
 20
5.1614650449
 30
0.0
 10
7.5654037818
 20
5.1708838567
 30
0.0
 10
7.564900789
 20
5.1792058852
 30
0.0
 10
7.5644005686
 20
5.186364557
 30
0.0
 10
7.5639031243
 20
5.1923025032
 30
0.0
 10
7.5634676291
 20
5.1964632379
 30
0.0
 10
7.5631050841
 20
5.199144282
 30
0.0
 10
7.5628555812
 20
5.2006650089
 30
0.0
 10
7.5626376595
 20
5.2017221858
 30
0.0
 10
7.5624556261
 20
5.202398026
 30
0.0
 10
7.562331461
 20
5.2027800703
 30
0.0
 10
7.5622042301
 20
5.2030820537
 30
0.0
 10
7.5620675114
 20
5.2033297928
 30
0.0
 10
7.5619097384
 20
5.2034817587
 30
0.0
 10
7.5618077783
 20
5.2034817673
 30
0.0
  0
LINE
  5
367
100
AcDbEntity
  8
0
100
AcDbLine
 62
7
  6
CONTINUOUS
 10
7.4189192704
 20
4.8311089661
 11
7.4185349622
 21
4.8337079729
  0
LINE
  5
368
100
AcDbEntity
  8
0
100
AcDbLine
 62
7
  6
CONTINUOUS
 10
7.4185349622
 20
4.8337079729
 11
7.4183420732
 21
4.8369481497
  0
SPLINE
  5
369
100
AcDbEntity
  8
0
100
AcDbSpline
 62
7
  6
CONTINUOUS
 70
0
 71
3
 72
16
 73
12
 74
0
 42
0.0000001
 43
0.0000001
 44
0.0000000001
 40
0.0
 40
0.0
 40
0.0
 40
0.0
 40
0.032836157
 40
0.0728000849
 40
0.1720777684
 40
0.2930718692
 40
0.4299564065
 40
0.57613926
 40
0.7245858558
 40
0.8681948322
 40
1.0
 40
1.0
 40
1.0
 40
1.0
 10
7.4179537242
 20
4.8473078975
 30
0.0
 10
7.4178545962
 20
4.8505889277
 30
0.0
 10
7.4176646718
 20
4.8578640988
 30
0.0
 10
7.4172923777
 20
4.8750621667
 30
0.0
 10
7.4168487901
 20
4.9010734367
 30
0.0
 10
7.4163386193
 20
4.9367735885
 30
0.0
 10
7.415825658
 20
4.9771631027
 30
0.0
 10
7.4153107113
 20
5.0202971235
 30
0.0
 10
7.4147955036
 20
5.0641034117
 30
0.0
 10
7.4142809751
 20
5.1064723129
 30
0.0
 10
7.4139186423
 20
5.1340022278
 30
0.0
 10
7.413731245
 20
5.1471770431
 30
0.0
  0
SPLINE
  5
36A
100
AcDbEntity
  8
0
100
AcDbSpline
 62
7
  6
CONTINUOUS
 70
0
 71
3
 72
14
 73
10
 74
0
 42
0.0000001
 43
0.0000001
 44
0.0000000001
 40
0.0
 40
0.0
 40
0.0
 40
0.0
 40
0.0935988911
 40
0.1755213152
 40
0.2844006454
 40
0.4210494327
 40
0.5857985788
 40
0.7787738049
 40
1.0
 40
1.0
 40
1.0
 40
1.0
 10
7.4710577831
 20
4.8649845187
 30
0.0
 10
7.4709271748
 20
4.8649839779
 30
0.0
 10
7.470738335
 20
4.8652205426
 30
0.0
 10
7.4705809504
 20
4.8655642841
 30
0.0
 10
7.4704278333
 20
4.8660026668
 30
0.0
 10
7.470279334
 20
4.8665532242
 30
0.0
 10
7.4701279177
 20
4.8672273284
 30
0.0
 10
7.4699767329
 20
4.8680207243
 30
0.0
 10
7.4698819854
 20
4.8685910174
 30
0.0
 10
7.4698340563
 20
4.8688959767
 30
0.0
  0
SPLINE
  5
36B
100
AcDbEntity
  8
0
100
AcDbSpline
 62
7
  6
CONTINUOUS
 70
0
 71
3
 72
34
 73
30
 74
0
 42
0.0000001
 43
0.0000001
 44
0.0000000001
 40
0.0
 40
0.0
 40
0.0
 40
0.0
 40
0.0116503249
 40
0.0271019565
 40
0.0462288253
 40
0.0688851235
 40
0.0949083328
 40
0.1240820733
 40
0.1909523047
 40
0.267396428
 40
0.3510139705
 40
0.4391616536
 40
0.5290653302
 40
0.6178896681
 40
0.7028327498
 40
0.7812238125
 40
0.8171738235
 40
0.8505847822
 40
0.881188595
 40
0.9087375883
 40
0.9330290869
 40
0.9538673751
 40
0.9710836506
 40
0.9782977208
 40
0.9845652203
 40
0.9898742525
 40
0.994214765
 40
0.9975856406
 40
1.0
 40
1.0
 40
1.0
 40
1.0
 10
7.4698340563
 20
4.8688959767
 30
0.0
 10
7.4696323365
 20
4.870179465
 30
0.0
 10
7.4692611669
 20
4.8731802091
 30
0.0
 10
7.4687707622
 20
4.8783123441
 30
0.0
 10
7.4682760811
 20
4.8846762926
 30
0.0
 10
7.4677780366
 20
4.8922217104
 30
0.0
 10
7.4672786584
 20
4.9008896112
 30
0.0
 10
7.4665787084
 20
4.9144845818
 30
0.0
 10
7.4657254719
 20
4.9337017082
 30
0.0
 10
7.464735843
 20
4.9589898223
 30
0.0
 10
7.4637434593
 20
4.9866523474
 30
0.0
 10
7.4627490711
 20
5.0158166978
 30
0.0
 10
7.4617541567
 20
5.0455620187
 30
0.0
 10
7.4607596633
 20
5.0749497803
 30
0.0
 10
7.4597663528
 20
5.1030529376
 30
0.0
 10
7.4589187926
 20
5.1252609874
 30
0.0
 10
7.4582289658
 20
5.1417238566
 30
0.0
 10
7.4577271799
 20
5.1528606449
 30
0.0
 10
7.4572261712
 20
5.1630595683
 30
0.0
 10
7.4567258223
 20
5.172240177
 30
0.0
 10
7.4562272305
 20
5.1803300668
 30
0.0
 10
7.455730664
 20
5.1872652494
 30
0.0
 10
7.455298368
 20
5.1922954225
 30
0.0
 10
7.4549432539
 20
5.1957004586
 30
0.0
 10
7.4546936296
 20
5.1977812146
 30
0.0
 10
7.4544451053
 20
5.1995388624
 30
0.0
 10
7.4541986847
 20
5.2009704722
 30
0.0
 10
7.4539543747
 20
5.2020728209
 30
0.0
 10
7.4537666145
 20
5.202692525
 30
0.0
 10
7.4536622558
 20
5.2029407273
 30
0.0
  0
LINE
  5
36C
100
AcDbEntity
  8
0
100
AcDbLine
 62
7
  6
CONTINUOUS
 10
7.4536097633
 20
5.2030583917
 11
7.4535377722
 21
5.2031963962
  0
SPLINE
  5
36D
100
AcDbEntity
  8
0
100
AcDbSpline
 62
7
  6
CONTINUOUS
 70
0
 71
3
 72
12
 73
8
 74
0
 42
0.0000001
 43
0.0000001
 44
0.0000000001
 40
0.0
 40
0.0
 40
0.0
 40
0.0
 40
0.059283937
 40
0.1367590578
 40
0.3481085575
 40
0.6359082129
 40
1.0
 40
1.0
 40
1.0
 40
1.0
 10
7.6864277867
 20
4.8652714622
 30
0.0
 10
7.6863697451
 20
4.8653717694
 30
0.0
 10
7.6862599441
 20
4.8656167545
 30
0.0
 10
7.6860437047
 20
4.8662622968
 30
0.0
 10
7.685790553
 20
4.8673628198
 30
0.0
 10
7.6855022339
 20
4.8690254062
 30
0.0
 10
7.6853289586
 20
4.8702882666
 30
0.0
 10
7.6852392439
 20
4.8709943237
 30
0.0
  0
SPLINE
  5
36E
100
AcDbEntity
  8
0
100
AcDbSpline
 62
7
  6
CONTINUOUS
 70
0
 71
3
 72
37
 73
33
 74
0
 42
0.0000001
 43
0.0000001
 44
0.0000000001
 40
0.0
 40
0.0
 40
0.0
 40
0.0
 40
0.0140929703
 40
0.0320007043
 40
0.0536000904
 40
0.0787068298
 40
0.1386305351
 40
0.2098568538
 40
0.290109416
 40
0.3768018489
 40
0.4671497964
 40
0.5582513276
 40
0.6471730527
 40
0.6899216022
 40
0.7310621608
 40
0.7702644275
 40
0.8072195644
 40
0.8416215286
 40
0.8731959133
 40
0.9016979861
 40
0.9268874193
 40
0.9485676786
 40
0.9665772538
 40
0.9807630718
 40
0.9863907333
 40
0.9910332925
 40
0.9946879899
 40
0.9961460934
 40
0.9973602399
 40
0.9983349182
 40
0.9990803028
 40
1.0
 40
1.0
 40
1.0
 40
1.0
 10
7.6852392439
 20
4.8709943237
 30
0.0
 10
7.6850419589
 20
4.8725469615
 30
0.0
 10
7.684670188
 20
4.8760820373
 30
0.0
 10
7.6841716639
 20
4.8820139152
 30
0.0
 10
7.6836704246
 20
4.8891724071
 30
0.0
 10
7.6829557171
 20
4.9009928988
 30
0.0
 10
7.6820922874
 20
4.9183251948
 30
0.0
 10
7.6810967098
 20
4.9417818572
 30
0.0
 10
7.6800970871
 20
4.9682136039
 30
0.0
 10
7.6790941957
 20
4.9967701669
 30
0.0
 10
7.6780900587
 20
5.0265322473
 30
0.0
 10
7.6770856529
 20
5.05654203
 30
0.0
 10
7.6762385189
 20
5.0812678793
 30
0.0
 10
7.6755521767
 20
5.1004474434
 30
0.0
 10
7.6750443286
 20
5.1141081595
 30
0.0
 10
7.6745366766
 20
5.1271250217
 30
0.0
 10
7.6740295029
 20
5.1393929376
 30
0.0
 10
7.67352272
 20
5.1508129735
 30
0.0
 10
7.6730164747
 20
5.1612932669
 30
0.0
 10
7.672511437
 20
5.1707492144
 30
0.0
 10
7.6720075446
 20
5.1791046606
 30
0.0
 10
7.6715059315
 20
5.1862926637
 30
0.0
 10
7.6710075642
 20
5.1922552765
 30
0.0
 10
7.6705713852
 20
5.1964338201
 30
0.0
 10
7.6702078628
 20
5.1991256284
 30
0.0
 10
7.6699577476
 20
5.2006520258
 30
0.0
 10
7.6697392817
 20
5.2017135756
 30
0.0
 10
7.6695569536
 20
5.2023929301
 30
0.0
 10
7.6694325915
 20
5.2027774254
 30
0.0
 10
7.6693051085
 20
5.2030814398
 30
0.0
 10
7.6691684072
 20
5.2033304219
 30
0.0
 10
7.6690099098
 20
5.2034831974
 30
0.0
 10
7.668907772
 20
5.2034827542
 30
0.0
  0
SPLINE
  5
36F
100
AcDbEntity
  8
0
100
AcDbSpline
 62
7
  6
CONTINUOUS
 70
0
 71
3
 72
11
 73
7
 74
0
 42
0.0000001
 43
0.0000001
 44
0.0000000001
 40
0.0
 40
0.0
 40
0.0
 40
0.0
 40
0.1448645745
 40
0.3589584596
 40
0.6438588661
 40
1.0
 40
1.0
 40
1.0
 40
1.0
 10
7.5079277803
 20
4.8652710673
 30
0.0
 10
7.5078195834
 20
4.8654585243
 30
0.0
 10
7.5076320007
 20
4.8659659981
 30
0.0
 10
7.5073912961
 20
4.8668963857
 30
0.0
 10
7.5071479376
 20
4.8681519115
 30
0.0
 10
7.5070001748
 20
4.8690981422
 30
0.0
 10
7.5069241523
 20
4.869624791
 30
0.0
  0
SPLINE
  5
370
100
AcDbEntity
  8
0
100
AcDbSpline
 62
7
  6
CONTINUOUS
 70
0
 71
3
 72
38
 73
34
 74
0
 42
0.0000001
 43
0.0000001
 44
0.0000000001
 40
0.0
 40
0.0
 40
0.0
 40
0.0
 40
0.0128000948
 40
0.0295256024
 40
0.0500487987
 40
0.07421885
 40
0.1018249927
 40
0.1326442083
 40
0.2029039601
 40
0.2826839212
 40
0.369363618
 40
0.4600995227
 40
0.5519029301
 40
0.6417587562
 40
0.6850264193
 40
0.7267129733
 40
0.766468
 40
0.8039679911
 40
0.8389099447
 40
0.8709954469
 40
0.8999677536
 40
0.9255955597
 40
0.9476554977
 40
0.9659796443
 40
0.9804288496
 40
0.9861599416
 40
0.9908834907
 40
0.9945996635
 40
0.9960820979
 40
0.9973167682
 40
0.998308468
 40
0.9990673909
 40
1.0
 40
1.0
 40
1.0
 40
1.0
 10
7.5069241523
 20
4.869624791
 30
0.0
 10
7.5067202138
 20
4.8710375828
 30
0.0
 10
7.5063424903
 20
4.87430948
 30
0.0
 10
7.5058402696
 20
4.8798682546
 30
0.0
 10
7.505334368
 20
4.8866991001
 30
0.0
 10
7.5048258039
 20
4.8947457697
 30
0.0
 10
7.5043153235
 20
4.9039425271
 30
0.0
 10
7.5036017417
 20
4.918275476
 30
0.0
 10
7.5027313757
 20
4.9384258141
 30
0.0
 10
7.5017207466
 20
4.9648048701
 30
0.0
 10
7.5007073294
 20
4.9934688089
 30
0.0
 10
7.4996923103
 20
5.0234742927
 30
0.0
 10
7.4986768145
 20
5.053834152
 30
0.0
 10
7.4978208845
 20
5.0789028502
 30
0.0
 10
7.497127113
 20
5.098384894
 30
0.0
 10
7.4966136007
 20
5.1122826856
 30
0.0
 10
7.4961002672
 20
5.1255368308
 30
0.0
 10
7.4955872351
 20
5.1380382539
 30
0.0
 10
7.4950748501
 20
5.1496836547
 30
0.0
 10
7.494562953
 20
5.1603771006
 30
0.0
 10
7.49405198
 20
5.1700306131
 30
0.0
 10
7.4935426078
 20
5.1785644357
 30
0.0
 10
7.4930354381
 20
5.1859086263
 30
0.0
 10
7.4925310008
 20
5.1920027961
 30
0.0
 10
7.4920902357
 20
5.1962747736
 30
0.0
 10
7.4917227138
 20
5.1990277963
 30
0.0
 10
7.4914697237
 20
5.2005880198
 30
0.0
 10
7.4912487212
 20
5.2016726052
 30
0.0
 10
7.491064298
 20
5.2023667235
 30
0.0
 10
7.4909385086
 20
5.2027596991
 30
0.0
 10
7.4908095616
 20
5.203070939
 30
0.0
 10
7.490671568
 20
5.2033255045
 30
0.0
 10
7.490511781
 20
5.2034838783
 30
0.0
 10
7.4904077788
 20
5.2034839564
 30
0.0
  0
SPLINE
  5
371
100
AcDbEntity
  8
0
100
AcDbSpline
 62
7
  6
CONTINUOUS
 70
0
 71
3
 72
11
 73
7
 74
0
 42
0.0000001
 43
0.0000001
 44
0.0000000001
 40
0.0
 40
0.0
 40
0.0
 40
0.0
 40
0.1485708531
 40
0.3639073849
 40
0.647569335
 40
1.0
 40
1.0
 40
1.0
 40
1.0
 10
7.4363555548
 20
4.8597641548
 30
0.0
 10
7.4362605496
 20
4.8599283026
 30
0.0
 10
7.4360930794
 20
4.8603656018
 30
0.0
 10
7.4358780322
 20
4.8611632115
 30
0.0
 10
7.4356608887
 20
4.8622291843
 30
0.0
 10
7.4355290573
 20
4.863030397
 30
0.0
 10
7.4354613439
 20
4.8634751692
 30
0.0
  0
SPLINE
  5
372
100
AcDbEntity
  8
0
100
AcDbSpline
 62
7
  6
CONTINUOUS
 70
0
 71
3
 72
20
 73
16
 74
0
 42
0.0000001
 43
0.0000001
 44
0.0000000001
 40
0.0
 40
0.0
 40
0.0
 40
0.0
 40
0.0096451078
 40
0.0216152166
 40
0.0523356476
 40
0.0917088576
 40
0.1391070518
 40
0.1938209391
 40
0.2550090435
 40
0.3217711056
 40
0.3931119524
 40
0.5453575494
 40
0.7030586455
 40
0.8574199807
 40
1.0
 40
1.0
 40
1.0
 40
1.0
 10
7.4354613439
 20
4.8634751692
 30
0.0
 10
7.4353282996
 20
4.8643490654
 30
0.0
 10
7.4350744687
 20
4.8663141955
 30
0.0
 10
7.4345751839
 20
4.8710848491
 30
0.0
 10
7.4339828227
 20
4.8785835252
 30
0.0
 10
7.4333078539
 20
4.8893304546
 30
0.0
 10
7.4326308457
 20
4.9022799966
 30
0.0
 10
7.4319528007
 20
4.9172310031
 30
0.0
 10
7.4312751294
 20
4.9339583358
 30
0.0
 10
7.4305987718
 20
4.9522106787
 30
0.0
 10
7.4296790203
 20
4.9788049857
 30
0.0
 10
7.4285620541
 20
5.013731838
 30
0.0
 10
7.4272547619
 20
5.0562651735
 30
0.0
 10
7.4259573857
 20
5.0979125504
 30
0.0
 10
7.4250508299
 20
5.1251119336
 30
0.0
 10
7.4245827781
 20
5.1381708827
 30
0.0
  0
SPLINE
  5
373
100
AcDbEntity
  8
0
100
AcDbSpline
 62
7
  6
CONTINUOUS
 70
0
 71
3
 72
11
 73
7
 74
0
 42
0.0000001
 43
0.0000001
 44
0.0000000001
 40
0.0
 40
0.0
 40
0.0
 40
0.0
 40
0.1540097606
 40
0.3712138051
 40
0.6530717404
 40
1.0
 40
1.0
 40
1.0
 40
1.0
 10
7.6150277812
 20
4.8652696902
 30
0.0
 10
7.6149415787
 20
4.8654190495
 30
0.0
 10
7.614786217
 20
4.8658076455
 30
0.0
 10
7.6145854899
 20
4.8665105974
 30
0.0
 10
7.6143826847
 20
4.867436674
 30
0.0
 10
7.6142591153
 20
4.868129849
 30
0.0
 10
7.6141957295
 20
4.8685131109
 30
0.0
  0
SPLINE
  5
374
100
AcDbEntity
  8
0
100
AcDbSpline
 62
7
  6
CONTINUOUS
 70
0
 71
3
 72
39
 73
35
 74
0
 42
0.0000001
 43
0.0000001
 44
0.0000000001
 40
0.0
 40
0.0
 40
0.0
 40
0.0
 40
0.0115634315
 40
0.0271692945
 40
0.046682707
 40
0.0699479384
 40
0.0967845058
 40
0.1269543486
 40
0.196279129
 40
0.27560027
 40
0.3622660364
 40
0.4533632143
 40
0.5458346319
 40
0.6365798934
 40
0.6803450564
 40
0.7225477168
 40
0.762834752
 40
0.8008590286
 40
0.8363097825
 40
0.8688903968
 40
0.8983162335
 40
0.924354171
 40
0.9467858459
 40
0.9654139652
 40
0.9801048978
 40
0.9859380172
 40
0.9907456914
 40
0.9927632187
 40
0.9945240198
 40
0.9960296252
 40
0.9972827694
 40
0.9982885834
 40
0.9990576062
 40
1.0
 40
1.0
 40
1.0
 40
1.0
 10
7.6141957295
 20
4.8685131109
 30
0.0
 10
7.6139846125
 20
4.8697896269
 30
0.0
 10
7.6136008316
 20
4.8728068581
 30
0.0
 10
7.6130960089
 20
4.8780058461
 30
0.0
 10
7.612586453
 20
4.8845191048
 30
0.0
 10
7.6120730239
 20
4.8922916238
 30
0.0
 10
7.6115580738
 20
4.901258707
 30
0.0
 10
7.6108354526
 20
4.9153757381
 30
0.0
 10
7.6099556699
 20
4.9353646625
 30
0.0
 10
7.6089354127
 20
4.9616744383
 30
0.0
 10
7.6079122422
 20
4.990421936
 30
0.0
 10
7.6068870762
 20
5.0206416321
 30
0.0
 10
7.6058613844
 20
5.051318029
 30
0.0
 10
7.6049972394
 20
5.076700796
 30
0.0
 10
7.6042967025
 20
5.0964611766
 30
0.0
 10
7.6037777989
 20
5.110578564
 30
0.0
 10
7.6032592591
 20
5.1240531549
 30
0.0
 10
7.6027409114
 20
5.1367716815
 30
0.0
 10
7.6022230856
 20
5.1486271839
 30
0.0
 10
7.6017060761
 20
5.1595196395
 30
0.0
 10
7.6011897846
 20
5.1693576288
 30
0.0
 10
7.6006748986
 20
5.1780583557
 30
0.0
 10
7.6001628489
 20
5.1855487774
 30
0.0
 10
7.5996530177
 20
5.1917661011
 30
0.0
 10
7.5992076278
 20
5.1961249765
 30
0.0
 10
7.5988361473
 20
5.1989351459
 30
0.0
 10
7.5986125949
 20
5.2003340669
 30
0.0
 10
7.5984291716
 20
5.2012772561
 30
0.0
 10
7.598300198
 20
5.2018542015
 30
0.0
 10
7.5981711337
 20
5.2023437717
 30
0.0
 10
7.5980440794
 20
5.2027443
 30
0.0
 10
7.5979137923
 20
5.2030614801
 30
0.0
 10
7.5977744907
 20
5.2033204981
 30
0.0
 10
7.5976132294
 20
5.2034823515
 30
0.0
 10
7.5975077841
 20
5.2034828218
 30
0.0
  0
SPLINE
  5
375
100
AcDbEntity
  8
0
100
AcDbSpline
 62
7
  6
CONTINUOUS
 70
0
 71
3
 72
11
 73
7
 74
0
 42
0.0000001
 43
0.0000001
 44
0.0000000001
 40
0.0
 40
0.0
 40
0.0
 40
0.0
 40
0.2230638499
 40
0.452598732
 40
0.7069791216
 40
1.0
 40
1.0
 40
1.0
 40
1.0
 10
7.7046026301
 20
4.8381463871
 30
0.0
 10
7.7046931289
 20
4.8381273151
 30
0.0
 10
7.7048838832
 20
4.8381155101
 30
0.0
 10
7.7051718576
 20
4.8381887777
 30
0.0
 10
7.7054548781
 20
4.8383485213
 30
0.0
 10
7.705627201
 20
4.8384981746
 30
0.0
 10
7.7057132934
 20
4.8385838977
 30
0.0
  0
SPLINE
  5
376
100
AcDbEntity
  8
0
100
AcDbSpline
 62
7
  6
CONTINUOUS
 70
0
 71
3
 72
11
 73
7
 74
0
 42
0.0000001
 43
0.0000001
 44
0.0000000001
 40
0.0
 40
0.0
 40
0.0
 40
0.0
 40
0.1454996705
 40
0.3597895123
 40
0.6446056901
 40
1.0
 40
1.0
 40
1.0
 40
1.0
 10
7.7221277907
 20
4.8652709899
 30
0.0
 10
7.7220222538
 20
4.8654530938
 30
0.0
 10
7.7218383746
 20
4.8659448053
 30
0.0
 10
7.7216025577
 20
4.8668460735
 30
0.0
 10
7.7213643127
 20
4.868060194
 30
0.0
 10
7.721219469
 20
4.8689748395
 30
0.0
 10
7.7211449386
 20
4.8694835108
 30
0.0
  0
SPLINE
  5
377
100
AcDbEntity
  8
0
100
AcDbSpline
 62
7
  6
CONTINUOUS
 70
0
 71
3
 72
39
 73
35
 74
0
 42
0.0000001
 43
0.0000001
 44
0.0000000001
 40
0.0
 40
0.0
 40
0.0
 40
0.0
 40
0.0126477838
 40
0.029233882
 40
0.0496449517
 40
0.0737023663
 40
0.1012130871
 40
0.1319621333
 40
0.2021045631
 40
0.2818325717
 40
0.368513569
 40
0.4592912041
 40
0.5511775098
 40
0.6411387908
 40
0.684469367
 40
0.7262141223
 40
0.7660332816
 40
0.8036012228
 40
0.8385981074
 40
0.8707440431
 40
0.8997769711
 40
0.925445556
 40
0.9475525682
 40
0.9659196219
 40
0.980387732
 40
0.9861307123
 40
0.9908689036
 40
0.9928596801
 40
0.9945979415
 40
0.9960842854
 40
0.9973205721
 40
0.9983118121
 40
0.9990692056
 40
1.0
 40
1.0
 40
1.0
 40
1.0
 10
7.7211449386
 20
4.8694835108
 30
0.0
 10
7.7209403764
 20
4.8708796523
 30
0.0
 10
7.7205616489
 20
4.8741201143
 30
0.0
 10
7.7200589581
 20
4.8796359876
 30
0.0
 10
7.719553041
 20
4.8864290128
 30
0.0
 10
7.7190435994
 20
4.8944432592
 30
0.0
 10
7.7185325205
 20
4.9036128112
 30
0.0
 10
7.7178181512
 20
4.9179202131
 30
0.0
 10
7.716946313
 20
4.9380523143
 30
0.0
 10
7.7159346721
 20
4.9644237843
 30
0.0
 10
7.7149200713
 20
4.9930988585
 30
0.0
 10
7.7139037513
 20
5.0231310971
 30
0.0
 10
7.7128871079
 20
5.0535294932
 30
0.0
 10
7.7120300713
 20
5.0786368476
 30
0.0
 10
7.7113355967
 20
5.0981524333
 30
0.0
 10
7.7108213484
 20
5.1120767817
 30
0.0
 10
7.7103073591
 20
5.1253577764
 30
0.0
 10
7.7097938412
 20
5.1378853727
 30
0.0
 10
7.7092806326
 20
5.1495561577
 30
0.0
 10
7.7087680908
 20
5.1602737741
 30
0.0
 10
7.7082567474
 20
5.1699494543
 30
0.0
 10
7.7077463933
 20
5.1785034444
 30
0.0
 10
7.7072386332
 20
5.1858653473
 30
0.0
 10
7.7067339704
 20
5.1919742824
 30
0.0
 10
7.7062923622
 20
5.1962562974
 30
0.0
 10
7.7059240155
 20
5.1990154796
 30
0.0
 10
7.7057024648
 20
5.2003894644
 30
0.0
 10
7.7055208056
 20
5.2013166305
 30
0.0
 10
7.7053930255
 20
5.2018842393
 30
0.0
 10
7.7052651671
 20
5.2023658107
 30
0.0
 10
7.7051393017
 20
5.202759546
 30
0.0
 10
7.7050101419
 20
5.2030707803
 30
0.0
 10
7.7048719844
 20
5.2033250546
 30
0.0
 10
7.704711618
 20
5.2034822826
 30
0.0
 10
7.7046077744
 20
5.2034820254
 30
0.0
  0
SPLINE
  5
378
100
AcDbEntity
  8
0
100
AcDbSpline
 62
7
  6
CONTINUOUS
 70
0
 71
3
 72
16
 73
12
 74
0
 42
0.0000001
 43
0.0000001
 44
0.0000000001
 40
0.0
 40
0.0
 40
0.0
 40
0.0
 40
0.0369231711
 40
0.061989977
 40
0.0928995788
 40
0.1740847297
 40
0.2826249098
 40
0.4192538156
 40
0.5842838566
 40
0.7778498964
 40
1.0
 40
1.0
 40
1.0
 40
1.0
 10
7.5067577739
 20
4.8649843196
 30
0.0
 10
7.5066970389
 20
4.8649845399
 30
0.0
 10
7.5065983027
 20
4.8650396108
 30
0.0
 10
7.5064995584
 20
4.8651547663
 30
0.0
 10
7.5063776079
 20
4.8653460795
 30
0.0
 10
7.5062347815
 20
4.8656811006
 30
0.0
 10
7.506072145
 20
4.8661930188
 30
0.0
 10
7.5059088728
 20
4.8668480801
 30
0.0
 10
7.5057444325
 20
4.8676460389
 30
0.0
 10
7.5055795028
 20
4.8685870831
 30
0.0
 10
7.5054763597
 20
4.8692631223
 30
0.0
 10
7.5054241523
 20
4.869624791
 30
0.0
  0
SPLINE
  5
379
100
AcDbEntity
  8
0
100
AcDbSpline
 62
7
  6
CONTINUOUS
 70
0
 71
3
 72
34
 73
30
 74
0
 42
0.0000001
 43
0.0000001
 44
0.0000000001
 40
0.0
 40
0.0
 40
0.0
 40
0.0
 40
0.0124050398
 40
0.0285247045
 40
0.04824197
 40
0.0714222873
 40
0.0978754555
 40
0.1273968441
 40
0.1947345512
 40
0.2713398217
 40
0.3548435818
 40
0.4426598192
 40
0.5320593288
 40
0.6202746006
 40
0.7045643749
 40
0.7823177212
 40
0.8179812529
 40
0.8511298449
 40
0.8814968012
 40
0.9088589363
 40
0.9330043341
 40
0.9537351664
 40
0.9709081652
 40
0.9781207842
 40
0.984396909
 40
0.9897239165
 40
0.9940980248
 40
0.9975203813
 40
1.0
 40
1.0
 40
1.0
 40
1.0
 10
7.5054241523
 20
4.869624791
 30
0.0
 10
7.5052269721
 20
4.8709907644
 30
0.0
 10
7.5048604124
 20
4.8741439942
 30
0.0
 10
7.5043722464
 20
4.8794890496
 30
0.0
 10
7.5038805616
 20
4.8860368879
 30
0.0
 10
7.5033864463
 20
4.8937367922
 30
0.0
 10
7.5028905625
 20
4.9025293255
 30
0.0
 10
7.50219719
 20
4.9162310394
 30
0.0
 10
7.5013512103
 20
4.9355115726
 30
0.0
 10
7.5003689899
 20
4.9607972944
 30
0.0
 10
7.4993841234
 20
4.9883628407
 30
0.0
 10
7.4983975738
 20
5.0173525979
 30
0.0
 10
7.497410417
 20
5.0468668118
 30
0.0
 10
7.4964237893
 20
5.075988488
 30
0.0
 10
7.4954383797
 20
5.1038137356
 30
0.0
 10
7.4945973658
 20
5.1257937117
 30
0.0
 10
7.4939131734
 20
5.1420856186
 30
0.0
 10
7.4934154987
 20
5.1531086521
 30
0.0
 10
7.4929182899
 20
5.1632071188
 30
0.0
 10
7.4924220594
 20
5.1723026469
 30
0.0
 10
7.4919275691
 20
5.1803244584
 30
0.0
 10
7.4914345133
 20
5.1872102679
 30
0.0
 10
7.4910059046
 20
5.1922117437
 30
0.0
 10
7.4906539571
 20
5.195604916
 30
0.0
 10
7.490406334
 20
5.1976837185
 30
0.0
 10
7.4901595587
 20
5.1994441431
 30
0.0
 10
7.4899147377
 20
5.2008840916
 30
0.0
 10
7.4896720944
 20
5.2020012679
 30
0.0
 10
7.4894861874
 20
5.2026331684
 30
0.0
 10
7.4893835485
 20
5.2028892357
 30
0.0
  0
LINE
  5
37A
100
AcDbEntity
  8
0
100
AcDbLine
 62
7
  6
CONTINUOUS
 10
7.4893418908
 20
5.2029886391
 11
7.4892377782
 21
5.2031974499
  0
SPLINE
  5
37B
100
AcDbEntity
  8
0
100
AcDbSpline
 62
7
  6
CONTINUOUS
 70
0
 71
3
 72
47
 73
43
 74
0
 42
0.0000001
 43
0.0000001
 44
0.0000000001
 40
0.0
 40
0.0
 40
0.0
 40
0.0
 40
0.0004357088
 40
0.001123738
 40
0.0020779305
 40
0.0033026031
 40
0.0047992967
 40
0.0065684718
 40
0.0109237299
 40
0.0163656067
 40
0.0228880034
 40
0.0304763433
 40
0.0391130489
 40
0.0487803364
 40
0.0594603009
 40
0.0837750695
 40
0.1118408573
 40
0.1434195037
 40
0.1782437011
 40
0.2160021081
 40
0.2563739551
 40
0.298996636
 40
0.3434887379
 40
0.3894564343
 40
0.4841370851
 40
0.5796165932
 40
0.6724090967
 40
0.7590645203
 40
0.7990644605
 40
0.8363261337
 40
0.8705035546
 40
0.9012615909
 40
0.9283062084
 40
0.9513775808
 40
0.9702392211
 40
0.9780364548
 40
0.9847178055
 40
0.9902637313
 40
0.9946602716
 40
0.9979038949
 40
0.99909442
 40
1.0
 40
1.0
 40
1.0
 40
1.0
 10
7.714676533
 20
5.2209235613
 30
0.0
 10
7.7147137158
 20
5.2208863785
 30
0.0
 10
7.7147774247
 20
5.220762476
 30
0.0
 10
7.7148564762
 20
5.2205257649
 30
0.0
 10
7.7149371994
 20
5.2201883092
 30
0.0
 10
7.715019021
 20
5.2197525183
 30
0.0
 10
7.7151014881
 20
5.2192167037
 30
0.0
 10
7.7152203758
 20
5.2183046393
 30
0.0
 10
7.7153642896
 20
5.2169159469
 30
0.0
 10
7.7155291726
 20
5.2149532633
 30
0.0
 10
7.7156947982
 20
5.2125992707
 30
0.0
 10
7.7158612092
 20
5.2098589716
 30
0.0
 10
7.7160281241
 20
5.2067385406
 30
0.0
 10
7.7161954813
 20
5.2032445438
 30
0.0
 10
7.7164293072
 20
5.1978594754
 30
0.0
 10
7.7167170688
 20
5.190254275
 30
0.0
 10
7.7170513483
 20
5.1801269774
 30
0.0
 10
7.7173869747
 20
5.1687307572
 30
0.0
 10
7.717723703
 20
5.1561643415
 30
0.0
 10
7.7180615715
 20
5.1425363806
 30
0.0
 10
7.7184002659
 20
5.1279669949
 30
0.0
 10
7.7187398441
 20
5.1125847525
 30
0.0
 10
7.7190802331
 20
5.0965270242
 30
0.0
 10
7.7195394946
 20
5.0741876855
 30
0.0
 10
7.7201073265
 20
5.0456957636
 30
0.0
 10
7.7207847802
 20
5.0115537566
 30
0.0
 10
7.72146402
 20
4.9783805208
 30
0.0
 10
7.7220449228
 20
4.9519023501
 30
0.0
 10
7.7225194135
 20
4.9321253667
 30
0.0
 10
7.7228661417
 20
4.9186805776
 30
0.0
 10
7.7232128736
 20
4.9063515649
 30
0.0
 10
7.7235596444
 20
4.8952561554
 30
0.0
 10
7.7239058849
 20
4.885501803
 30
0.0
 10
7.7242510586
 20
4.877184204
 30
0.0
 10
7.7245524582
 20
4.8711898207
 30
0.0
 10
7.7248014423
 20
4.867173734
 30
0.0
 10
7.7249757574
 20
4.8647633036
 30
0.0
 10
7.7251488213
 20
4.8627643209
 30
0.0
 10
7.7253211436
 20
4.8611823092
 30
0.0
 10
7.7254720478
 20
4.8601265438
 30
0.0
 10
7.7256010577
 20
4.8594950568
 30
0.0
 10
7.7256664873
 20
4.8592502628
 30
0.0
 10
7.7257015228
 20
4.8591467389
 30
0.0
  0
LINE
  5
37C
100
AcDbEntity
  8
0
100
AcDbLine
 62
7
  6
CONTINUOUS
 10
7.7257015228
 20
4.8591467389
 11
7.7257912847
 21
4.858935946
  0
SPLINE
  5
37D
100
AcDbEntity
  8
0
100
AcDbSpline
 62
7
  6
CONTINUOUS
 70
0
 71
3
 72
16
 73
12
 74
0
 42
0.0000001
 43
0.0000001
 44
0.0000000001
 40
0.0
 40
0.0
 40
0.0
 40
0.0
 40
0.032473118
 40
0.0561451695
 40
0.0861164357
 40
0.1664578566
 40
0.2751609461
 40
0.4127367259
 40
0.5793744057
 40
0.7751310506
 40
1.0
 40
1.0
 40
1.0
 40
1.0
 10
7.4711911282
 20
5.2320339661
 30
0.0
 10
7.4712548745
 20
5.2320339661
 30
0.0
 10
7.4713578308
 20
5.2319621685
 30
0.0
 10
7.4714544184
 20
5.2318265141
 30
0.0
 10
7.471579433
 20
5.2315930125
 30
0.0
 10
7.4717238412
 20
5.2311872443
 30
0.0
 10
7.4718894219
 20
5.2305673878
 30
0.0
 10
7.4720555097
 20
5.2297737409
 30
0.0
 10
7.4722230872
 20
5.2288065618
 30
0.0
 10
7.4723911538
 20
5.2276659607
 30
0.0
 10
7.4724962358
 20
5.2268469255
 30
0.0
 10
7.4725494287
 20
5.2264087138
 30
0.0
  0
LINE
  5
37E
100
AcDbEntity
  8
0
100
AcDbLine
 62
7
  6
CONTINUOUS
 10
7.4725494287
 20
5.2264087138
 11
7.4734680787
 21
5.2163625391
  0
SPLINE
  5
37F
100
AcDbEntity
  8
0
100
AcDbSpline
 62
7
  6
CONTINUOUS
 70
0
 71
3
 72
21
 73
17
 74
0
 42
0.0000001
 43
0.0000001
 44
0.0000000001
 40
0.0
 40
0.0
 40
0.0
 40
0.0
 40
0.0362176473
 40
0.082293448
 40
0.1372554955
 40
0.1999326917
 40
0.2690058419
 40
0.3429942983
 40
0.499362679
 40
0.6558338957
 40
0.7299395053
 40
0.7991651738
 40
0.8620272742
 40
0.9172035388
 40
0.9635188019
 40
1.0
 40
1.0
 40
1.0
 40
1.0
 10
7.4734680787
 20
5.2163625391
 30
0.0
 10
7.4737909995
 20
5.2119773101
 30
0.0
 10
7.4743926186
 20
5.2020036982
 30
0.0
 10
7.4751988151
 20
5.1853592602
 30
0.0
 10
7.4760103131
 20
5.1654993871
 30
0.0
 10
7.4768263608
 20
5.1428457144
 30
0.0
 10
7.4776445052
 20
5.1178808007
 30
0.0
 10
7.4787578907
 20
5.0815447223
 30
0.0
 10
7.4801057459
 20
5.0346001359
 30
0.0
 10
7.4814533289
 20
4.9876413135
 30
0.0
 10
7.4825665322
 20
4.9512599833
 30
0.0
 10
7.4833847937
 20
4.9262398557
 30
0.0
 10
7.4842009639
 20
4.903519171
 30
0.0
 10
7.4850125948
 20
4.8835817142
 30
0.0
 10
7.4858189644
 20
4.8668501041
 30
0.0
 10
7.4864203179
 20
4.8568153151
 30
0.0
 10
7.4867427338
 20
4.8523979661
 30
0.0
  0
SPLINE
  5
380
100
AcDbEntity
  8
0
100
AcDbSpline
 62
7
  6
CONTINUOUS
 70
0
 71
3
 72
15
 73
11
 74
0
 42
0.0000001
 43
0.0000001
 44
0.0000000001
 40
0.0
 40
0.0
 40
0.0
 40
0.0
 40
0.3903037317
 40
0.5509350426
 40
0.688077697
 40
0.8014989693
 40
0.8911612292
 40
0.9571545122
 40
0.9814049064
 40
1.0
 40
1.0
 40
1.0
 40
1.0
 10
7.4867427338
 20
4.8523979661
 30
0.0
 10
7.4868931853
 20
4.8503366632
 30
0.0
 10
7.4871231623
 20
4.8474281149
 30
0.0
 10
7.4874788379
 20
4.8438017788
 30
0.0
 10
7.4877272161
 20
4.8416385123
 30
0.0
 10
7.4879737714
 20
4.8398534356
 30
0.0
 10
7.4882186632
 20
4.8384498271
 30
0.0
 10
7.4884334176
 20
4.8375199268
 30
0.0
 10
7.4886165914
 20
4.8369731988
 30
0.0
 10
7.4887095655
 20
4.8367652227
 30
0.0
 10
7.488758668
 20
4.8366798722
 30
0.0
  0
SPLINE
  5
381
100
AcDbEntity
  8
0
100
AcDbSpline
 62
7
  6
CONTINUOUS
 70
0
 71
3
 72
11
 73
7
 74
0
 42
0.0000001
 43
0.0000001
 44
0.0000000001
 40
0.0
 40
0.0
 40
0.0
 40
0.0
 40
0.147903966
 40
0.3629734893
 40
0.6468343305
 40
1.0
 40
1.0
 40
1.0
 40
1.0
 10
7.6507277804
 20
4.8652712309
 30
0.0
 10
7.6506276839
 20
4.8654445828
 30
0.0
 10
7.6504515414
 20
4.8659074203
 30
0.0
 10
7.6502251855
 20
4.8667524281
 30
0.0
 10
7.6499963387
 20
4.8678837896
 30
0.0
 10
7.6498572947
 20
4.8687346355
 30
0.0
 10
7.6497858254
 20
4.8692072417
 30
0.0
  0
SPLINE
  5
382
100
AcDbEntity
  8
0
100
AcDbSpline
 62
7
  6
CONTINUOUS
 70
0
 71
3
 72
39
 73
35
 74
0
 42
0.0000001
 43
0.0000001
 44
0.0000000001
 40
0.0
 40
0.0
 40
0.0
 40
0.0
 40
0.0123616904
 40
0.0286854057
 40
0.0488468842
 40
0.072697343
 40
0.1000271046
 40
0.130614344
 40
0.2005419074
 40
0.2801603334
 40
0.3668344255
 40
0.4576998953
 40
0.5497417069
 40
0.6399137726
 40
0.6833591559
 40
0.7252304541
 40
0.7651729458
 40
0.8028605121
 40
0.8379848728
 40
0.8702437409
 40
0.8993790446
 40
0.925154095
 40
0.9473428511
 40
0.9657774564
 40
0.9803136012
 40
0.9860786255
 40
0.9908308925
 40
0.9928270869
 40
0.9945704069
 40
0.9960619759
 40
0.997304121
 40
0.9983015666
 40
0.9990644547
 40
1.0
 40
1.0
 40
1.0
 40
1.0
 10
7.6497858254
 20
4.8692072417
 30
0.0
 10
7.6495794401
 20
4.8705720097
 30
0.0
 10
7.649199687
 20
4.8737535466
 30
0.0
 10
7.6486962813
 20
4.8791844984
 30
0.0
 10
7.6481890193
 20
4.8859026709
 30
0.0
 10
7.6476788262
 20
4.8938522794
 30
0.0
 10
7.6471666209
 20
4.9029679965
 30
0.0
 10
7.646449835
 20
4.9172249469
 30
0.0
 10
7.6455760674
 20
4.9373195155
 30
0.0
 10
7.6445620024
 20
4.9636759808
 30
0.0
 10
7.6435450345
 20
4.9923718121
 30
0.0
 10
7.6425263836
 20
5.0224555627
 30
0.0
 10
7.6415072232
 20
5.0529300919
 30
0.0
 10
7.6406483242
 20
5.07811218
 30
0.0
 10
7.6399521188
 20
5.0976945823
 30
0.0
 10
7.6394367012
 20
5.1116713101
 30
0.0
 10
7.6389214466
 20
5.1250046819
 30
0.0
 10
7.6384065182
 20
5.1375841243
 30
0.0
 10
7.6378922325
 20
5.1493048924
 30
0.0
 10
7.6373784053
 20
5.160069761
 30
0.0
 10
7.6368655586
 20
5.1697894643
 30
0.0
 10
7.6363542851
 20
5.1783830898
 30
0.0
 10
7.6358452211
 20
5.1857797267
 30
0.0
 10
7.6353388464
 20
5.1919180132
 30
0.0
 10
7.6348967147
 20
5.1962212908
 30
0.0
 10
7.6345273927
 20
5.1989944308
 30
0.0
 10
7.6343052044
 20
5.2003741922
 30
0.0
 10
7.6341230549
 20
5.2013048636
 30
0.0
 10
7.6339949341
 20
5.201874688
 30
0.0
 10
7.6338667202
 20
5.2023584721
 30
0.0
 10
7.633740519
 20
5.2027544489
 30
0.0
 10
7.6336110664
 20
5.2030680841
 30
0.0
 10
7.6334727558
 20
5.2033243093
 30
0.0
 10
7.6333122384
 20
5.2034840556
 30
0.0
 10
7.6332077771
 20
5.2034839468
 30
0.0
  0
SPLINE
  5
383
100
AcDbEntity
  8
0
100
AcDbSpline
 62
7
  6
CONTINUOUS
 70
0
 71
3
 72
12
 73
8
 74
0
 42
0.0000001
 43
0.0000001
 44
0.0000000001
 40
0.0
 40
0.0
 40
0.0
 40
0.0
 40
0.0610347861
 40
0.1397543213
 40
0.3520667324
 40
0.6388448367
 40
1.0
 40
1.0
 40
1.0
 40
1.0
 10
7.5436277906
 20
4.8652714693
 30
0.0
 10
7.5435739191
 20
4.8653644981
 30
0.0
 10
7.5434713619
 20
4.8655893029
 30
0.0
 10
7.5432692397
 20
4.8661758682
 30
0.0
 10
7.5430316497
 20
4.8671673425
 30
0.0
 10
7.5427612555
 20
4.8686581623
 30
0.0
 10
7.5425984263
 20
4.8697880263
 30
0.0
 10
7.5425142473
 20
4.870418538
 30
0.0
  0
SPLINE
  5
384
100
AcDbEntity
  8
0
100
AcDbSpline
 62
7
  6
CONTINUOUS
 70
0
 71
3
 72
37
 73
33
 74
0
 42
0.0000001
 43
0.0000001
 44
0.0000000001
 40
0.0
 40
0.0
 40
0.0
 40
0.0
 40
0.0135696874
 40
0.0309992101
 40
0.0521690901
 40
0.0768969382
 40
0.1362199466
 40
0.2070558819
 40
0.2871205399
 40
0.3738097812
 40
0.4643138956
 40
0.5556993339
 40
0.6449964875
 40
0.6879551161
 40
0.729314208
 40
0.7687384709
 40
0.805914547
 40
0.8405318646
 40
0.8723114181
 40
0.9010048188
 40
0.926368034
 40
0.9482008455
 40
0.9663393901
 40
0.9806281046
 40
0.9862966048
 40
0.990972784
 40
0.994653794
 40
0.9961222832
 40
0.9973449509
 40
0.998326272
 40
0.999076376
 40
1.0
 40
1.0
 40
1.0
 40
1.0
 10
7.5425142473
 20
4.870418538
 30
0.0
 10
7.5423144705
 20
4.8719148941
 30
0.0
 10
7.541940152
 20
4.8753439835
 30
0.0
 10
7.5414400597
 20
4.8811263556
 30
0.0
 10
7.5409370359
 20
4.8881537885
 30
0.0
 10
7.5402180937
 20
4.8998376435
 30
0.0
 10
7.5393507041
 20
4.9170474471
 30
0.0
 10
7.538351127
 20
4.940413601
 30
0.0
 10
7.537347335
 20
4.9668265784
 30
0.0
 10
7.536340092
 20
4.9954289173
 30
0.0
 10
7.535331532
 20
5.0252913947
 30
0.0
 10
7.5343226539
 20
5.0554441491
 30
0.0
 10
7.5334719076
 20
5.0803097851
 30
0.0
 10
7.5327825906
 20
5.0996122098
 30
0.0
 10
7.5322724225
 20
5.1133691044
 30
0.0
 10
7.5317624478
 20
5.1264822347
 30
0.0
 10
7.5312529532
 20
5.1388447633
 30
0.0
 10
7.5307438547
 20
5.1503560659
 30
0.0
 10
7.53023529
 20
5.1609226977
 30
0.0
 10
7.5297279391
 20
5.1704585778
 30
0.0
 10
7.5292217466
 20
5.1788861904
 30
0.0
 10
7.5287178329
 20
5.1861373932
 30
0.0
 10
7.5282171813
 20
5.1921531909
 30
0.0
 10
7.5277790244
 20
5.1963693902
 30
0.0
 10
7.5274138355
 20
5.1990856568
 30
0.0
 10
7.5271625728
 20
5.2006259595
 30
0.0
 10
7.5269431097
 20
5.2016972107
 30
0.0
 10
7.5267599389
 20
5.2023828265
 30
0.0
 10
7.526635019
 20
5.2027708449
 30
0.0
 10
7.5265069435
 20
5.2030776957
 30
0.0
 10
7.5263697775
 20
5.2033287404
 30
0.0
 10
7.5262105245
 20
5.2034832295
 30
0.0
 10
7.526107772
 20
5.2034827744
 30
0.0
  0
SPLINE
  5
385
100
AcDbEntity
  8
0
100
AcDbSpline
 62
7
  6
CONTINUOUS
 70
0
 71
3
 72
16
 73
12
 74
0
 42
0.0000001
 43
0.0000001
 44
0.0000000001
 40
0.0
 40
0.0
 40
0.0
 40
0.0
 40
0.0321243931
 40
0.0556946063
 40
0.0856006416
 40
0.1658907946
 40
0.274616578
 40
0.4122699587
 40
0.5790290245
 40
0.7749432172
 40
1.0
 40
1.0
 40
1.0
 40
1.0
 10
7.5068911282
 20
5.2320339661
 30
0.0
 10
7.5069560843
 20
5.2320339661
 30
0.0
 10
7.507060831
 20
5.2319594052
 30
0.0
 10
7.5071585614
 20
5.231819866
 30
0.0
 10
7.5072855999
 20
5.2315788823
 30
0.0
 10
7.5074321636
 20
5.2311604354
 30
0.0
 10
7.5076003245
 20
5.23052121
 30
0.0
 10
7.5077689786
 20
5.2297027782
 30
0.0
 10
7.5079391704
 20
5.2287053993
 30
0.0
 10
7.5081098568
 20
5.2275292304
 30
0.0
 10
7.5082165783
 20
5.226684696
 30
0.0
 10
7.5082706016
 20
5.2262328459
 30
0.0
  0
LINE
  5
386
100
AcDbEntity
  8
0
100
AcDbLine
 62
7
  6
CONTINUOUS
 10
7.5082706016
 20
5.2262328459
 11
7.5087365705
 21
5.2216922754
  0
SPLINE
  5
387
100
AcDbEntity
  8
0
100
AcDbSpline
 62
7
  6
CONTINUOUS
 70
0
 71
3
 72
22
 73
18
 74
0
 42
0.0000001
 43
0.0000001
 44
0.0000000001
 40
0.0
 40
0.0
 40
0.0
 40
0.0
 40
0.0374607228
 40
0.0851904553
 40
0.1421176142
 40
0.2069509773
 40
0.2782364489
 40
0.3543611605
 40
0.5141586691
 40
0.6719770378
 40
0.7456604822
 40
0.813607365
 40
0.8742788164
 40
0.926309762
 40
0.9685376471
 40
0.9856608658
 40
1.0
 40
1.0
 40
1.0
 40
1.0
 10
7.5092048208
 20
5.215859691
 30
0.0
 10
7.5095384845
 20
5.2112595343
 30
0.0
 10
7.5101589412
 20
5.2007883709
 30
0.0
 10
7.5109899019
 20
5.1833102313
 30
0.0
 10
7.511826373
 20
5.1624588359
 30
0.0
 10
7.5126675954
 20
5.1387054703
 30
0.0
 10
7.5135110543
 20
5.1125871889
 30
0.0
 10
7.5146561307
 20
5.0747804656
 30
0.0
 10
7.5160403258
 20
5.0263220696
 30
0.0
 10
7.5174313873
 20
4.978164549
 30
0.0
 10
7.5185834976
 20
4.9413137811
 30
0.0
 10
7.5194259666
 20
4.9164201906
 30
0.0
 10
7.5202646212
 20
4.894193978
 30
0.0
 10
7.5210993676
 20
4.8751368385
 30
0.0
 10
7.5218261179
 20
4.8614420021
 30
0.0
 10
7.5224311919
 20
4.8523891844
 30
0.0
 10
7.5227379747
 20
4.8485274375
 30
0.0
 10
7.522896277
 20
4.8467690851
 30
0.0
  0
SPLINE
  5
388
100
AcDbEntity
  8
0
100
AcDbSpline
 62
7
  6
CONTINUOUS
 70
0
 71
3
 72
14
 73
10
 74
0
 42
0.0000001
 43
0.0000001
 44
0.0000000001
 40
0.0
 40
0.0
 40
0.0
 40
0.0
 40
0.3820000931
 40
0.5401307836
 40
0.6761418299
 40
0.7900128231
 40
0.8817801002
 40
0.9516049211
 40
1.0
 40
1.0
 40
1.0
 40
1.0
 10
7.522896277
 20
4.8467690851
 30
0.0
 10
7.5230131759
 20
4.8454706227
 30
0.0
 10
7.5231920617
 20
4.8436356814
 30
0.0
 10
7.5234676533
 20
4.8413445497
 30
0.0
 10
7.5236605302
 20
4.839965302
 30
0.0
 10
7.5238524977
 20
4.8388152024
 30
0.0
 10
7.5240424981
 20
4.837893665
 30
0.0
 10
7.5242303726
 20
4.8372025163
 30
0.0
 10
7.5243763064
 20
4.8368230431
 30
0.0
 10
7.524458668
 20
4.8366798778
 30
0.0
  0
SPLINE
  5
389
100
AcDbEntity
  8
0
100
AcDbSpline
 62
7
  6
CONTINUOUS
 70
0
 71
3
 72
16
 73
12
 74
0
 42
0.0000001
 43
0.0000001
 44
0.0000000001
 40
0.0
 40
0.0
 40
0.0
 40
0.0
 40
0.0348309267
 40
0.0591867604
 40
0.0895800935
 40
0.1702034597
 40
0.2786982872
 40
0.415762087
 40
0.5816969221
 40
0.7764954982
 40
1.0
 40
1.0
 40
1.0
 40
1.0
 10
7.5424577762
 20
4.8649859969
 30
0.0
 10
7.5423912031
 20
4.8649861829
 30
0.0
 10
7.5422831015
 20
4.8650524168
 30
0.0
 10
7.5421779015
 20
4.865185303
 30
0.0
 10
7.5420454515
 20
4.8654094006
 30
0.0
 10
7.5418912809
 20
4.8658008793
 30
0.0
 10
7.5417153071
 20
4.8663993465
 30
0.0
 10
7.5415387312
 20
4.8671661316
 30
0.0
 10
7.5413608491
 20
4.8681009423
 30
0.0
 10
7.5411824323
 20
4.8692033788
 30
0.0
 10
7.5410707795
 20
4.8699951046
 30
0.0
 10
7.5410142473
 20
4.870418538
 30
0.0
  0
SPLINE
  5
38A
100
AcDbEntity
  8
0
100
AcDbSpline
 62
7
  6
CONTINUOUS
 70
0
 71
3
 72
33
 73
29
 74
0
 42
0.0000001
 43
0.0000001
 44
0.0000000001
 40
0.0
 40
0.0
 40
0.0
 40
0.0
 40
0.0132095863
 40
0.0300986836
 40
0.0505586101
 40
0.0744220457
 40
0.1316152832
 40
0.1999286177
 40
0.2772667479
 40
0.3612351932
 40
0.4492492766
 40
0.5385930511
 40
0.6265074211
 40
0.7102849653
 40
0.7873333231
 40
0.8225876711
 40
0.8552839575
 40
0.8851805435
 40
0.9120479681
 40
0.9356675185
 40
0.9558715519
 40
0.972509433
 40
0.9794461635
 40
0.9854460014
 40
0.9905029301
 40
0.9946126949
 40
0.9977749479
 40
1.0
 40
1.0
 40
1.0
 40
1.0
 10
7.5410142473
 20
4.870418538
 30
0.0
 10
7.5408201288
 20
4.8718725123
 30
0.0
 10
7.5404554136
 20
4.8751956368
 30
0.0
 10
7.5399673664
 20
4.880788858
 30
0.0
 10
7.5394765667
 20
4.8875687513
 30
0.0
 10
7.5387755342
 20
4.8988200763
 30
0.0
 10
7.53792908
 20
4.9153858682
 30
0.0
 10
7.5369537641
 20
4.9378899589
 30
0.0
 10
7.5359743544
 20
4.9633696576
 30
0.0
 10
7.5349915343
 20
4.9910383504
 30
0.0
 10
7.5340073995
 20
5.0200409756
 30
0.0
 10
7.533022791
 20
5.0494820054
 30
0.0
 10
7.5320386364
 20
5.0784523397
 30
0.0
 10
7.5310560071
 20
5.1060565507
 30
0.0
 10
7.5302166085
 20
5.127814414
 30
0.0
 10
7.5295338481
 20
5.1439015512
 30
0.0
 10
7.5290373343
 20
5.1547557939
 30
0.0
 10
7.5285416063
 20
5.1646776894
 30
0.0
 10
7.5280470111
 20
5.1735903239
 30
0.0
 10
7.5275537163
 20
5.1814248995
 30
0.0
 10
7.527062384
 20
5.1881210254
 30
0.0
 10
7.5266351021
 20
5.1929640575
 30
0.0
 10
7.5262832928
 20
5.1962293769
 30
0.0
 10
7.5260364094
 20
5.1982123538
 30
0.0
 10
7.5257906114
 20
5.1998785427
 30
0.0
 10
7.525547209
 20
5.2012266024
 30
0.0
 10
7.5253062037
 20
5.2022529762
 30
0.0
 10
7.5251201932
 20
5.20282468
 30
0.0
 10
7.5250154539
 20
5.2030484657
 30
0.0
  0
LINE
  5
38B
100
AcDbEntity
  8
0
100
AcDbLine
 62
7
  6
CONTINUOUS
 10
7.5250154539
 20
5.2030484657
 11
7.5249377712
 21
5.2031985746
  0
SPLINE
  5
38C
100
AcDbEntity
  8
0
100
AcDbSpline
 62
7
  6
CONTINUOUS
 70
0
 71
3
 72
16
 73
12
 74
0
 42
0.0000001
 43
0.0000001
 44
0.0000000001
 40
0.0
 40
0.0
 40
0.0
 40
0.0
 40
0.0321656641
 40
0.0557478651
 40
0.0856615456
 40
0.16595762
 40
0.2746806045
 40
0.412324747
 40
0.5790694773
 40
0.7749651664
 40
1.0
 40
1.0
 40
1.0
 40
1.0
 10
7.5425911282
 20
5.2320339661
 30
0.0
 10
7.5426559385
 20
5.2320339661
 30
0.0
 10
7.5427604705
 20
5.2319597403
 30
0.0
 10
7.5428580642
 20
5.2318206699
 30
0.0
 10
7.5429848597
 20
5.231580591
 30
0.0
 10
7.5431311647
 20
5.2311636765
 30
0.0
 10
7.5432990158
 20
5.2305267922
 30
0.0
 10
7.5434673619
 20
5.2297113557
 30
0.0
 10
7.5436372398
 20
5.2287176261
 30
0.0
 10
7.5438076117
 20
5.2275457546
 30
0.0
 10
7.5439141363
 20
5.2267043009
 30
0.0
 10
7.5439680599
 20
5.2262540984
 30
0.0
  0
LINE
  5
38D
100
AcDbEntity
  8
0
100
AcDbLine
 62
7
  6
CONTINUOUS
 10
7.5439680599
 20
5.2262540984
 11
7.5444329356
 21
5.2217326184
  0
SPLINE
  5
38E
100
AcDbEntity
  8
0
100
AcDbSpline
 62
7
  6
CONTINUOUS
 70
0
 71
3
 72
21
 73
17
 74
0
 42
0.0000001
 43
0.0000001
 44
0.0000000001
 40
0.0
 40
0.0
 40
0.0
 40
0.0
 40
0.0365608966
 40
0.0829148346
 40
0.1380878202
 40
0.2009118614
 40
0.2700730048
 40
0.3440950349
 40
0.5003790928
 40
0.656598523
 40
0.7305469002
 40
0.7996129418
 40
0.8623277401
 40
0.9173767078
 40
0.9635913681
 40
1.0
 40
1.0
 40
1.0
 40
1.0
 10
7.5449000003
 20
5.2159260896
 30
0.0
 10
7.5452213802
 20
5.2115040014
 30
0.0
 10
7.5458212623
 20
5.201466155
 30
0.0
 10
7.5466259954
 20
5.1847394746
 30
0.0
 10
7.5474359416
 20
5.1648248806
 30
0.0
 10
7.5482503149
 20
5.1421427295
 30
0.0
 10
7.5490667672
 20
5.1171734831
 30
0.0
 10
7.5501774773
 20
5.0808739736
 30
0.0
 10
7.5515222149
 20
5.034019185
 30
0.0
 10
7.5528671127
 20
4.987173336
 30
0.0
 10
7.5539778476
 20
4.9509021427
 30
0.0
 10
7.5547941852
 20
4.925966623
 30
0.0
 10
7.5556084486
 20
4.9033243142
 30
0.0
 10
7.5564182857
 20
4.8834549287
 30
0.0
 10
7.5572228998
 20
4.8667786968
 30
0.0
 10
7.5578229233
 20
4.8567762673
 30
0.0
 10
7.5581445787
 20
4.8523727132
 30
0.0
  0
SPLINE
  5
38F
100
AcDbEntity
  8
0
100
AcDbSpline
 62
7
  6
CONTINUOUS
 70
0
 71
3
 72
15
 73
11
 74
0
 42
0.0000001
 43
0.0000001
 44
0.0000000001
 40
0.0
 40
0.0
 40
0.0
 40
0.0
 40
0.390285521
 40
0.5509099076
 40
0.6880500708
 40
0.8014716203
 40
0.8911374193
 40
0.9571392394
 40
0.9813963364
 40
1.0
 40
1.0
 40
1.0
 40
1.0
 10
7.5581445787
 20
4.8523727132
 30
0.0
 10
7.5582948983
 20
4.8503147959
 30
0.0
 10
7.5585246748
 20
4.8474110236
 30
0.0
 10
7.5588800331
 20
4.8437906311
 30
0.0
 10
7.5591281808
 20
4.8416308756
 30
0.0
 10
7.5593745084
 20
4.8398486561
 30
0.0
 10
7.5596191748
 20
4.8384472435
 30
0.0
 10
7.5598337348
 20
4.8375187554
 30
0.0
 10
7.5600167332
 20
4.8369728033
 30
0.0
 10
7.5601096176
 20
4.8367650966
 30
0.0
 10
7.5601586681
 20
4.8366798447
 30
0.0
  0
ENDSEC
  0
SECTION
  2
OBJECTS
  0
DICTIONARY
  5
C
100
AcDbDictionary
280
0
281
1
  3
ACAD_GROUP
350
D
  3
ACAD_MLINESTYLE
350
17
  3
ACAD_LAYOUT
350
1A
  3
ACAD_PLOTSETTINGS
350
19
  3
ACAD_PLOTSTYLENAME
350
E
  0
DICTIONARY
  5
D
102
{ACAD_REACTORS
330
C
102
}
100
AcDbDictionary
280
0
281
1
  0
ACDBDICTIONARYWDFLT
  5
E
102
{ACAD_REACTORS
330
C
102
}
100
AcDbDictionary
281
1
  3
Normal
350
F
100
AcDbDictionaryWithDefault
340
F
  0
DICTIONARY
  5
17
102
{ACAD_REACTORS
330
C
102
}
100
AcDbDictionary
280
0
281
1
  3
Standard
350
18
  0
DICTIONARY
  5
19
102
{ACAD_REACTORS
330
C
102
}
100
AcDbDictionary
281
1
  0
DICTIONARY
  5
1A
102
{ACAD_REACTORS
330
C
102
}
100
AcDbDictionary
281
1
  3
Model
350
390
  3
Layout1
350
391
  0
ACDBPLACEHOLDER
  5
F
102
{ACAD_REACTORS
330
E
102
}
  0
MLINESTYLE
  5
18
102
{ACAD_REACTORS
330
17
102
}
100
AcDbMlineStyle
  2
STANDARD
 70
0
  3

 62
256
 51
90.0
 52
90.0
 71
2
 49
0.5
 62
256
  6
BYLAYER
 49
-0.5
 62
256
  6
BYLAYER
  0
LAYOUT
  5
390
102
{ACAD_REACTORS
330
1A
102
}
100
AcDbPlotSettings
  1

  2
none_device
  4
ANSI_A_(11.00_x_8.50_Inches)
  6

 40
0.0
 41
0.0
 42
0.0
 43
0.0
 44
279.4
 45
215.9
 46
0.0
 47
0.0
 48
0.0
 49
0.0
140
0.0
141
0.0
142
1.0
143
1.0
 70
1024
 72
0
 73
0
 74
0
  7

 75
0
147
1.0
148
0.0
149
0.0
100
AcDbLayout
  1
Model
 70
0
 71
0
 10
0.0
 20
0.0
 11
11.0
 21
8.5
 12
0.0
 22
0.0
 32
0.0
 14
0.0
 24
0.0
 34
0.0
 15
0.0
 25
0.0
 35
0.0
146
0.0
 13
0.0
 23
0.0
 33
0.0
 16
1.0
 26
0.0
 36
0.0
 17
0.0
 27
1.0
 37
0.0
 76
0
330
210
345
0
346
0
  0
LAYOUT
  5
391
102
{ACAD_REACTORS
330
1A
102
}
100
AcDbPlotSettings
  1

  2
none_device
  4
ANSI_A_(11.00_x_8.50_Inches)
  6

 40
0.0
 41
0.0
 42
0.0
 43
0.0
 44
279.4
 45
215.9
 46
0.0
 47
0.0
 48
0.0
 49
0.0
140
0.0
141
0.0
142
1.0
143
1.0
 70
0
 72
0
 73
0
 74
0
  7

 75
0
147
1.0
148
0.0
149
0.0
100
AcDbLayout
  1
Layout1
 70
0
 71
1
 10
0.0
 20
0.0
 11
11.0
 21
8.5
 12
0.0
 22
0.0
 32
0.0
 14
0.0
 24
0.0
 34
0.0
 15
0.0
 25
0.0
 35
0.0
146
0.0
 13
0.0
 23
0.0
 33
0.0
 16
1.0
 26
0.0
 36
0.0
 17
0.0
 27
1.0
 37
0.0
 76
0
330
211
345
0
346
0
  0
ENDSEC
  0
EOF
