999
DXF file: E:\BT Custom\CADOUTPUT\_RIGHT.dxf
999
Pro/ENGINEER 2018400 by Parametric Technology Corporation
  0
SECTION
  2
HEADER
  9
$ACADVER
  1
AC1018
  9
$DWGCODEPAGE
  3
ANSI_1252
  9
$EXTMAX
 10
22.0
 20
17.0
 30
0.0
  9
$EXTMIN
 10
0.0
 20
0.0
 30
0.0
  9
$LIMMIN
 10
0.0
 20
0.0
  9
$LIMMAX
 10
22.0
 20
17.0
  9
$VIEWCTR
 10
11.0
 20
8.5
  9
$VIEWSIZE
 40
17.0
  9
$CLAYER
  8
0
  9
$LTSCALE
 40
1.21
  9
$CELTYPE
  6
BYLAYER
  9
$DIMSCALE
 40
1.0
  9
$DIMASZ
 40
0.1
  9
$DIMEXO
 40
0.0625
  9
$DIMDLI
 40
0.836
  9
$DIMEXE
 40
0.125
  9
$DIMCEN
 40
0.198
  9
$DIMLFAC
 40
1.0
  9
$DIMBLK
  1
_FILLED
  9
$DIMALT
 70
1
  9
$DIMALTD
 70
2
  9
$DIMALTTD
 70
2
  9
$DIMALTF
 40
25.4
  9
$DIMTXT
 40
0.08
  9
$DIMTOL
 70
1
  9
$DIMLIM
 70
0
  9
$DIMTFAC
 40
1.0
  9
$DIMTP
 40
0.001
  9
$DIMTM
 40
0.001
  9
$DIMGAP
 40
0.09
  9
$DIMDSEP
 70
46
  9
$AUNITS
 70
0
  9
$PDMODE
 70
3
  9
$PDSIZE
 40
0.06
  9
$HANDSEED
  5
29B
  9
$TILEMODE
 70
1
  9
$MEASUREMENT
 70
0
  9
$INSUNITS
 70
1
  0
ENDSEC
  0
SECTION
  2
CLASSES
  0
CLASS
  1
ACDBDICTIONARYWDFLT
  2
AcDbDictionaryWithDefault
  3
AutoCAD 2000
 90
0
 91
1
280
0
281
0
  0
CLASS
  1
ACDBPLACEHOLDER
  2
AcDbPlaceHolder
  3
AutoCAD 2000
 90
0
 91
1
280
0
281
0
  0
CLASS
  1
LAYOUT
  2
AcDbLayout
  3
AutoCAD 2000
 90
0
 91
0
280
0
281
0
  0
ENDSEC
  0
SECTION
  2
TABLES
  0
TABLE
  2
VPORT
  5
8
100
AcDbSymbolTable
 70
2
  0
VPORT
  5
1F4
100
AcDbSymbolTableRecord
100
AcDbViewportTableRecord
  2
*ACTIVE
 70
0
 10
0.0
 20
0.0
 11
1.0
 21
1.0
 12
11.0
 22
8.5
 13
0.0
 23
0.0
 14
1.0
 24
1.0
 15
0.0
 25
0.0
 16
0.0
 26
0.0
 36
1.0
 17
0.0
 27
0.0
 37
0.0
 40
17.0
 41
1.2941176471
 42
50.0
 43
0.0
 44
0.0
 50
0.0
 51
0.0
 71
0
 72
100
 73
1
 74
1
 75
0
 76
0
 77
0
 78
0
  0
ENDTAB
  0
TABLE
  2
LTYPE
  5
5
100
AcDbSymbolTable
 70
6
  0
LTYPE
  5
14
100
AcDbSymbolTableRecord
100
AcDbLinetypeTableRecord
  2
BYBLOCK
 70
0
  3

 72
65
 73
0
 40
0.0
  0
LTYPE
  5
15
100
AcDbSymbolTableRecord
100
AcDbLinetypeTableRecord
  2
BYLAYER
 70
0
  3

 72
65
 73
0
 40
0.0
  0
LTYPE
  5
16
100
AcDbSymbolTableRecord
100
AcDbLinetypeTableRecord
  2
CONTINUOUS
 70
64
  3
Solid line
 72
65
 73
0
 40
0.0
  0
LTYPE
  5
1F5
100
AcDbSymbolTableRecord
100
AcDbLinetypeTableRecord
  2
CENTER
 70
64
  3
____ _ ____ _ ____ _ ____ _ ____ _ ____ _ ____
 72
65
 73
4
 40
0.6
 49
0.375
 74
0
 49
-0.075
 74
0
 49
0.075
 74
0
 49
-0.075
 74
0
  0
LTYPE
  5
1F6
100
AcDbSymbolTableRecord
100
AcDbLinetypeTableRecord
  2
HIDDEN
 70
64
  3
- - - - - - - - - - - - - - - - - - - -
 72
65
 73
2
 40
0.2
 49
0.1
 74
0
 49
-0.1
 74
0
  0
LTYPE
  5
1F7
100
AcDbSymbolTableRecord
100
AcDbLinetypeTableRecord
  2
PHANTOM
 70
64
  3
_____ _ _ _____ _ _ _____ _ _ _____
 72
65
 73
6
 40
0.8
 49
0.45
 74
0
 49
-0.05
 74
0
 49
0.1
 74
0
 49
-0.05
 74
0
 49
0.1
 74
0
 49
-0.05
 74
0
  0
LTYPE
  5
1F8
100
AcDbSymbolTableRecord
100
AcDbLinetypeTableRecord
  2
DOT
 70
64
  3
. . . . . . . . . . . . . . . . . . . .
 72
65
 73
2
 40
0.2
 49
0.1
 74
0
 49
-0.1
 74
0
  0
LTYPE
  5
1F9
100
AcDbSymbolTableRecord
100
AcDbLinetypeTableRecord
  2
DASHED
 70
64
  3
- - - - - - - - - - - - - - - - - - - -
 72
65
 73
2
 40
0.2
 49
0.1
 74
0
 49
-0.1
 74
0
  0
ENDTAB
  0
TABLE
  2
LAYER
  5
2
100
AcDbSymbolTable
 70
36
  0
LAYER
  5
10
100
AcDbSymbolTableRecord
100
AcDbLayerTableRecord
  2
0
 70
0
 62
7
  6
CONTINUOUS
370
-3
390
F
  0
LAYER
  5
1FA
100
AcDbSymbolTableRecord
100
AcDbLayerTableRecord
  2
DEFAULT_1
 70
0
 62
7
  6
CENTER
370
-3
390
F
  0
LAYER
  5
1FB
100
AcDbSymbolTableRecord
100
AcDbLayerTableRecord
  2
DEFAULT_2
 70
0
 62
8
  6
HIDDEN
370
-3
390
F
  0
LAYER
  5
1FC
100
AcDbSymbolTableRecord
100
AcDbLayerTableRecord
  2
DEFAULT_3
 70
0
 62
7
  6
PHANTOM
370
-3
390
F
  0
LAYER
  5
1FD
100
AcDbSymbolTableRecord
100
AcDbLayerTableRecord
  2
ALL_FEATURES
 70
0
 62
7
  6
CONTINUOUS
370
-3
390
F
  0
LAYER
  5
1FE
100
AcDbSymbolTableRecord
100
AcDbLayerTableRecord
  2
AXES_FEATURES
 70
0
 62
7
  6
CONTINUOUS
370
-3
390
F
  0
LAYER
  5
1FF
100
AcDbSymbolTableRecord
100
AcDbLayerTableRecord
  2
DIMENSIONS
 70
0
 62
7
  6
CONTINUOUS
370
-3
390
F
  0
ENDTAB
  0
TABLE
  2
STYLE
  5
3
100
AcDbSymbolTable
 70
1
  0
STYLE
  5
11
100
AcDbSymbolTableRecord
100
AcDbTextStyleTableRecord
  2
STANDARD
 70
0
 40
0.0
 41
0.8
 50
0.0
 71
0
 42
0.2
  3
txt
  4

  0
STYLE
  5
200
100
AcDbSymbolTableRecord
100
AcDbTextStyleTableRecord
  2
TEXTSTYLE_1
 70
0
 40
0.0
 41
0.8
 50
0.0
 71
0
 42
0.2
  3
gdt
  4

  0
ENDTAB
  0
TABLE
  2
VIEW
  5
6
100
AcDbSymbolTable
 70
0
  0
ENDTAB
  0
TABLE
  2
UCS
  5
7
100
AcDbSymbolTable
 70
0
  0
ENDTAB
  0
TABLE
  2
APPID
  5
9
100
AcDbSymbolTable
 70
1
  0
APPID
  5
201
100
AcDbSymbolTableRecord
100
AcDbRegAppTableRecord
  2
ACAD
 70
0
  0
ENDTAB
  0
TABLE
  2
BLOCK_RECORD
  5
1
100
AcDbSymbolTable
 70
0
  0
BLOCK_RECORD
  5
202
100
AcDbSymbolTableRecord
100
AcDbBlockTableRecord
  2
*Model_Space
  0
BLOCK_RECORD
  5
203
100
AcDbSymbolTableRecord
100
AcDbBlockTableRecord
  2
*Paper_Space
  0
BLOCK_RECORD
  5
204
100
AcDbSymbolTableRecord
100
AcDbBlockTableRecord
  2
_FILLED
  0
ENDTAB
  0
TABLE
  2
DIMSTYLE
  5
A
100
AcDbSymbolTable
 70
1
100
AcDbDimStyleTable
 71
0
  0
DIMSTYLE
105
205
100
AcDbSymbolTableRecord
100
AcDbDimStyleTableRecord
  2
STANDARD
 70
0
  3

  4

 40
1.0
 41
0.1
 42
0.0625
 43
0.38
 44
0.125
 45
0.0
 46
0.0
 47
0.001
 48
0.001
140
0.08
141
0.09
142
0.0
143
25.4
144
1.0
145
0.0
146
1.0
147
0.09
 71
1.0
 72
0.0
 73
1
 74
1
 75
0
 76
0
 77
0
 78
4
 79
1
170
1
171
2
172
0
173
0
174
0
175
0
176
0
177
0
178
0
270
2
179
3
271
3
272
3
273
2
274
2
275
0
280
0
281
0
282
0
283
1
284
4
285
0
286
0
287
3
288
0
340
11
278
46
341
204
342
204
343
204
344
204
  0
ENDTAB
  0
ENDSEC
  0
SECTION
  2
BLOCKS
  0
BLOCK
  5
20
100
AcDbEntity
  8
0
100
AcDbBlockBegin
  2
*Model_Space
 70
0
 10
0.0
 20
0.0
 30
0.0
  3
*Model_Space
  1

  0
ENDBLK
  5
21
100
AcDbEntity
  8
0
100
AcDbBlockEnd
  0
BLOCK
  5
1C
100
AcDbEntity
  8
0
100
AcDbBlockBegin
  2
*Paper_Space
 70
0
 10
0.0
 20
0.0
 30
0.0
  3
*Paper_Space
  1

  0
ENDBLK
  5
1D
100
AcDbEntity
  8
0
100
AcDbBlockEnd
  0
BLOCK
  5
206
100
AcDbEntity
  8
0
100
AcDbBlockBegin
  2
_FILLED
 70
64
 10
0.0
 20
0.0
  3
_FILLED
  1

  0
SOLID
  5
207
100
AcDbEntity
  8
0
  6
BYBLOCK
 62
0
100
AcDbTrace
 10
0.0
 20
0.0
 11
-1.0
 21
0.2
 12
-1.0
 22
-0.2
 13
-1.0
 23
-0.2
  0
ENDBLK
  5
208
100
AcDbEntity
  8
0
  6
BYBLOCK
 62
0
100
AcDbBlockEnd
  0
ENDSEC
  0
SECTION
  2
ENTITIES
  0
LINE
  5
209
100
AcDbEntity
  8
0
100
AcDbLine
 62
7
  6
CONTINUOUS
 10
-0.3902053198
 20
6.833391804
 11
-0.3902053198
 21
6.913391804
  0
LINE
  5
20A
100
AcDbEntity
  8
0
100
AcDbLine
 62
7
  6
CONTINUOUS
 10
0.5347946802
 20
6.833391804
 11
0.5347946802
 21
6.913391804
  0
LINE
  5
20B
100
AcDbEntity
  8
0
100
AcDbLine
 62
7
  6
CONTINUOUS
 10
3.6972946802
 20
6.973391804
 11
3.6972946802
 21
7.143391804
  0
LINE
  5
20C
100
AcDbEntity
  8
0
100
AcDbLine
 62
9
  6
CONTINUOUS
 10
3.7372946802
 20
7.183391804
 11
3.7372946802
 21
6.933391804
  0
LINE
  5
20D
100
AcDbEntity
  8
0
100
AcDbLine
 62
7
  6
CONTINUOUS
 10
3.8722946802
 20
6.918391804
 11
3.8722946802
 21
6.583391804
  0
LINE
  5
20E
100
AcDbEntity
  8
0
100
AcDbLine
 62
7
  6
CONTINUOUS
 10
4.2722946802
 20
6.918391804
 11
4.2722946802
 21
6.583391804
  0
LINE
  5
20F
100
AcDbEntity
  8
0
100
AcDbLine
 62
9
  6
CONTINUOUS
 10
4.4072946802
 20
6.933391804
 11
4.4072946802
 21
7.183391804
  0
LINE
  5
210
100
AcDbEntity
  8
0
100
AcDbLine
 62
7
  6
CONTINUOUS
 10
4.4472946802
 20
7.143391804
 11
4.4472946802
 21
6.973391804
  0
LINE
  5
211
100
AcDbEntity
  8
0
100
AcDbLine
 62
7
  6
CONTINUOUS
 10
-0.7177053198
 20
6.333391804
 11
0.8622946802
 21
6.333391804
  0
LINE
  5
212
100
AcDbEntity
  8
0
100
AcDbLine
 62
7
  6
CONTINUOUS
 10
3.416300355
 20
6.333391804
 11
4.7282890054
 21
6.333391804
  0
LINE
  5
213
100
AcDbEntity
  8
0
100
AcDbLine
 62
7
  6
CONTINUOUS
 10
10.9622946802
 20
6.333391804
 11
13.1822946802
 21
6.333391804
  0
LINE
  5
214
100
AcDbEntity
  8
0
100
AcDbLine
 62
7
  6
CONTINUOUS
 10
20.0598116017
 20
6.333391804
 11
22.0847777587
 21
6.333391804
  0
LINE
  5
215
100
AcDbEntity
  8
0
100
AcDbLine
 62
7
  6
CONTINUOUS
 10
4.5518656869
 20
6.458391804
 11
3.5927236735
 21
6.458391804
  0
LINE
  5
216
100
AcDbEntity
  8
0
100
AcDbLine
 62
9
  6
CONTINUOUS
 10
22.0847946802
 20
6.5823592717
 11
20.0597946802
 21
6.5823592717
  0
LINE
  5
217
100
AcDbEntity
  8
0
100
AcDbLine
 62
7
  6
CONTINUOUS
 10
4.3646171907
 20
6.583391804
 11
3.7799721697
 21
6.583391804
  0
LINE
  5
218
100
AcDbEntity
  8
0
100
AcDbLine
 62
9
  6
CONTINUOUS
 10
13.1822946802
 20
6.623391804
 11
10.9622946802
 21
6.623391804
  0
LINE
  5
219
100
AcDbEntity
  8
0
100
AcDbLine
 62
7
  6
CONTINUOUS
 10
10.9822946802
 20
6.643391804
 11
13.1622946802
 21
6.643391804
  0
LINE
  5
21A
100
AcDbEntity
  8
0
100
AcDbLine
 62
7
  6
CONTINUOUS
 10
22.0472946802
 20
6.653391804
 11
20.0972946802
 21
6.653391804
  0
LINE
  5
21B
100
AcDbEntity
  8
0
100
AcDbLine
 62
7
  6
CONTINUOUS
 10
0.5672942109
 20
6.833391804
 11
-0.4227048505
 21
6.833391804
  0
LINE
  5
21C
100
AcDbEntity
  8
0
100
AcDbLine
 62
9
  6
CONTINUOUS
 10
0.5347946802
 20
6.913391804
 11
-0.3902053198
 21
6.913391804
  0
LINE
  5
21D
100
AcDbEntity
  8
0
100
AcDbLine
 62
9
  6
CONTINUOUS
 10
4.2722946802
 20
6.918391804
 11
3.8722946802
 21
6.918391804
  0
LINE
  5
21E
100
AcDbEntity
  8
0
100
AcDbLine
 62
7
  6
CONTINUOUS
 10
4.4072946802
 20
6.933391804
 11
3.7372946802
 21
6.933391804
  0
LINE
  5
21F
100
AcDbEntity
  8
0
100
AcDbLine
 62
9
  6
CONTINUOUS
 10
3.6972946802
 20
6.973391804
 11
4.4472946802
 21
6.973391804
  0
LINE
  5
220
100
AcDbEntity
  8
0
100
AcDbLine
 62
9
  6
CONTINUOUS
 10
-0.3549934068
 20
7.0774943681
 11
0.4995827673
 21
7.0774943681
  0
LINE
  5
221
100
AcDbEntity
  8
0
100
AcDbLine
 62
7
  6
CONTINUOUS
 10
-0.3458737046
 20
7.083391804
 11
0.4904627385
 21
7.083391804
  0
LINE
  5
222
100
AcDbEntity
  8
0
100
AcDbLine
 62
9
  6
CONTINUOUS
 10
4.4472946802
 20
7.143391804
 11
3.6972946802
 21
7.143391804
  0
LINE
  5
223
100
AcDbEntity
  8
0
100
AcDbLine
 62
7
  6
CONTINUOUS
 10
3.7372946802
 20
7.183391804
 11
4.4072946802
 21
7.183391804
  0
LINE
  5
224
100
AcDbEntity
  8
0
100
AcDbLine
 62
9
  6
CONTINUOUS
 10
20.3641024827
 20
7.4941369442
 11
21.7804868778
 21
7.4941369442
  0
LINE
  5
225
100
AcDbEntity
  8
0
100
AcDbLine
 62
9
  6
CONTINUOUS
 10
20.4154240768
 20
7.6367325769
 11
21.7291652836
 21
7.6367325769
  0
LINE
  5
226
100
AcDbEntity
  8
0
100
AcDbLine
 62
7
  6
CONTINUOUS
 10
12.8722946802
 20
8.283391804
 11
11.2722946802
 21
8.283391804
  0
LINE
  5
227
100
AcDbEntity
  8
0
100
AcDbLine
 62
7
  6
CONTINUOUS
 10
12.5097946802
 20
8.308391804
 11
11.6347946802
 21
8.308391804
  0
LINE
  5
228
100
AcDbEntity
  8
0
100
AcDbLine
 62
7
  6
CONTINUOUS
 10
12.5097946802
 20
8.458391804
 11
11.6347946802
 21
8.458391804
  0
LINE
  5
229
100
AcDbEntity
  8
0
100
AcDbLine
 62
7
  6
CONTINUOUS
 10
12.3547946802
 20
8.478391804
 11
11.7897946802
 21
8.478391804
  0
LINE
  5
22A
100
AcDbEntity
  8
0
100
AcDbLine
 62
9
  6
CONTINUOUS
 10
11.7597946802
 20
8.508391804
 11
12.3847946802
 21
8.508391804
  0
LINE
  5
22B
100
AcDbEntity
  8
0
100
AcDbLine
 62
7
  6
CONTINUOUS
 10
10.9622946802
 20
6.333391804
 11
10.9622946802
 21
6.623391804
  0
LINE
  5
22C
100
AcDbEntity
  8
0
100
AcDbLine
 62
9
  6
CONTINUOUS
 10
10.9822946802
 20
6.643391804
 11
10.9822946802
 21
6.333391804
  0
LINE
  5
22D
100
AcDbEntity
  8
0
100
AcDbLine
 62
7
  6
CONTINUOUS
 10
11.2722946802
 20
8.283391804
 11
11.2722946802
 21
6.643391804
  0
LINE
  5
22E
100
AcDbEntity
  8
0
100
AcDbLine
 62
9
  6
CONTINUOUS
 10
12.3847946802
 20
9.188391804
 11
11.7597946802
 21
9.188391804
  0
LINE
  5
22F
100
AcDbEntity
  8
0
100
AcDbLine
 62
7
  6
CONTINUOUS
 10
12.3547946802
 20
9.218391804
 11
11.7897946802
 21
9.218391804
  0
LINE
  5
230
100
AcDbEntity
  8
0
100
AcDbLine
 62
9
  6
CONTINUOUS
 10
11.7597946802
 20
9.248391804
 11
12.3847946802
 21
9.248391804
  0
LINE
  5
231
100
AcDbEntity
  8
0
100
AcDbLine
 62
7
  6
CONTINUOUS
 10
20.3322956821
 20
9.801391804
 11
21.8122936783
 21
9.801391804
  0
LINE
  5
232
100
AcDbEntity
  8
0
100
AcDbLine
 62
9
  6
CONTINUOUS
 10
12.3847946802
 20
9.818391804
 11
11.7597946802
 21
9.818391804
  0
LINE
  5
233
100
AcDbEntity
  8
0
100
AcDbLine
 62
7
  6
CONTINUOUS
 10
11.7897946802
 20
9.848391804
 11
12.3547946802
 21
9.848391804
  0
LINE
  5
234
100
AcDbEntity
  8
0
100
AcDbLine
 62
9
  6
CONTINUOUS
 10
20.3122946802
 20
9.8762249518
 11
21.8322946802
 21
9.8762249518
  0
LINE
  5
235
100
AcDbEntity
  8
0
100
AcDbLine
 62
7
  6
CONTINUOUS
 10
11.6347946802
 20
8.458391804
 11
11.6347946802
 21
8.308391804
  0
LINE
  5
236
100
AcDbEntity
  8
0
100
AcDbLine
 62
7
  6
CONTINUOUS
 10
11.7357946802
 20
8.283391804
 11
11.7357946802
 21
8.308391804
  0
LINE
  5
237
100
AcDbEntity
  8
0
100
AcDbLine
 62
7
  6
CONTINUOUS
 10
11.7597946802
 20
8.508391804
 11
11.7597946802
 21
9.818391804
  0
LINE
  5
238
100
AcDbEntity
  8
0
100
AcDbLine
 62
9
  6
CONTINUOUS
 10
11.7897946802
 20
9.848391804
 11
11.7897946802
 21
8.478391804
  0
LINE
  5
239
100
AcDbEntity
  8
0
100
AcDbLine
 62
7
  6
CONTINUOUS
 10
11.8722946802
 20
8.478391804
 11
11.8722946802
 21
8.458391804
  0
LINE
  5
23A
100
AcDbEntity
  8
0
100
AcDbLine
 62
7
  6
CONTINUOUS
 10
12.2722946802
 20
8.478391804
 11
12.2722946802
 21
8.458391804
  0
LINE
  5
23B
100
AcDbEntity
  8
0
100
AcDbLine
 62
9
  6
CONTINUOUS
 10
12.3547946802
 20
8.478391804
 11
12.3547946802
 21
9.848391804
  0
LINE
  5
23C
100
AcDbEntity
  8
0
100
AcDbLine
 62
9
  6
CONTINUOUS
 10
21.8322946802
 20
10.4356525729
 11
20.3122946802
 21
10.4356525729
  0
LINE
  5
23D
100
AcDbEntity
  8
0
100
AcDbLine
 62
9
  6
CONTINUOUS
 10
20.2838259015
 20
10.5055330736
 11
21.860763459
 21
10.5055330736
  0
LINE
  5
23E
100
AcDbEntity
  8
0
100
AcDbLine
 62
7
  6
CONTINUOUS
 10
12.3847946802
 20
8.508391804
 11
12.3847946802
 21
9.818391804
  0
LINE
  5
23F
100
AcDbEntity
  8
0
100
AcDbLine
 62
7
  6
CONTINUOUS
 10
12.4087946802
 20
8.283391804
 11
12.4087946802
 21
8.308391804
  0
LINE
  5
240
100
AcDbEntity
  8
0
100
AcDbLine
 62
7
  6
CONTINUOUS
 10
12.5097946802
 20
8.458391804
 11
12.5097946802
 21
8.308391804
  0
LINE
  5
241
100
AcDbEntity
  8
0
100
AcDbLine
 62
7
  6
CONTINUOUS
 10
12.8722946802
 20
8.283391804
 11
12.8722946802
 21
6.643391804
  0
LINE
  5
242
100
AcDbEntity
  8
0
100
AcDbLine
 62
9
  6
CONTINUOUS
 10
13.1622946802
 20
6.333391804
 11
13.1622946802
 21
6.643391804
  0
LINE
  5
243
100
AcDbEntity
  8
0
100
AcDbLine
 62
7
  6
CONTINUOUS
 10
20.0069170761
 20
10.801391804
 11
20.2049922669
 21
10.801391804
  0
LINE
  5
244
100
AcDbEntity
  8
0
100
AcDbLine
 62
7
  6
CONTINUOUS
 10
20.4329256367
 20
10.801391804
 11
20.9111214488
 21
10.801391804
  0
LINE
  5
245
100
AcDbEntity
  8
0
100
AcDbLine
 62
7
  6
CONTINUOUS
 10
21.2334679117
 20
10.801391804
 11
21.7116637237
 21
10.801391804
  0
LINE
  5
246
100
AcDbEntity
  8
0
100
AcDbLine
 62
7
  6
CONTINUOUS
 10
21.9395970936
 20
10.801391804
 11
22.1376722844
 21
10.801391804
  0
LINE
  5
247
100
AcDbEntity
  8
0
100
AcDbLine
 62
9
  6
CONTINUOUS
 10
22.1376722844
 20
11.411391804
 11
21.9395970936
 21
11.411391804
  0
LINE
  5
248
100
AcDbEntity
  8
0
100
AcDbLine
 62
9
  6
CONTINUOUS
 10
21.7116637237
 20
11.411391804
 11
21.2334679117
 21
11.411391804
  0
LINE
  5
249
100
AcDbEntity
  8
0
100
AcDbLine
 62
9
  6
CONTINUOUS
 10
20.9111214488
 20
11.411391804
 11
20.4329256367
 21
11.411391804
  0
LINE
  5
24A
100
AcDbEntity
  8
0
100
AcDbLine
 62
9
  6
CONTINUOUS
 10
20.2049922669
 20
11.411391804
 11
20.0069170761
 21
11.411391804
  0
LINE
  5
24B
100
AcDbEntity
  8
0
100
AcDbLine
 62
7
  6
CONTINUOUS
 10
13.1822946802
 20
6.623391804
 11
13.1822946802
 21
6.333391804
  0
LINE
  5
24C
100
AcDbEntity
  8
0
100
AcDbLine
 62
7
  6
CONTINUOUS
 10
21.9997796386
 20
11.561391804
 11
20.1448097219
 21
11.561391804
  0
LINE
  5
24D
100
AcDbEntity
  8
0
100
AcDbLine
 62
9
  6
CONTINUOUS
 10
20.1631582472
 20
11.621391804
 11
21.9814311133
 21
11.621391804
  0
LINE
  5
24E
100
AcDbEntity
  8
0
100
AcDbLine
 62
7
  6
CONTINUOUS
 10
21.860763459
 20
10.5055330736
 11
22.0622946802
 21
10.7118248749
  0
LINE
  5
24F
100
AcDbEntity
  8
0
100
AcDbLine
 62
7
  6
CONTINUOUS
 10
20.2838259015
 20
10.5055330736
 11
20.0822946802
 21
10.7118248749
  0
LINE
  5
250
100
AcDbEntity
  8
0
100
AcDbLine
 62
7
  6
CONTINUOUS
 10
20.0069170761
 20
10.801391804
 11
20.0069170761
 21
11.411391804
  0
LINE
  5
251
100
AcDbEntity
  8
0
100
AcDbLine
 62
7
  6
CONTINUOUS
 10
20.0597946802
 20
6.5823592717
 11
20.0597946802
 21
6.333391804
  0
LINE
  5
252
100
AcDbEntity
  8
0
100
AcDbLine
 62
7
  6
CONTINUOUS
 10
20.4337665428
 20
10.7854668396
 11
20.4329256367
 21
10.801391804
  0
LINE
  5
253
100
AcDbEntity
  8
0
100
AcDbLine
 62
7
  6
CONTINUOUS
 10
20.2049922669
 20
10.801391804
 11
20.2049922669
 21
11.411391804
  0
LINE
  5
254
100
AcDbEntity
  8
0
100
AcDbLine
 62
7
  6
CONTINUOUS
 10
20.3122946802
 20
10.4356525729
 11
20.3122946802
 21
9.8762249518
  0
LINE
  5
255
100
AcDbEntity
  8
0
100
AcDbLine
 62
7
  6
CONTINUOUS
 10
20.4329256367
 20
10.801391804
 11
20.4329256367
 21
11.411391804
  0
LINE
  5
256
100
AcDbEntity
  8
0
100
AcDbLine
 62
7
  6
CONTINUOUS
 10
20.9111214488
 20
10.801391804
 11
20.9111214488
 21
11.411391804
  0
LINE
  5
257
100
AcDbEntity
  8
0
100
AcDbLine
 62
7
  6
CONTINUOUS
 10
20.4967057474
 20
9.801391804
 11
20.4154240768
 21
7.6367325769
  0
LINE
  5
258
100
AcDbEntity
  8
0
100
AcDbLine
 62
7
  6
CONTINUOUS
 10
21.647883613
 20
9.801391804
 11
21.7291652836
 21
7.6367325769
  0
LINE
  5
259
100
AcDbEntity
  8
0
100
AcDbLine
 62
7
  6
CONTINUOUS
 10
21.2334679117
 20
10.801391804
 11
21.2334679117
 21
11.411391804
  0
LINE
  5
25A
100
AcDbEntity
  8
0
100
AcDbLine
 62
7
  6
CONTINUOUS
 10
21.7116637237
 20
10.801391804
 11
21.7116637237
 21
11.411391804
  0
LINE
  5
25B
100
AcDbEntity
  8
0
100
AcDbLine
 62
7
  6
CONTINUOUS
 10
21.8322946802
 20
10.4356525729
 11
21.8322946802
 21
9.8762249518
  0
LINE
  5
25C
100
AcDbEntity
  8
0
100
AcDbLine
 62
7
  6
CONTINUOUS
 10
21.9395970936
 20
10.801391804
 11
21.9395970936
 21
11.411391804
  0
LINE
  5
25D
100
AcDbEntity
  8
0
100
AcDbLine
 62
7
  6
CONTINUOUS
 10
22.0847946802
 20
6.5823592717
 11
22.0847946802
 21
6.333391804
  0
LINE
  5
25E
100
AcDbEntity
  8
0
100
AcDbLine
 62
7
  6
CONTINUOUS
 10
22.1376722844
 20
10.801391804
 11
22.1376722844
 21
11.411391804
  0
LINE
  5
25F
100
AcDbEntity
  8
0
100
AcDbLine
 62
7
  6
CONTINUOUS
 10
21.7116637237
 20
10.801391804
 11
21.7108228177
 21
10.785466592
  0
ARC
  5
260
100
AcDbEntity
  8
0
100
AcDbCircle
 62
7
  6
CONTINUOUS
 10
0.1635150865
 20
6.1504967643
 40
0.9
100
AcDbArc
 50
130.6439171763
 51
168.2748731243
  0
ARC
  5
261
100
AcDbEntity
  8
0
100
AcDbCircle
 62
7
  6
CONTINUOUS
 10
-0.0189257261
 20
6.1504967643
 40
0.9
100
AcDbArc
 50
11.7251268757
 51
49.3560828237
  0
ARC
  5
262
100
AcDbEntity
  8
0
100
AcDbCircle
 62
7
  6
CONTINUOUS
 10
0.0097946802
 20
6.913391804
 40
0.4
100
AcDbArc
 50
155.7790568908
 51
180.0
  0
ARC
  5
263
100
AcDbEntity
  8
0
100
AcDbCircle
 62
7
  6
CONTINUOUS
 10
0.1347946802
 20
6.913391804
 40
0.4
100
AcDbArc
 50
0.0
 51
24.2209431092
  0
ARC
  5
264
100
AcDbEntity
  8
0
100
AcDbCircle
 62
7
  6
CONTINUOUS
 10
4.5518718926
 20
6.271391804
 40
0.187
100
AcDbArc
 50
19.3629299219
 51
90.0
  0
ARC
  5
265
100
AcDbEntity
  8
0
100
AcDbCircle
 62
7
  6
CONTINUOUS
 10
3.5927174679
 20
6.271391804
 40
0.187
100
AcDbArc
 50
90.0
 51
160.6370700781
  0
ARC
  5
266
100
AcDbEntity
  8
0
100
AcDbCircle
 62
7
  6
CONTINUOUS
 10
3.7799674679
 20
6.396391804
 40
0.187
100
AcDbArc
 50
90.0
 51
160.6370700781
  0
ARC
  5
267
100
AcDbEntity
  8
0
100
AcDbCircle
 62
7
  6
CONTINUOUS
 10
4.3646218926
 20
6.396391804
 40
0.187
100
AcDbArc
 50
19.3629299219
 51
90.0
  0
ARC
  5
268
100
AcDbEntity
  8
0
100
AcDbCircle
 62
7
  6
CONTINUOUS
 10
4.4072946802
 20
7.143391804
 40
0.04
100
AcDbArc
 50
0.0
 51
90.0
  0
ARC
  5
269
100
AcDbEntity
  8
0
100
AcDbCircle
 62
7
  6
CONTINUOUS
 10
3.7372946802
 20
6.973391804
 40
0.04
100
AcDbArc
 50
180.0
 51
270.0
  0
ARC
  5
26A
100
AcDbEntity
  8
0
100
AcDbCircle
 62
7
  6
CONTINUOUS
 10
3.7372946802
 20
7.143391804
 40
0.04
100
AcDbArc
 50
90.0
 51
180.0
  0
ARC
  5
26B
100
AcDbEntity
  8
0
100
AcDbCircle
 62
7
  6
CONTINUOUS
 10
4.4072946802
 20
6.973391804
 40
0.04
100
AcDbArc
 50
270.0
 51
360.0
  0
ARC
  5
26C
100
AcDbEntity
  8
0
100
AcDbCircle
 62
7
  6
CONTINUOUS
 10
10.9822946802
 20
6.623391804
 40
0.02
100
AcDbArc
 50
90.0
 51
180.0
  0
ARC
  5
26D
100
AcDbEntity
  8
0
100
AcDbCircle
 62
7
  6
CONTINUOUS
 10
4.2872946802
 20
6.918391804
 40
0.015
100
AcDbArc
 50
90.0
 51
180.0
  0
ARC
  5
26E
100
AcDbEntity
  8
0
100
AcDbCircle
 62
7
  6
CONTINUOUS
 10
3.8572946802
 20
6.918391804
 40
0.015
100
AcDbArc
 50
0.0
 51
90.0
  0
ARC
  5
26F
100
AcDbEntity
  8
0
100
AcDbCircle
 62
7
  6
CONTINUOUS
 10
-0.3458737046
 20
7.073391804
 40
0.01
100
AcDbArc
 50
90.0
 51
155.7790568908
  0
ARC
  5
270
100
AcDbEntity
  8
0
100
AcDbCircle
 62
7
  6
CONTINUOUS
 10
0.4904630651
 20
7.073391804
 40
0.01
100
AcDbArc
 50
24.2209431092
 51
90.0
  0
ARC
  5
271
100
AcDbEntity
  8
0
100
AcDbCircle
 62
7
  6
CONTINUOUS
 10
11.7897946802
 20
8.508391804
 40
0.03
100
AcDbArc
 50
180.0
 51
270.0
  0
ARC
  5
272
100
AcDbEntity
  8
0
100
AcDbCircle
 62
7
  6
CONTINUOUS
 10
11.7897946802
 20
9.248391804
 40
0.03
100
AcDbArc
 50
180.0
 51
270.0
  0
ARC
  5
273
100
AcDbEntity
  8
0
100
AcDbCircle
 62
7
  6
CONTINUOUS
 10
11.7897946802
 20
9.818391804
 40
0.03
100
AcDbArc
 50
90.0
 51
180.0
  0
ARC
  5
274
100
AcDbEntity
  8
0
100
AcDbCircle
 62
7
  6
CONTINUOUS
 10
21.0722946802
 20
5.2959760049
 40
6.3904157991
100
AcDbArc
 50
81.821031102
 51
98.178968898
  0
ARC
  5
275
100
AcDbEntity
  8
0
100
AcDbCircle
 62
7
  6
CONTINUOUS
 10
20.7482746722
 20
6.7038598012
 40
1.3
100
AcDbArc
 50
357.7751307225
 51
37.4382101818
  0
ARC
  5
276
100
AcDbEntity
  8
0
100
AcDbCircle
 62
7
  6
CONTINUOUS
 10
21.3963146883
 20
6.7038598012
 40
1.3
100
AcDbArc
 50
142.5617898181
 51
182.2248692774
  0
ARC
  5
277
100
AcDbEntity
  8
0
100
AcDbCircle
 62
7
  6
CONTINUOUS
 10
20.1656001354
 20
7.6461133178
 40
0.25
100
AcDbArc
 50
322.5617898181
 51
357.849587733
  0
ARC
  5
278
100
AcDbEntity
  8
0
100
AcDbCircle
 62
7
  6
CONTINUOUS
 10
21.978989225
 20
7.6461133178
 40
0.25
100
AcDbArc
 50
182.150412267
 51
217.4382101818
  0
ARC
  5
279
100
AcDbEntity
  8
0
100
AcDbCircle
 62
7
  6
CONTINUOUS
 10
20.1458196223
 20
6.5823592717
 40
0.0860249421
100
AcDbArc
 50
124.3384233779
 51
180.0
  0
ARC
  5
27A
100
AcDbEntity
  8
0
100
AcDbCircle
 62
7
  6
CONTINUOUS
 10
21.9987697382
 20
6.5823592717
 40
0.0860249421
100
AcDbArc
 50
0.0
 51
55.6615766221
  0
ARC
  5
27B
100
AcDbEntity
  8
0
100
AcDbCircle
 62
7
  6
CONTINUOUS
 10
13.1622946802
 20
6.623391804
 40
0.02
100
AcDbArc
 50
0.0
 51
90.0
  0
ARC
  5
27C
100
AcDbEntity
  8
0
100
AcDbCircle
 62
7
  6
CONTINUOUS
 10
24.2588315654
 20
8.9397641635
 40
2.8222285817
100
AcDbArc
 50
138.7283123636
 51
141.0996773135
  0
ARC
  5
27D
100
AcDbEntity
  8
0
100
AcDbCircle
 62
7
  6
CONTINUOUS
 10
17.9262798558
 20
8.9738699949
 40
2.7692755741
100
AcDbArc
 50
38.8776446986
 51
41.2943631147
  0
ARC
  5
27E
100
AcDbEntity
  8
0
100
AcDbCircle
 62
7
  6
CONTINUOUS
 10
21.6822946802
 20
9.8762249518
 40
0.15
100
AcDbArc
 50
330.0735651336
 51
360.0
  0
ARC
  5
27F
100
AcDbEntity
  8
0
100
AcDbCircle
 62
7
  6
CONTINUOUS
 10
20.4622946802
 20
9.8762249518
 40
0.15
100
AcDbArc
 50
180.0
 51
209.9264348664
  0
ARC
  5
280
100
AcDbEntity
  8
0
100
AcDbCircle
 62
7
  6
CONTINUOUS
 10
20.1447946802
 20
11.411391804
 40
0.15
100
AcDbArc
 50
90.0
 51
114.6243183522
  0
ARC
  5
281
100
AcDbEntity
  8
0
100
AcDbCircle
 62
7
  6
CONTINUOUS
 10
21.9997946802
 20
11.411391804
 40
0.15
100
AcDbArc
 50
65.3756816478
 51
90.0
  0
ARC
  5
282
100
AcDbEntity
  8
0
100
AcDbCircle
 62
7
  6
CONTINUOUS
 10
21.9322946802
 20
10.4356525729
 40
0.1
100
AcDbArc
 50
135.6687919533
 51
180.0
  0
ARC
  5
283
100
AcDbEntity
  8
0
100
AcDbCircle
 62
7
  6
CONTINUOUS
 10
20.2122946802
 20
10.4356525729
 40
0.1
100
AcDbArc
 50
0.0
 51
44.3312080467
  0
ARC
  5
284
100
AcDbEntity
  8
0
100
AcDbCircle
 62
7
  6
CONTINUOUS
 10
20.1674480324
 20
11.5915451562
 40
0.0301533521
100
AcDbArc
 50
98.1789688981
 51
270.0
  0
ARC
  5
285
100
AcDbEntity
  8
0
100
AcDbCircle
 62
7
  6
CONTINUOUS
 10
21.9771413281
 20
11.5915451562
 40
0.0301533521
100
AcDbArc
 50
270.0
 51
81.8210311019
  0
ARC
  5
286
100
AcDbEntity
  8
0
100
AcDbCircle
 62
7
  6
CONTINUOUS
 10
12.3547946802
 20
9.818391804
 40
0.03
100
AcDbArc
 50
0.0
 51
90.0
  0
ARC
  5
287
100
AcDbEntity
  8
0
100
AcDbCircle
 62
7
  6
CONTINUOUS
 10
12.3547946802
 20
9.248391804
 40
0.03
100
AcDbArc
 50
270.0
 51
360.0
  0
ARC
  5
288
100
AcDbEntity
  8
0
100
AcDbCircle
 62
7
  6
CONTINUOUS
 10
12.3547946802
 20
8.508391804
 40
0.03
100
AcDbArc
 50
270.0
 51
360.0
  0
LINE
  5
289
100
AcDbEntity
  8
0
100
AcDbLine
 62
7
  6
CONTINUOUS
 10
22.0650492539
 20
11.5461762154
 11
22.0622948373
 21
11.5477515239
  0
SPLINE
  5
28A
100
AcDbEntity
  8
0
100
AcDbSpline
 62
7
  6
CONTINUOUS
 70
0
 71
3
 72
11
 73
7
 74
0
 42
0.0000001
 43
0.0000001
 44
0.0000000001
 40
0.0
 40
0.0
 40
0.0
 40
0.0
 40
0.2620304421
 40
0.5196994628
 40
0.7673399539
 40
1.0
 40
1.0
 40
1.0
 40
1.0
 10
20.4329256367
 20
11.411391804
 30
0.0
 10
20.4329256367
 20
11.4172029353
 30
0.0
 10
20.4330051917
 20
11.4287285004
 30
0.0
 10
20.4332786296
 20
11.4457440106
 30
0.0
 10
20.4336279418
 20
11.4621062933
 30
0.0
 10
20.4337676314
 20
11.4727578256
 30
0.0
 10
20.4337665519
 20
11.4779176003
 30
0.0
  0
SPLINE
  5
28B
100
AcDbEntity
  8
0
100
AcDbSpline
 62
7
  6
CONTINUOUS
 70
0
 71
3
 72
42
 73
38
 74
0
 42
0.0000001
 43
0.0000001
 44
0.0000000001
 40
0.0
 40
0.0
 40
0.0
 40
0.0
 40
0.0984084179
 40
0.1963629563
 40
0.292895248
 40
0.3871026604
 40
0.4330474126
 40
0.4780371295
 40
0.5645180972
 40
0.6452329434
 40
0.7190604178
 40
0.7850209577
 40
0.8147949251
 40
0.8423915352
 40
0.8677820966
 40
0.8909257275
 40
0.9117990235
 40
0.9304222841
 40
0.946814702
 40
0.9609891526
 40
0.9729528369
 40
0.9781081229
 40
0.9827146289
 40
0.9867740554
 40
0.9902880339
 40
0.9932581271
 40
0.9956858287
 40
0.9966967316
 40
0.9975725658
 40
0.9983134997
 40
0.9989196979
 40
0.9993913231
 40
0.9997285388
 40
0.9998467797
 40
0.9999314331
 40
0.9999824926
 40
1.0
 40
1.0
 40
1.0
 40
1.0
 10
20.0069170761
 20
11.411391804
 30
0.0
 10
20.0069170761
 20
11.4167416614
 30
0.0
 10
20.0074391286
 20
11.4274231962
 30
0.0
 10
20.0097174611
 20
11.4432057143
 30
0.0
 10
20.0134493855
 20
11.4584744298
 30
0.0
 10
20.0176645738
 20
11.4706526128
 30
0.0
 10
20.0216147792
 20
11.4799135537
 30
0.0
 10
20.0258079083
 20
11.4886025222
 30
0.0
 10
20.0314993411
 20
11.4986543128
 30
0.0
 10
20.0389243847
 20
11.5094694775
 30
0.0
 10
20.0465129999
 20
11.5187651121
 30
0.0
 10
20.0528715795
 20
11.5254513854
 30
0.0
 10
20.0577536751
 20
11.5300485657
 30
0.0
 10
20.0611317534
 20
11.5330216127
 30
0.0
 10
20.0643237449
 20
11.5356570811
 30
0.0
 10
20.0673016821
 20
11.5379750287
 30
0.0
 10
20.0700429223
 20
11.5399960681
 30
0.0
 10
20.0725331652
 20
11.5417373321
 30
0.0
 10
20.0747597702
 20
11.5432187342
 30
0.0
 10
20.0767108621
 20
11.544459599
 30
0.0
 10
20.0781605922
 20
11.5453499067
 30
0.0
 10
20.0791727308
 20
11.5459586251
 30
0.0
 10
20.0798190444
 20
11.5463418348
 30
0.0
 10
20.0803906485
 20
11.5466760679
 30
0.0
 10
20.08088718
 20
11.546962427
 30
0.0
 10
20.0813082597
 20
11.5472020359
 30
0.0
 10
20.0816120123
 20
11.5473726836
 30
0.0
 10
20.0818169397
 20
11.5474867733
 30
0.0
 10
20.0819419154
 20
11.5475559818
 30
0.0
 10
20.0820477002
 20
11.5476143581
 30
0.0
 10
20.0821344339
 20
11.5476619778
 30
0.0
 10
20.0822015801
 20
11.5476991385
 30
0.0
 10
20.082246218
 20
11.5477233517
 30
0.0
 10
20.0822711027
 20
11.5477379677
 30
0.0
 10
20.0822842688
 20
11.5477444315
 30
0.0
 10
20.0822893591
 20
11.5477493262
 30
0.0
 10
20.0822947219
 20
11.5477505931
 30
0.0
 10
20.0822945232
 20
11.5477515239
 30
0.0
  0
LINE
  5
28C
100
AcDbEntity
  8
0
100
AcDbLine
 62
7
  6
CONTINUOUS
 10
20.0821278711
 20
10.7120318229
 11
20.0822945103
 21
10.7118251083
  0
LINE
  5
28D
100
AcDbEntity
  8
0
100
AcDbLine
 62
7
  6
CONTINUOUS
 10
22.0624614894
 20
10.7120318229
 11
22.0622948502
 21
10.7118251083
  0
SPLINE
  5
28E
100
AcDbEntity
  8
0
100
AcDbSpline
 62
7
  6
CONTINUOUS
 70
0
 71
3
 72
11
 73
7
 74
0
 42
0.0000001
 43
0.0000001
 44
0.0000000001
 40
0.0
 40
0.0
 40
0.0
 40
0.0
 40
0.2326569628
 40
0.480283092
 40
0.7379516991
 40
1.0
 40
1.0
 40
1.0
 40
1.0
 10
21.7108229267
 20
11.4779174457
 30
0.0
 10
21.710822226
 20
11.4727577515
 30
0.0
 10
21.7109616398
 20
11.4621066349
 30
0.0
 10
21.7113106394
 20
11.4457447775
 30
0.0
 10
21.7115843806
 20
11.4287292446
 30
0.0
 10
21.7116637237
 20
11.4172033177
 30
0.0
 10
21.7116637237
 20
11.411391804
 30
0.0
  0
LINE
  5
28F
100
AcDbEntity
  8
0
100
AcDbLine
 62
7
  6
CONTINUOUS
 10
20.0822945232
 20
11.5477515239
 11
20.0789800298
 21
11.5458406811
  0
SPLINE
  5
290
100
AcDbEntity
  8
0
100
AcDbSpline
 62
7
  6
CONTINUOUS
 70
0
 71
3
 72
42
 73
38
 74
0
 42
0.0000001
 43
0.0000001
 44
0.0000000001
 40
0.0
 40
0.0
 40
0.0
 40
0.0
 40
0.0000163507
 40
0.0000662643
 40
0.0001498195
 40
0.0002670403
 40
0.0006025511
 40
0.0010729327
 40
0.0016783154
 40
0.00241883
 40
0.0032946084
 40
0.0043057839
 40
0.0067348664
 40
0.00970718
 40
0.0132238532
 40
0.0172860426
 40
0.0218949326
 40
0.0270516656
 40
0.0390126457
 40
0.0531794171
 40
0.0695671106
 40
0.0881960702
 40
0.109091521
 40
0.1322545366
 40
0.1576483073
 40
0.2150150598
 40
0.281016264
 40
0.3548633182
 40
0.3944263537
 40
0.4355978656
 40
0.5220784393
 40
0.5670653501
 40
0.6130028574
 40
0.7071834415
 40
0.8036842463
 40
0.9016124294
 40
1.0
 40
1.0
 40
1.0
 40
1.0
 10
22.0622948373
 20
11.5477515239
 30
0.0
 10
22.0622950229
 20
11.5477523932
 30
0.0
 10
22.0622999657
 20
11.5477481563
 30
0.0
 10
22.0623055942
 20
11.5477471202
 30
0.0
 10
22.062318611
 20
11.5477393114
 30
0.0
 10
22.0623437964
 20
11.5477265679
 30
0.0
 10
22.0623883896
 20
11.547702056
 30
0.0
 10
22.0624555363
 20
11.5476656427
 30
0.0
 10
22.0625421153
 20
11.5476178921
 30
0.0
 10
22.062647706
 20
11.5475593527
 30
0.0
 10
22.0627724275
 20
11.5474896906
 30
0.0
 10
22.0629769748
 20
11.5473747446
 30
0.0
 10
22.0632802055
 20
11.5472027323
 30
0.0
 10
22.0637007804
 20
11.5469615423
 30
0.0
 10
22.0641970705
 20
11.546673921
 30
0.0
 10
22.0647688551
 20
11.5463391413
 30
0.0
 10
22.0654159203
 20
11.545956486
 30
0.0
 10
22.0664299594
 20
11.5453507979
 30
0.0
 10
22.067881047
 20
11.5444635583
 30
0.0
 10
22.0698308424
 20
11.5432220935
 30
0.0
 10
22.0720557187
 20
11.5417386983
 30
0.0
 10
22.0745455271
 20
11.539994587
 30
0.0
 10
22.077289334
 20
11.5379726937
 30
0.0
 10
22.0802705436
 20
11.5356548624
 30
0.0
 10
22.0847118251
 20
11.5319883292
 30
0.0
 10
22.0906904266
 20
11.5265320774
 30
0.0
 10
22.0980835964
 20
11.5187546209
 30
0.0
 10
22.1042577433
 20
11.5111896463
 30
0.0
 10
22.1091697691
 20
11.5043681678
 30
0.0
 10
22.1141586281
 20
11.4967661111
 30
0.0
 10
22.118789469
 20
11.4885863298
 30
0.0
 10
22.1229812589
 20
11.479897467
 30
0.0
 10
22.1269311262
 20
11.4706383827
 30
0.0
 10
22.1311434499
 20
11.4584628082
 30
0.0
 10
22.1348732466
 20
11.44319819
 30
0.0
 10
22.1371505794
 20
11.427419678
 30
0.0
 10
22.1376722844
 20
11.416740588
 30
0.0
 10
22.1376722844
 20
11.411391804
 30
0.0
  0
SPLINE
  5
291
100
AcDbEntity
  8
0
100
AcDbSpline
 62
7
  6
CONTINUOUS
 70
0
 71
3
 72
30
 73
26
 74
0
 42
0.0000001
 43
0.0000001
 44
0.0000000001
 40
0.0
 40
0.0
 40
0.0
 40
0.0
 40
0.0503501029
 40
0.0983957456
 40
0.1444139998
 40
0.1668860932
 40
0.1891621729
 40
0.2114333289
 40
0.2339413529
 40
0.256971559
 40
0.2808299482
 40
0.3058175994
 40
0.3321959465
 40
0.3601537675
 40
0.3897908864
 40
0.421115891
 40
0.4540554797
 40
0.4884762732
 40
0.5242102458
 40
0.5988626909
 40
0.6766468448
 40
0.7564110552
 40
0.8372850841
 40
0.9186418782
 40
1.0
 40
1.0
 40
1.0
 40
1.0
 10
21.7108227652
 20
10.7854649767
 30
0.0
 10
21.7108228806
 20
10.7804000891
 30
0.0
 10
21.7113551058
 20
10.7704879675
 30
0.0
 10
21.7140660363
 20
10.7561672442
 30
0.0
 10
21.7181399412
 20
10.7450943659
 30
0.0
 10
21.7225868594
 20
10.7371013452
 30
0.0
 10
21.7265179125
 20
10.731604679
 30
0.0
 10
21.7310991435
 20
10.7266289471
 30
0.0
 10
21.736352433
 20
10.7222457986
 30
0.0
 10
21.7422895106
 20
10.718532282
 30
0.0
 10
21.7489058017
 20
10.7155620336
 30
0.0
 10
21.7561793807
 20
10.7133995252
 30
0.0
 10
21.7640708922
 20
10.7120949101
 30
0.0
 10
21.7725242662
 20
10.7116767704
 30
0.0
 10
21.7814702709
 20
10.7121511493
 30
0.0
 10
21.7908303846
 20
10.7135024416
 30
0.0
 10
21.8005215919
 20
10.7156945956
 30
0.0
 10
21.8104624638
 20
10.7186741738
 30
0.0
 10
21.8241467892
 20
10.7236873959
 30
0.0
 10
21.8413792439
 20
10.7315919413
 30
0.0
 10
21.8617849014
 20
10.7429944825
 30
0.0
 10
21.8819536043
 20
10.7559973335
 30
0.0
 10
21.9017162677
 20
10.7702258538
 30
0.0
 10
21.9209716565
 20
10.7853901426
 30
0.0
 10
21.9334484796
 20
10.7959905204
 30
0.0
 10
21.9395970936
 20
10.801391804
 30
0.0
  0
SPLINE
  5
292
100
AcDbEntity
  8
0
100
AcDbSpline
 62
7
  6
CONTINUOUS
 70
0
 71
3
 72
24
 73
20
 74
0
 42
0.0000001
 43
0.0000001
 44
0.0000000001
 40
0.0
 40
0.0
 40
0.0
 40
0.0
 40
0.1318134936
 40
0.1968440461
 40
0.2607500829
 40
0.3233085698
 40
0.3844507063
 40
0.4442258106
 40
0.4737143663
 40
0.5030209197
 40
0.5613716357
 40
0.5906370827
 40
0.6200846951
 40
0.6798095961
 40
0.7410289241
 40
0.8039141605
 40
0.8683475223
 40
0.9339385344
 40
1.0
 40
1.0
 40
1.0
 40
1.0
 10
21.0722946802
 20
11.5477507055
 30
0.0
 10
21.0616260512
 20
11.5477507055
 30
0.0
 10
21.0456782469
 20
11.5471046237
 30
0.0
 10
21.0247052421
 20
11.5446831884
 30
0.0
 10
21.0094278459
 20
11.5420045594
 30
0.0
 10
20.9946886551
 20
11.5382851456
 30
0.0
 10
20.9806514193
 20
11.5333701213
 30
0.0
 10
20.9696366689
 20
11.5281118573
 30
0.0
 10
20.9614143841
 20
11.5231493069
 30
0.0
 10
20.9536483256
 20
11.5176999254
 30
0.0
 10
20.946490495
 20
11.5114498658
 30
0.0
 10
20.9400799069
 20
11.5044632579
 30
0.0
 10
20.9341396609
 20
11.4969292745
 30
0.0
 10
20.9276605955
 20
11.4865748293
 30
0.0
 10
20.9214603388
 20
11.4730093726
 30
0.0
 10
20.9167635883
 20
11.4584586127
 30
0.0
 10
20.9134828299
 20
11.4431699368
 30
0.0
 10
20.9115454979
 20
11.4273994336
 30
0.0
 10
20.9111214488
 20
11.4167386411
 30
0.0
 10
20.9111214488
 20
11.411391804
 30
0.0
  0
SPLINE
  5
293
100
AcDbEntity
  8
0
100
AcDbSpline
 62
7
  6
CONTINUOUS
 70
0
 71
3
 72
38
 73
34
 74
0
 42
0.0000001
 43
0.0000001
 44
0.0000000001
 40
0.0
 40
0.0
 40
0.0
 40
0.0
 40
0.0394048862
 40
0.0788911136
 40
0.1183774189
 40
0.1578356835
 40
0.1972817615
 40
0.2367383714
 40
0.2761743608
 40
0.2958681545
 40
0.3155267249
 40
0.3546819764
 40
0.3935050509
 40
0.4693269129
 40
0.5415987127
 40
0.5759690632
 40
0.608921046
 40
0.6403080706
 40
0.670016413
 40
0.6979286084
 40
0.7239645115
 40
0.748089724
 40
0.77032683
 40
0.7908371994
 40
0.8099632965
 40
0.8282771584
 40
0.8466353419
 40
0.8660280169
 40
0.8873686443
 40
0.9112500664
 40
0.9380079042
 40
0.9676748569
 40
1.0
 40
1.0
 40
1.0
 40
1.0
 10
21.9395970936
 20
11.411391804
 30
0.0
 10
21.9395970936
 20
11.4160170892
 30
0.0
 10
21.939093401
 20
11.4252847782
 30
0.0
 10
21.9368480723
 20
11.4390233423
 30
0.0
 10
21.9331129982
 20
11.4524432037
 30
0.0
 10
21.9279153871
 20
11.4653617279
 30
0.0
 10
21.9213152426
 20
11.4776206258
 30
0.0
 10
21.9133713522
 20
11.4890500752
 30
0.0
 10
21.9057488906
 20
11.497789514
 30
0.0
 10
21.8991234472
 20
11.5042471729
 30
0.0
 10
21.8921843357
 20
11.510316621
 30
0.0
 10
21.8829852651
 20
11.5171865425
 30
0.0
 10
21.8675464448
 20
11.526586642
 30
0.0
 10
21.8473769885
 20
11.5354768265
 30
0.0
 10
21.8267258093
 20
11.5413514317
 30
0.0
 10
21.8106384301
 20
11.5444920657
 30
0.0
 10
21.7991674173
 20
11.5461547189
 30
0.0
 10
21.788176748
 20
11.5472296485
 30
0.0
 10
21.7777386461
 20
11.5477557994
 30
0.0
 10
21.7679152052
 20
11.5477884872
 30
0.0
 10
21.7587576847
 20
11.5473117163
 30
0.0
 10
21.7503134207
 20
11.546290421
 30
0.0
 10
21.7426154113
 20
11.5446958583
 30
0.0
 10
21.7356950348
 20
11.5424279228
 30
0.0
 10
21.7295851819
 20
11.5393674695
 30
0.0
 10
21.724334306
 20
11.5353809307
 30
0.0
 10
21.7199963297
 20
11.5303681949
 30
0.0
 10
21.7166017549
 20
11.5242695585
 30
0.0
 10
21.714127758
 20
11.5170689519
 30
0.0
 10
21.712425655
 20
11.5087769349
 30
0.0
 10
21.7113921361
 20
11.4993982981
 30
0.0
 10
21.7108961104
 20
11.4889889239
 30
0.0
 10
21.7108234419
 20
11.4817117214
 30
0.0
 10
21.7108229267
 20
11.4779174457
 30
0.0
  0
SPLINE
  5
294
100
AcDbEntity
  8
0
100
AcDbSpline
 62
7
  6
CONTINUOUS
 70
0
 71
3
 72
30
 73
26
 74
0
 42
0.0000001
 43
0.0000001
 44
0.0000000001
 40
0.0
 40
0.0
 40
0.0
 40
0.0
 40
0.0813579605
 40
0.1627145628
 40
0.2435885414
 40
0.32335271
 40
0.4011369133
 40
0.4757894149
 40
0.5115235536
 40
0.5459443836
 40
0.5788838993
 40
0.6102089651
 40
0.63984613
 40
0.6678039275
 40
0.6941822531
 40
0.7191699664
 40
0.7430283588
 40
0.7660584688
 40
0.7885664894
 40
0.810837641
 40
0.8331137266
 40
0.8555858025
 40
0.9016040895
 40
0.9496497684
 40
1.0
 40
1.0
 40
1.0
 40
1.0
 10
20.2049922669
 20
10.801391804
 30
0.0
 10
20.2111408686
 20
10.7959905311
 30
0.0
 10
20.2236176663
 20
10.7853901785
 30
0.0
 10
20.2428730203
 20
10.7702259115
 30
0.0
 10
20.2626356566
 20
10.7559974027
 30
0.0
 10
20.282804351
 20
10.7429945464
 30
0.0
 10
20.3032100109
 20
10.7315919972
 30
0.0
 10
20.3204424851
 20
10.7236874279
 30
0.0
 10
20.3341268356
 20
10.7186741994
 30
0.0
 10
20.3440677159
 20
10.7156946035
 30
0.0
 10
20.353758927
 20
10.713502455
 30
0.0
 10
20.3631190423
 20
10.7121511518
 30
0.0
 10
20.3720650557
 20
10.7116767702
 30
0.0
 10
20.3805184292
 20
10.712094909
 30
0.0
 10
20.3884099451
 20
10.7133995111
 30
0.0
 10
20.3956835253
 20
10.7155620296
 30
0.0
 10
20.4022998213
 20
10.7185322591
 30
0.0
 10
20.4082368898
 20
10.7222457728
 30
0.0
 10
20.4134901742
 20
10.7266289102
 30
0.0
 10
20.4180714134
 20
10.7316046343
 30
0.0
 10
20.4220024707
 20
10.7371012957
 30
0.0
 10
20.4264493951
 20
10.7450943153
 30
0.0
 10
20.4305233117
 20
10.7561671947
 30
0.0
 10
20.4332342565
 20
10.770487936
 30
0.0
 10
20.4337664806
 20
10.7804000744
 30
0.0
 10
20.4337665972
 20
10.7854649749
 30
0.0
  0
SPLINE
  5
295
100
AcDbEntity
  8
0
100
AcDbSpline
 62
7
  6
CONTINUOUS
 70
0
 71
3
 72
38
 73
34
 74
0
 42
0.0000001
 43
0.0000001
 44
0.0000000001
 40
0.0
 40
0.0
 40
0.0
 40
0.0
 40
0.0323250739
 40
0.0619898224
 40
0.0887481083
 40
0.1126259847
 40
0.133956603
 40
0.1533400634
 40
0.1716922098
 40
0.1900027053
 40
0.2091166909
 40
0.2296133271
 40
0.2518447279
 40
0.2759587983
 40
0.3019863603
 40
0.3298958948
 40
0.3595980517
 40
0.3909894104
 40
0.4583044766
 40
0.4939228669
 40
0.5306491643
 40
0.5682578227
 40
0.6065593015
 40
0.6454037017
 40
0.6845749747
 40
0.7042390176
 40
0.7239367989
 40
0.7633786813
 40
0.8028394066
 40
0.8422849046
 40
0.8817394271
 40
0.9212227414
 40
1.0
 40
1.0
 40
1.0
 40
1.0
 10
20.4337665519
 20
11.4779176003
 30
0.0
 10
20.4337657581
 20
11.4817117076
 30
0.0
 10
20.4336926251
 20
11.4889883308
 30
0.0
 10
20.4331965633
 20
11.4993970268
 30
0.0
 10
20.4321649594
 20
11.508774791
 30
0.0
 10
20.4304651261
 20
11.5170654129
 30
0.0
 10
20.4279908007
 20
11.5242628666
 30
0.0
 10
20.4245984333
 20
11.5303584625
 30
0.0
 10
20.4202672721
 20
11.5353738473
 30
0.0
 10
20.4150184799
 20
11.5393590962
 30
0.0
 10
20.4089118472
 20
11.5424174831
 30
0.0
 10
20.4019961325
 20
11.544685635
 30
0.0
 10
20.3943043278
 20
11.5462910823
 30
0.0
 10
20.3858625014
 20
11.5473081932
 30
0.0
 10
20.3767081464
 20
11.547781538
 30
0.0
 10
20.366887153
 20
11.5477635964
 30
0.0
 10
20.3564496819
 20
11.5472321429
 30
0.0
 10
20.3414466643
 20
11.5457605362
 30
0.0
 10
20.3258680526
 20
11.5431375608
 30
0.0
 10
20.3099720723
 20
11.5391023408
 30
0.0
 10
20.2976721709
 20
11.5351641073
 30
0.0
 10
20.2853801114
 20
11.5302647486
 30
0.0
 10
20.2732869624
 20
11.5242974321
 30
0.0
 10
20.2616103206
 20
11.5171873425
 30
0.0
 10
20.2524070216
 20
11.5103161825
 30
0.0
 10
20.245464816
 20
11.504246239
 30
0.0
 10
20.2388378011
 20
11.4977881366
 30
0.0
 10
20.2312158307
 20
11.489046709
 30
0.0
 10
20.2232721244
 20
11.4776164214
 30
0.0
 10
20.216671747
 20
11.465359025
 30
0.0
 10
20.211475363
 20
11.452438905
 30
0.0
 10
20.2065034854
 20
11.4345807621
 30
0.0
 10
20.2049922669
 20
11.4206381673
 30
0.0
 10
20.2049922669
 20
11.411391804
 30
0.0
  0
SPLINE
  5
296
100
AcDbEntity
  8
0
100
AcDbSpline
 62
7
  6
CONTINUOUS
 70
0
 71
3
 72
13
 73
9
 74
0
 42
0.0000001
 43
0.0000001
 44
0.0000000001
 40
0.0
 40
0.0
 40
0.0
 40
0.0
 40
0.136191943
 40
0.2704629461
 40
0.4014873323
 40
0.528668416
 40
0.7711438777
 40
1.0
 40
1.0
 40
1.0
 40
1.0
 10
21.0722946802
 20
10.7118248749
 30
0.0
 10
21.0636183704
 20
10.7118248749
 30
0.0
 10
21.0463591185
 20
10.7131595144
 30
0.0
 10
21.021358215
 20
10.7189541393
 30
0.0
 10
20.9979573834
 20
10.7279796927
 30
0.0
 10
20.9698359101
 20
10.7431793183
 30
0.0
 10
20.939584146
 20
10.7668722985
 30
0.0
 10
20.9197383917
 20
10.7896311246
 30
0.0
 10
20.9111214488
 20
10.801391804
 30
0.0
  0
SPLINE
  5
297
100
AcDbEntity
  8
0
100
AcDbSpline
 62
7
  6
CONTINUOUS
 70
0
 71
3
 72
13
 73
9
 74
0
 42
0.0000001
 43
0.0000001
 44
0.0000000001
 40
0.0
 40
0.0
 40
0.0
 40
0.0
 40
0.1361907985
 40
0.270461374
 40
0.4014855005
 40
0.5286666724
 40
0.7711427289
 40
1.0
 40
1.0
 40
1.0
 40
1.0
 10
21.0722946802
 20
10.7118248749
 30
0.0
 10
21.0809709172
 20
10.7118248749
 30
0.0
 10
21.0982300696
 20
10.7131594847
 30
0.0
 10
21.1232308644
 20
10.7189540615
 30
0.0
 10
21.1466316765
 20
10.7279795568
 30
0.0
 10
21.1747532008
 20
10.7431791456
 30
0.0
 10
21.2050050986
 20
10.7668721511
 30
0.0
 10
21.2248509255
 20
10.7896310655
 30
0.0
 10
21.2334679117
 20
10.801391804
 30
0.0
  0
SPLINE
  5
298
100
AcDbEntity
  8
0
100
AcDbSpline
 62
7
  6
CONTINUOUS
 70
0
 71
3
 72
23
 73
19
 74
0
 42
0.0000001
 43
0.0000001
 44
0.0000000001
 40
0.0
 40
0.0
 40
0.0
 40
0.0
 40
0.0661003794
 40
0.1317080408
 40
0.1961405054
 40
0.2590267676
 40
0.3202522376
 40
0.3799644518
 40
0.4386300953
 40
0.4678107729
 40
0.4970013094
 40
0.555755971
 40
0.6155288064
 40
0.676652685
 40
0.7392238332
 40
0.8031260035
 40
0.8681456946
 40
1.0
 40
1.0
 40
1.0
 40
1.0
 10
21.2334679117
 20
11.411391804
 30
0.0
 10
21.2334679117
 20
11.4167416247
 30
0.0
 10
21.2330431264
 20
11.427406595
 30
0.0
 10
21.2311047404
 20
11.4431808469
 30
0.0
 10
21.2278232766
 20
11.4584705349
 30
0.0
 10
21.22312211
 20
11.4730193498
 30
0.0
 10
21.2169260227
 20
11.4865869859
 30
0.0
 10
21.2091906534
 20
11.49894824
 30
0.0
 10
21.2014245565
 20
11.5080827324
 30
0.0
 10
21.1945266989
 20
11.5145853018
 30
0.0
 10
21.1871616757
 20
11.5205658355
 30
0.0
 10
21.1770893343
 20
11.5270815138
 30
0.0
 10
21.1639453329
 20
11.5333754483
 30
0.0
 10
21.1499047042
 20
11.5382839131
 30
0.0
 10
21.1351663987
 20
11.5419980711
 30
0.0
 10
21.1198909801
 20
11.5446853464
 30
0.0
 10
21.0989155343
 20
11.5470990058
 30
0.0
 10
21.0829662813
 20
11.5477507055
 30
0.0
 10
21.0722946802
 20
11.5477507055
 30
0.0
  0
ENDSEC
  0
SECTION
  2
OBJECTS
  0
DICTIONARY
  5
C
100
AcDbDictionary
280
0
281
1
  3
ACAD_GROUP
350
D
  3
ACAD_MLINESTYLE
350
17
  3
ACAD_LAYOUT
350
1A
  3
ACAD_PLOTSETTINGS
350
19
  3
ACAD_PLOTSTYLENAME
350
E
  0
DICTIONARY
  5
D
102
{ACAD_REACTORS
330
C
102
}
100
AcDbDictionary
280
0
281
1
  0
ACDBDICTIONARYWDFLT
  5
E
102
{ACAD_REACTORS
330
C
102
}
100
AcDbDictionary
281
1
  3
Normal
350
F
100
AcDbDictionaryWithDefault
340
F
  0
DICTIONARY
  5
17
102
{ACAD_REACTORS
330
C
102
}
100
AcDbDictionary
280
0
281
1
  3
Standard
350
18
  0
DICTIONARY
  5
19
102
{ACAD_REACTORS
330
C
102
}
100
AcDbDictionary
281
1
  0
DICTIONARY
  5
1A
102
{ACAD_REACTORS
330
C
102
}
100
AcDbDictionary
281
1
  3
Model
350
299
  3
Layout1
350
29A
  0
ACDBPLACEHOLDER
  5
F
102
{ACAD_REACTORS
330
E
102
}
  0
MLINESTYLE
  5
18
102
{ACAD_REACTORS
330
17
102
}
100
AcDbMlineStyle
  2
STANDARD
 70
0
  3

 62
256
 51
90.0
 52
90.0
 71
2
 49
0.5
 62
256
  6
BYLAYER
 49
-0.5
 62
256
  6
BYLAYER
  0
LAYOUT
  5
299
102
{ACAD_REACTORS
330
1A
102
}
100
AcDbPlotSettings
  1

  2
none_device
  4
ANSI_C_(22.00_x_17.00_Inches)
  6

 40
0.0
 41
0.0
 42
0.0
 43
0.0
 44
558.8
 45
431.8
 46
0.0
 47
0.0
 48
0.0
 49
0.0
140
0.0
141
0.0
142
1.0
143
1.0
 70
1024
 72
0
 73
0
 74
0
  7

 75
0
147
1.0
148
0.0
149
0.0
100
AcDbLayout
  1
Model
 70
0
 71
0
 10
0.0
 20
0.0
 11
22.0
 21
17.0
 12
0.0
 22
0.0
 32
0.0
 14
0.0
 24
0.0
 34
0.0
 15
0.0
 25
0.0
 35
0.0
146
0.0
 13
0.0
 23
0.0
 33
0.0
 16
1.0
 26
0.0
 36
0.0
 17
0.0
 27
1.0
 37
0.0
 76
0
330
202
345
0
346
0
  0
LAYOUT
  5
29A
102
{ACAD_REACTORS
330
1A
102
}
100
AcDbPlotSettings
  1

  2
none_device
  4
ANSI_C_(22.00_x_17.00_Inches)
  6

 40
0.0
 41
0.0
 42
0.0
 43
0.0
 44
558.8
 45
431.8
 46
0.0
 47
0.0
 48
0.0
 49
0.0
140
0.0
141
0.0
142
1.0
143
1.0
 70
0
 72
0
 73
0
 74
0
  7

 75
0
147
1.0
148
0.0
149
0.0
100
AcDbLayout
  1
Layout1
 70
0
 71
1
 10
0.0
 20
0.0
 11
22.0
 21
17.0
 12
0.0
 22
0.0
 32
0.0
 14
0.0
 24
0.0
 34
0.0
 15
0.0
 25
0.0
 35
0.0
146
0.0
 13
0.0
 23
0.0
 33
0.0
 16
1.0
 26
0.0
 36
0.0
 17
0.0
 27
1.0
 37
0.0
 76
0
330
203
345
0
346
0
  0
ENDSEC
  0
EOF
