  0
SECTION
  2
HEADER
  9
$ACADVER
  1
AC1015
  9
$DWGCODEPAGE
  3
ANSI_1252
  9
$EXTMAX
 10
11.0
 20
17.0
 30
0.0
  9
$EXTMIN
 10
0.0
 20
0.0
 30
0.0
  9
$LIMMIN
 10
0.0
 20
0.0
  9
$LIMMAX
 10
11.0
 20
17.0
  9
$VIEWCTR
 10
5.5
 20
8.5
  9
$VIEWSIZE
 40
17.0
  9
$CLAYER
  8
0
  9
$LTSCALE
 40
1.1081481481
  9
$CELTYPE
  6
BYLAYER
  9
$DIMSCALE
 40
1.0
  9
$DIMASZ
 40
0.1
  9
$DIMEXO
 40
0.1259259259
  9
$DIMDLI
 40
0.7656296296
  9
$DIMEXE
 40
0.3626666667
  9
$DIMCEN
 40
0.1813333333
  9
$DIMLFAC
 40
1.0
  9
$DIMBLK
  1
_FILLED
  9
$DIMTXT
 40
0.08
  9
$DIMTOL
 70
1
  9
$DIMLIM
 70
0
  9
$DIMTFAC
 40
1.0
  9
$DIMTP
 40
0.01
  9
$DIMTM
 40
0.01
  9
$PDMODE
 70
3
  9
$PDSIZE
 40
0.06
  9
$HANDSEED
  5
334
  9
$TILEMODE
 70
1
  9
$MEASUREMENT
 70
0
  9
$INSUNITS
 70
1
  0
ENDSEC
  0
SECTION
  2
CLASSES
  0
CLASS
  1
ACDBDICTIONARYWDFLT
  2
AcDbDictionaryWithDefault
  3
AutoCAD 2000
 90
0
280
0
281
0
  0
CLASS
  1
ACDBPLACEHOLDER
  2
AcDbPlaceHolder
  3
AutoCAD 2000
 90
0
280
0
281
0
  0
CLASS
  1
LAYOUT
  2
AcDbLayout
  3
AutoCAD 2000
 90
0
280
0
281
0
  0
ENDSEC
  0
SECTION
  2
TABLES
  0
TABLE
  2
VPORT
  5
8
100
AcDbSymbolTable
 70
2
  0
VPORT
  5
1F4
100
AcDbSymbolTableRecord
100
AcDbViewportTableRecord
  2
*ACTIVE
 70
0
 10
0.0
 20
0.0
 11
1.0
 21
1.0
 12
5.5
 22
8.5
 13
0.0
 23
0.0
 14
1.0
 24
1.0
 15
0.0
 25
0.0
 16
0.0
 26
0.0
 36
1.0
 17
0.0
 27
0.0
 37
0.0
 40
17.0
 41
0.6470588235
 42
50.0
 43
0.0
 44
0.0
 50
0.0
 51
0.0
 71
0
 72
100
 73
1
 74
1
 75
0
 76
0
 77
0
 78
0
  0
ENDTAB
  0
TABLE
  2
LTYPE
  5
5
100
AcDbSymbolTable
 70
6
  0
LTYPE
  5
14
100
AcDbSymbolTableRecord
100
AcDbLinetypeTableRecord
  2
BYBLOCK
 70
0
  3

 72
65
 73
0
 40
0.0
  0
LTYPE
  5
15
100
AcDbSymbolTableRecord
100
AcDbLinetypeTableRecord
  2
BYLAYER
 70
0
  3

 72
65
 73
0
 40
0.0
  0
LTYPE
  5
16
100
AcDbSymbolTableRecord
100
AcDbLinetypeTableRecord
  2
CONTINUOUS
 70
64
  3
Solid line
 72
65
 73
0
 40
0.0
  0
LTYPE
  5
1F5
100
AcDbSymbolTableRecord
100
AcDbLinetypeTableRecord
  2
CENTER
 70
64
  3
____ _ ____ _ ____ _ ____ _ ____ _ ____ _ ____
 72
65
 73
4
 40
0.6
 49
0.375
 74
0
 49
-0.075
 74
0
 49
0.075
 74
0
 49
-0.075
 74
0
  0
LTYPE
  5
1F6
100
AcDbSymbolTableRecord
100
AcDbLinetypeTableRecord
  2
HIDDEN
 70
64
  3
- - - - - - - - - - - - - - - - - - - -
 72
65
 73
2
 40
0.2
 49
0.1
 74
0
 49
-0.1
 74
0
  0
LTYPE
  5
1F7
100
AcDbSymbolTableRecord
100
AcDbLinetypeTableRecord
  2
PHANTOM
 70
64
  3
_____ _ _ _____ _ _ _____ _ _ _____
 72
65
 73
6
 40
0.8
 49
0.45
 74
0
 49
-0.05
 74
0
 49
0.1
 74
0
 49
-0.05
 74
0
 49
0.1
 74
0
 49
-0.05
 74
0
  0
LTYPE
  5
1F8
100
AcDbSymbolTableRecord
100
AcDbLinetypeTableRecord
  2
DOT
 70
64
  3
. . . . . . . . . . . . . . . . . . . .
 72
65
 73
2
 40
0.2
 49
0.1
 74
0
 49
-0.1
 74
0
  0
LTYPE
  5
1F9
100
AcDbSymbolTableRecord
100
AcDbLinetypeTableRecord
  2
DASHED
 70
64
  3
- - - - - - - - - - - - - - - - - - - -
 72
65
 73
2
 40
0.2
 49
0.1
 74
0
 49
-0.1
 74
0
  0
ENDTAB
  0
TABLE
  2
LAYER
  5
2
100
AcDbSymbolTable
 70
36
  0
LAYER
  5
10
100
AcDbSymbolTableRecord
100
AcDbLayerTableRecord
  2
0
 70
0
 62
7
  6
CONTINUOUS
370
-3
390
F
  0
LAYER
  5
1FA
100
AcDbSymbolTableRecord
100
AcDbLayerTableRecord
  2
DEFAULT_1
 70
0
 62
7
  6
CENTER
370
-3
390
F
  0
LAYER
  5
1FB
100
AcDbSymbolTableRecord
100
AcDbLayerTableRecord
  2
DEFAULT_2
 70
0
 62
8
  6
HIDDEN
370
-3
390
F
  0
LAYER
  5
1FC
100
AcDbSymbolTableRecord
100
AcDbLayerTableRecord
  2
DEFAULT_3
 70
0
 62
7
  6
PHANTOM
370
-3
390
F
  0
LAYER
  5
1FD
100
AcDbSymbolTableRecord
100
AcDbLayerTableRecord
  2
DEFAULT_COORDINATE_SYSTEM
 70
0
 62
7
  6
CONTINUOUS
370
-3
390
F
  0
LAYER
  5
1FE
100
AcDbSymbolTableRecord
100
AcDbLayerTableRecord
  2
DEFAULT_DATUM_AXES
 70
0
 62
7
  6
CONTINUOUS
370
-3
390
F
  0
LAYER
  5
1FF
100
AcDbSymbolTableRecord
100
AcDbLayerTableRecord
  2
DEFAULT_DATUM_CURVES
 70
0
 62
7
  6
CONTINUOUS
370
-3
390
F
  0
LAYER
  5
200
100
AcDbSymbolTableRecord
100
AcDbLayerTableRecord
  2
DEFAULT_DATUM_PLANES
 70
0
 62
7
  6
CONTINUOUS
370
-3
390
F
  0
ENDTAB
  0
TABLE
  2
STYLE
  5
3
100
AcDbSymbolTable
 70
1
  0
STYLE
  5
11
100
AcDbSymbolTableRecord
100
AcDbTextStyleTableRecord
  2
STANDARD
 70
0
 40
0.0
 41
0.8
 50
0.0
 71
0
 42
0.2
  3
txt
  4

  0
STYLE
  5
201
100
AcDbSymbolTableRecord
100
AcDbTextStyleTableRecord
  2
TEXTSTYLE_1
 70
0
 40
0.0
 41
0.8
 50
0.0
 71
0
 42
0.2
  3
gdt
  4

  0
ENDTAB
  0
TABLE
  2
VIEW
  5
6
100
AcDbSymbolTable
 70
0
  0
ENDTAB
  0
TABLE
  2
UCS
  5
7
100
AcDbSymbolTable
 70
0
  0
ENDTAB
  0
TABLE
  2
APPID
  5
9
100
AcDbSymbolTable
 70
1
  0
APPID
  5
202
100
AcDbSymbolTableRecord
100
AcDbRegAppTableRecord
  2
ACAD
 70
0
  0
ENDTAB
  0
TABLE
  2
BLOCK_RECORD
  5
1
100
AcDbSymbolTable
 70
0
  0
BLOCK_RECORD
  5
203
100
AcDbSymbolTableRecord
100
AcDbBlockTableRecord
  2
*Model_Space
  0
BLOCK_RECORD
  5
204
100
AcDbSymbolTableRecord
100
AcDbBlockTableRecord
  2
*Paper_Space
  0
ENDTAB
  0
TABLE
  2
DIMSTYLE
  5
A
100
AcDbSymbolTable
 70
1
100
AcDbDimStyleTable
 71
0
  0
DIMSTYLE
105
205
100
AcDbSymbolTableRecord
100
AcDbDimStyleTableRecord
  2
STANDARD
 70
0
  3

  4

 40
1.0
 41
0.1
 42
0.0625
 43
0.38
 44
0.18
 45
0.0
 46
0.0
 47
0.01
 48
0.01
140
0.08
141
0.09
142
0.0
143
25.4
144
1.0
145
0.0
146
1.0
147
0.09
 71
1.0
 72
0.0
 73
1
 74
1
 75
0
 76
0
 77
0
 78
4
170
0
171
2
172
0
173
0
174
0
175
0
176
0
177
0
178
0
270
2
271
2
272
2
273
2
274
2
275
0
280
0
281
0
282
0
283
1
284
4
285
0
286
0
287
3
288
0
340
11
  0
ENDTAB
  0
ENDSEC
  0
SECTION
  2
BLOCKS
  0
BLOCK
  5
20
100
AcDbEntity
  8
0
100
AcDbBlockBegin
  2
*Model_Space
 70
0
 10
0.0
 20
0.0
 30
0.0
  3
*Model_Space
  1

  0
ENDBLK
  5
21
100
AcDbEntity
  8
0
100
AcDbBlockEnd
  0
BLOCK
  5
1C
100
AcDbEntity
  8
0
100
AcDbBlockBegin
  2
*Paper_Space
 70
0
 10
0.0
 20
0.0
 30
0.0
  3
*Paper_Space
  1

  0
ENDBLK
  5
1D
100
AcDbEntity
  8
0
100
AcDbBlockEnd
  0
ENDSEC
  0
SECTION
  2
ENTITIES
  0
LINE
  5
206
100
AcDbEntity
  8
0
100
AcDbLine
 62
6
  6
CONTINUOUS
 10
5.1730127977
 20
2.7149018555
 11
5.9468371795
 21
2.7149018555
  0
LINE
  5
207
100
AcDbEntity
  8
0
100
AcDbLine
 62
6
  6
CONTINUOUS
 10
5.1730041504
 20
3.3399018555
 11
5.2699215588
 21
3.3399018555
  0
LINE
  5
208
100
AcDbEntity
  8
0
100
AcDbLine
 62
6
  6
CONTINUOUS
 10
5.1734805408
 20
2.7822137611
 11
5.2121903791
 21
2.7598356311
  0
LINE
  5
209
100
AcDbEntity
  8
0
100
AcDbLine
 62
6
  6
CONTINUOUS
 10
5.1734805425
 20
2.8536436954
 11
5.2121903815
 21
2.8312655648
  0
LINE
  5
20A
100
AcDbEntity
  8
0
100
AcDbLine
 62
6
  6
CONTINUOUS
 10
5.1734805433
 20
2.9250737455
 11
5.2121903849
 21
2.9026956133
  0
LINE
  5
20B
100
AcDbEntity
  8
0
100
AcDbLine
 62
6
  6
CONTINUOUS
 10
5.1868914937
 20
3.3318839941
 11
5.1730041504
 21
3.3399018555
  0
LINE
  5
20C
100
AcDbEntity
  8
0
100
AcDbLine
 62
6
  6
CONTINUOUS
 10
5.1734805423
 20
3.2822238001
 11
5.2121903841
 21
3.2598456678
  0
LINE
  5
20D
100
AcDbEntity
  8
0
100
AcDbLine
 62
6
  6
CONTINUOUS
 10
5.1734805426
 20
2.996503799
 11
5.2121903847
 21
2.9741256664
  0
LINE
  5
20E
100
AcDbEntity
  8
0
100
AcDbLine
 62
6
  6
CONTINUOUS
 10
5.1734805407
 20
3.0679337412
 11
5.2121903781
 21
3.0455556117
  0
LINE
  5
20F
100
AcDbEntity
  8
0
100
AcDbLine
 62
6
  6
CONTINUOUS
 10
5.1734805427
 20
3.1393636982
 11
5.2121903821
 21
3.1169855674
  0
LINE
  5
210
100
AcDbEntity
  8
0
100
AcDbLine
 62
6
  6
CONTINUOUS
 10
5.1734805433
 20
3.2107937562
 11
5.2121903852
 21
3.1884156237
  0
LINE
  5
211
100
AcDbEntity
  8
0
100
AcDbLine
 62
6
  6
CONTINUOUS
 10
5.9850277625
 20
2.7565291996
 11
5.9463179299
 21
2.7789073264
  0
LINE
  5
212
100
AcDbEntity
  8
0
100
AcDbLine
 62
6
  6
CONTINUOUS
 10
5.985027761
 20
2.8279592056
 11
5.9463179258
 21
2.8503373341
  0
LINE
  5
213
100
AcDbEntity
  8
0
100
AcDbLine
 62
6
  6
CONTINUOUS
 10
5.985027761
 20
2.8993892693
 11
5.9463179239
 21
2.921767399
  0
LINE
  5
214
100
AcDbEntity
  8
0
100
AcDbLine
 62
6
  6
CONTINUOUS
 10
5.9850277624
 20
2.9708192801
 11
5.9463179272
 21
2.9931974085
  0
LINE
  5
215
100
AcDbEntity
  8
0
100
AcDbLine
 62
6
  6
CONTINUOUS
 10
5.9850277622
 20
3.0422491925
 11
5.9463179293
 21
3.0646273195
  0
LINE
  5
216
100
AcDbEntity
  8
0
100
AcDbLine
 62
6
  6
CONTINUOUS
 10
5.9850277609
 20
3.1136792142
 11
5.9463179253
 21
3.1360573429
  0
LINE
  5
217
100
AcDbEntity
  8
0
100
AcDbLine
 62
6
  6
CONTINUOUS
 10
5.9850277611
 20
3.185109277
 11
5.9463179239
 21
3.2074874068
  0
LINE
  5
218
100
AcDbEntity
  8
0
100
AcDbLine
 62
6
  6
CONTINUOUS
 10
5.9850277627
 20
3.2565392703
 11
5.9463179284
 21
3.2789173982
  0
LINE
  5
219
100
AcDbEntity
  8
0
100
AcDbLine
 62
6
  6
CONTINUOUS
 10
5.1734805426
 20
2.996503799
 11
5.173004189
 21
2.9970494498
  0
LINE
  5
21A
100
AcDbEntity
  8
0
100
AcDbLine
 62
6
  6
CONTINUOUS
 10
5.1734805427
 20
3.1393636982
 11
5.1730041897
 21
3.139909305
  0
LINE
  5
21B
100
AcDbEntity
  8
0
100
AcDbLine
 62
6
  6
CONTINUOUS
 10
5.1734805433
 20
2.9250737455
 11
5.1730041738
 21
2.9256204977
  0
LINE
  5
21C
100
AcDbEntity
  8
0
100
AcDbLine
 62
6
  6
CONTINUOUS
 10
5.1734805407
 20
3.0679337412
 11
5.17300417
 21
3.0684808168
  0
LINE
  5
21D
100
AcDbEntity
  8
0
100
AcDbLine
 62
6
  6
CONTINUOUS
 10
5.1734805425
 20
2.8536436954
 11
5.1730041533
 21
2.854192954
  0
LINE
  5
21E
100
AcDbEntity
  8
0
100
AcDbLine
 62
6
  6
CONTINUOUS
 10
5.1734805408
 20
2.7822137611
 11
5.1730041514
 21
2.7827635651
  0
LINE
  5
21F
100
AcDbEntity
  8
0
100
AcDbLine
 62
6
  6
CONTINUOUS
 10
5.2121903791
 20
2.7598356311
 11
5.2116641512
 21
2.760444007
  0
LINE
  5
220
100
AcDbEntity
  8
0
100
AcDbLine
 62
6
  6
CONTINUOUS
 10
5.2121903815
 20
2.8312655648
 11
5.2116641517
 21
2.8318739429
  0
LINE
  5
221
100
AcDbEntity
  8
0
100
AcDbLine
 62
6
  6
CONTINUOUS
 10
5.2121903849
 20
2.9026956133
 11
5.2116641543
 21
2.9033039923
  0
LINE
  5
222
100
AcDbEntity
  8
0
100
AcDbLine
 62
6
  6
CONTINUOUS
 10
5.2121903847
 20
2.9741256664
 11
5.2116641548
 21
2.9747340446
  0
LINE
  5
223
100
AcDbEntity
  8
0
100
AcDbLine
 62
6
  6
CONTINUOUS
 10
5.2121903781
 20
3.0455556117
 11
5.2116641504
 21
3.0461639873
  0
LINE
  5
224
100
AcDbEntity
  8
0
100
AcDbLine
 62
6
  6
CONTINUOUS
 10
5.1734805433
 20
3.2107937562
 11
5.1730041668
 21
3.2113411362
  0
LINE
  5
225
100
AcDbEntity
  8
0
100
AcDbLine
 62
6
  6
CONTINUOUS
 10
5.985027761
 20
2.8279592056
 11
5.9855041374
 21
2.8274114758
  0
LINE
  5
226
100
AcDbEntity
  8
0
100
AcDbLine
 62
6
  6
CONTINUOUS
 10
5.1868914937
 20
3.3318839941
 11
5.1863985397
 21
3.3324526157
  0
LINE
  5
227
100
AcDbEntity
  8
0
100
AcDbLine
 62
6
  6
CONTINUOUS
 10
5.1734805423
 20
3.2822238001
 11
5.1730041506
 21
3.2827740278
  0
LINE
  5
228
100
AcDbEntity
  8
0
100
AcDbLine
 62
6
  6
CONTINUOUS
 10
5.2121903821
 20
3.1169855674
 11
5.2116641521
 21
3.1175939457
  0
LINE
  5
229
100
AcDbEntity
  8
0
100
AcDbLine
 62
6
  6
CONTINUOUS
 10
5.2121903852
 20
3.1884156237
 11
5.2116641546
 21
3.1890240027
  0
LINE
  5
22A
100
AcDbEntity
  8
0
100
AcDbLine
 62
6
  6
CONTINUOUS
 10
5.2121903841
 20
3.2598456678
 11
5.2116641545
 21
3.2604540457
  0
LINE
  5
22B
100
AcDbEntity
  8
0
100
AcDbLine
 62
6
  6
CONTINUOUS
 10
5.9468441501
 20
2.7782989545
 11
5.9463179299
 21
2.7789073264
  0
LINE
  5
22C
100
AcDbEntity
  8
0
100
AcDbLine
 62
6
  6
CONTINUOUS
 10
5.9855041504
 20
2.7559785962
 11
5.9850277625
 21
2.7565291996
  0
LINE
  5
22D
100
AcDbEntity
  8
0
100
AcDbLine
 62
6
  6
CONTINUOUS
 10
5.9468441477
 20
2.8497289602
 11
5.9463179258
 21
2.8503373341
  0
LINE
  5
22E
100
AcDbEntity
  8
0
100
AcDbLine
 62
6
  6
CONTINUOUS
 10
5.9850277624
 20
2.9708192801
 11
5.9855041122
 21
2.9702736006
  0
LINE
  5
22F
100
AcDbEntity
  8
0
100
AcDbLine
 62
6
  6
CONTINUOUS
 10
5.9850277622
 20
3.0422491925
 11
5.9855041115
 21
3.0417035601
  0
LINE
  5
230
100
AcDbEntity
  8
0
100
AcDbLine
 62
6
  6
CONTINUOUS
 10
5.985027761
 20
2.8993892693
 11
5.9855041134
 21
2.8988435112
  0
LINE
  5
231
100
AcDbEntity
  8
0
100
AcDbLine
 62
6
  6
CONTINUOUS
 10
5.9850277609
 20
3.1136792142
 11
5.9855041263
 21
3.1131325232
  0
LINE
  5
232
100
AcDbEntity
  8
0
100
AcDbLine
 62
6
  6
CONTINUOUS
 10
5.9850277611
 20
3.185109277
 11
5.9855041466
 21
3.1845602268
  0
LINE
  5
233
100
AcDbEntity
  8
0
100
AcDbLine
 62
6
  6
CONTINUOUS
 10
5.9468441458
 20
2.9211590251
 11
5.9463179239
 21
2.921767399
  0
LINE
  5
234
100
AcDbEntity
  8
0
100
AcDbLine
 62
6
  6
CONTINUOUS
 10
5.9468441475
 20
2.9925890365
 11
5.9463179272
 21
2.9931974085
  0
LINE
  5
235
100
AcDbEntity
  8
0
100
AcDbLine
 62
6
  6
CONTINUOUS
 10
5.9468441498
 20
3.0640189471
 11
5.9463179293
 21
3.0646273195
  0
LINE
  5
236
100
AcDbEntity
  8
0
100
AcDbLine
 62
6
  6
CONTINUOUS
 10
5.9468441473
 20
3.1354489689
 11
5.9463179253
 21
3.1360573429
  0
LINE
  5
237
100
AcDbEntity
  8
0
100
AcDbLine
 62
6
  6
CONTINUOUS
 10
5.9468441457
 20
3.206879033
 11
5.9463179239
 21
3.2074874068
  0
LINE
  5
238
100
AcDbEntity
  8
0
100
AcDbLine
 62
6
  6
CONTINUOUS
 10
5.9468441483
 20
3.2783090266
 11
5.9463179284
 21
3.2789173982
  0
LINE
  5
239
100
AcDbEntity
  8
0
100
AcDbLine
 62
6
  6
CONTINUOUS
 10
5.9850277627
 20
3.2565392703
 11
5.9855041488
 21
3.2559876715
  0
LINE
  5
23A
100
AcDbEntity
  8
0
100
AcDbLine
 62
6
  6
CONTINUOUS
 10
5.1730041504
 20
2.7149018555
 11
5.1730041504
 21
2.720263645
  0
LINE
  5
23B
100
AcDbEntity
  8
0
100
AcDbLine
 62
6
  6
CONTINUOUS
 10
5.1730041504
 20
2.7827643688
 11
5.1730041504
 21
2.7916935807
  0
LINE
  5
23C
100
AcDbEntity
  8
0
100
AcDbLine
 62
6
  6
CONTINUOUS
 10
5.1730041504
 20
2.8541943052
 11
5.1730041504
 21
2.8631236284
  0
LINE
  5
23D
100
AcDbEntity
  8
0
100
AcDbLine
 62
6
  6
CONTINUOUS
 10
5.1730041504
 20
2.9256243562
 11
5.1730041504
 21
2.9345536803
  0
LINE
  5
23E
100
AcDbEntity
  8
0
100
AcDbLine
 62
6
  6
CONTINUOUS
 10
5.1730041504
 20
2.9970544088
 11
5.1730041504
 21
3.005983626
  0
LINE
  5
23F
100
AcDbEntity
  8
0
100
AcDbLine
 62
6
  6
CONTINUOUS
 10
5.1730041504
 20
3.0684843488
 11
5.1730041504
 21
3.0774135832
  0
LINE
  5
240
100
AcDbEntity
  8
0
100
AcDbLine
 62
6
  6
CONTINUOUS
 10
5.1730041504
 20
3.1399143082
 11
5.1730041504
 21
3.1488436387
  0
LINE
  5
241
100
AcDbEntity
  8
0
100
AcDbLine
 62
6
  6
CONTINUOUS
 10
5.1730041504
 20
3.2113443668
 11
5.1730041504
 21
3.2202736816
  0
LINE
  5
242
100
AcDbEntity
  8
0
100
AcDbLine
 62
6
  6
CONTINUOUS
 10
5.1730041504
 20
3.2827744097
 11
5.1730041504
 21
3.3060061327
  0
LINE
  5
243
100
AcDbEntity
  8
0
100
AcDbLine
 62
6
  6
CONTINUOUS
 10
5.1730041504
 20
3.3399018555
 11
5.1730041504
 21
14.3089018555
  0
LINE
  5
244
100
AcDbEntity
  8
0
100
AcDbLine
 62
6
  6
CONTINUOUS
 10
5.1863985397
 20
3.3324526157
 11
5.1863985397
 21
3.3145926157
  0
LINE
  5
245
100
AcDbEntity
  8
0
100
AcDbLine
 62
6
  6
CONTINUOUS
 10
5.2116641545
 20
3.2604540457
 11
5.2116641545
 21
3.2425940457
  0
LINE
  5
246
100
AcDbEntity
  8
0
100
AcDbLine
 62
6
  6
CONTINUOUS
 10
5.2116641546
 20
3.1890240027
 11
5.2116641546
 21
3.1711640027
  0
LINE
  5
247
100
AcDbEntity
  8
0
100
AcDbLine
 62
6
  6
CONTINUOUS
 10
5.2116641521
 20
3.1175939457
 11
5.2116641521
 21
3.0997339457
  0
LINE
  5
248
100
AcDbEntity
  8
0
100
AcDbLine
 62
6
  6
CONTINUOUS
 10
5.2116641504
 20
3.0461639873
 11
5.2116641504
 21
3.0283039873
  0
LINE
  5
249
100
AcDbEntity
  8
0
100
AcDbLine
 62
6
  6
CONTINUOUS
 10
5.2116641548
 20
2.9747340446
 11
5.2116641548
 21
2.9568740446
  0
LINE
  5
24A
100
AcDbEntity
  8
0
100
AcDbLine
 62
6
  6
CONTINUOUS
 10
5.2116641543
 20
2.9033039923
 11
5.2116641543
 21
2.8854439923
  0
LINE
  5
24B
100
AcDbEntity
  8
0
100
AcDbLine
 62
6
  6
CONTINUOUS
 10
5.2116641517
 20
2.8318739429
 11
5.2116641517
 21
2.8140139429
  0
LINE
  5
24C
100
AcDbEntity
  8
0
100
AcDbLine
 62
6
  6
CONTINUOUS
 10
5.2116641512
 20
2.760444007
 11
5.2116641512
 21
2.742584007
  0
LINE
  5
24D
100
AcDbEntity
  8
0
100
AcDbLine
 62
6
  6
CONTINUOUS
 10
5.2699215588
 20
3.3399018555
 11
5.2699215588
 21
3.3220418556
  0
LINE
  5
24E
100
AcDbEntity
  8
0
100
AcDbLine
 62
6
  6
CONTINUOUS
 10
5.9468441469
 20
2.7149018555
 11
5.9468441469
 21
2.7247290426
  0
LINE
  5
24F
100
AcDbEntity
  8
0
100
AcDbLine
 62
6
  6
CONTINUOUS
 10
5.9468441501
 20
2.7782989545
 11
5.9468441501
 21
2.7961589545
  0
LINE
  5
250
100
AcDbEntity
  8
0
100
AcDbLine
 62
6
  6
CONTINUOUS
 10
5.9468441477
 20
2.8497289602
 11
5.9468441477
 21
2.8675889602
  0
LINE
  5
251
100
AcDbEntity
  8
0
100
AcDbLine
 62
6
  6
CONTINUOUS
 10
5.9468441458
 20
2.9211590251
 11
5.9468441458
 21
2.9390190251
  0
LINE
  5
252
100
AcDbEntity
  8
0
100
AcDbLine
 62
6
  6
CONTINUOUS
 10
5.9468441475
 20
2.9925890365
 11
5.9468441475
 21
3.0104490365
  0
LINE
  5
253
100
AcDbEntity
  8
0
100
AcDbLine
 62
6
  6
CONTINUOUS
 10
5.9468441498
 20
3.0640189471
 11
5.9468441498
 21
3.0818789471
  0
LINE
  5
254
100
AcDbEntity
  8
0
100
AcDbLine
 62
6
  6
CONTINUOUS
 10
5.9468441473
 20
3.1354489689
 11
5.9468441473
 21
3.1533089689
  0
LINE
  5
255
100
AcDbEntity
  8
0
100
AcDbLine
 62
6
  6
CONTINUOUS
 10
5.9468441457
 20
3.206879033
 11
5.9468441457
 21
3.224739033
  0
LINE
  5
256
100
AcDbEntity
  8
0
100
AcDbLine
 62
6
  6
CONTINUOUS
 10
5.9468441483
 20
3.2783090266
 11
5.9468441483
 21
3.2961690266
  0
LINE
  5
257
100
AcDbEntity
  8
0
100
AcDbLine
 62
6
  6
CONTINUOUS
 10
5.9855041504
 20
2.7470494062
 11
5.9855041504
 21
2.7559785929
  0
LINE
  5
258
100
AcDbEntity
  8
0
100
AcDbLine
 62
6
  6
CONTINUOUS
 10
5.9855041504
 20
2.8184793161
 11
5.9855041504
 21
2.8274085971
  0
LINE
  5
259
100
AcDbEntity
  8
0
100
AcDbLine
 62
6
  6
CONTINUOUS
 10
5.9855041504
 20
2.8899093233
 11
5.9855041504
 21
2.8988386608
  0
LINE
  5
25A
100
AcDbEntity
  8
0
100
AcDbLine
 62
6
  6
CONTINUOUS
 10
5.9855041504
 20
2.9613393895
 11
5.9855041504
 21
2.9702686732
  0
LINE
  5
25B
100
AcDbEntity
  8
0
100
AcDbLine
 62
6
  6
CONTINUOUS
 10
5.9855041504
 20
3.0327693997
 11
5.9855041504
 21
3.0416985854
  0
LINE
  5
25C
100
AcDbEntity
  8
0
100
AcDbLine
 62
6
  6
CONTINUOUS
 10
5.9855041504
 20
3.1041993089
 11
5.9855041504
 21
3.1131286056
  0
LINE
  5
25D
100
AcDbEntity
  8
0
100
AcDbLine
 62
6
  6
CONTINUOUS
 10
5.9855041504
 20
3.1756293323
 11
5.9855041504
 21
3.1845586686
  0
LINE
  5
25E
100
AcDbEntity
  8
0
100
AcDbLine
 62
6
  6
CONTINUOUS
 10
5.9855041504
 20
3.2470593974
 11
5.9855041504
 21
3.2559886638
  0
LINE
  5
25F
100
AcDbEntity
  8
0
100
AcDbLine
 62
6
  6
CONTINUOUS
 10
5.9855041504
 20
3.3184893893
 11
5.9855041504
 21
14.3089018555
  0
LINE
  5
260
100
AcDbEntity
  8
0
100
AcDbLine
 62
6
  6
CONTINUOUS
 10
5.1863985397
 20
3.3145926157
 11
5.1868833548
 21
3.3151555913
  0
LINE
  5
261
100
AcDbEntity
  8
0
100
AcDbLine
 62
9
  6
CONTINUOUS
 10
5.1730041504
 20
11.8089018555
 11
5.9855041504
 21
11.8089018555
  0
LINE
  5
262
100
AcDbEntity
  8
0
100
AcDbLine
 62
6
  6
CONTINUOUS
 10
5.1734805394
 20
3.0779641913
 11
5.1730041897
 21
3.07740858
  0
LINE
  5
263
100
AcDbEntity
  8
0
100
AcDbLine
 62
6
  6
CONTINUOUS
 10
5.1734805393
 20
2.9351042883
 11
5.173004189
 21
2.9345487213
  0
LINE
  5
264
100
AcDbEntity
  8
0
100
AcDbLine
 62
6
  6
CONTINUOUS
 10
5.17348054
 20
2.8636742372
 11
5.1730041738
 21
2.8631197699
  0
LINE
  5
265
100
AcDbEntity
  8
0
100
AcDbLine
 62
6
  6
CONTINUOUS
 10
5.1734805374
 20
3.0065342316
 11
5.17300417
 21
3.005980094
  0
LINE
  5
266
100
AcDbEntity
  8
0
100
AcDbLine
 62
6
  6
CONTINUOUS
 10
5.17348054
 20
3.1493942474
 11
5.1730041668
 21
3.1488404081
  0
LINE
  5
267
100
AcDbEntity
  8
0
100
AcDbLine
 62
6
  6
CONTINUOUS
 10
5.1734805392
 20
2.7922441885
 11
5.1730041533
 21
2.7916922295
  0
LINE
  5
268
100
AcDbEntity
  8
0
100
AcDbLine
 62
6
  6
CONTINUOUS
 10
5.1734805375
 20
2.7208142509
 11
5.1730041514
 21
2.7202628298
  0
LINE
  5
269
100
AcDbEntity
  8
0
100
AcDbLine
 62
6
  6
CONTINUOUS
 10
5.173480539
 20
3.2208242893
 11
5.1730041506
 21
3.2202732997
  0
LINE
  5
26A
100
AcDbEntity
  8
0
100
AcDbLine
 62
6
  6
CONTINUOUS
 10
5.2116641545
 20
3.2425940457
 11
5.2121903756
 21
3.2432024186
  0
LINE
  5
26B
100
AcDbEntity
  8
0
100
AcDbLine
 62
6
  6
CONTINUOUS
 10
5.2116641546
 20
3.1711640027
 11
5.2121903767
 21
3.1717723768
  0
LINE
  5
26C
100
AcDbEntity
  8
0
100
AcDbLine
 62
6
  6
CONTINUOUS
 10
5.2116641521
 20
3.0997339457
 11
5.2121903736
 21
3.1003423191
  0
LINE
  5
26D
100
AcDbEntity
  8
0
100
AcDbLine
 62
6
  6
CONTINUOUS
 10
5.2116641504
 20
3.0283039873
 11
5.2121903696
 21
3.0289123581
  0
LINE
  5
26E
100
AcDbEntity
  8
0
100
AcDbLine
 62
6
  6
CONTINUOUS
 10
5.2116641548
 20
2.9568740446
 11
5.2121903761
 21
2.9574824178
  0
LINE
  5
26F
100
AcDbEntity
  8
0
100
AcDbLine
 62
6
  6
CONTINUOUS
 10
5.2116641543
 20
2.8854439923
 11
5.2121903764
 21
2.8860523664
  0
LINE
  5
270
100
AcDbEntity
  8
0
100
AcDbLine
 62
6
  6
CONTINUOUS
 10
5.2116641517
 20
2.8140139429
 11
5.212190373
 21
2.814622316
  0
LINE
  5
271
100
AcDbEntity
  8
0
100
AcDbLine
 62
6
  6
CONTINUOUS
 10
5.2116641512
 20
2.742584007
 11
5.2121903705
 21
2.7431923779
  0
LINE
  5
272
100
AcDbEntity
  8
0
100
AcDbLine
 62
6
  6
CONTINUOUS
 10
5.9850277589
 20
3.1036486999
 11
5.9855041115
 21
3.1042042837
  0
LINE
  5
273
100
AcDbEntity
  8
0
100
AcDbLine
 62
6
  6
CONTINUOUS
 10
5.9850277591
 20
3.032218791
 11
5.9855041122
 21
3.0327743271
  0
LINE
  5
274
100
AcDbEntity
  8
0
100
AcDbLine
 62
6
  6
CONTINUOUS
 10
5.9850277576
 20
2.960788779
 11
5.9855041134
 21
2.9613442399
  0
LINE
  5
275
100
AcDbEntity
  8
0
100
AcDbLine
 62
6
  6
CONTINUOUS
 10
5.9850277576
 20
3.1750787217
 11
5.9855041263
 21
3.1756332499
  0
LINE
  5
276
100
AcDbEntity
  8
0
100
AcDbLine
 62
6
  6
CONTINUOUS
 10
5.9850277578
 20
3.2465087871
 11
5.9855041466
 21
3.2470609556
  0
LINE
  5
277
100
AcDbEntity
  8
0
100
AcDbLine
 62
6
  6
CONTINUOUS
 10
5.9463179198
 20
3.2955606501
 11
5.9468441483
 21
3.2961690266
  0
LINE
  5
278
100
AcDbEntity
  8
0
100
AcDbLine
 62
6
  6
CONTINUOUS
 10
5.9463179154
 20
3.2241306543
 11
5.9468441457
 21
3.224739033
  0
LINE
  5
279
100
AcDbEntity
  8
0
100
AcDbLine
 62
6
  6
CONTINUOUS
 10
5.9463179168
 20
3.15270059
 11
5.9468441473
 21
3.1533089689
  0
LINE
  5
27A
100
AcDbEntity
  8
0
100
AcDbLine
 62
6
  6
CONTINUOUS
 10
5.9463179208
 20
3.0812705699
 11
5.9468441498
 21
3.0818789471
  0
LINE
  5
27B
100
AcDbEntity
  8
0
100
AcDbLine
 62
6
  6
CONTINUOUS
 10
5.9463179186
 20
3.0098406595
 11
5.9468441475
 21
3.0104490365
  0
LINE
  5
27C
100
AcDbEntity
  8
0
100
AcDbLine
 62
6
  6
CONTINUOUS
 10
5.9463179153
 20
2.9384106463
 11
5.9468441458
 21
2.9390190251
  0
LINE
  5
27D
100
AcDbEntity
  8
0
100
AcDbLine
 62
6
  6
CONTINUOUS
 10
5.9850277595
 20
3.317938781
 11
5.9855041488
 21
3.3184883969
  0
LINE
  5
27E
100
AcDbEntity
  8
0
100
AcDbLine
 62
6
  6
CONTINUOUS
 10
5.9850277577
 20
2.8893587129
 11
5.9855041374
 21
2.889912202
  0
LINE
  5
27F
100
AcDbEntity
  8
0
100
AcDbLine
 62
6
  6
CONTINUOUS
 10
5.9463179173
 20
2.8669805814
 11
5.9468441477
 21
2.8675889602
  0
LINE
  5
280
100
AcDbEntity
  8
0
100
AcDbLine
 62
6
  6
CONTINUOUS
 10
5.9463179214
 20
2.7955505777
 11
5.9468441501
 21
2.7961589545
  0
LINE
  5
281
100
AcDbEntity
  8
0
100
AcDbLine
 62
6
  6
CONTINUOUS
 10
5.9463179177
 20
2.7241206653
 11
5.9468441469
 21
2.7247290426
  0
LINE
  5
282
100
AcDbEntity
  8
0
100
AcDbLine
 62
6
  6
CONTINUOUS
 10
5.9850277592
 20
2.8179287075
 11
5.9855041504
 21
2.8184792718
  0
LINE
  5
283
100
AcDbEntity
  8
0
100
AcDbLine
 62
6
  6
CONTINUOUS
 10
5.9855041504
 20
2.7470494007
 11
5.9850277588
 21
2.7464987972
  0
LINE
  5
284
100
AcDbEntity
  8
0
100
AcDbLine
 62
6
  6
CONTINUOUS
 10
5.2121903756
 20
3.2432024186
 11
5.173480539
 21
3.2208242893
  0
LINE
  5
285
100
AcDbEntity
  8
0
100
AcDbLine
 62
6
  6
CONTINUOUS
 10
5.2121903767
 20
3.1717723768
 11
5.17348054
 21
3.1493942474
  0
LINE
  5
286
100
AcDbEntity
  8
0
100
AcDbLine
 62
6
  6
CONTINUOUS
 10
5.2121903736
 20
3.1003423191
 11
5.1734805394
 21
3.0779641913
  0
LINE
  5
287
100
AcDbEntity
  8
0
100
AcDbLine
 62
6
  6
CONTINUOUS
 10
5.2121903696
 20
3.0289123581
 11
5.1734805374
 21
3.0065342316
  0
LINE
  5
288
100
AcDbEntity
  8
0
100
AcDbLine
 62
6
  6
CONTINUOUS
 10
5.2121903761
 20
2.9574824178
 11
5.1734805393
 21
2.9351042883
  0
LINE
  5
289
100
AcDbEntity
  8
0
100
AcDbLine
 62
6
  6
CONTINUOUS
 10
5.2121903764
 20
2.8860523664
 11
5.17348054
 21
2.8636742372
  0
LINE
  5
28A
100
AcDbEntity
  8
0
100
AcDbLine
 62
6
  6
CONTINUOUS
 10
5.9463179198
 20
3.2955606501
 11
5.9850277595
 21
3.317938781
  0
LINE
  5
28B
100
AcDbEntity
  8
0
100
AcDbLine
 62
6
  6
CONTINUOUS
 10
5.212190373
 20
2.814622316
 11
5.1734805392
 21
2.7922441885
  0
LINE
  5
28C
100
AcDbEntity
  8
0
100
AcDbLine
 62
6
  6
CONTINUOUS
 10
5.9463179154
 20
3.2241306543
 11
5.9850277578
 21
3.2465087871
  0
LINE
  5
28D
100
AcDbEntity
  8
0
100
AcDbLine
 62
6
  6
CONTINUOUS
 10
5.2121903705
 20
2.7431923779
 11
5.1734805375
 21
2.7208142509
  0
LINE
  5
28E
100
AcDbEntity
  8
0
100
AcDbLine
 62
6
  6
CONTINUOUS
 10
5.9463179168
 20
3.15270059
 11
5.9850277576
 21
3.1750787217
  0
LINE
  5
28F
100
AcDbEntity
  8
0
100
AcDbLine
 62
6
  6
CONTINUOUS
 10
5.9463179208
 20
3.0812705699
 11
5.9850277589
 21
3.1036486999
  0
LINE
  5
290
100
AcDbEntity
  8
0
100
AcDbLine
 62
6
  6
CONTINUOUS
 10
5.9463179186
 20
3.0098406595
 11
5.9850277591
 21
3.032218791
  0
LINE
  5
291
100
AcDbEntity
  8
0
100
AcDbLine
 62
6
  6
CONTINUOUS
 10
5.9463179153
 20
2.9384106463
 11
5.9850277576
 21
2.960788779
  0
LINE
  5
292
100
AcDbEntity
  8
0
100
AcDbLine
 62
6
  6
CONTINUOUS
 10
5.9463179173
 20
2.8669805814
 11
5.9850277577
 21
2.8893587129
  0
LINE
  5
293
100
AcDbEntity
  8
0
100
AcDbLine
 62
6
  6
CONTINUOUS
 10
5.9463179214
 20
2.7955505777
 11
5.9850277592
 21
2.8179287075
  0
LINE
  5
294
100
AcDbEntity
  8
0
100
AcDbLine
 62
6
  6
CONTINUOUS
 10
5.9463179177
 20
2.7241206653
 11
5.9850277588
 21
2.7464987972
  0
ARC
  5
295
100
AcDbEntity
  8
0
100
AcDbCircle
 62
6
  6
CONTINUOUS
 10
5.8849001171
 20
3.6997933319
 40
0.9508341695
100
AcDbArc
 50
273.7509079817
 51
274.56767749
  0
ARC
  5
296
100
AcDbEntity
  8
0
100
AcDbCircle
 62
9
  6
CONTINUOUS
 10
5.5792541504
 20
14.3089018555
 40
0.40625
100
AcDbArc
 50
0.0
 51
180.0
  0
ARC
  5
297
100
AcDbEntity
  8
0
100
AcDbCircle
 62
6
  6
CONTINUOUS
 10
5.2210916749
 20
3.1530614287
 40
0.1625457785
100
AcDbArc
 50
101.3989118999
 51
101.8628241398
  0
LINE
  5
298
100
AcDbEntity
  8
0
100
AcDbLine
 62
6
  6
CONTINUOUS
 10
5.1749012356
 20
3.3082033981
 11
5.173531657
 21
3.3071649368
  0
SPLINE
  5
299
100
AcDbEntity
  8
0
100
AcDbSpline
 62
6
  6
CONTINUOUS
 70
0
 71
3
 72
9
 73
5
 74
3
 42
0.0000001
 43
0.0000001
 44
0.0000000001
 12
-0.0008729261
 22
-0.000958545
 32
0.0
 13
0.0000025997
 23
-0.0012964574
 33
0.0
 40
0.0
 40
0.0
 40
0.0
 40
0.0
 40
0.5414601884
 40
1.0
 40
1.0
 40
1.0
 40
1.0
 10
5.173531657
 20
3.3071649368
 30
0.0
 10
5.1733741054
 20
3.3069919321
 30
0.0
 10
5.1731127974
 20
3.3066381508
 30
0.0
 10
5.1730046107
 20
3.3062033625
 30
0.0
 10
5.1730050081
 20
3.3060052033
 30
0.0
 11
5.173531657
 21
3.3071649368
 31
0.0
 11
5.1731360216
 21
3.3065850655
 31
0.0
 11
5.1730050081
 21
3.3060052033
 31
0.0
  0
SPLINE
  5
29A
100
AcDbEntity
  8
0
100
AcDbSpline
 62
6
  6
CONTINUOUS
 70
0
 71
3
 72
9
 73
5
 74
3
 42
0.0000001
 43
0.0000001
 44
0.0000000001
 12
-0.0442334613
 22
-0.0021073087
 32
0.0
 13
-0.0441736803
 23
-0.0031186242
 33
0.0
 40
0.0
 40
0.0
 40
0.0
 40
0.0
 40
0.5478385024
 40
1.0
 40
1.0
 40
1.0
 40
1.0
 10
5.2504755104
 20
2.7274011327
 30
0.0
 10
5.2423979127
 20
2.727016311
 30
0.0
 10
5.2276556666
 20
2.7262660697
 30
0.0
 10
5.2129213526
 20
2.7253658452
 30
0.0
 10
5.2062634734
 20
2.7248958046
 30
0.0
 11
5.2504755104
 21
2.7274011327
 31
0.0
 11
5.2262475533
 21
2.7261492748
 31
0.0
 11
5.2062634734
 21
2.7248958046
 31
0.0
  0
SPLINE
  5
29B
100
AcDbEntity
  8
0
100
AcDbSpline
 62
6
  6
CONTINUOUS
 70
0
 71
3
 72
10
 73
6
 74
4
 42
0.0000001
 43
0.0000001
 44
0.0000000001
 12
-0.0263546748
 22
-0.0018606176
 32
0.0
 13
-0.02612088
 23
-0.0039661578
 33
0.0
 40
0.0
 40
0.0
 40
0.0
 40
0.0
 40
0.5901533461
 40
0.8179184621
 40
1.0
 40
1.0
 40
1.0
 40
1.0
 10
5.2062634734
 20
2.7248958046
 30
0.0
 10
5.2010790402
 20
2.724529788
 30
0.0
 10
5.1938959531
 20
2.723975898
 30
0.0
 10
5.1851354781
 20
2.7230711378
 30
0.0
 10
5.1815544657
 20
2.7226125065
 30
0.0
 10
5.179969089
 20
2.7223717851
 30
0.0
 11
5.2062634734
 21
2.7248958046
 31
0.0
 11
5.1907226352
 21
2.7236335901
 31
0.0
 11
5.1847381834
 21
2.7230026834
 31
0.0
 11
5.179969089
 21
2.7223717851
 31
0.0
  0
SPLINE
  5
29C
100
AcDbEntity
  8
0
100
AcDbSpline
 62
6
  6
CONTINUOUS
 70
0
 71
3
 72
11
 73
7
 74
5
 42
0.0000001
 43
0.0000001
 44
0.0000000001
 12
-0.0066147125
 22
-0.0010043687
 32
0.0
 13
-0.0057947668
 23
-0.0033442272
 33
0.0
 40
0.0
 40
0.0
 40
0.0
 40
0.0
 40
0.352945358
 40
0.6366749959
 40
0.8517907762
 40
1.0
 40
1.0
 40
1.0
 40
1.0
 10
5.179969089
 20
2.7223717851
 30
0.0
 10
5.1791908783
 20
2.7222536227
 30
0.0
 10
5.1777897578
 20
2.7220237055
 30
0.0
 10
5.1759264827
 20
2.7216451986
 30
0.0
 10
5.1745338841
 20
2.7212707829
 30
0.0
 10
5.173770858
 20
2.7209794675
 30
0.0
 10
5.1734845787
 20
2.7208142524
 30
0.0
 11
5.179969089
 21
2.7223717851
 31
0.0
 11
5.1776400194
 21
2.7219824228
 31
0.0
 11
5.1757820828
 21
2.7215930391
 31
0.0
 11
5.1743965217
 21
2.7212036453
 31
0.0
 11
5.1734845787
 21
2.7208142524
 31
0.0
  0
SPLINE
  5
29D
100
AcDbEntity
  8
0
100
AcDbSpline
 62
6
  6
CONTINUOUS
 70
0
 71
3
 72
32
 73
28
 74
26
 42
0.0000001
 43
0.0000001
 44
0.0000000001
 12
-0.0004960917
 22
0.4071071907
 32
0.0
 13
0.4069481846
 23
0.0113879692
 33
0.0
 40
0.0
 40
0.0
 40
0.0
 40
0.0
 40
0.0007477582
 40
0.0012553287
 40
0.0018817431
 40
0.0035295975
 40
0.0057370263
 40
0.0085208241
 40
0.0118883782
 40
0.0158411716
 40
0.0203784894
 40
0.0311991122
 40
0.044331444
 40
0.0597521089
 40
0.0774350393
 40
0.0973388223
 40
0.1194090337
 40
0.1698275061
 40
0.2282330323
 40
0.2940553786
 40
0.366667784
 40
0.4453826719
 40
0.529414311
 40
0.6179629372
 40
0.7102001362
 40
0.8052831258
 40
1.0
 40
1.0
 40
1.0
 40
1.0
 10
5.1730072175
 20
3.2827740276
 30
0.0
 10
5.1730070938
 20
3.2828755001
 30
0.0
 10
5.1730983839
 20
3.2830409665
 30
0.0
 10
5.1732906098
 20
3.2832062653
 30
0.0
 10
5.1736105833
 20
3.2834105192
 30
0.0
 10
5.1741721448
 20
3.2836496303
 30
0.0
 10
5.1750315114
 20
3.2839218469
 30
0.0
 10
5.1761330518
 20
3.2841950866
 30
0.0
 10
5.1774765343
 20
3.2844702139
 30
0.0
 10
5.1790619904
 20
3.284746249
 30
0.0
 10
5.1816531077
 20
3.2851386563
 30
0.0
 10
5.1854901821
 20
3.2856169775
 30
0.0
 10
5.1908051294
 20
3.2861666557
 30
0.0
 10
5.1970553545
 20
3.2867183279
 30
0.0
 10
5.2042273938
 20
3.2872714228
 30
0.0
 10
5.2123040832
 20
3.2878254851
 30
0.0
 10
5.2248180883
 20
3.288600135
 30
0.0
 10
5.2425555223
 20
3.2895517458
 30
0.0
 10
5.2662299735
 20
3.2906531886
 30
0.0
 10
5.2929189434
 20
3.2917575762
 30
0.0
 10
5.3223659569
 20
3.2928641633
 30
0.0
 10
5.3542855722
 20
3.2939718267
 30
0.0
 10
5.3883689368
 20
3.2950807511
 30
0.0
 10
5.4242882136
 20
3.2961900939
 30
0.0
 10
5.4617078424
 20
3.2973002641
 30
0.0
 10
5.5135297366
 20
3.2987929663
 30
0.0
 10
5.5528409242
 20
3.2998927612
 30
0.0
 10
5.5792541504
 20
3.3006319045
 30
0.0
 11
5.1730072175
 21
3.2827740276
 31
0.0
 11
5.1731289599
 21
3.283053042
 31
0.0
 11
5.1732813933
 21
3.2831925497
 31
0.0
 11
5.1734948684
 21
3.2833320579
 31
0.0
 11
5.1741049452
 21
3.2836110764
 31
0.0
 11
5.1749591921
 21
3.2838900987
 31
0.0
 11
5.1760576109
 21
3.2841691259
 31
0.0
 11
5.177399871
 21
3.284448159
 31
0.0
 11
5.1789847055
 21
3.2847271975
 31
0.0
 11
5.1808106831
 21
3.2850062409
 31
0.0
 11
5.1851803432
 21
3.2855643409
 31
0.0
 11
5.1904974024
 21
3.2861224549
 31
0.0
 11
5.1967504118
 21
3.286680579
 31
0.0
 11
5.2039275966
 21
3.2872387093
 31
0.0
 11
5.212011331
 21
3.2877968404
 31
0.0
 11
5.2209789279
 21
3.2883549661
 31
0.0
 11
5.2414742931
 21
3.2894711759
 31
0.0
 11
5.2652254102
 21
3.2905872978
 31
0.0
 11
5.2919989284
 21
3.2917033743
 31
0.0
 11
5.3215389051
 21
3.2928194876
 31
0.0
 11
5.3535648822
 21
3.293935633
 31
0.0
 11
5.3877565831
 21
3.2950516633
 31
0.0
 11
5.4237881189
 21
3.2961674939
 31
0.0
 11
5.4613219862
 21
3.2972834957
 31
0.0
 11
5.5000148734
 21
3.2984001746
 31
0.0
 11
5.5792541504
 21
3.3006319045
 31
0.0
  0
SPLINE
  5
29E
100
AcDbEntity
  8
0
100
AcDbSpline
 62
6
  6
CONTINUOUS
 70
0
 71
3
 72
18
 73
14
 74
12
 42
0.0000001
 43
0.0000001
 44
0.0000000001
 12
0.6962545114
 22
0.033169982
 32
0.0
 13
0.6955342428
 23
0.045855311
 33
0.0
 40
0.0
 40
0.0
 40
0.0
 40
0.0
 40
0.0482666369
 40
0.1036972542
 40
0.2320031922
 40
0.3763598492
 40
0.5271044409
 40
0.6741604861
 40
0.8076926781
 40
0.8665493803
 40
0.9187767152
 40
0.9635134302
 40
1.0
 40
1.0
 40
1.0
 40
1.0
 10
5.2504755104
 20
2.7274011327
 30
0.0
 10
5.261677465
 20
2.7279348005
 30
0.0
 10
5.2857491074
 20
2.7289745466
 30
0.0
 10
5.3396161848
 20
2.7310127306
 30
0.0
 10
5.4158090061
 20
2.7334651803
 30
0.0
 10
5.5141456413
 20
2.7363114537
 30
0.0
 10
5.6168404838
 20
2.7391627743
 30
0.0
 10
5.717019301
 20
2.7420118395
 30
0.0
 10
5.7958509882
 20
2.7444596828
 30
0.0
 10
5.8526510987
 20
2.7464850955
 30
0.0
 10
5.8888269215
 20
2.7479348243
 30
0.0
 10
5.9198005751
 20
2.7493760464
 30
0.0
 10
5.9386434635
 20
2.750438256
 30
0.0
 10
5.9471026831
 20
2.750995957
 30
0.0
 11
5.2504755104
 21
2.7274011327
 31
0.0
 11
5.2840871978
 21
2.7288748215
 31
0.0
 11
5.322696593
 21
2.730350598
 31
0.0
 11
5.4120828621
 21
2.7332997672
 31
0.0
 11
5.5126625946
 21
2.7362491879
 31
0.0
 11
5.6176968355
 21
2.7391985102
 31
0.0
 11
5.7201589564
 21
2.7421478777
 31
0.0
 11
5.8131900542
 21
2.7450972347
 31
0.0
 11
5.8541892636
 21
2.7465719152
 31
0.0
 11
5.8905641432
 21
2.7480465952
 31
0.0
 11
5.9217127215
 21
2.7495212756
 31
0.0
 11
5.9471026831
 21
2.750995957
 31
0.0
  0
SPLINE
  5
29F
100
AcDbEntity
  8
0
100
AcDbSpline
 62
6
  6
CONTINUOUS
 70
0
 71
3
 72
11
 73
7
 74
5
 42
0.0000001
 43
0.0000001
 44
0.0000000001
 12
0.0224694912
 22
0.0018247108
 32
0.0
 13
0.0218621856
 23
0.0055002223
 33
0.0
 40
0.0
 40
0.0
 40
0.0
 40
0.0
 40
0.3436334912
 40
0.6252902579
 40
0.8442466622
 40
1.0
 40
1.0
 40
1.0
 40
1.0
 10
5.9606213124
 20
2.7519790471
 30
0.0
 10
5.9631950689
 20
2.7521880577
 30
0.0
 10
5.9678760879
 20
2.7525960916
 30
0.0
 10
5.9741862734
 20
2.7532614998
 30
0.0
 10
5.9790738435
 20
2.7539210021
 30
0.0
 10
5.9818481246
 20
2.7544258805
 30
0.0
 10
5.9829831608
 20
2.7547114398
 30
0.0
 11
5.9606213124
 21
2.7519790471
 31
0.0
 11
5.968337824
 21
2.7526621454
 31
0.0
 11
5.9746504904
 21
2.7533452436
 31
0.0
 11
5.9795390299
 21
2.7540283418
 31
0.0
 11
5.9829831608
 21
2.7547114398
 31
0.0
  0
SPLINE
  5
2A0
100
AcDbEntity
  8
0
100
AcDbSpline
 62
6
  6
CONTINUOUS
 70
0
 71
3
 72
12
 73
8
 74
6
 42
0.0000001
 43
0.0000001
 44
0.0000000001
 12
0.0028299556
 22
0.0007119775
 32
0.0
 13
-0.0000022562
 23
0.0029181425
 33
0.0
 40
0.0
 40
0.0
 40
0.0
 40
0.0
 40
0.3928253904
 40
0.6834663043
 40
0.7923072912
 40
0.8788229046
 40
1.0
 40
1.0
 40
1.0
 40
1.0
 10
5.9829831608
 20
2.7547114398
 30
0.0
 10
5.9833537202
 20
2.7548046675
 30
0.0
 10
5.983994474
 20
2.7549836341
 30
0.0
 10
5.9847182005
 20
2.7552536992
 30
0.0
 10
5.9851329945
 20
2.7554868165
 30
0.0
 10
5.9853762025
 20
2.7556693851
 30
0.0
 10
5.9855006898
 20
2.7558607275
 30
0.0
 10
5.9855005987
 20
2.7559785981
 30
0.0
 11
5.9829831608
 21
2.7547114398
 31
0.0
 11
5.9840848394
 21
2.7550282295
 31
0.0
 11
5.9848715871
 21
2.755345019
 31
0.0
 11
5.985146886
 21
2.7555034138
 31
0.0
 11
5.9853434811
 21
2.7556618086
 31
0.0
 11
5.9855005987
 21
2.7559785981
 31
0.0
  0
LINE
  5
2A1
100
AcDbEntity
  8
0
100
AcDbLine
 62
6
  6
CONTINUOUS
 10
5.9825251827
 20
2.828786181
 11
5.9850255217
 21
2.8279592003
  0
SPLINE
  5
2A2
100
AcDbEntity
  8
0
100
AcDbSpline
 62
6
  6
CONTINUOUS
 70
0
 71
3
 72
22
 73
18
 74
16
 42
0.0000001
 43
0.0000001
 44
0.0000000001
 12
0.4036128312
 22
0.0112946224
 32
0.0
 13
0.3931827776
 23
0.0918596181
 33
0.0
 40
0.0
 40
0.0
 40
0.0
 40
0.0
 40
0.1814725611
 40
0.3571100809
 40
0.520953644
 40
0.596808922
 40
0.667774026
 40
0.7332458464
 40
0.792709415
 40
0.8456693009
 40
0.8916924266
 40
0.9304216653
 40
0.9615181274
 40
0.9741295937
 40
0.9847571503
 40
0.9933842916
 40
1.0
 40
1.0
 40
1.0
 40
1.0
 10
5.5792541504
 20
2.800621837
 30
0.0
 10
5.6036690351
 20
2.8013050583
 30
0.0
 10
5.6517137792
 20
2.8026493762
 30
0.0
 10
5.7217998206
 20
2.8046750292
 30
0.0
 10
5.7776735118
 20
2.8064002471
 30
0.0
 10
5.8194623552
 20
2.8078028078
 30
0.0
 10
5.848016509
 20
2.8088265296
 30
0.0
 10
5.8743630091
 20
2.809849411
 30
0.0
 10
5.8982842944
 20
2.8108702471
 30
0.0
 10
5.9195854283
 20
2.8118888371
 30
0.0
 10
5.9380926186
 20
2.8129036772
 30
0.0
 10
5.9536522536
 20
2.813912874
 30
0.0
 10
5.9647134101
 20
2.8147941893
 30
0.0
 10
5.9719900617
 20
2.8155248724
 30
0.0
 10
5.9762494223
 20
2.8160311308
 30
0.0
 10
5.9796950781
 20
2.8165337381
 30
0.0
 10
5.9817130395
 20
2.8169119347
 30
0.0
 10
5.9825801004
 20
2.8171145069
 30
0.0
 11
5.5792541504
 21
2.800621837
 31
0.0
 11
5.6524984884
 21
2.8026827696
 31
0.0
 11
5.7233858054
 21
2.8047450078
 31
0.0
 11
5.7895089409
 21
2.8068061539
 31
0.0
 11
5.8201197394
 21
2.8078369372
 31
0.0
 11
5.8487548307
 21
2.8088677545
 31
0.0
 11
5.875170339
 21
2.8098985203
 31
0.0
 11
5.8991578579
 21
2.8109292757
 31
0.0
 11
5.9205166553
 21
2.8119600855
 31
0.0
 11
5.939070835
 21
2.8129909682
 31
0.0
 11
5.9546745533
 21
2.8140218865
 31
0.0
 11
5.9671880039
 21
2.8150528006
 31
0.0
 11
5.9722539913
 21
2.8155682466
 31
0.0
 11
5.9765140199
 21
2.8160836816
 31
0.0
 11
5.9799590646
 21
2.8165991026
 31
0.0
 11
5.9825801004
 21
2.8171145069
 31
0.0
  0
LINE
  5
2A3
100
AcDbEntity
  8
0
100
AcDbLine
 62
6
  6
CONTINUOUS
 10
5.9825801004
 20
2.8171145069
 11
5.9850256545
 21
2.8179287139
  0
SPLINE
  5
2A4
100
AcDbEntity
  8
0
100
AcDbSpline
 62
6
  6
CONTINUOUS
 70
0
 71
3
 72
39
 73
35
 74
33
 42
0.0000001
 43
0.0000001
 44
0.0000000001
 12
-0.002204266
 22
0.7277446129
 32
0.0
 13
0.7204448396
 23
0.1028412057
 33
0.0
 40
0.0
 40
0.0
 40
0.0
 40
0.0
 40
0.0008851855
 40
0.0016326299
 40
0.0026197005
 40
0.0038561629
 40
0.0053458941
 40
0.00709033
 40
0.0090898394
 40
0.0138527234
 40
0.0196296502
 40
0.0341933713
 40
0.0526846205
 40
0.0749400613
 40
0.1007842955
 40
0.1300095175
 40
0.1623614332
 40
0.1975800422
 40
0.2353728741
 40
0.2754179893
 40
0.3173896059
 40
0.3609361241
 40
0.4512871038
 40
0.5434710495
 40
0.6344207335
 40
0.7211101769
 40
0.8006624963
 40
0.870430457
 40
0.9009047397
 40
0.9280949284
 40
0.9517825185
 40
0.9717585685
 40
0.9878719833
 40
1.0
 40
1.0
 40
1.0
 40
1.0
 10
5.21166777
 20
3.1175939378
 30
0.0
 10
5.2116671196
 20
3.1178086675
 30
0.0
 10
5.212023625
 20
3.1181308658
 30
0.0
 10
5.2125701636
 20
3.1184030087
 30
0.0
 10
5.2132531807
 20
3.1186627807
 30
0.0
 10
5.2141149404
 20
3.1189151722
 30
0.0
 10
5.21517003
 20
3.1191721218
 30
0.0
 10
5.2164132123
 20
3.1194288125
 30
0.0
 10
5.2184445944
 20
3.1197939503
 30
0.0
 10
5.2214541945
 20
3.120239148
 30
0.0
 10
5.2274990881
 20
3.1209795072
 30
0.0
 10
5.2368785726
 20
3.1218666324
 30
0.0
 10
5.2502577775
 20
3.122880752
 30
0.0
 10
5.2663796794
 20
3.1239012368
 30
0.0
 10
5.2851094409
 20
3.1249265825
 30
0.0
 10
5.3062915467
 20
3.1259541848
 30
0.0
 10
5.3297499691
 20
3.1269842577
 30
0.0
 10
5.3552885253
 20
3.1280153875
 30
0.0
 10
5.3826946866
 20
3.1290473715
 30
0.0
 10
5.4117400631
 20
3.1300803071
 30
0.0
 10
5.4421820084
 20
3.1311135727
 30
0.0
 10
5.4848219885
 20
3.1325088942
 30
0.0
 10
5.5396384103
 20
3.1342305272
 30
0.0
 10
5.6059495718
 20
3.1362733018
 30
0.0
 10
5.6713721152
 20
3.138315174
 30
0.0
 10
5.7337290479
 20
3.1403535352
 30
0.0
 10
5.7909449051
 20
3.1423858613
 30
0.0
 10
5.8345251131
 20
3.1441377237
 30
0.0
 10
5.865404682
 20
3.145575004
 30
0.0
 10
5.88511272
 20
3.1466016259
 30
0.0
 10
5.902270322
 20
3.1476240907
 30
0.0
 10
5.9167361876
 20
3.1486402243
 30
0.0
 10
5.9283894737
 20
3.1496485755
 30
0.0
 10
5.9352001842
 20
3.1504104216
 30
0.0
 10
5.9381127066
 20
3.1508261749
 30
0.0
 11
5.21166777
 21
3.1175939378
 31
0.0
 11
5.2120490297
 21
3.1181131914
 31
0.0
 11
5.2125270222
 21
3.1183728182
 31
0.0
 11
5.2131968015
 21
3.118632445
 31
0.0
 11
5.2140583659
 21
3.1188920718
 31
0.0
 11
5.2151109687
 21
3.1191516986
 31
0.0
 11
5.2163536467
 21
3.1194113254
 31
0.0
 11
5.2177854369
 21
3.1196709522
 31
0.0
 11
5.2212125017
 21
3.1201902057
 31
0.0
 11
5.2253844586
 21
3.1207094593
 31
0.0
 11
5.2359321755
 21
3.1217479665
 31
0.0
 11
5.2493490123
 21
3.1227864738
 31
0.0
 11
5.2655120349
 21
3.123824981
 31
0.0
 11
5.2842914305
 21
3.1248634883
 31
0.0
 11
5.3055346565
 21
3.1259019956
 31
0.0
 11
5.3290557819
 21
3.1269405028
 31
0.0
 11
5.3546650043
 21
3.1279790102
 31
0.0
 11
5.3821490468
 21
3.1290175175
 31
0.0
 11
5.4112732878
 21
3.1300560248
 31
0.0
 11
5.4418003863
 21
3.1310945322
 31
0.0
 11
5.4734742553
 21
3.1321330396
 31
0.0
 11
5.5391941828
 21
3.1342100544
 31
0.0
 11
5.6062487003
 21
3.1362870693
 31
0.0
 11
5.6724045498
 21
3.1383640842
 31
0.0
 11
5.7354584151
 21
3.1404410992
 31
0.0
 11
5.7933151829
 21
3.1425181143
 31
0.0
 11
5.8440461729
 21
3.1445951294
 31
0.0
 11
5.8661994413
 21
3.1456336369
 31
0.0
 11
5.8859597747
 21
3.1466721445
 31
0.0
 11
5.90316706
 21
3.1477106521
 31
0.0
 11
5.9176674484
 21
3.1487491597
 31
0.0
 11
5.9293478771
 21
3.1497876673
 31
0.0
 11
5.9381127066
 21
3.1508261749
 31
0.0
  0
SPLINE
  5
2A5
100
AcDbEntity
  8
0
100
AcDbSpline
 62
6
  6
CONTINUOUS
 70
0
 71
3
 72
11
 73
7
 74
5
 42
0.0000001
 43
0.0000001
 44
0.0000000001
 12
0.0083554099
 22
0.0011927081
 32
0.0
 13
0.0073098901
 23
0.0042191153
 33
0.0
 40
0.0
 40
0.0
 40
0.0
 40
0.0
 40
0.3569251386
 40
0.6420493731
 40
0.8558618911
 40
1.0
 40
1.0
 40
1.0
 40
1.0
 10
5.9381127066
 20
3.1508261749
 30
0.0
 10
5.9391067918
 20
3.1509680774
 30
0.0
 10
5.9408917778
 20
3.1512438291
 30
0.0
 10
5.9432588114
 20
3.1516981529
 30
0.0
 10
5.9450093315
 20
3.1521475462
 30
0.0
 10
5.9459630936
 20
3.1524978704
 30
0.0
 10
5.9463143049
 20
3.1527005821
 30
0.0
 11
5.9381127066
 21
3.1508261749
 31
0.0
 11
5.9410885239
 21
3.1512947767
 31
0.0
 11
5.9434489382
 21
3.1517633785
 31
0.0
 11
5.9451916362
 21
3.1522319803
 31
0.0
 11
5.9463143049
 21
3.1527005821
 31
0.0
  0
LINE
  5
2A6
100
AcDbEntity
  8
0
100
AcDbLine
 62
6
  6
CONTINUOUS
 10
5.9824614611
 20
2.9002309186
 11
5.985025299
 21
2.8993892646
  0
SPLINE
  5
2A7
100
AcDbEntity
  8
0
100
AcDbSpline
 62
6
  6
CONTINUOUS
 70
0
 71
3
 72
22
 73
18
 74
16
 42
0.0000001
 43
0.0000001
 44
0.0000000001
 12
0.4037169774
 22
0.0112975598
 32
0.0
 13
0.3929201701
 23
0.0934279008
 33
0.0
 40
0.0
 40
0.0
 40
0.0
 40
0.0
 40
0.1816877885
 40
0.3575180621
 40
0.5215017972
 40
0.5974015997
 40
0.6683927195
 40
0.7338710026
 40
0.7933194291
 40
0.846240278
 40
0.8921992027
 40
0.9308388888
 40
0.9618204156
 40
0.9743650642
 40
0.984919761
 40
0.9934682464
 40
1.0
 40
1.0
 40
1.0
 40
1.0
 10
5.5792541504
 20
2.8720518115
 30
0.0
 10
5.6037042987
 20
2.872736021
 30
0.0
 10
5.6518163431
 20
2.8740822221
 30
0.0
 10
5.7219942279
 20
2.8761107289
 30
0.0
 10
5.7779331121
 20
2.8778384483
 30
0.0
 10
5.8197610636
 20
2.8792431071
 30
0.0
 10
5.8483329169
 20
2.8802682664
 30
0.0
 10
5.8746885057
 20
2.8812925866
 30
0.0
 10
5.8986094854
 20
2.8823148472
 30
0.0
 10
5.9199001067
 20
2.8833348406
 30
0.0
 10
5.9383860244
 20
2.8843510254
 30
0.0
 10
5.9539133589
 20
2.8853615043
 30
0.0
 10
5.9649406714
 20
2.8862440568
 30
0.0
 10
5.9721846335
 20
2.8869761016
 30
0.0
 10
5.9764154599
 20
2.8874829199
 30
0.0
 10
5.9798299066
 20
2.8879860081
 30
0.0
 10
5.9818260604
 20
2.8883650079
 30
0.0
 10
5.9826815463
 20
2.8885684239
 30
0.0
 11
5.5792541504
 21
2.8720518115
 31
0.0
 11
5.6526042776
 21
2.874115758
 31
0.0
 11
5.7235876946
 21
2.8761810359
 31
0.0
 11
5.7897844558
 21
2.87824515
 31
0.0
 11
5.8204211052
 21
2.8792773987
 31
0.0
 11
5.8490740558
 21
2.8803096893
 31
0.0
 11
5.8754989446
 21
2.8813419464
 31
0.0
 11
5.8994864787
 21
2.8823742042
 31
0.0
 11
5.9208349433
 21
2.8834065168
 31
0.0
 11
5.9393678728
 21
2.8844388982
 31
0.0
 11
5.9549392887
 21
2.8854713135
 31
0.0
 11
5.967409289
 21
2.8865037257
 31
0.0
 11
5.9724493944
 21
2.887019921
 31
0.0
 11
5.9766808048
 21
2.8875361046
 31
0.0
 11
5.9800945216
 21
2.8880522733
 31
0.0
 11
5.9826815463
 21
2.8885684239
 31
0.0
  0
LINE
  5
2A8
100
AcDbEntity
  8
0
100
AcDbLine
 62
6
  6
CONTINUOUS
 10
5.9826815463
 20
2.8885684239
 11
5.9850256948
 21
2.8893587203
  0
SPLINE
  5
2A9
100
AcDbEntity
  8
0
100
AcDbSpline
 62
6
  6
CONTINUOUS
 70
0
 71
3
 72
22
 73
18
 74
16
 42
0.0000001
 43
0.0000001
 44
0.0000000001
 12
0.4037801147
 22
0.0112993314
 32
0.0
 13
0.3927477957
 23
0.0944204683
 33
0.0
 40
0.0
 40
0.0
 40
0.0
 40
0.0
 40
0.1818205373
 40
0.3577747464
 40
0.5218479327
 40
0.5977734798
 40
0.668778889
 40
0.7342599764
 40
0.79369814
 40
0.8465943926
 40
0.8925129434
 40
0.9310967229
 40
0.9620071485
 40
0.974510502
 40
0.9850201813
 40
0.9935200818
 40
1.0
 40
1.0
 40
1.0
 40
1.0
 10
5.5792541504
 20
2.9434818737
 30
0.0
 10
5.6037259895
 20
2.9441666905
 30
0.0
 10
5.6518801064
 20
2.9455140637
 30
0.0
 10
5.7221155488
 20
2.9475443686
 30
0.0
 10
5.7780953555
 20
2.949273642
 30
0.0
 10
5.8199472568
 20
2.9506796025
 30
0.0
 10
5.848529325
 20
2.9517056287
 30
0.0
 10
5.8748899287
 20
2.9527308169
 30
0.0
 10
5.8988102997
 20
2.953753948
 30
0.0
 10
5.9200940766
 20
2.9547747871
 30
0.0
 10
5.9385665519
 20
2.9557917908
 30
0.0
 10
5.9540736885
 20
2.9568030532
 30
0.0
 10
5.9650799581
 20
2.9576863436
 30
0.0
 10
5.9723036782
 20
2.9584192164
 30
0.0
 10
5.9765168545
 20
2.9589263695
 30
0.0
 10
5.9799120034
 20
2.9594297459
 30
0.0
 10
5.9818946754
 20
2.9598092385
 30
0.0
 10
5.9827429999
 20
2.9600131842
 30
0.0
 11
5.5792541504
 21
2.9434818737
 31
0.0
 11
5.6526693494
 21
2.9455476716
 31
0.0
 11
5.7237139041
 21
2.9476148828
 31
0.0
 11
5.7899571201
 21
2.9496808594
 31
0.0
 11
5.8206089415
 21
2.9507139936
 31
0.0
 11
5.8492721228
 21
2.9517471705
 31
0.0
 11
5.8757022488
 21
2.9527803311
 31
0.0
 11
5.8996893525
 21
2.9538135033
 31
0.0
 11
5.9210311724
 21
2.9548467311
 31
0.0
 11
5.9395506245
 21
2.9558800238
 31
0.0
 11
5.9551017936
 21
2.9569133469
 31
0.0
 11
5.9675448633
 21
2.9579466644
 31
0.0
 11
5.9725689505
 21
2.9584633126
 31
0.0
 11
5.9767826572
 21
2.9589799503
 31
0.0
 11
5.9801770011
 21
2.959496575
 31
0.0
 11
5.9827429999
 21
2.9600131842
 31
0.0
  0
LINE
  5
2AA
100
AcDbEntity
  8
0
100
AcDbLine
 62
6
  6
CONTINUOUS
 10
5.9827429999
 20
2.9600131842
 11
5.9850256092
 21
2.9607887871
  0
SPLINE
  5
2AB
100
AcDbEntity
  8
0
100
AcDbSpline
 62
6
  6
CONTINUOUS
 70
0
 71
3
 72
26
 73
22
 74
20
 42
0.0000001
 43
0.0000001
 44
0.0000000001
 12
0.4061957335
 22
0.0113669163
 32
0.0
 13
0.351633899
 23
0.203660948
 33
0.0
 40
0.0
 40
0.0
 40
0.0
 40
0.0
 40
0.1891294709
 40
0.3715437133
 40
0.4580720318
 40
0.5404606684
 40
0.617980844
 40
0.6899165003
 40
0.7556123673
 40
0.8144938065
 40
0.8660105485
 40
0.9097212423
 40
0.9285246338
 40
0.9452281471
 40
0.9597969061
 40
0.9722081676
 40
0.9824414119
 40
0.9904800875
 40
0.996318046
 40
0.9984217139
 40
1.0
 40
1.0
 40
1.0
 40
1.0
 10
5.5792541504
 20
3.0149119087
 30
0.0
 10
5.6048620118
 20
3.015628515
 30
0.0
 10
5.6551685019
 20
3.0170362213
 30
0.0
 10
5.717189066
 20
3.0188340086
 30
0.0
 10
5.7647550478
 20
3.0202939159
 30
0.0
 10
5.7981180421
 20
3.0213691478
 30
0.0
 10
5.8295033898
 20
3.0224433858
 30
0.0
 10
5.8586263089
 20
3.0235164864
 30
0.0
 10
5.8852227766
 20
3.0245882835
 30
0.0
 10
5.9090511619
 20
3.025657028
 30
0.0
 10
5.9298983511
 20
3.0267232427
 30
0.0
 10
5.9453167478
 20
3.0276466649
 30
0.0
 10
5.9560204609
 20
3.0284009992
 30
0.0
 10
5.9627821549
 20
3.028937152
 30
0.0
 10
5.9686751836
 20
3.0294718147
 30
0.0
 10
5.9736876275
 20
3.0300046067
 30
0.0
 10
5.9778110052
 20
3.0305325498
 30
0.0
 10
5.9810340715
 20
3.0310567487
 30
0.0
 10
5.983153518
 20
3.0315159171
 30
0.0
 10
5.9843814821
 20
3.0319109501
 30
0.0
 10
5.9848406712
 20
3.0321116535
 30
0.0
 10
5.9850256642
 20
3.0322187986
 30
0.0
 11
5.5792541504
 21
3.0149119087
 31
0.0
 11
5.6560773692
 21
3.0170747455
 31
0.0
 11
5.7301706643
 21
3.0192388709
 31
0.0
 11
5.7653152221
 21
3.0203203261
 31
0.0
 11
5.7987767616
 21
3.0214018647
 31
0.0
 11
5.8302588774
 21
3.0224835034
 31
0.0
 11
5.8594702541
 21
3.0235651454
 31
0.0
 11
5.8861441611
 21
3.0246467596
 31
0.0
 11
5.9100464524
 21
3.0257284012
 31
0.0
 11
5.9309525588
 21
3.0268101199
 31
0.0
 11
5.948681634
 21
3.0278918955
 31
0.0
 11
5.9563033124
 21
3.0284327903
 31
0.0
 11
5.9630692785
 21
3.0289736822
 31
0.0
 11
5.9689646023
 21
3.0295145671
 31
0.0
 11
5.9739788905
 21
3.0300554424
 31
0.0
 11
5.9781018935
 21
3.0305963056
 31
0.0
 11
5.9813233618
 21
3.0311371538
 31
0.0
 11
5.9836331723
 21
3.0316779847
 31
0.0
 11
5.9844441117
 21
3.0319483936
 31
0.0
 11
5.9850256642
 21
3.0322187986
 31
0.0
  0
LINE
  5
2AC
100
AcDbEntity
  8
0
100
AcDbLine
 62
6
  6
CONTINUOUS
 10
5.9822635651
 20
3.1145654849
 11
5.9850253509
 21
3.1136792084
  0
LINE
  5
2AD
100
AcDbEntity
  8
0
100
AcDbLine
 62
6
  6
CONTINUOUS
 10
5.2121941928
 20
2.7431923823
 11
5.2141927855
 21
2.743918221
  0
SPLINE
  5
2AE
100
AcDbEntity
  8
0
100
AcDbSpline
 62
6
  6
CONTINUOUS
 70
0
 71
3
 72
15
 73
11
 74
9
 42
0.0000001
 43
0.0000001
 44
0.0000000001
 12
0.065614556
 22
0.017344216
 32
0.0
 13
0.0677743196
 23
0.003568388
 33
0.0
 40
0.0
 40
0.0
 40
0.0
 40
0.0
 40
0.0235693932
 40
0.0524819531
 40
0.1263140173
 40
0.2213537271
 40
0.3373643555
 40
0.4739911213
 40
0.630515827
 40
1.0
 40
1.0
 40
1.0
 40
1.0
 10
5.2141927855
 20
2.743918221
 30
0.0
 10
5.214708284
 20
2.7440544852
 30
0.0
 10
5.2158668682
 20
2.7443170609
 30
0.0
 10
5.2186773212
 20
2.7448358367
 30
0.0
 10
5.2231102449
 20
2.7454561267
 30
0.0
 10
5.229516188
 20
2.7461650352
 30
0.0
 10
5.2373496564
 20
2.7468780897
 30
0.0
 10
5.2465783864
 20
2.7475947371
 30
0.0
 10
5.2615347629
 20
2.7486101314
 30
0.0
 10
5.273415918
 20
2.7492820064
 30
0.0
 10
5.2817630974
 20
2.7497214941
 30
0.0
 11
5.2141927855
 21
2.743918221
 31
0.0
 11
5.2157507536
 21
2.7442808427
 31
0.0
 11
5.2176792019
 21
2.744643452
 31
0.0
 11
5.2226372876
 21
2.7453687055
 31
0.0
 11
5.229046539
 21
2.7460941258
 31
0.0
 11
5.2368864524
 21
2.7468198577
 31
0.0
 11
5.2461305937
 21
2.7475459316
 31
0.0
 11
5.2567288063
 21
2.748271922
 31
0.0
 11
5.2817630974
 21
2.7497214941
 31
0.0
  0
SPLINE
  5
2AF
100
AcDbEntity
  8
0
100
AcDbSpline
 62
6
  6
CONTINUOUS
 70
0
 71
3
 72
26
 73
22
 74
20
 42
0.0000001
 43
0.0000001
 44
0.0000000001
 12
0.4061957177
 22
0.0113669061
 32
0.0
 13
0.3516339743
 23
0.203660786
 33
0.0
 40
0.0
 40
0.0
 40
0.0
 40
0.0
 40
0.1891295216
 40
0.3715433561
 40
0.4580714425
 40
0.5404599287
 40
0.6179800342
 40
0.6899156411
 40
0.7556117013
 40
0.8144933543
 40
0.8660102315
 40
0.9097210951
 40
0.9285245174
 40
0.9452280156
 40
0.959796808
 40
0.9722081331
 40
0.9824414368
 40
0.9904801338
 40
0.9963180561
 40
0.9984217142
 40
1.0
 40
1.0
 40
1.0
 40
1.0
 10
5.5792541504
 20
3.086341823
 30
0.0
 10
5.6048620176
 20
3.0870584289
 30
0.0
 10
5.6551684574
 20
3.0884661328
 30
0.0
 10
5.7171889394
 20
3.0902639161
 30
0.0
 10
5.7647548123
 20
3.0917238193
 30
0.0
 10
5.7981177441
 20
3.0927990481
 30
0.0
 10
5.8295030541
 20
3.0938732823
 30
0.0
 10
5.8586259819
 20
3.0949463842
 30
0.0
 10
5.8852224971
 20
3.0960181807
 30
0.0
 10
5.9090509549
 20
3.0970869263
 30
0.0
 10
5.9298982135
 20
3.0981531449
 30
0.0
 10
5.9453166551
 20
3.0990765663
 30
0.0
 10
5.9560203929
 20
3.0998309014
 30
0.0
 10
5.9627820931
 20
3.1003670567
 30
0.0
 10
5.9686751327
 20
3.10090172
 30
0.0
 10
5.9736875977
 20
3.1014345121
 30
0.0
 10
5.9778109949
 20
3.1019624555
 30
0.0
 10
5.9810340676
 20
3.1024866526
 30
0.0
 10
5.9831535098
 20
3.1029458251
 30
0.0
 10
5.9843814669
 20
3.1033408591
 30
0.0
 10
5.9848406544
 20
3.1035415625
 30
0.0
 10
5.9850256474
 20
3.1036487075
 30
0.0
 11
5.5792541504
 21
3.086341823
 31
0.0
 11
5.6560773867
 21
3.0885046587
 31
0.0
 11
5.7301705133
 21
3.0906687775
 31
0.0
 11
5.7653149755
 21
3.091750229
 31
0.0
 11
5.7987764527
 21
3.0928317643
 31
0.0
 11
5.8302585388
 21
3.0939134003
 31
0.0
 11
5.8594698943
 21
3.0949950414
 31
0.0
 11
5.8861438788
 21
3.0960766566
 31
0.0
 11
5.910046256
 21
3.0971583004
 31
0.0
 11
5.9309524164
 21
3.098240021
 31
0.0
 11
5.94868156
 21
3.099321798
 31
0.0
 11
5.9563032506
 21
3.0998626934
 31
0.0
 11
5.9630692102
 21
3.100403586
 31
0.0
 11
5.9689645473
 21
3.1009444717
 31
0.0
 11
5.9739788612
 21
3.1014853478
 31
0.0
 11
5.9781018883
 21
3.1020262117
 31
0.0
 11
5.9813233652
 21
3.1025670609
 31
0.0
 11
5.9836331602
 21
3.1031078927
 31
0.0
 11
5.9844440952
 21
3.103378302
 31
0.0
 11
5.9850256474
 21
3.1036487075
 31
0.0
  0
LINE
  5
2B0
100
AcDbEntity
  8
0
100
AcDbLine
 62
6
  6
CONTINUOUS
 10
5.9824569681
 20
3.1859519551
 11
5.9850255296
 21
3.1851092705
  0
LINE
  5
2B1
100
AcDbEntity
  8
0
100
AcDbLine
 62
6
  6
CONTINUOUS
 10
5.2136436962
 20
2.7592636564
 11
5.2121925305
 21
2.7598356467
  0
SPLINE
  5
2B2
100
AcDbEntity
  8
0
100
AcDbSpline
 62
6
  6
CONTINUOUS
 70
0
 71
3
 72
26
 73
22
 74
20
 42
0.0000001
 43
0.0000001
 44
0.0000000001
 12
0.4061959647
 22
0.0113669333
 32
0.0
 13
0.3516350864
 23
0.2036593599
 33
0.0
 40
0.0
 40
0.0
 40
0.0
 40
0.0
 40
0.1891282145
 40
0.3715469984
 40
0.4580786878
 40
0.5404703833
 40
0.6179928772
 40
0.6899302577
 40
0.7556234622
 40
0.8145013705
 40
0.866015859
 40
0.9097238016
 40
0.9285266031
 40
0.9452302646
 40
0.9597985159
 40
0.9722088165
 40
0.9824411414
 40
0.9904794298
 40
0.9963178593
 40
0.9984216863
 40
1.0
 40
1.0
 40
1.0
 40
1.0
 10
5.5792541504
 20
3.157771818
 30
0.0
 10
5.6048618562
 20
3.1584884206
 30
0.0
 10
5.6551688198
 20
3.1598961414
 30
0.0
 10
5.7171903203
 20
3.1616939591
 30
0.0
 10
5.7647578146
 20
3.163153915
 30
0.0
 10
5.7981220119
 20
3.1642291968
 30
0.0
 10
5.8295083377
 20
3.1653034995
 30
0.0
 10
5.8586314609
 20
3.1663765867
 30
0.0
 10
5.8852273376
 20
3.1674483934
 30
0.0
 10
5.9090545917
 20
3.1685171242
 30
0.0
 10
5.9299006386
 20
3.1695832739
 30
0.0
 10
5.9453182846
 20
3.1705067046
 30
0.0
 10
5.9560215708
 20
3.171261028
 30
0.0
 10
5.9627831426
 20
3.1717971431
 30
0.0
 10
5.9686759963
 20
3.1723317962
 30
0.0
 10
5.9736881179
 20
3.1728645867
 30
0.0
 10
5.9778111894
 20
3.1733925248
 30
0.0
 10
5.9810341378
 20
3.173916749
 30
0.0
 10
5.9831536288
 20
3.1743758659
 30
0.0
 10
5.984381693
 20
3.1747708803
 30
0.0
 10
5.9848409116
 20
3.1749715823
 30
0.0
 10
5.9850259084
 20
3.1750787285
 30
0.0
 11
5.5792541504
 21
3.157771818
 31
0.0
 11
5.6560769025
 21
3.1599346438
 31
0.0
 11
5.7301720844
 21
3.1620988274
 31
0.0
 11
5.7653180314
 21
3.1631803286
 31
0.0
 11
5.7987808319
 21
3.1642619214
 31
0.0
 11
5.8302639064
 21
3.1653436117
 31
0.0
 11
5.859476
 21
3.166425278
 31
0.0
 11
5.8861488401
 21
3.1675068761
 31
0.0
 11
5.9100497104
 21
3.1685884814
 31
0.0
 11
5.9309549135
 21
3.1696701672
 31
0.0
 11
5.9486828803
 21
3.1707519193
 31
0.0
 11
5.9563043234
 21
3.171292804
 31
0.0
 11
5.9630703546
 21
3.1718336858
 31
0.0
 11
5.9689654756
 21
3.17237456
 31
0.0
 11
5.9739793751
 21
3.1729154239
 31
0.0
 11
5.9781020053
 21
3.173456275
 31
0.0
 11
5.9813233181
 21
3.1739971107
 31
0.0
 11
5.9836333296
 21
3.1745379283
 31
0.0
 11
5.98444434
 21
3.1748083303
 31
0.0
 11
5.9850259084
 21
3.1750787285
 31
0.0
  0
SPLINE
  5
2B3
100
AcDbEntity
  8
0
100
AcDbSpline
 62
6
  6
CONTINUOUS
 70
0
 71
3
 72
21
 73
17
 74
15
 42
0.0000001
 43
0.0000001
 44
0.0000000001
 12
0.0001538431
 22
0.0708190742
 32
0.0
 13
0.0707212848
 23
0.0037235487
 33
0.0
 40
0.0
 40
0.0
 40
0.0
 40
0.0
 40
0.0074606491
 40
0.0133573765
 40
0.0210102145
 40
0.0305106903
 40
0.041905367
 40
0.0704678218
 40
0.1067858054
 40
0.1508438835
 40
0.2025995568
 40
0.2619984208
 40
0.4034772252
 40
0.5745556874
 40
0.7738859034
 40
1.0
 40
1.0
 40
1.0
 40
1.0
 10
5.211668753
 20
2.7604440241
 30
0.0
 10
5.2116691355
 20
2.7606201429
 30
0.0
 10
5.211917496
 20
2.7608957392
 30
0.0
 10
5.2123347804
 20
2.7611382797
 30
0.0
 10
5.2128374858
 20
2.761361023
 30
0.0
 10
5.2134739557
 20
2.76157882
 30
0.0
 10
5.2145983139
 20
2.7618976044
 30
0.0
 10
5.2163587854
 20
2.7622797135
 30
0.0
 10
5.2188935384
 20
2.7627166412
 30
0.0
 10
5.2219819749
 20
2.7631555759
 30
0.0
 10
5.2256195113
 20
2.7635967505
 30
0.0
 10
5.2315504208
 20
2.7642235973
 30
0.0
 10
5.2402982929
 20
2.764987494
 30
0.0
 10
5.2523504141
 20
2.7658651579
 30
0.0
 10
5.2664047797
 20
2.7667461785
 30
0.0
 10
5.2764327376
 20
2.7673008451
 30
0.0
 10
5.2817630974
 20
2.7675814941
 30
0.0
 11
5.211668753
 21
2.7604440241
 31
0.0
 11
5.2119518567
 21
2.7608901339
 31
0.0
 11
5.212304902
 21
2.7611131815
 31
0.0
 11
5.2127988475
 21
2.7613362227
 31
0.0
 11
5.2134336214
 21
2.7615592564
 31
0.0
 11
5.2142091523
 21
2.7617822815
 31
0.0
 11
5.2161821373
 21
2.7622283017
 31
0.0
 11
5.2187151863
 21
2.7626742936
 31
0.0
 11
5.2218033062
 21
2.7631202894
 31
0.0
 11
5.2254413633
 21
2.7635663228
 31
0.0
 11
5.2296242244
 21
2.7640124273
 31
0.0
 11
5.2396038112
 21
2.7649049842
 31
0.0
 11
5.2516865065
 21
2.7657979415
 31
0.0
 11
5.2657746788
 21
2.7666904462
 31
0.0
 11
5.2817630974
 21
2.7675814941
 31
0.0
  0
SPLINE
  5
2B4
100
AcDbEntity
  8
0
100
AcDbSpline
 62
6
  6
CONTINUOUS
 70
0
 71
3
 72
26
 73
22
 74
20
 42
0.0000001
 43
0.0000001
 44
0.0000000001
 12
0.406195828
 22
0.0113669316
 32
0.0
 13
0.3516428896
 23
0.2036456139
 33
0.0
 40
0.0
 40
0.0
 40
0.0
 40
0.0
 40
0.18913191
 40
0.3715557464
 40
0.458089654
 40
0.5404832431
 40
0.6180068321
 40
0.6899441861
 40
0.755634894
 40
0.8145091358
 40
0.8660207439
 40
0.9097266229
 40
0.9285282974
 40
0.9452307502
 40
0.9597986294
 40
0.972209146
 40
0.9824418137
 40
0.9904801146
 40
0.9963179385
 40
0.9984216408
 40
1.0
 40
1.0
 40
1.0
 40
1.0
 10
5.5792541504
 20
3.2292018835
 30
0.0
 10
5.604862348
 20
3.2299185
 30
0.0
 10
5.655170479
 20
3.2313262542
 30
0.0
 10
5.7171934435
 20
3.2331241164
 30
0.0
 10
5.7647621623
 20
3.2345841162
 30
0.0
 10
5.798127053
 20
3.2356594306
 30
0.0
 10
5.8295137686
 20
3.2367337662
 30
0.0
 10
5.8586366886
 20
3.2378068489
 30
0.0
 10
5.885231718
 20
3.2388786392
 30
0.0
 10
5.909057739
 20
3.2399473448
 30
0.0
 10
5.9299026133
 20
3.241013447
 30
0.0
 10
5.9453194333
 20
3.2419368261
 30
0.0
 10
5.9560221208
 20
3.2426911203
 30
0.0
 10
5.9627833221
 20
3.2432272392
 30
0.0
 10
5.968675989
 20
3.24376188
 30
0.0
 10
5.9736881362
 20
3.2442946544
 30
0.0
 10
5.9778112847
 20
3.2448225837
 30
0.0
 10
5.9810342052
 20
3.2453467709
 30
0.0
 10
5.9831535865
 20
3.2458059339
 30
0.0
 10
5.9843815512
 20
3.2462009538
 30
0.0
 10
5.984840758
 20
3.2464016514
 30
0.0
 10
5.9850257643
 20
3.2465087934
 30
0.0
 11
5.5792541504
 21
3.2292018835
 31
0.0
 11
5.6560783778
 21
3.2313647519
 31
0.0
 11
5.7301755869
 21
3.2335289986
 31
0.0
 11
5.7653224228
 21
3.2346105325
 31
0.0
 11
5.7987859807
 21
3.235692161
 31
0.0
 11
5.8302694889
 21
3.2367738815
 31
0.0
 11
5.8594815616
 21
3.2378555558
 31
0.0
 11
5.8861533783
 21
3.2389371311
 31
0.0
 11
5.9100527511
 21
3.240018694
 31
0.0
 11
5.9309567776
 21
3.2411003306
 31
0.0
 11
5.9486839011
 21
3.2421820364
 31
0.0
 11
5.9563048839
 21
3.2427229017
 31
0.0
 11
5.9630704213
 21
3.2432637681
 31
0.0
 11
5.9689653895
 21
3.2438046313
 31
0.0
 11
5.9739793763
 21
3.2443454882
 31
0.0
 11
5.9781021461
 21
3.2448863355
 31
0.0
 11
5.9813234631
 21
3.2454271702
 31
0.0
 11
5.9836332208
 21
3.2459679891
 31
0.0
 11
5.9844441769
 21
3.2462383927
 31
0.0
 11
5.9850257643
 21
3.2465087934
 31
0.0
  0
SPLINE
  5
2B5
100
AcDbEntity
  8
0
100
AcDbSpline
 62
6
  6
CONTINUOUS
 70
0
 71
3
 72
10
 73
6
 74
4
 42
0.0000001
 43
0.0000001
 44
0.0000000001
 12
-0.0031465153
 22
-0.0018214695
 32
0.0
 13
-0.0035643554
 23
-0.0007167147
 33
0.0
 40
0.0
 40
0.0
 40
0.0
 40
0.0
 40
0.1679653353
 40
0.3896924128
 40
1.0
 40
1.0
 40
1.0
 40
1.0
 10
5.9850244045
 20
2.7464988031
 30
0.0
 10
5.984848236
 20
2.7463968218
 30
0.0
 10
5.9844144008
 20
2.7462048554
 30
0.0
 10
5.9832625713
 20
2.745826693
 30
0.0
 10
5.9822757477
 20
2.7456078945
 30
0.0
 10
5.98155063
 20
2.745462089
 30
0.0
 11
5.9850244045
 21
2.7464988031
 31
0.0
 11
5.9844714613
 21
2.7462396246
 31
0.0
 11
5.9837081286
 21
2.7459804461
 31
0.0
 11
5.98155063
 21
2.745462089
 31
0.0
  0
SPLINE
  5
2B6
100
AcDbEntity
  8
0
100
AcDbSpline
 62
6
  6
CONTINUOUS
 70
0
 71
3
 72
27
 73
23
 74
21
 42
0.0000001
 43
0.0000001
 44
0.0000000001
 12
-0.7558414539
 22
-0.1519833508
 32
0.0
 13
-0.7692928632
 23
-0.0508304344
 33
0.0
 40
0.0
 40
0.0
 40
0.0
 40
0.0
 40
0.003409702
 40
0.0076425195
 40
0.018554035
 40
0.0326783568
 40
0.0499419291
 40
0.0702277225
 40
0.0934056356
 40
0.1478529646
 40
0.2118840153
 40
0.2838664138
 40
0.3619598152
 40
0.4441587863
 40
0.5283625386
 40
0.6124114096
 40
0.6941535505
 40
0.7714963963
 40
0.8424557101
 40
0.9052174826
 40
0.9581770914
 40
1.0
 40
1.0
 40
1.0
 40
1.0
 10
5.98155063
 20
2.745462089
 30
0.0
 10
5.9806915653
 20
2.7452893497
 30
0.0
 10
5.9787548133
 20
2.7449586015
 30
0.0
 10
5.9740311544
 20
2.7443058322
 30
0.0
 10
5.9665480065
 20
2.743528091
 30
0.0
 10
5.9557137069
 20
2.7426391223
 30
0.0
 10
5.9424637313
 20
2.7417457394
 30
0.0
 10
5.9268832268
 20
2.7408465175
 30
0.0
 10
5.9017530338
 20
2.7395749939
 30
0.0
 10
5.8653810815
 20
2.738030292
 30
0.0
 10
5.8164669421
 20
2.7362463306
 30
0.0
 10
5.7614726313
 20
2.7344559186
 30
0.0
 10
5.7018072867
 20
2.7326606484
 30
0.0
 10
5.6389999151
 20
2.7308628028
 30
0.0
 10
5.574661476
 20
2.7290639417
 30
0.0
 10
5.5104404807
 20
2.7272650944
 30
0.0
 10
5.4479833374
 20
2.7254675249
 30
0.0
 10
5.3888914191
 20
2.7236729612
 30
0.0
 10
5.3346795719
 20
2.7218826386
 30
0.0
 10
5.2867372167
 20
2.7201021965
 30
0.0
 10
5.246288381
 20
2.7183342343
 30
0.0
 10
5.2219646839
 20
2.7170143869
 30
0.0
 10
5.2112399955
 20
2.7163057613
 30
0.0
 11
5.98155063
 21
2.745462089
 31
0.0
 11
5.9789616238
 21
2.7450065387
 31
0.0
 11
5.9757301997
 21
2.7445509883
 31
0.0
 11
5.9673672284
 21
2.7436398874
 31
0.0
 11
5.9565159776
 21
2.7427287864
 31
0.0
 11
5.9432374964
 21
2.7418176853
 31
0.0
 11
5.9276243126
 21
2.7409065841
 31
0.0
 11
5.9097780714
 21
2.7399954831
 31
0.0
 11
5.8678403653
 21
2.7381732821
 31
0.0
 11
5.8185079673
 21
2.7363510814
 31
0.0
 11
5.7630415979
 21
2.7345288804
 31
0.0
 11
5.7028614838
 21
2.732706679
 31
0.0
 11
5.6395147191
 21
2.7308844796
 31
0.0
 11
5.5746217036
 21
2.7290622785
 31
0.0
 11
5.5098481443
 21
2.7272400685
 31
0.0
 11
5.4468537283
 21
2.725417879
 31
0.0
 11
5.3872525381
 21
2.7235956777
 31
0.0
 11
5.3325753716
 21
2.7217733785
 31
0.0
 11
5.2842222231
 21
2.7199513664
 31
0.0
 11
5.243432613
 21
2.7181292732
 31
0.0
 11
5.2112399955
 21
2.7163057613
 31
0.0
  0
LINE
  5
2B7
100
AcDbEntity
  8
0
100
AcDbLine
 62
6
  6
CONTINUOUS
 10
5.2112399955
 20
2.7163057613
 11
5.1928427284
 21
2.7149018555
  0
SPLINE
  5
2B8
100
AcDbEntity
  8
0
100
AcDbSpline
 62
6
  6
CONTINUOUS
 70
0
 71
3
 72
26
 73
22
 74
20
 42
0.0000001
 43
0.0000001
 44
0.0000000001
 12
0.4061956431
 22
0.0113669102
 32
0.0
 13
0.3516528919
 23
0.2036279714
 33
0.0
 40
0.0
 40
0.0
 40
0.0
 40
0.0
 40
0.1891353906
 40
0.371562476
 40
0.4580977137
 40
0.5404923816
 40
0.6180167772
 40
0.6899546743
 40
0.7556453752
 40
0.8145186166
 40
0.8660280448
 40
0.9097308659
 40
0.9285307095
 40
0.9452314415
 40
0.9597988207
 40
0.9722096178
 40
0.9824427184
 40
0.990480981
 40
0.9963180096
 40
0.9984215784
 40
1.0
 40
1.0
 40
1.0
 40
1.0
 10
5.5792541504
 20
3.3006319045
 30
0.0
 10
5.6048628076
 20
3.3013485328
 30
0.0
 10
5.6551718269
 20
3.3027563094
 30
0.0
 10
5.7171958543
 20
3.3045542032
 30
0.0
 10
5.7647653173
 20
3.3060142283
 30
0.0
 10
5.798130628
 20
3.3070895585
 30
0.0
 10
5.8295176579
 20
3.3081639109
 30
0.0
 10
5.8586407458
 20
3.3092370129
 30
0.0
 10
5.8852356994
 20
3.3103088212
 30
0.0
 10
5.9090612774
 20
3.311377525
 30
0.0
 10
5.9299052983
 20
3.3124435844
 30
0.0
 10
5.9453211555
 20
3.3133669073
 30
0.0
 10
5.9560229432
 20
3.3141211647
 30
0.0
 10
5.9627835909
 20
3.3146572833
 30
0.0
 10
5.9686759927
 20
3.3151919036
 30
0.0
 10
5.9736881695
 20
3.3157246549
 30
0.0
 10
5.9778114089
 20
3.316252571
 30
0.0
 10
5.981034283
 20
3.3167767109
 30
0.0
 10
5.9831535152
 20
3.3172359385
 30
0.0
 10
5.984381356
 20
3.3176309582
 30
0.0
 10
5.9848405524
 20
3.3178316506
 30
0.0
 10
5.9850255713
 20
3.3179387875
 30
0.0
 11
5.5792541504
 21
3.3006319045
 31
0.0
 11
5.6560797566
 21
3.302794809
 31
0.0
 11
5.7301782515
 21
3.3049590941
 31
0.0
 11
5.7653256116
 21
3.306040646
 31
0.0
 11
5.7987895923
 21
3.3071222911
 31
0.0
 11
5.8302734135
 21
3.3082040291
 31
0.0
 11
5.8594856929
 21
3.3092857248
 31
0.0
 11
5.8861574937
 21
3.3103673192
 31
0.0
 11
5.9100564488
 21
3.3114488788
 31
0.0
 11
5.9309595809
 21
3.3125304733
 31
0.0
 11
5.9486854553
 21
3.313612115
 31
0.0
 11
5.9563056909
 21
3.3141529499
 31
0.0
 11
5.9630705257
 21
3.3146937921
 31
0.0
 11
5.9689652886
 21
3.3152346384
 31
0.0
 11
5.973979389
 21
3.3157754846
 31
0.0
 11
5.978102335
 21
3.3163163263
 31
0.0
 11
5.981323635
 21
3.3168571591
 31
0.0
 11
5.9836330594
 21
3.3173979791
 31
0.0
 11
5.9844439573
 21
3.3176683843
 31
0.0
 11
5.9850255713
 21
3.3179387875
 31
0.0
  0
SPLINE
  5
2B9
100
AcDbEntity
  8
0
100
AcDbSpline
 62
6
  6
CONTINUOUS
 70
0
 71
3
 72
12
 73
8
 74
6
 42
0.0000001
 43
0.0000001
 44
0.0000000001
 12
-0.0812563962
 22
-0.0070154826
 32
0.0
 13
-0.0799492703
 23
-0.0161224407
 33
0.0
 40
0.0
 40
0.0
 40
0.0
 40
0.0
 40
0.3214643823
 40
0.5974619477
 40
0.8243628616
 40
0.9186939214
 40
1.0
 40
1.0
 40
1.0
 40
1.0
 10
5.2699215588
 20
3.3220418556
 30
0.0
 10
5.2612145464
 20
3.321290113
 30
0.0
 10
5.245038421
 20
3.3198142878
 30
0.0
 10
5.2227514245
 20
3.3174503393
 30
0.0
 10
5.206643355
 20
3.3153907762
 30
0.0
 10
5.1958314974
 20
3.3136942695
 30
0.0
 10
5.1911331218
 20
3.3128379309
 30
0.0
 10
5.1889663346
 20
3.31240098
 30
0.0
 11
5.2699215588
 21
3.3220418556
 31
0.0
 11
5.2438142193
 21
3.3196332333
 31
0.0
 11
5.2214337851
 21
3.3172215565
 31
0.0
 11
5.2030857376
 21
3.3148108386
 31
0.0
 11
5.1954871663
 21
3.3136058826
 31
0.0
 11
5.1889663346
 21
3.31240098
 31
0.0
  0
SPLINE
  5
2BA
100
AcDbEntity
  8
0
100
AcDbSpline
 62
6
  6
CONTINUOUS
 70
0
 71
3
 72
11
 73
7
 74
5
 42
0.0000001
 43
0.0000001
 44
0.0000000001
 12
-0.0131203791
 22
-0.0027577504
 32
0.0
 13
-0.0116006577
 23
-0.0067211812
 33
0.0
 40
0.0
 40
0.0
 40
0.0
 40
0.0
 40
0.3296257107
 40
0.6057575402
 40
0.8288129865
 40
1.0
 40
1.0
 40
1.0
 40
1.0
 10
5.1876772619
 20
3.3121356476
 30
0.0
 10
5.1862356571
 20
3.3118326391
 30
0.0
 10
5.1835940763
 20
3.311238222
 30
0.0
 10
5.1800160907
 20
3.3102721448
 30
0.0
 10
5.1771768603
 20
3.3093122756
 30
0.0
 10
5.1755631962
 20
3.3085869244
 30
0.0
 10
5.1749012356
 20
3.3082033981
 30
0.0
 11
5.1876772619
 21
3.3121356476
 31
0.0
 11
5.1833686551
 21
3.3111526656
 31
0.0
 11
5.1797994406
 21
3.3101696133
 31
0.0
 11
5.1769751301
 21
3.3091865158
 31
0.0
 11
5.1749012356
 21
3.3082033981
 31
0.0
  0
SPLINE
  5
2BB
100
AcDbEntity
  8
0
100
AcDbSpline
 62
6
  6
CONTINUOUS
 70
0
 71
3
 72
12
 73
8
 74
6
 42
0.0000001
 43
0.0000001
 44
0.0000000001
 12
0.0079990026
 22
0.0046311513
 32
0.0
 13
0.0091644139
 23
0.0012021326
 33
0.0
 40
0.0
 40
0.0
 40
0.0
 40
0.0
 40
0.0607594186
 40
0.1393473047
 40
0.3516433164
 40
0.6384668461
 40
1.0
 40
1.0
 40
1.0
 40
1.0
 10
5.18688498
 20
3.3151556046
 30
0.0
 10
5.1870469849
 20
3.3152494
 30
0.0
 10
5.1874394743
 20
3.315427527
 30
0.0
 10
5.188465176
 20
3.3157780308
 30
0.0
 10
5.1902003106
 20
3.3161889598
 30
0.0
 10
5.1928103871
 20
3.316656366
 30
0.0
 10
5.1947887431
 20
3.316936905
 30
0.0
 10
5.1958931563
 20
3.3170817753
 30
0.0
 11
5.18688498
 21
3.3151556046
 31
0.0
 11
5.1873919142
 21
3.3153972783
 31
0.0
 11
5.1880770041
 21
3.3156386953
 31
0.0
 11
5.1899791041
 21
3.3161207571
 31
0.0
 11
5.1925861861
 21
3.3166017853
 31
0.0
 11
5.1958931563
 21
3.3170817753
 31
0.0
  0
SPLINE
  5
2BC
100
AcDbEntity
  8
0
100
AcDbSpline
 62
6
  6
CONTINUOUS
 70
0
 71
3
 72
12
 73
8
 74
6
 42
0.0000001
 43
0.0000001
 44
0.0000000001
 12
0.0735782236
 22
0.0096515478
 32
0.0
 13
0.0741309155
 23
0.0033933351
 33
0.0
 40
0.0
 40
0.0
 40
0.0
 40
0.0
 40
0.072805102
 40
0.1612069636
 40
0.3836796426
 40
0.6647103819
 40
1.0
 40
1.0
 40
1.0
 40
1.0
 10
5.1958931563
 20
3.3170817753
 30
0.0
 10
5.1976787796
 20
3.3173160026
 30
0.0
 10
5.2016413737
 20
3.3177670327
 30
0.0
 10
5.2110908021
 20
3.3186550364
 30
0.0
 10
5.2256952368
 20
3.319714458
 30
0.0
 10
5.2464088724
 20
3.3209203907
 30
0.0
 10
5.26163645
 20
3.3216626056
 30
0.0
 10
5.2699215588
 20
3.3220418556
 30
0.0
 11
5.1958931563
 21
3.3170817753
 31
0.0
 11
5.2012595597
 21
3.3177075013
 31
0.0
 11
5.2077899834
 21
3.3183315501
 31
0.0
 11
5.2242524601
 21
3.3195750317
 31
0.0
 11
5.2450705964
 21
3.3208124696
 31
0.0
 11
5.2699215588
 21
3.3220418556
 31
0.0
  0
SPLINE
  5
2BD
100
AcDbEntity
  8
0
100
AcDbSpline
 62
6
  6
CONTINUOUS
 70
0
 71
3
 72
21
 73
17
 74
15
 42
0.0000001
 43
0.0000001
 44
0.0000000001
 12
0.0000521732
 22
0.08420552
 32
0.0
 13
0.0841174549
 23
0.0038504679
 33
0.0
 40
0.0
 40
0.0
 40
0.0
 40
0.0
 40
0.0069361332
 40
0.0127369493
 40
0.0203667114
 40
0.0298955568
 40
0.0413551146
 40
0.0547602034
 40
0.0701172682
 40
0.106690687
 40
0.1510614874
 40
0.262888315
 40
0.4048276895
 40
0.5759827363
 40
0.7749449794
 40
1.0
 40
1.0
 40
1.0
 40
1.0
 10
5.1863985335
 20
3.3324526155
 30
0.0
 10
5.1863986541
 20
3.3326473024
 30
0.0
 10
5.1867164651
 20
3.3329399309
 30
0.0
 10
5.1872071922
 20
3.3331885033
 30
0.0
 10
5.1878162851
 20
3.3334242492
 30
0.0
 10
5.188583695
 20
3.3336533899
 30
0.0
 10
5.1895218399
 20
3.3338862581
 30
0.0
 10
5.1906264704
 20
3.3341186623
 30
0.0
 10
5.1924306736
 20
3.3344488347
 30
0.0
 10
5.1951041625
 20
3.3348507925
 30
0.0
 10
5.2004740952
 20
3.3355174115
 30
0.0
 10
5.2088056941
 20
3.3363136832
 30
0.0
 10
5.2206981906
 20
3.3372219934
 30
0.0
 10
5.235042429
 20
3.3381311131
 30
0.0
 10
5.2517233338
 20
3.3390412709
 30
0.0
 10
5.263611207
 20
3.3396129998
 30
0.0
 10
5.2699215588
 20
3.3399018555
 30
0.0
 11
5.1863985335
 21
3.3324526155
 31
0.0
 11
5.1867415551
 21
3.3329253344
 31
0.0
 11
5.1871692241
 21
3.3331613285
 31
0.0
 11
5.1877668757
 21
3.3333970784
 31
0.0
 11
5.1885339178
 21
3.3336325833
 31
0.0
 11
5.1894697582
 21
3.3338678429
 31
0.0
 11
5.1905738048
 21
3.3341028566
 31
0.0
 11
5.1918454655
 21
3.3343376238
 31
0.0
 11
5.1948892607
 21
3.3348064166
 31
0.0
 11
5.1985961261
 21
3.3352742198
 31
0.0
 11
5.2079662521
 21
3.3362069811
 31
0.0
 11
5.2198821543
 21
3.3371362375
 31
0.0
 11
5.2342645765
 21
3.3380622577
 31
0.0
 11
5.2509928972
 21
3.3389844828
 31
0.0
 11
5.2699215588
 21
3.3399018555
 31
0.0
  0
SPLINE
  5
2BE
100
AcDbEntity
  8
0
100
AcDbSpline
 62
6
  6
CONTINUOUS
 70
0
 71
3
 72
44
 73
40
 74
38
 42
0.0000001
 43
0.0000001
 44
0.0000000001
 12
0.0008780266
 22
0.7343224428
 32
0.0
 13
0.7074195919
 23
0.1969460383
 33
0.0
 40
0.0
 40
0.0
 40
0.0
 40
0.0
 40
0.0009239222
 40
0.0017152821
 40
0.0027622798
 40
0.004074088
 40
0.0056549753
 40
0.0075070932
 40
0.0096315456
 40
0.0146980843
 40
0.0208469815
 40
0.0280642204
 40
0.0363345901
 40
0.0559707996
 40
0.0795988328
 40
0.1069950513
 40
0.1379238907
 40
0.1721120611
 40
0.2092444539
 40
0.2489993613
 40
0.2910173482
 40
0.3349189867
 40
0.3803180727
 40
0.4739602294
 40
0.5685997199
 40
0.6608514409
 40
0.7474225905
 40
0.7876013646
 40
0.8252239573
 40
0.8599470971
 40
0.8914724866
 40
0.9195104358
 40
0.9438106066
 40
0.9641696523
 40
0.9803954172
 40
0.9869167603
 40
0.9923628611
 40
0.996725296
 40
1.0
 40
1.0
 40
1.0
 40
1.0
 10
5.2116630967
 20
3.0461640159
 30
0.0
 10
5.2116633671
 20
3.0463901682
 30
0.0
 10
5.2120540501
 20
3.0467226232
 30
0.0
 10
5.2126375716
 20
3.0470028364
 30
0.0
 10
5.2133723621
 20
3.0472720423
 30
0.0
 10
5.2142970625
 20
3.0475335887
 30
0.0
 10
5.2154291877
 20
3.0477999331
 30
0.0
 10
5.2167629797
 20
3.0480659742
 30
0.0
 10
5.2189442444
 20
3.0484445918
 30
0.0
 10
5.2221772992
 20
3.0489057474
 30
0.0
 10
5.2266581709
 20
3.0494357601
 30
0.0
 10
5.231927637
 20
3.0499678075
 30
0.0
 10
5.2404919533
 20
3.0507232691
 30
0.0
 10
5.2530732982
 20
3.0516434419
 30
0.0
 10
5.2703369706
 20
3.0527014198
 30
0.0
 10
5.2903690011
 20
3.0537640316
 30
0.0
 10
5.3129888715
 20
3.0548295218
 30
0.0
 10
5.3379941989
 20
3.0558967262
 30
0.0
 10
5.365161635
 20
3.0569657361
 30
0.0
 10
5.3942469581
 20
3.0580353943
 30
0.0
 10
5.4249902425
 20
3.059105798
 30
0.0
 10
5.4571158494
 20
3.0601768806
 30
0.0
 10
5.5018723139
 20
3.061620063
 30
0.0
 10
5.5590436733
 20
3.0633997396
 30
0.0
 10
5.6276784629
 20
3.0655145908
 30
0.0
 10
5.6945816682
 20
3.0676278648
 30
0.0
 10
5.7481575632
 20
3.069426117
 30
0.0
 10
5.7883651505
 20
3.0708892777
 30
0.0
 10
5.8158875501
 20
3.0719581217
 30
0.0
 10
5.841290147
 20
3.0730260779
 30
0.0
 10
5.8643445367
 20
3.074091727
 30
0.0
 10
5.884844738
 20
3.0751548861
 30
0.0
 10
5.9026079261
 20
3.0762137902
 30
0.0
 10
5.9174740037
 20
3.0772663937
 30
0.0
 10
5.927986347
 20
3.0781862511
 30
0.0
 10
5.9348450644
 20
3.0789509936
 30
0.0
 10
5.9388078943
 20
3.07947858
 30
0.0
 10
5.9419674495
 20
3.0800019276
 30
0.0
 10
5.9437966748
 20
3.080398429
 30
0.0
 10
5.9445688714
 20
3.080613409
 30
0.0
 11
5.2116630967
 21
3.0461640159
 31
0.0
 11
5.2120760221
 21
3.0467023439
 31
0.0
 11
5.2125910663
 21
3.0469714584
 31
0.0
 11
5.213311272
 21
3.0472405497
 31
0.0
 11
5.2142362194
 21
3.0475096254
 31
0.0
 11
5.2153654888
 21
3.0477786926
 31
0.0
 11
5.2166986606
 21
3.0480477589
 31
0.0
 11
5.2182353148
 21
3.0483168316
 31
0.0
 11
5.2219166588
 21
3.0488550197
 31
0.0
 11
5.2263997398
 21
3.0493932631
 31
0.0
 11
5.2316721173
 21
3.0499315461
 31
0.0
 11
5.2377213356
 21
3.0504698529
 31
0.0
 11
5.252100406
 21
3.0515464746
 31
0.0
 11
5.2694175818
 21
3.0526230446
 31
0.0
 11
5.2895064297
 21
3.0536995818
 31
0.0
 11
5.3121926586
 21
3.0547761194
 31
0.0
 11
5.3372747245
 21
3.0558526713
 31
0.0
 11
5.3645206328
 21
3.0569292294
 31
0.0
 11
5.3936937175
 21
3.0580057855
 31
0.0
 11
5.4245297036
 21
3.0590823383
 31
0.0
 11
5.456749705
 21
3.0601588901
 31
0.0
 11
5.4900699097
 21
3.0612354429
 31
0.0
 11
5.5587997791
 21
3.0633885501
 31
0.0
 11
5.6282623691
 21
3.0655416569
 31
0.0
 11
5.6959707012
 21
3.0676947638
 31
0.0
 11
5.7595054121
 21
3.069847871
 31
0.0
 11
5.7889899616
 21
3.0709244246
 31
0.0
 11
5.8165961123
 21
3.0720009783
 31
0.0
 11
5.8420713746
 21
3.073077532
 31
0.0
 11
5.8651961467
 21
3.0741540857
 31
0.0
 11
5.8857568921
 21
3.0752306395
 31
0.0
 11
5.9035685613
 21
3.0763071933
 31
0.0
 11
5.9184798646
 21
3.0773837472
 31
0.0
 11
5.9303460818
 21
3.0784603011
 31
0.0
 11
5.9351045054
 21
3.078998578
 31
0.0
 11
5.9390673117
 21
3.079536855
 31
0.0
 11
5.9422252004
 21
3.080075132
 31
0.0
 11
5.9445688714
 21
3.080613409
 31
0.0
  0
LINE
  5
2BF
100
AcDbEntity
  8
0
100
AcDbLine
 62
6
  6
CONTINUOUS
 10
5.9445688714
 20
3.080613409
 11
5.9463158555
 21
3.0812705804
  0
SPLINE
  5
2C0
100
AcDbEntity
  8
0
100
AcDbSpline
 62
6
  6
CONTINUOUS
 70
0
 71
3
 72
12
 73
8
 74
6
 42
0.0000001
 43
0.0000001
 44
0.0000000001
 12
0.3285846616
 22
0.0156539701
 32
0.0
 13
0.328828606
 23
0.0092018753
 33
0.0
 40
0.0
 40
0.0
 40
0.0
 40
0.0
 40
0.0923044157
 40
0.1972381662
 40
0.438826226
 40
0.7114302831
 40
1.0
 40
1.0
 40
1.0
 40
1.0
 10
5.2504755104
 20
2.7899018555
 30
0.0
 10
5.2605854488
 20
2.790383499
 30
0.0
 10
5.2821927348
 20
2.7913258329
 30
0.0
 10
5.3302755697
 20
2.793177682
 30
0.0
 10
5.3981276976
 20
2.7954168728
 30
0.0
 10
5.4861141213
 20
2.7980161937
 30
0.0
 10
5.5476241578
 20
2.7997367095
 30
0.0
 10
5.5792541504
 20
2.800621837
 30
0.0
 11
5.2504755104
 21
2.7899018555
 31
0.0
 11
5.2808101625
 21
2.7912414061
 31
0.0
 11
5.3153028539
 21
2.7925818293
 31
0.0
 11
5.3947298207
 21
2.7952617092
 31
0.0
 11
5.4843648682
 21
2.7979417138
 31
0.0
 11
5.5792541504
 21
2.800621837
 31
0.0
  0
LINE
  5
2C1
100
AcDbEntity
  8
0
100
AcDbLine
 62
6
  6
CONTINUOUS
 10
5.9850249165
 20
2.7565291938
 11
5.9821364652
 21
2.7574434152
  0
LINE
  5
2C2
100
AcDbEntity
  8
0
100
AcDbLine
 62
6
  6
CONTINUOUS
 10
5.9463178934
 20
2.7789073247
 11
5.9454363436
 21
2.7792940139
  0
SPLINE
  5
2C3
100
AcDbEntity
  8
0
100
AcDbSpline
 62
6
  6
CONTINUOUS
 70
0
 71
3
 72
40
 73
36
 74
34
 42
0.0000001
 43
0.0000001
 44
0.0000000001
 12
0.0004639101
 22
0.7308887814
 32
0.0
 13
0.7196488537
 23
0.127687718
 33
0.0
 40
0.0
 40
0.0
 40
0.0
 40
0.0
 40
0.0009002345
 40
0.0016641458
 40
0.0026734636
 40
0.0039378829
 40
0.0054622152
 40
0.0072487647
 40
0.0092977614
 40
0.0141804987
 40
0.0201030171
 40
0.0350250761
 40
0.0539648696
 40
0.0767573253
 40
0.1032054526
 40
0.1330977897
 40
0.1661676012
 40
0.2021333512
 40
0.2406949991
 40
0.281512533
 40
0.3242400402
 40
0.3685138075
 40
0.4601584407
 40
0.5533126058
 40
0.6447831635
 40
0.7314386895
 40
0.8103173123
 40
0.8787152383
 40
0.9082370495
 40
0.9342947332
 40
0.9566751698
 40
0.9751750483
 40
0.9896520114
 40
0.9953481949
 40
1.0
 40
1.0
 40
1.0
 40
1.0
 10
5.2116683971
 20
3.2604540474
 30
0.0
 10
5.2116685364
 20
3.2606733711
 30
0.0
 10
5.2120381471
 20
3.2609994835
 30
0.0
 10
5.2125991199
 20
3.2612751084
 30
0.0
 10
5.213301924
 20
3.2615386866
 30
0.0
 10
5.214187944
 20
3.2617948884
 30
0.0
 10
5.2152732346
 20
3.2620556691
 30
0.0
 10
5.2165526066
 20
3.2623161034
 30
0.0
 10
5.218644413
 20
3.2626866463
 30
0.0
 10
5.2217438745
 20
3.2631383342
 30
0.0
 10
5.2279670416
 20
3.2638893407
 30
0.0
 10
5.2376191772
 20
3.2647897458
 30
0.0
 10
5.2513836658
 20
3.2658189319
 30
0.0
 10
5.2679625031
 20
3.2668540785
 30
0.0
 10
5.2872136448
 20
3.2678947873
 30
0.0
 10
5.3089717775
 20
3.2689374832
 30
0.0
 10
5.3330509343
 20
3.2699825728
 30
0.0
 10
5.3592439488
 20
3.2710290367
 30
0.0
 10
5.3873259026
 20
3.2720761469
 30
0.0
 10
5.4170562594
 20
3.2731242188
 30
0.0
 10
5.4481790616
 20
3.2741727551
 30
0.0
 10
5.4916795116
 20
3.2755873934
 30
0.0
 10
5.5474610994
 20
3.2773325461
 30
0.0
 10
5.6147366048
 20
3.2794044426
 30
0.0
 10
5.6807960745
 20
3.2814751567
 30
0.0
 10
5.7433760003
 20
3.2835416044
 30
0.0
 10
5.8003316636
 20
3.2856010181
 30
0.0
 10
5.8433686662
 20
3.2873799287
 30
0.0
 10
5.8735379539
 20
3.2888428762
 30
0.0
 10
5.8925029108
 20
3.2898833206
 30
0.0
 10
5.9087785883
 20
3.2909172726
 30
0.0
 10
5.922226173
 20
3.2919461887
 30
0.0
 10
5.9316066
 20
3.2928460159
 30
0.0
 10
5.9376080787
 20
3.2935982242
 30
0.0
 10
5.9401008568
 20
3.293979246
 30
0.0
 10
5.9412167455
 20
3.2941772387
 30
0.0
 11
5.2116683971
 21
3.2604540474
 31
0.0
 11
5.2120624483
 21
3.2609809725
 31
0.0
 11
5.2125547132
 21
3.261244435
 31
0.0
 11
5.2132437615
 21
3.2615078976
 31
0.0
 11
5.214129561
 21
3.2617713601
 31
0.0
 11
5.2152120792
 21
3.2620348227
 31
0.0
 11
5.2164909931
 21
3.2622982852
 31
0.0
 11
5.2179652252
 21
3.2625617478
 31
0.0
 11
5.2214948492
 21
3.2630886729
 31
0.0
 11
5.2257913618
 21
3.2636155979
 31
0.0
 11
5.2366466949
 21
3.2646694481
 31
0.0
 11
5.2504494075
 21
3.2657232982
 31
0.0
 11
5.2670747938
 21
3.2667771483
 31
0.0
 11
5.2863766894
 21
3.2678309983
 31
0.0
 11
5.3081992364
 21
3.2688848483
 31
0.0
 11
5.3323466101
 21
3.2699386983
 31
0.0
 11
5.3586124455
 21
3.2709925483
 31
0.0
 11
5.3867770177
 21
3.2720463982
 31
0.0
 11
5.416591482
 21
3.2731002481
 31
0.0
 11
5.4478027574
 21
3.2741540979
 31
0.0
 11
5.4801447986
 21
3.2752079478
 31
0.0
 11
5.5470936771
 21
3.2773156473
 31
0.0
 11
5.6151463935
 21
3.2794233468
 31
0.0
 11
5.6819679789
 21
3.281531046
 31
0.0
 11
5.7452684635
 21
3.2836387452
 31
0.0
 11
5.8028814347
 21
3.2857464442
 31
0.0
 11
5.8528282701
 21
3.2878541431
 31
0.0
 11
5.8743796842
 21
3.2889079924
 31
0.0
 11
5.8933957776
 21
3.2899618418
 31
0.0
 11
5.9097194082
 21
3.2910156911
 31
0.0
 11
5.9231996337
 21
3.2920695404
 31
0.0
 11
5.9337280744
 21
3.2931233896
 31
0.0
 11
5.9378578722
 21
3.2936503142
 31
0.0
 11
5.9412167455
 21
3.2941772387
 31
0.0
  0
SPLINE
  5
2C4
100
AcDbEntity
  8
0
100
AcDbSpline
 62
6
  6
CONTINUOUS
 70
0
 71
3
 72
11
 73
7
 74
5
 42
0.0000001
 43
0.0000001
 44
0.0000000001
 12
0.005216774
 22
0.0009256153
 32
0.0
 13
0.004586343
 23
0.0026527256
 33
0.0
 40
0.0
 40
0.0
 40
0.0
 40
0.0
 40
0.3423766948
 40
0.6225149863
 40
0.8411532086
 40
1.0
 40
1.0
 40
1.0
 40
1.0
 10
5.9412167455
 20
3.2941772387
 30
0.0
 10
5.9418121128
 20
3.2942828751
 30
0.0
 10
5.9428921071
 20
3.2944891725
 30
0.0
 10
5.9443397347
 20
3.2948273099
 30
0.0
 10
5.9454517761
 20
3.2951623585
 30
0.0
 10
5.9460708448
 20
3.2954201926
 30
0.0
 10
5.9463136867
 20
3.2955606516
 30
0.0
 11
5.9412167455
 21
3.2941772387
 31
0.0
 11
5.9429974692
 21
3.294523092
 31
0.0
 11
5.9444408559
 21
3.2948689452
 31
0.0
 11
5.9455464227
 21
3.2952147984
 31
0.0
 11
5.9463136867
 21
3.2955606516
 31
0.0
  0
SPLINE
  5
2C5
100
AcDbEntity
  8
0
100
AcDbSpline
 62
6
  6
CONTINUOUS
 70
0
 71
3
 72
17
 73
13
 74
11
 42
0.0000001
 43
0.0000001
 44
0.0000000001
 12
0.1265838934
 22
0.0051462217
 32
0.0
 13
0.1226869976
 23
0.0315890217
 33
0.0
 40
0.0
 40
0.0
 40
0.0
 40
0.0
 40
0.1967725598
 40
0.3759557558
 40
0.5356596179
 40
0.6743456193
 40
0.7909608544
 40
0.884529341
 40
0.9224464205
 40
0.9543640139
 40
0.9802268058
 40
1.0
 40
1.0
 40
1.0
 40
1.0
 10
5.8178479038
 20
2.7149018555
 30
0.0
 10
5.8261506494
 20
2.7152394005
 30
0.0
 10
5.8420129929
 20
2.7159086724
 30
0.0
 10
5.8646094706
 20
2.7169556423
 30
0.0
 10
5.8847501684
 20
2.7180004651
 30
0.0
 10
5.9022449828
 20
2.7190412831
 30
0.0
 10
5.9169414131
 20
2.7200760538
 30
0.0
 10
5.9273806342
 20
2.720979734
 30
0.0
 10
5.9342404927
 20
2.7217291558
 30
0.0
 10
5.9382488124
 20
2.722248223
 30
0.0
 10
5.9414833114
 20
2.7227634639
 30
0.0
 10
5.9433728356
 20
2.7231516769
 30
0.0
 10
5.9441814736
 20
2.7233598822
 30
0.0
 11
5.8178479038
 21
2.7149018555
 31
0.0
 11
5.8427543361
 21
2.7159579416
 31
0.0
 11
5.8654301166
 21
2.7170158123
 31
0.0
 11
5.8856350713
 21
2.7180738161
 31
0.0
 11
5.9031731439
 21
2.7191311481
 31
0.0
 11
5.9179090864
 21
2.7201881709
 31
0.0
 11
5.9297159037
 21
2.7212452914
 31
0.0
 11
5.9344903848
 21
2.7217739175
 31
0.0
 11
5.9384992692
 21
2.722302568
 31
0.0
 11
5.9417328561
 21
2.7228312279
 31
0.0
 11
5.9441814736
 21
2.7233598822
 31
0.0
  0
LINE
  5
2C6
100
AcDbEntity
  8
0
100
AcDbLine
 62
6
  6
CONTINUOUS
 10
5.9441814736
 20
2.7233598822
 11
5.9463157889
 21
2.7241206792
  0
LINE
  5
2C7
100
AcDbEntity
  8
0
100
AcDbLine
 62
6
  6
CONTINUOUS
 10
5.9463162915
 20
2.921767389
 11
5.944763185
 21
2.9223692618
  0
SPLINE
  5
2C8
100
AcDbEntity
  8
0
100
AcDbSpline
 62
6
  6
CONTINUOUS
 70
0
 71
3
 72
12
 73
8
 74
6
 42
0.0000001
 43
0.0000001
 44
0.0000000001
 12
0.0107635832
 22
0.0062076659
 32
0.0
 13
0.0123386448
 23
0.0014654978
 33
0.0
 40
0.0
 40
0.0
 40
0.0
 40
0.0
 40
0.0570838801
 40
0.1330461312
 40
0.3432878959
 40
0.6322412885
 40
1.0
 40
1.0
 40
1.0
 40
1.0
 10
5.2121919105
 20
2.8146223259
 30
0.0
 10
5.2123967195
 20
2.8147404451
 30
0.0
 10
5.2129042657
 20
2.81496169
 30
0.0
 10
5.2142583282
 20
2.8153970034
 30
0.0
 10
5.2165904885
 20
2.8159037995
 30
0.0
 10
5.2201339375
 20
2.8164825004
 30
0.0
 10
5.2228325125
 20
2.8168290782
 30
0.0
 10
5.2243450605
 20
2.8170087281
 30
0.0
 11
5.2121919105
 21
2.8146223259
 31
0.0
 11
5.2128354219
 21
2.8149206262
 31
0.0
 11
5.2137309033
 21
2.8152189264
 31
0.0
 11
5.2162741976
 21
2.815815527
 31
0.0
 11
5.2198146358
 21
2.8164121275
 31
0.0
 11
5.2243450605
 21
2.8170087281
 31
0.0
  0
SPLINE
  5
2C9
100
AcDbEntity
  8
0
100
AcDbSpline
 62
6
  6
CONTINUOUS
 70
0
 71
3
 72
39
 73
35
 74
33
 42
0.0000001
 43
0.0000001
 44
0.0000000001
 12
0.7187164497
 22
0.0853641032
 32
0.0
 13
-0.0032056369
 23
0.7237610718
 33
0.0
 40
0.0
 40
0.0
 40
0.0
 40
0.0
 40
0.0139371784
 40
0.0317060354
 40
0.0531707606
 40
0.0781726681
 40
0.1064983488
 40
0.1379246815
 40
0.2090540391
 40
0.2892653665
 40
0.3759724558
 40
0.4663857208
 40
0.5575867146
 40
0.6466358145
 40
0.6894517685
 40
0.7306655289
 40
0.7699381851
 40
0.8069609086
 40
0.8414331504
 40
0.8730692874
 40
0.901626424
 40
0.9268698591
 40
0.9485908762
 40
0.9666311575
 40
0.9808415414
 40
0.9864744725
 40
0.9911173309
 40
0.9930665922
 40
0.9947677007
 40
0.9962213284
 40
0.9974292006
 40
0.9983951656
 40
0.9991279622
 40
1.0
 40
1.0
 40
1.0
 40
1.0
 10
5.2243450605
 20
2.8170087281
 30
0.0
 10
5.2276840203
 20
2.8174053063
 30
0.0
 10
5.2352982563
 20
2.8181501637
 30
0.0
 10
5.2480873525
 20
2.8191483569
 30
0.0
 10
5.2635523565
 20
2.8201528817
 30
0.0
 10
5.2815683616
 20
2.8211617024
 30
0.0
 10
5.3019908032
 20
2.8221739225
 30
0.0
 10
5.3335352792
 20
2.823584733
 30
0.0
 10
5.3775955183
 20
2.8253083024
 30
0.0
 10
5.4349910858
 20
2.8273120235
 30
0.0
 10
5.4970414467
 20
2.8293208735
 30
0.0
 10
5.561744334
 20
2.8313325473
 30
0.0
 10
5.6270124915
 20
2.8333448838
 30
0.0
 10
5.6808017833
 20
2.8350418411
 30
0.0
 10
5.7225354549
 20
2.8364169682
 30
0.0
 10
5.7522655072
 20
2.8374343256
 30
0.0
 10
5.7805970655
 20
2.838451412
 30
0.0
 10
5.8073011201
 20
2.8394676756
 30
0.0
 10
5.8321614477
 20
2.8404828233
 30
0.0
 10
5.8549776023
 20
2.8414971152
 30
0.0
 10
5.8755649759
 20
2.8425091415
 30
0.0
 10
5.893757169
 20
2.8435184235
 30
0.0
 10
5.9094080964
 20
2.8445233418
 30
0.0
 10
5.9223909469
 20
2.8455223002
 30
0.0
 10
5.9314902233
 20
2.8463952397
 30
0.0
 10
5.9373528692
 20
2.8471244315
 30
0.0
 10
5.940270009
 20
2.847562862
 30
0.0
 10
5.9422385555
 20
2.8479223983
 30
0.0
 10
5.9434435266
 20
2.8481751769
 30
0.0
 10
5.9444665642
 20
2.8484282152
 30
0.0
 10
5.945302905
 20
2.848676838
 30
0.0
 10
5.9459661052
 20
2.8489325485
 30
0.0
 10
5.9464988252
 20
2.8492009671
 30
0.0
 10
5.9468435387
 20
2.8495185878
 30
0.0
 10
5.9468426069
 20
2.8497289701
 30
0.0
 11
5.2243450605
 21
2.8170087281
 31
0.0
 11
5.2343803891
 21
2.8180312354
 31
0.0
 11
5.2472002094
 21
2.8190537427
 31
0.0
 11
5.2627020083
 21
2.82007625
 31
0.0
 11
5.2807686812
 21
2.8210987573
 31
0.0
 11
5.3012443924
 21
2.8221212647
 31
0.0
 11
5.323966777
 21
2.823143772
 31
0.0
 11
5.3754073084
 21
2.8251887868
 31
0.0
 11
5.4334256842
 21
2.8272338017
 31
0.0
 11
5.4961481865
 21
2.8292788167
 31
0.0
 11
5.5615544677
 21
2.8313238317
 31
0.0
 11
5.6275311581
 21
2.8333688469
 31
0.0
 11
5.6919496101
 21
2.8354138621
 31
0.0
 11
5.7229215609
 21
2.8364363697
 31
0.0
 11
5.7527332386
 21
2.8374588773
 31
0.0
 11
5.7811391399
 21
2.838481385
 31
0.0
 11
5.8079154925
 21
2.8395038926
 31
0.0
 11
5.8328444427
 21
2.8405264003
 31
0.0
 11
5.8557188296
 21
2.841548908
 31
0.0
 11
5.8763622683
 21
2.8425714157
 31
0.0
 11
5.8946040283
 21
2.8435939234
 31
0.0
 11
5.9102917214
 21
2.8446164312
 31
0.0
 11
5.9233086043
 21
2.8456389389
 31
0.0
 11
5.9335426743
 21
2.8466614467
 31
0.0
 11
5.9375874274
 21
2.8471727006
 31
0.0
 11
5.940908661
 21
2.8476839545
 31
0.0
 11
5.9422961224
 21
2.8479395814
 31
0.0
 11
5.9435005013
 21
2.8481952084
 31
0.0
 11
5.9445210634
 21
2.8484508353
 31
0.0
 11
5.9453570745
 21
2.8487064623
 31
0.0
 11
5.9460078004
 21
2.8489620892
 31
0.0
 11
5.9464725072
 21
2.8492177162
 31
0.0
 11
5.9468426069
 21
2.8497289701
 31
0.0
  0
SPLINE
  5
2CA
100
AcDbEntity
  8
0
100
AcDbSpline
 62
6
  6
CONTINUOUS
 70
0
 71
3
 72
10
 73
6
 74
4
 42
0.0000001
 43
0.0000001
 44
0.0000000001
 12
0.003578668
 22
0.0020718536
 32
0.0
 13
0.0040559227
 23
0.0008055638
 33
0.0
 40
0.0
 40
0.0
 40
0.0
 40
0.0
 40
0.1670392413
 40
0.3884611333
 40
1.0
 40
1.0
 40
1.0
 40
1.0
 10
5.2121943008
 20
2.8860523605
 30
0.0
 10
5.2123935602
 20
2.8861677208
 30
0.0
 10
5.2128859449
 20
2.8863843855
 30
0.0
 10
5.2141970692
 20
2.8868111334
 30
0.0
 10
5.2153213779
 20
2.8870572829
 30
0.0
 10
5.2161481627
 20
2.8872214941
 30
0.0
 11
5.2121943008
 21
2.8860523605
 31
0.0
 11
5.212820145
 21
2.8863446439
 31
0.0
 11
5.2136878523
 21
2.8866369273
 31
0.0
 11
5.2161481627
 21
2.8872214941
 31
0.0
  0
SPLINE
  5
2CB
100
AcDbEntity
  8
0
100
AcDbSpline
 62
6
  6
CONTINUOUS
 70
0
 71
3
 72
41
 73
37
 74
35
 42
0.0000001
 43
0.0000001
 44
0.0000000001
 12
0.7180264794
 22
0.1426102567
 32
0.0
 13
0.0016512695
 23
0.7320498506
 33
0.0
 40
0.0
 40
0.0
 40
0.0
 40
0.0
 40
0.0042494715
 40
0.009557181
 40
0.0233046635
 40
0.0411449555
 40
0.0629400643
 40
0.0884895954
 40
0.1175830846
 40
0.1499708351
 40
0.185362495
 40
0.2639335361
 40
0.3505685627
 40
0.4422683009
 40
0.5358544367
 40
0.6280779043
 40
0.6726774719
 40
0.7157443133
 40
0.7569088351
 40
0.7958155433
 40
0.8321177418
 40
0.8655105861
 40
0.8957023165
 40
0.9224234177
 40
0.9454575619
 40
0.9645985295
 40
0.9796834342
 40
0.9856715147
 40
0.9906077005
 40
0.9926785214
 40
0.9944835064
 40
0.9960235243
 40
0.9973011284
 40
0.9983210013
 40
0.9990927075
 40
1.0
 40
1.0
 40
1.0
 40
1.0
 10
5.2161481627
 20
2.8872214941
 30
0.0
 10
5.2171652404
 20
2.8874235001
 30
0.0
 10
5.2194661911
 20
2.8878090234
 30
0.0
 10
5.2251022588
 20
2.888569424
 30
0.0
 10
5.2340618756
 20
2.8894737185
 30
0.0
 10
5.2470473328
 20
2.8905071668
 30
0.0
 10
5.2629201064
 20
2.8915461223
 30
0.0
 10
5.2815430911
 20
2.892592284
 30
0.0
 10
5.3027543241
 20
2.8936410142
 30
0.0
 10
5.3263696714
 20
2.894691977
 30
0.0
 10
5.3620521247
 20
2.8961467593
 30
0.0
 10
5.4109692009
 20
2.8979279184
 30
0.0
 10
5.4736241882
 20
2.9000073038
 30
0.0
 10
5.5399448894
 20
2.9020903511
 30
0.0
 10
5.6076298514
 20
2.9041750046
 30
0.0
 10
5.6638262648
 20
2.905930362
 30
0.0
 10
5.7076994294
 20
2.9073534267
 30
0.0
 10
5.7391186923
 20
2.9084086239
 30
0.0
 10
5.7691480047
 20
2.90946329
 30
0.0
 10
5.7975255943
 20
2.9105170298
 30
0.0
 10
5.8240053997
 20
2.9115701673
 30
0.0
 10
5.8483568544
 20
2.9126217872
 30
0.0
 10
5.8703681055
 20
2.913671146
 30
0.0
 10
5.8898485363
 20
2.9147184917
 30
0.0
 10
5.9066284691
 20
2.9157600109
 30
0.0
 10
5.9205626898
 20
2.9167959278
 30
0.0
 10
5.9303350607
 20
2.9177019779
 30
0.0
 10
5.9366369851
 20
2.9184576477
 30
0.0
 10
5.9397757936
 20
2.918912175
 30
0.0
 10
5.9418938405
 20
2.9192850803
 30
0.0
 10
5.9431889071
 20
2.9195472144
 30
0.0
 10
5.9442875211
 20
2.9198096774
 30
0.0
 10
5.945184525
 20
2.9200674917
 30
0.0
 10
5.9458964398
 20
2.9203327202
 30
0.0
 10
5.9464640153
 20
2.9206098429
 30
0.0
 10
5.946839717
 20
2.9209376248
 30
0.0
 10
5.9468402164
 20
2.9211590192
 30
0.0
 11
5.2161481627
 21
2.8872214941
 31
0.0
 11
5.219213467
 21
2.8877517679
 31
0.0
 11
5.2230626304
 21
2.8882820418
 31
0.0
 11
5.2330704613
 21
2.8893425895
 31
0.0
 11
5.2460873451
 21
2.8904031372
 31
0.0
 11
5.2620072052
 21
2.8914636849
 31
0.0
 11
5.280680691
 21
2.8925242327
 31
0.0
 11
5.3019522078
 21
2.8935847804
 31
0.0
 11
5.3256379845
 21
2.8946453281
 31
0.0
 11
5.3515247943
 21
2.8957058758
 31
0.0
 11
5.4090037364
 21
2.8978269712
 31
0.0
 11
5.4723895765
 21
2.8999480666
 31
0.0
 11
5.5394850081
 21
2.902069162
 31
0.0
 11
5.6079620562
 21
2.9041902574
 31
0.0
 11
5.6754410753
 21
2.9063113527
 31
0.0
 11
5.7080730356
 21
2.9073719004
 31
0.0
 11
5.7395823476
 21
2.908432448
 31
0.0
 11
5.7696982382
 21
2.9094929957
 31
0.0
 11
5.7981602085
 21
2.9105535433
 31
0.0
 11
5.8247141247
 21
2.9116140909
 31
0.0
 11
5.849136397
 21
2.9126746386
 31
0.0
 11
5.8712128454
 21
2.9137351862
 31
0.0
 11
5.8907453024
 21
2.9147957338
 31
0.0
 11
5.9075741025
 21
2.9158562814
 31
0.0
 11
5.9215460878
 21
2.916916829
 31
0.0
 11
5.9325379734
 21
2.9179773765
 31
0.0
 11
5.9368893667
 21
2.9185076503
 31
0.0
 11
5.9404637904
 21
2.9190379241
 31
0.0
 11
5.9419563723
 21
2.919303061
 31
0.0
 11
5.9432508405
 21
2.9195681979
 31
0.0
 11
5.9443465922
 21
2.9198333348
 31
0.0
 11
5.9452434961
 21
2.9200984717
 31
0.0
 11
5.9459414314
 21
2.9203636085
 31
0.0
 11
5.9464402771
 21
2.9206287454
 31
0.0
 11
5.9468402164
 21
2.9211590192
 31
0.0
  0
SPLINE
  5
2CC
100
AcDbEntity
  8
0
100
AcDbSpline
 62
6
  6
CONTINUOUS
 70
0
 71
3
 72
12
 73
8
 74
6
 42
0.0000001
 43
0.0000001
 44
0.0000000001
 12
-0.0124348658
 22
0.0014006557
 32
0.0
 13
-0.0108355184
 23
0.0062593342
 33
0.0
 40
0.0
 40
0.0
 40
0.0
 40
0.0
 40
0.3708237119
 40
0.6608327725
 40
0.8700659534
 40
0.9447320939
 40
1.0
 40
1.0
 40
1.0
 40
1.0
 10
5.1857398356
 20
2.779910259
 30
0.0
 10
5.1842027879
 20
2.7800833911
 30
0.0
 10
5.1814657973
 20
2.7804168905
 30
0.0
 10
5.1778802834
 20
2.7809749813
 30
0.0
 10
5.1755320874
 20
2.7814630583
 30
0.0
 10
5.1741811727
 20
2.781884297
 30
0.0
 10
5.1736801897
 20
2.7820984444
 30
0.0
 10
5.1734805709
 20
2.7822137579
 30
0.0
 11
5.1857398356
 21
2.779910259
 31
0.0
 11
5.1811354051
 21
2.7804861347
 31
0.0
 11
5.1775523583
 21
2.7810620047
 31
0.0
 11
5.174998234
 21
2.7816378765
 31
0.0
 11
5.1741093736
 21
2.7819258155
 31
0.0
 11
5.1734805709
 21
2.7822137579
 31
0.0
  0
LINE
  5
2CD
100
AcDbEntity
  8
0
100
AcDbLine
 62
6
  6
CONTINUOUS
 10
5.2121903939
 20
2.9574824189
 11
5.2131420918
 21
2.9578934262
  0
SPLINE
  5
2CE
100
AcDbEntity
  8
0
100
AcDbSpline
 62
6
  6
CONTINUOUS
 70
0
 71
3
 72
45
 73
41
 74
39
 42
0.0000001
 43
0.0000001
 44
0.0000000001
 12
0.6949858088
 22
0.2396832633
 32
0.0
 13
-0.0005372073
 23
0.7351551214
 33
0.0
 40
0.0
 40
0.0
 40
0.0
 40
0.0
 40
0.0028022804
 40
0.0067003372
 40
0.0116972514
 40
0.0177891584
 40
0.0249693179
 40
0.0332238138
 40
0.0528695297
 40
0.0765493336
 40
0.1040658281
 40
0.1351576132
 40
0.1695476828
 40
0.2069307273
 40
0.246957395
 40
0.3334900041
 40
0.4260080209
 40
0.521162889
 40
0.6155061109
 40
0.6612988221
 40
0.7056157664
 40
0.748057553
 40
0.7882309689
 40
0.8257795798
 40
0.8603619238
 40
0.891656298
 40
0.919392994
 40
0.9433128018
 40
0.9632004865
 40
0.9715811709
 40
0.9788935259
 40
0.9851189043
 40
0.9902461426
 40
0.9923972209
 40
0.9942733681
 40
0.9958753527
 40
0.997204989
 40
0.9982662075
 40
0.9990678534
 40
1.0
 40
1.0
 40
1.0
 40
1.0
 10
5.2131420918
 20
2.9578934262
 30
0.0
 10
5.2137912736
 20
2.9581173128
 30
0.0
 10
5.2153875205
 20
2.9585189645
 30
0.0
 10
5.2182053876
 20
2.9590431721
 30
0.0
 10
5.2218407566
 20
2.9595721268
 30
0.0
 10
5.2262857998
 20
2.9601058036
 30
0.0
 10
5.2315339286
 20
2.9606414082
 30
0.0
 10
5.2400968409
 20
2.9614023362
 30
0.0
 10
5.2527032521
 20
2.9623287852
 30
0.0
 10
5.270030642
 20
2.9633948575
 30
0.0
 10
5.2901673063
 20
2.9644641087
 30
0.0
 10
5.3129315239
 20
2.965537227
 30
0.0
 10
5.3381158834
 20
2.9666121969
 30
0.0
 10
5.3654915118
 20
2.9676883515
 30
0.0
 10
5.4056388103
 20
2.9691634859
 30
0.0
 10
5.459293609
 20
2.9709751149
 30
0.0
 10
5.5264544696
 20
2.9731027286
 30
0.0
 10
5.5955302019
 20
2.975232152
 30
0.0
 10
5.6531608097
 20
2.9770233198
 30
0.0
 10
5.6983379625
 20
2.9784762628
 30
0.0
 10
5.7308020221
 20
2.9795549047
 30
0.0
 10
5.7618883017
 20
2.9806328081
 30
0.0
 10
5.7913149611
 20
2.9817102978
 30
0.0
 10
5.8188143241
 20
2.9827866948
 30
0.0
 10
5.8441361489
 20
2.9838614589
 30
0.0
 10
5.8670512414
 20
2.984934873
 30
0.0
 10
5.8873505175
 20
2.9860045683
 30
0.0
 10
5.9048503134
 20
2.9870704386
 30
0.0
 10
5.9176060945
 20
2.9879971502
 30
0.0
 10
5.9262921471
 20
2.9887576546
 30
0.0
 10
5.9316367141
 20
2.9892933201
 30
0.0
 10
5.9361796102
 20
2.9898271673
 30
0.0
 10
5.9394564225
 20
2.9902919866
 30
0.0
 10
5.9416674608
 20
2.9906733307
 30
0.0
 10
5.9430203438
 20
2.990941331
 30
0.0
 10
5.9441692574
 20
2.9912096449
 30
0.0
 10
5.9451079398
 20
2.9914730585
 30
0.0
 10
5.9458543999
 20
2.9917442621
 30
0.0
 10
5.9464458088
 20
2.9920258372
 30
0.0
 10
5.9468442965
 20
2.9923606136
 30
0.0
 10
5.9468441295
 20
2.9925890377
 30
0.0
 11
5.2131420918
 21
2.9578934262
 31
0.0
 11
5.2151295942
 21
2.9584355454
 31
0.0
 11
5.2179435261
 21
2.9589776645
 31
0.0
 11
5.2215768122
 21
2.9595197837
 31
0.0
 11
5.2260223774
 21
2.9600619028
 31
0.0
 11
5.2312729975
 21
2.960604022
 31
0.0
 11
5.2373170702
 21
2.9611461411
 31
0.0
 11
5.2517189673
 21
2.9622303793
 31
0.0
 11
5.2690935036
 21
2.9633146176
 31
0.0
 11
5.2892933232
 21
2.9643988558
 31
0.0
 11
5.3121248844
 21
2.9654830939
 31
0.0
 11
5.337383667
 21
2.966567332
 31
0.0
 11
5.3648446149
 21
2.9676515701
 31
0.0
 11
5.3942504506
 21
2.9687358082
 31
0.0
 11
5.4578283885
 21
2.9709042843
 31
0.0
 11
5.5258089238
 21
2.9730727602
 31
0.0
 11
5.595728913
 21
2.975241236
 31
0.0
 11
5.6650519268
 21
2.9774097117
 31
0.0
 11
5.6986992174
 21
2.9784939495
 31
0.0
 11
5.7312610083
 21
2.9795781873
 31
0.0
 11
5.7624434692
 21
2.980662425
 31
0.0
 11
5.7919572606
 21
2.9817466627
 31
0.0
 11
5.8195400199
 21
2.9828309004
 31
0.0
 11
5.8449402836
 21
2.983915138
 31
0.0
 11
5.8679209461
 21
2.9849993756
 31
0.0
 11
5.8882828792
 21
2.9860836131
 31
0.0
 11
5.9058341954
 21
2.9871678506
 31
0.0
 11
5.9204144745
 21
2.9882520881
 31
0.0
 11
5.9265516821
 21
2.9887942069
 31
0.0
 11
5.9318999937
 21
2.9893363256
 31
0.0
 11
5.9364443923
 21
2.9898784443
 31
0.0
 11
5.9401745202
 21
2.990420563
 31
0.0
 11
5.9417324929
 21
2.9906916223
 31
0.0
 11
5.9430848553
 21
2.9909626817
 31
0.0
 11
5.944230945
 21
2.991233741
 31
0.0
 11
5.9451701
 21
2.9915048004
 31
0.0
 11
5.945901658
 21
2.9917758597
 31
0.0
 11
5.9464249568
 21
2.992046919
 31
0.0
 11
5.9468441295
 21
2.9925890377
 31
0.0
  0
SPLINE
  5
2CF
100
AcDbEntity
  8
0
100
AcDbSpline
 62
6
  6
CONTINUOUS
 70
0
 71
3
 72
34
 73
30
 74
28
 42
0.0000001
 43
0.0000001
 44
0.0000000001
 12
0.665276146
 22
0.0350274766
 32
0.0
 13
0.0029717437
 23
0.6661909961
 33
0.0
 40
0.0
 40
0.0
 40
0.0
 40
0.0
 40
0.0562494672
 40
0.1221662718
 40
0.1960294526
 40
0.2760640263
 40
0.3603077932
 40
0.4466810024
 40
0.5330552243
 40
0.6173114669
 40
0.6973688957
 40
0.7712670391
 40
0.8053252208
 40
0.8371802319
 40
0.8666326313
 40
0.8934937312
 40
0.9176095673
 40
0.938833597
 40
0.957025129
 40
0.9720835611
 40
0.9839287911
 40
0.9886235093
 40
0.9924905909
 40
0.9955322566
 40
0.9967465248
 40
0.9977593981
 40
0.9985756249
 40
0.9992047163
 40
1.0
 40
1.0
 40
1.0
 40
1.0
 10
5.2817630974
 20
2.7497214941
 30
0.0
 10
5.294236907
 20
2.750378253
 30
0.0
 10
5.3213367718
 20
2.7516436354
 30
0.0
 10
5.364833129
 20
2.7533941956
 30
0.0
 10
5.413614955
 20
2.7551503284
 30
0.0
 10
5.4664687772
 20
2.756910853
 30
0.0
 10
5.5221020143
 20
2.7586740043
 30
0.0
 10
5.5791437192
 20
2.7604380453
 30
0.0
 10
5.6361881903
 20
2.7622022528
 30
0.0
 10
5.6918295119
 20
2.7639651107
 30
0.0
 10
5.7446989354
 20
2.765726118
 30
0.0
 10
5.7864234735
 20
2.7672273861
 30
0.0
 10
5.8174469154
 20
2.7684457318
 30
0.0
 10
5.8386057648
 20
2.7693337269
 30
0.0
 10
5.8581649291
 20
2.7702206984
 30
0.0
 10
5.8760036069
 20
2.7711069151
 30
0.0
 10
5.8920126836
 20
2.7719913026
 30
0.0
 10
5.9060933989
 20
2.7728730138
 30
0.0
 10
5.918158688
 20
2.7737509027
 30
0.0
 10
5.928134927
 20
2.7746240855
 30
0.0
 10
5.9351115345
 20
2.7753876056
 30
0.0
 10
5.939598843
 20
2.7760236515
 30
0.0
 10
5.9421386275
 20
2.776461405
 30
0.0
 10
5.9439023027
 20
2.7768440648
 30
0.0
 10
5.9450291989
 20
2.7771631026
 30
0.0
 10
5.9456675906
 20
2.7773811237
 30
0.0
 10
5.9461721744
 20
2.7776040624
 30
0.0
 10
5.9465910248
 20
2.7778467639
 30
0.0
 10
5.9468412017
 20
2.7781223404
 30
0.0
 10
5.9468419895
 20
2.778298944
 30
0.0
 11
5.2817630974
 21
2.7497214941
 31
0.0
 11
5.31919382
 21
2.751506524
 31
0.0
 11
5.363071045
 21
2.7532939852
 31
0.0
 11
5.412246102
 21
2.7550798818
 31
0.0
 11
5.4655350282
 21
2.7568657571
 31
0.0
 11
5.5216295943
 21
2.7586519512
 31
0.0
 11
5.579143494
 21
2.7604380519
 31
0.0
 11
5.6366580696
 21
2.762224118
 31
0.0
 11
5.6927609543
 21
2.7640102136
 31
0.0
 11
5.7460651078
 21
2.7657963076
 31
0.0
 11
5.7952634651
 21
2.7675823964
 31
0.0
 11
5.8179353631
 21
2.7684754416
 31
0.0
 11
5.8391382971
 21
2.7693684873
 31
0.0
 11
5.8587390818
 21
2.7702615331
 31
0.0
 11
5.876611585
 21
2.7711545788
 31
0.0
 11
5.8926526579
 21
2.7720476243
 31
0.0
 11
5.9067638255
 21
2.7729406698
 31
0.0
 11
5.9188500324
 21
2.7738337154
 31
0.0
 11
5.9288420952
 21
2.7747267611
 31
0.0
 11
5.936682664
 21
2.7756198068
 31
0.0
 11
5.9397782354
 21
2.7760663296
 31
0.0
 11
5.9423154845
 21
2.7765128525
 31
0.0
 11
5.9442920253
 21
2.7769593754
 31
0.0
 11
5.9450695485
 21
2.7771826368
 31
0.0
 11
5.9457063169
 21
2.7774058982
 31
0.0
 11
5.9462021378
 21
2.7776291597
 31
0.0
 11
5.9465568186
 21
2.7778524211
 31
0.0
 11
5.9468419895
 21
2.778298944
 31
0.0
  0
SPLINE
  5
2D0
100
AcDbEntity
  8
0
100
AcDbSpline
 62
6
  6
CONTINUOUS
 70
0
 71
3
 72
25
 73
21
 74
19
 42
0.0000001
 43
0.0000001
 44
0.0000000001
 12
0.6576111665
 22
0.0346239075
 32
0.0
 13
0.6505079965
 23
0.1024236677
 33
0.0
 40
0.0
 40
0.0
 40
0.0
 40
0.0
 40
0.0520527189
 40
0.1125224285
 40
0.1800522577
 40
0.2532513687
 40
0.4105197183
 40
0.491288845
 40
0.5712368492
 40
0.6486974965
 40
0.7220459624
 40
0.7897561744
 40
0.8504110601
 40
0.9027452442
 40
0.9254450801
 40
0.9456770217
 40
0.9633269668
 40
0.9783067075
 40
0.9905512839
 40
1.0
 40
1.0
 40
1.0
 40
1.0
 10
5.2817630974
 20
2.7675814941
 30
0.0
 10
5.2931732472
 20
2.7681822502
 30
0.0
 10
5.3178456752
 20
2.7693456884
 30
0.0
 10
5.3573354874
 20
2.7709626868
 30
0.0
 10
5.4014703994
 20
2.7725840025
 30
0.0
 10
5.46684537
 20
2.7748036313
 30
0.0
 10
5.5351307488
 20
2.7769399015
 30
0.0
 10
5.6048976837
 20
2.7790925326
 30
0.0
 10
5.6571541026
 20
2.780720649
 30
0.0
 10
5.7077808634
 20
2.782347628
 30
0.0
 10
5.7557199546
 20
2.7839727693
 30
0.0
 10
5.7999679651
 20
2.7855940802
 30
0.0
 10
5.8395999485
 20
2.7872105639
 30
0.0
 10
5.8693522915
 20
2.7886070619
 30
0.0
 10
5.8902326973
 20
2.7897503586
 30
0.0
 10
5.9035060202
 20
2.7905645984
 30
0.0
 10
5.9150812361
 20
2.7913766142
 30
0.0
 10
5.9248987538
 20
2.7921845276
 30
0.0
 10
5.9329089066
 20
2.7929867093
 30
0.0
 10
5.9376341569
 20
2.7935886906
 30
0.0
 10
5.9396829787
 20
2.7939112813
 30
0.0
 11
5.2817630974
 21
2.7675814941
 31
0.0
 11
5.3160014915
 21
2.7692259385
 31
0.0
 11
5.3557880526
 21
2.7708729305
 31
0.0
 11
5.4002274737
 21
2.7725185575
 31
0.0
 11
5.4484026137
 21
2.7741638497
 31
0.0
 11
5.5519149728
 21
2.7774551875
 31
0.0
 11
5.6050777594
 21
2.7791007755
 31
0.0
 11
5.6576995567
 21
2.7807463778
 31
0.0
 11
5.7086825477
 21
2.7823919968
 31
0.0
 11
5.7569560874
 21
2.7840376094
 31
0.0
 11
5.8015143763
 21
2.7856832196
 31
0.0
 11
5.8414230412
 21
2.7873288318
 31
0.0
 11
5.8758469429
 21
2.7889744443
 31
0.0
 11
5.8907726227
 21
2.7897972504
 31
0.0
 11
5.9040703704
 21
2.7906200565
 31
0.0
 11
5.9156640874
 21
2.7914428626
 31
0.0
 11
5.9254942013
 21
2.7922656688
 31
0.0
 11
5.9335154339
 21
2.793088475
 31
0.0
 11
5.9396829787
 21
2.7939112813
 31
0.0
  0
SPLINE
  5
2D1
100
AcDbEntity
  8
0
100
AcDbSpline
 62
6
  6
CONTINUOUS
 70
0
 71
3
 72
11
 73
7
 74
5
 42
0.0000001
 43
0.0000001
 44
0.0000000001
 12
0.0067691967
 22
0.0010658223
 32
0.0
 13
0.0059335616
 23
0.003427951
 33
0.0
 40
0.0
 40
0.0
 40
0.0
 40
0.0
 40
0.3505785202
 40
0.6335065405
 40
0.8494111763
 40
1.0
 40
1.0
 40
1.0
 40
1.0
 10
5.9396829787
 20
2.7939112813
 30
0.0
 10
5.9404740237
 20
2.7940358328
 30
0.0
 10
5.9419006153
 20
2.7942783631
 30
0.0
 10
5.9438010484
 20
2.7946772889
 30
0.0
 10
5.9452302091
 20
2.7950719752
 30
0.0
 10
5.9460159406
 20
2.7953785036
 30
0.0
 10
5.9463137833
 20
2.795550574
 30
0.0
 11
5.9396829787
 21
2.7939112813
 31
0.0
 11
5.9420501357
 21
2.7943211045
 31
0.0
 11
5.9439451163
 21
2.7947309276
 31
0.0
 11
5.9453667293
 21
2.7951407508
 31
0.0
 11
5.9463137833
 21
2.795550574
 31
0.0
  0
LINE
  5
2D2
100
AcDbEntity
  8
0
100
AcDbLine
 62
6
  6
CONTINUOUS
 10
5.2135368567
 20
2.9021559621
 11
5.2121919248
 21
2.9026956231
  0
SPLINE
  5
2D3
100
AcDbEntity
  8
0
100
AcDbSpline
 62
6
  6
CONTINUOUS
 70
0
 71
3
 72
45
 73
41
 74
39
 42
0.0000001
 43
0.0000001
 44
0.0000000001
 12
-0.0007520743
 22
0.7351409738
 32
0.0
 13
0.6952995217
 23
0.2387286997
 33
0.0
 40
0.0
 40
0.0
 40
0.0
 40
0.0
 40
0.0009319074
 40
0.0017333803
 40
0.0027943885
 40
0.0041237669
 40
0.0057254342
 40
0.007601193
 40
0.0097517998
 40
0.0148777973
 40
0.0211015219
 40
0.0284121137
 40
0.0367909088
 40
0.0566741008
 40
0.0805881958
 40
0.1083188004
 40
0.1396063619
 40
0.174181236
 40
0.2117223238
 40
0.251887831
 40
0.294321749
 40
0.3386311004
 40
0.3844163969
 40
0.4787466913
 40
0.5738919461
 40
0.6664050941
 40
0.7529385702
 40
0.7929679367
 40
0.8303554216
 40
0.8647519029
 40
0.8958515066
 40
0.9233778417
 40
0.9470692403
 40
0.9667279235
 40
0.9749896585
 40
0.9821776021
 40
0.9882774723
 40
0.993282547
 40
0.9971890288
 40
1.0
 40
1.0
 40
1.0
 40
1.0
 10
5.211664188
 20
2.8318739412
 30
0.0
 10
5.2116639544
 20
2.8321023023
 30
0.0
 10
5.2120622959
 20
2.8324370911
 30
0.0
 10
5.2126535546
 20
2.8327186037
 30
0.0
 10
5.2133998408
 20
2.8329897782
 30
0.0
 10
5.2143383154
 20
2.8332531538
 30
0.0
 10
5.2154869712
 20
2.8335214332
 30
0.0
 10
5.2168395406
 20
2.833789398
 30
0.0
 10
5.2190500223
 20
2.8341706893
 30
0.0
 10
5.2223259467
 20
2.8346354465
 30
0.0
 10
5.2268676124
 20
2.8351692402
 30
0.0
 10
5.2322107777
 20
2.8357048309
 30
0.0
 10
5.2408946695
 20
2.8364652327
 30
0.0
 10
5.2536472448
 20
2.8373918152
 30
0.0
 10
5.2711427132
 20
2.838457571
 30
0.0
 10
5.2914370427
 20
2.8395271118
 30
0.0
 10
5.3143467074
 20
2.8406003888
 30
0.0
 10
5.3396627078
 20
2.8416750227
 30
0.0
 10
5.3671559374
 20
2.8427512703
 30
0.0
 10
5.3965763287
 20
2.8438286268
 30
0.0
 10
5.4276562919
 20
2.8449063913
 30
0.0
 10
5.4601141303
 20
2.8459848897
 30
0.0
 10
5.5052835809
 20
2.8474376621
 30
0.0
 10
5.5629057561
 20
2.8492286121
 30
0.0
 10
5.6319734638
 20
2.8513577737
 30
0.0
 10
5.6991297181
 20
2.8534851255
 30
0.0
 10
5.7527831857
 20
2.8552965022
 30
0.0
 10
5.7929316919
 20
2.8567714225
 30
0.0
 10
5.8203101278
 20
2.8578474487
 30
0.0
 10
5.8454985937
 20
2.8589222726
 30
0.0
 10
5.8682682884
 20
2.8599952764
 30
0.0
 10
5.888411754
 20
2.8610644029
 30
0.0
 10
5.9057472676
 20
2.8621303471
 30
0.0
 10
5.9183612576
 20
2.8630566885
 30
0.0
 10
5.9269309039
 20
2.8638174798
 30
0.0
 10
5.9321845991
 20
2.8643530158
 30
0.0
 10
5.9366354649
 20
2.8648866457
 30
0.0
 10
5.9402768325
 20
2.8654155868
 30
0.0
 10
5.9431009585
 20
2.8659397928
 30
0.0
 10
5.9447014699
 20
2.8663413617
 30
0.0
 10
5.9453529588
 20
2.8665650482
 30
0.0
 11
5.211664188
 21
2.8318739412
 31
0.0
 11
5.2120831429
 21
2.8324159896
 31
0.0
 11
5.2126063041
 21
2.8326870138
 31
0.0
 11
5.2133376945
 21
2.832958038
 31
0.0
 11
5.2142766429
 21
2.8332290621
 31
0.0
 11
5.2154224783
 21
2.8335000863
 31
0.0
 11
5.2167745298
 21
2.8337711105
 31
0.0
 11
5.2183321263
 21
2.8340421347
 31
0.0
 11
5.2220612703
 21
2.8345841831
 31
0.0
 11
5.2266043654
 21
2.8351262315
 31
0.0
 11
5.2319512787
 21
2.8356682799
 31
0.0
 11
5.2380869808
 21
2.8362103284
 31
0.0
 11
5.25266368
 21
2.8372944252
 31
0.0
 11
5.2702104627
 21
2.8383785221
 31
0.0
 11
5.2905675312
 21
2.839462619
 31
0.0
 11
5.3135427491
 21
2.8405467159
 31
0.0
 11
5.3389370391
 21
2.8416308129
 31
0.0
 11
5.3665137446
 21
2.8427149098
 31
0.0
 11
5.396021162
 21
2.8437990068
 31
0.0
 11
5.427197247
 21
2.8448831038
 31
0.0
 11
5.4597528386
 21
2.8459672009
 31
0.0
 11
5.4933940406
 21
2.8470512979
 31
0.0
 11
5.5627062374
 21
2.8492194921
 31
0.0
 11
5.6326178358
 21
2.8513876864
 31
0.0
 11
5.7005935069
 21
2.8535558807
 31
0.0
 11
5.7641708836
 21
2.8557240751
 31
0.0
 11
5.7935781507
 21
2.8568081724
 31
0.0
 11
5.8210418487
 21
2.8578922696
 31
0.0
 11
5.8463048748
 21
2.8589763669
 31
0.0
 11
5.8691417624
 21
2.8600604642
 31
0.0
 11
5.8893484495
 21
2.8611445615
 31
0.0
 11
5.9067312038
 21
2.8622286588
 31
0.0
 11
5.9211423961
 21
2.8633127561
 31
0.0
 11
5.9271917026
 21
2.8638548048
 31
0.0
 11
5.932447982
 21
2.8643968535
 31
0.0
 11
5.9368993675
 21
2.8649389021
 31
0.0
 11
5.9405386591
 21
2.8654809508
 31
0.0
 11
5.9433588563
 21
2.8660229995
 31
0.0
 11
5.9453529588
 21
2.8665650482
 31
0.0
  0
LINE
  5
2D4
100
AcDbEntity
  8
0
100
AcDbLine
 62
6
  6
CONTINUOUS
 10
5.9453529588
 20
2.8665650482
 11
5.9463178813
 21
2.8669805797
  0
SPLINE
  5
2D5
100
AcDbEntity
  8
0
100
AcDbSpline
 62
6
  6
CONTINUOUS
 70
0
 71
3
 72
26
 73
22
 74
20
 42
0.0000001
 43
0.0000001
 44
0.0000000001
 12
-0.4061958137
 22
-0.0113669267
 32
0.0
 13
-0.3516434081
 23
-0.2036446897
 33
0.0
 40
0.0
 40
0.0
 40
0.0
 40
0.0
 40
0.1891320356
 40
0.3715560727
 40
0.4580902643
 40
0.5404841734
 40
0.6180080343
 40
0.6899455057
 40
0.7556360709
 40
0.814510008
 40
0.8660213144
 40
0.9097269325
 40
0.9285284526
 40
0.9452307454
 40
0.9597985888
 40
0.9722091529
 40
0.9824418851
 40
0.9904802015
 40
0.9963179532
 40
0.998421639
 40
1.0
 40
1.0
 40
1.0
 40
1.0
 10
5.5792541504
 20
2.8095510862
 30
0.0
 10
5.5536459367
 20
2.8088344695
 30
0.0
 10
5.5033377632
 20
2.8074267147
 30
0.0
 10
5.4413147183
 20
2.8056288509
 30
0.0
 10
5.3937458923
 20
2.8041688482
 30
0.0
 10
5.3603808842
 20
2.8030935295
 30
0.0
 10
5.3289940737
 20
2.80201919
 30
0.0
 10
5.2998711214
 20
2.8009461059
 30
0.0
 10
5.2732761376
 20
2.799874316
 30
0.0
 10
5.249450219
 20
2.7988056126
 30
0.0
 10
5.2286054626
 20
2.7977395161
 30
0.0
 10
5.2131887401
 20
2.7968161441
 30
0.0
 10
5.2024861309
 20
2.7960618539
 30
0.0
 10
5.1957249774
 20
2.7955257343
 30
0.0
 10
5.1898323308
 20
2.7949910949
 30
0.0
 10
5.1848201732
 20
2.7944583224
 30
0.0
 10
5.1806970074
 20
2.7939303938
 30
0.0
 10
5.177474085
 20
2.793406211
 30
0.0
 10
5.1753547153
 20
2.7929470417
 30
0.0
 10
5.1741267633
 20
2.7925520211
 30
0.0
 10
5.1736675586
 20
2.7923513237
 30
0.0
 10
5.1734825518
 20
2.7922441821
 30
0.0
 11
5.5792541504
 21
2.8095510862
 31
0.0
 11
5.5024298747
 21
2.8073882173
 31
0.0
 11
5.4283325867
 21
2.8052239691
 31
0.0
 11
5.3931856367
 21
2.8041424318
 31
0.0
 11
5.3597219499
 21
2.8030607988
 31
0.0
 11
5.3282383325
 21
2.801979074
 31
0.0
 11
5.2990262131
 21
2.8008973974
 31
0.0
 11
5.2723544554
 21
2.799815823
 31
0.0
 11
5.2484552073
 21
2.7987342639
 31
0.0
 11
5.2275513039
 21
2.7976526334
 31
0.0
 11
5.2098242869
 21
2.7965709343
 31
0.0
 11
5.202203367
 21
2.7960300718
 31
0.0
 11
5.1954378949
 21
2.7954892074
 31
0.0
 11
5.1895429415
 21
2.7949483454
 31
0.0
 11
5.1845289353
 21
2.794407489
 31
0.0
 11
5.1804061393
 21
2.7938666417
 31
0.0
 11
5.1771848161
 21
2.7933258066
 31
0.0
 11
5.1748750888
 21
2.7927849871
 31
0.0
 11
5.1740641399
 21
2.7925145832
 31
0.0
 11
5.1734825518
 21
2.7922441821
 31
0.0
  0
SPLINE
  5
2D6
100
AcDbEntity
  8
0
100
AcDbSpline
 62
6
  6
CONTINUOUS
 70
0
 71
3
 72
41
 73
37
 74
35
 42
0.0000001
 43
0.0000001
 44
0.0000000001
 12
0.0017575054
 22
0.732155842
 32
0.0
 13
0.7178086138
 23
0.1442430579
 33
0.0
 40
0.0
 40
0.0
 40
0.0
 40
0.0
 40
0.0009079888
 40
0.0016804685
 40
0.0027013908
 40
0.0039803073
 40
0.005521888
 40
0.0073286803
 40
0.0094016257
 40
0.0143430356
 40
0.0203375464
 40
0.0354384751
 40
0.05459919
 40
0.077657051
 40
0.1044049864
 40
0.134626087
 40
0.1680506349
 40
0.2043858733
 40
0.2433264224
 40
0.2845249826
 40
0.3276251097
 40
0.3722566104
 40
0.4645367882
 40
0.5581651739
 40
0.6498872372
 40
0.7365200772
 40
0.8150607776
 40
0.8504259184
 40
0.8827793899
 40
0.9118308416
 40
0.9373305381
 40
0.959068283
 40
0.976843981
 40
0.9905200846
 40
0.9957898171
 40
1.0
 40
1.0
 40
1.0
 40
1.0
 10
5.2116680352
 20
2.9033039986
 30
0.0
 10
5.2116685671
 20
2.9035255951
 30
0.0
 10
5.2120448689
 20
2.90385354
 30
0.0
 10
5.2126130925
 20
2.9041308067
 30
0.0
 10
5.2133259057
 20
2.9043961957
 30
0.0
 10
5.2142239929
 20
2.9046541667
 30
0.0
 10
5.215323915
 20
2.9049167904
 30
0.0
 10
5.2166205105
 20
2.9051790915
 30
0.0
 10
5.218741103
 20
2.9055522283
 30
0.0
 10
5.2218837343
 20
2.9060070311
 30
0.0
 10
5.2281933354
 20
2.906763155
 30
0.0
 10
5.2379774292
 20
2.9076697496
 30
0.0
 10
5.2519281926
 20
2.9087063232
 30
0.0
 10
5.268727721
 20
2.9097484623
 30
0.0
 10
5.2882304856
 20
2.9107964502
 30
0.0
 10
5.3102663859
 20
2.9118464585
 30
0.0
 10
5.3346443437
 20
2.9128987126
 30
0.0
 10
5.3611520511
 20
2.9139524974
 30
0.0
 10
5.3895583872
 20
2.9150068824
 30
0.0
 10
5.4196167453
 20
2.9160621887
 30
0.0
 10
5.4510647889
 20
2.9171180328
 30
0.0
 10
5.4949740735
 20
2.9185419157
 30
0.0
 10
5.5512105796
 20
2.9202982641
 30
0.0
 10
5.6189349498
 20
2.9223841508
 30
0.0
 10
5.6852804808
 20
2.9244684142
 30
0.0
 10
5.7479420405
 20
2.9265489875
 30
0.0
 10
5.7968517648
 20
2.9283312967
 30
0.0
 10
5.8325171023
 20
2.9297871182
 30
0.0
 10
5.8561107346
 20
2.9308386884
 30
0.0
 10
5.8772942014
 20
2.9318879985
 30
0.0
 10
5.8958833863
 20
2.9329347251
 30
0.0
 10
5.9117164358
 20
2.9339741514
 30
0.0
 10
5.9246564143
 20
2.9350080313
 30
0.0
 10
5.9335746816
 20
2.935912727
 30
0.0
 10
5.9391748676
 20
2.936673946
 30
0.0
 10
5.941456996
 20
2.9370599152
 30
0.0
 10
5.9424643645
 20
2.9372623451
 30
0.0
 11
5.2116680352
 21
2.9033039986
 31
0.0
 11
5.2120685497
 21
2.9038345978
 31
0.0
 11
5.2125680431
 21
2.9040998974
 31
0.0
 11
5.2132668543
 21
2.904365197
 31
0.0
 11
5.2141648536
 21
2.9046304966
 31
0.0
 11
5.2152619115
 21
2.9048957962
 31
0.0
 11
5.2165578928
 21
2.9051610958
 31
0.0
 11
5.2180522491
 21
2.9054263954
 31
0.0
 11
5.2216310214
 21
2.9059569946
 31
0.0
 11
5.2259877587
 21
2.9064875938
 31
0.0
 11
5.2369929781
 21
2.9075487922
 31
0.0
 11
5.2509814531
 21
2.9086099905
 31
0.0
 11
5.267830063
 21
2.9096711889
 31
0.0
 11
5.2873850035
 21
2.9107323873
 31
0.0
 11
5.3094861603
 21
2.9117935857
 31
0.0
 11
5.3339351892
 21
2.912854784
 31
0.0
 11
5.3605171489
 21
2.9139159824
 31
0.0
 11
5.3890080252
 21
2.9149771808
 31
0.0
 11
5.4191532058
 21
2.9160383791
 31
0.0
 11
5.450691458
 21
2.9170995775
 31
0.0
 11
5.4833515303
 21
2.9181607758
 31
0.0
 11
5.5508818523
 21
2.9202831725
 31
0.0
 11
5.6193997558
 21
2.9224055692
 31
0.0
 11
5.6865212468
 21
2.9245279659
 31
0.0
 11
5.7499146507
 21
2.9266503625
 31
0.0
 11
5.8073796684
 21
2.9287727591
 31
0.0
 11
5.8332507821
 21
2.9298339574
 31
0.0
 11
5.8569148511
 21
2.9308951557
 31
0.0
 11
5.8781586138
 21
2.9319563539
 31
0.0
 11
5.8967982355
 21
2.9330175522
 31
0.0
 11
5.91267828
 21
2.9340787504
 31
0.0
 11
5.925649562
 21
2.9351399487
 31
0.0
 11
5.9356062376
 21
2.9362011469
 31
0.0
 11
5.9394278554
 21
2.936731746
 31
0.0
 11
5.9424643645
 21
2.9372623451
 31
0.0
  0
SPLINE
  5
2D7
100
AcDbEntity
  8
0
100
AcDbSpline
 62
6
  6
CONTINUOUS
 70
0
 71
3
 72
10
 73
6
 74
4
 42
0.0000001
 43
0.0000001
 44
0.0000000001
 12
0.0039499964
 22
0.0007937486
 32
0.0
 13
0.0034867031
 23
0.0020187645
 33
0.0
 40
0.0
 40
0.0
 40
0.0
 40
0.0
 40
0.6103788674
 40
0.8320947201
 40
1.0
 40
1.0
 40
1.0
 40
1.0
 10
5.9424643645
 20
2.9372623451
 30
0.0
 10
5.9432680292
 20
2.9374238409
 30
0.0
 10
5.9443617097
 20
2.9376661592
 30
0.0
 10
5.9456381901
 20
2.9380850266
 30
0.0
 10
5.946118894
 20
2.9382976655
 30
0.0
 10
5.9463140392
 20
2.9384106526
 30
0.0
 11
5.9424643645
 21
2.9372623451
 31
0.0
 11
5.944855592
 21
2.9378364989
 31
0.0
 11
5.9457014899
 21
2.9381235757
 31
0.0
 11
5.9463140392
 21
2.9384106526
 31
0.0
  0
LINE
  5
2D8
100
AcDbEntity
  8
0
100
AcDbLine
 62
6
  6
CONTINUOUS
 10
5.1760273987
 20
2.8528065087
 11
5.173482757
 21
2.8536437019
  0
SPLINE
  5
2D9
100
AcDbEntity
  8
0
100
AcDbSpline
 62
6
  6
CONTINUOUS
 70
0
 71
3
 72
39
 73
35
 74
33
 42
0.0000001
 43
0.0000001
 44
0.0000000001
 12
-0.00322718
 22
0.7239371267
 32
0.0
 13
0.7188226411
 23
0.0859615538
 33
0.0
 40
0.0
 40
0.0
 40
0.0
 40
0.0
 40
0.0008725089
 40
0.0016058706
 40
0.0025727072
 40
0.0037817526
 40
0.0052368443
 40
0.0069396961
 40
0.0088909679
 40
0.0135385994
 40
0.0191772249
 40
0.0334016647
 40
0.0514599705
 40
0.073202236
 40
0.098469626
 40
0.1270534296
 40
0.158718072
 40
0.1932201086
 40
0.2302735838
 40
0.2695770567
 40
0.3108211129
 40
0.3536662838
 40
0.442767498
 40
0.5340079617
 40
0.6244429354
 40
0.7111496314
 40
0.7913349374
 40
0.8624101246
 40
0.8937984653
 40
0.9220787668
 40
0.9470280765
 40
0.9684331415
 40
0.9861355591
 40
1.0
 40
1.0
 40
1.0
 40
1.0
 10
5.2116657883
 20
2.9747340345
 30
0.0
 10
5.2116648497
 20
2.9749445817
 30
0.0
 10
5.2120100003
 20
2.9752624116
 30
0.0
 10
5.2125432777
 20
2.9755309766
 30
0.0
 10
5.2132072959
 20
2.9757868454
 30
0.0
 10
5.2140446889
 20
2.9760356217
 30
0.0
 10
5.2150690427
 20
2.9762888195
 30
0.0
 10
5.2162755721
 20
2.9765417577
 30
0.0
 10
5.2182466642
 20
2.9769015213
 30
0.0
 10
5.2211675331
 20
2.9773402272
 30
0.0
 10
5.2270375341
 20
2.9780698786
 30
0.0
 10
5.2361481472
 20
2.9789433937
 30
0.0
 10
5.2491470363
 20
2.9799429638
 30
0.0
 10
5.2648170362
 20
2.9809485217
 30
0.0
 10
5.2830310044
 20
2.9819584553
 30
0.0
 10
5.303642487
 20
2.982971114
 30
0.0
 10
5.3264847009
 20
2.9839860511
 30
0.0
 10
5.35137257
 20
2.9850018477
 30
0.0
 10
5.378105172
 20
2.9860187507
 30
0.0
 10
5.4064657937
 20
2.9870364837
 30
0.0
 10
5.4362248786
 20
2.9880544875
 30
0.0
 10
5.4779956429
 20
2.9894304378
 30
0.0
 10
5.5318271726
 20
2.9911284018
 30
0.0
 10
5.597138544
 20
2.9931419783
 30
0.0
 10
5.661871831
 20
2.9951548829
 30
0.0
 10
5.7239361347
 20
2.9971649379
 30
0.0
 10
5.7813261893
 20
2.9991698288
 30
0.0
 10
5.8253685842
 20
3.000894552
 30
0.0
 10
5.8568874816
 20
3.0023064312
 30
0.0
 10
5.8772820261
 20
3.0033192435
 30
0.0
 10
5.8952642988
 20
3.0043286271
 30
0.0
 10
5.9106898435
 20
3.00533365
 30
0.0
 10
5.9234339068
 20
3.0063322819
 30
0.0
 10
5.9310162265
 20
3.0070778415
 30
0.0
 10
5.9343382512
 20
3.0074751111
 30
0.0
 11
5.2116657883
 21
2.9747340345
 31
0.0
 11
5.2120362817
 21
2.9752456141
 31
0.0
 11
5.2125015132
 21
2.9755014038
 31
0.0
 11
5.2131530358
 21
2.9757571936
 31
0.0
 11
5.2139901077
 21
2.9760129833
 31
0.0
 11
5.2150119857
 21
2.9762687731
 31
0.0
 11
5.2162179265
 21
2.9765245628
 31
0.0
 11
5.2176071869
 21
2.9767803526
 31
0.0
 11
5.220932694
 21
2.9772919321
 31
0.0
 11
5.2249825614
 21
2.9778035116
 31
0.0
 11
5.2352293082
 21
2.9788266706
 31
0.0
 11
5.2482624165
 21
2.9798498295
 31
0.0
 11
5.2639693167
 21
2.9808729885
 31
0.0
 11
5.2822328629
 21
2.9818961474
 31
0.0
 11
5.302900635
 21
2.9829193063
 31
0.0
 11
5.3258012278
 21
2.9839424651
 31
0.0
 11
5.3507578166
 21
2.9849656239
 31
0.0
 11
5.3775629495
 21
2.9859887827
 31
0.0
 11
5.4059980736
 21
2.9870119415
 31
0.0
 11
5.4358389384
 21
2.9880351003
 31
0.0
 11
5.4668395767
 21
2.989058259
 31
0.0
 11
5.5313114281
 21
2.9911045764
 31
0.0
 11
5.5973327385
 21
2.9931508936
 31
0.0
 11
5.6627706365
 21
2.9951972108
 31
0.0
 11
5.7255080929
 21
2.9972435278
 31
0.0
 11
5.783521711
 21
2.9992898447
 31
0.0
 11
5.8349354825
 21
3.0013361615
 31
0.0
 11
5.8576358471
 21
3.0023593198
 31
0.0
 11
5.8780836285
 21
3.0033824781
 31
0.0
 11
5.8961165367
 21
3.0044056364
 31
0.0
 11
5.911578797
 21
3.0054287947
 31
0.0
 11
5.9243534534
 21
3.0064519529
 31
0.0
 11
5.9343382512
 21
3.0074751111
 31
0.0
  0
SPLINE
  5
2DA
100
AcDbEntity
  8
0
100
AcDbSpline
 62
6
  6
CONTINUOUS
 70
0
 71
3
 72
12
 73
8
 74
6
 42
0.0000001
 43
0.0000001
 44
0.0000000001
 12
0.0121623973
 22
0.0014544597
 32
0.0
 13
0.010610916
 23
0.0061194627
 33
0.0
 40
0.0
 40
0.0
 40
0.0
 40
0.0
 40
0.3673773533
 40
0.6561917226
 40
0.8665552113
 40
0.9426818889
 40
1.0
 40
1.0
 40
1.0
 40
1.0
 10
5.9343382512
 20
3.0074751111
 30
0.0
 10
5.9358276476
 20
3.0076532229
 30
0.0
 10
5.9384855273
 20
3.0079968991
 30
0.0
 10
5.9419765365
 20
3.0085706136
 30
0.0
 10
5.9442755767
 20
3.0090731273
 30
0.0
 10
5.9456119549
 20
3.0095045014
 30
0.0
 10
5.946113556
 20
3.0097237308
 30
0.0
 10
5.9463162886
 20
3.0098406495
 30
0.0
 11
5.9343382512
 21
3.0074751111
 31
0.0
 11
5.9387992482
 21
3.0080664957
 31
0.0
 11
5.9422871715
 21
3.0086578803
 31
0.0
 11
5.9447951439
 21
3.0092492649
 31
0.0
 11
5.9456794995
 21
3.0095449572
 31
0.0
 11
5.9463162886
 21
3.0098406495
 31
0.0
  0
SPLINE
  5
2DB
100
AcDbEntity
  8
0
100
AcDbSpline
 62
6
  6
CONTINUOUS
 70
0
 71
3
 72
26
 73
22
 74
20
 42
0.0000001
 43
0.0000001
 44
0.0000000001
 12
-0.4061959903
 22
-0.0113669367
 32
0.0
 13
-0.3516348087
 23
-0.2036598907
 33
0.0
 40
0.0
 40
0.0
 40
0.0
 40
0.0
 40
0.1891277756
 40
0.3715467572
 40
0.4580789061
 40
0.540471095
 40
0.6179940176
 40
0.6899317069
 40
0.7556246802
 40
0.8145021919
 40
0.8660164091
 40
0.9097240328
 40
0.9285267513
 40
0.9452304107
 40
0.9597986179
 40
0.9722088414
 40
0.9824410963
 40
0.990479362
 40
0.9963178433
 40
0.9984216861
 40
1.0
 40
1.0
 40
1.0
 40
1.0
 10
5.5792541504
 20
2.8809811454
 30
0.0
 10
5.5536465024
 20
2.8802645442
 30
0.0
 10
5.5033395683
 20
2.878856824
 30
0.0
 10
5.4413180343
 20
2.8770590051
 30
0.0
 10
5.3937503812
 20
2.8755990444
 30
0.0
 10
5.3603859948
 20
2.8745237551
 30
0.0
 10
5.3289995005
 20
2.8734494438
 30
0.0
 10
5.2998763068
 20
2.8723763562
 30
0.0
 10
5.2732804717
 20
2.8713045479
 30
0.0
 10
5.249453338
 20
2.8702358182
 30
0.0
 10
5.2286074232
 20
2.8691696764
 30
0.0
 10
5.2131898676
 20
2.8682462463
 30
0.0
 10
5.2024866354
 20
2.8674919245
 30
0.0
 10
5.1957250805
 20
2.8669558128
 30
0.0
 10
5.1898322431
 20
2.8664211605
 30
0.0
 10
5.1848201473
 20
2.8658883697
 30
0.0
 10
5.1806970986
 20
2.8653604316
 30
0.0
 10
5.1774741562
 20
2.8648362045
 30
0.0
 10
5.175354658
 20
2.864377092
 30
0.0
 10
5.1741265836
 20
2.8639820791
 30
0.0
 10
5.1736673625
 20
2.8637813769
 30
0.0
 10
5.1734823658
 20
2.8636742305
 30
0.0
 11
5.5792541504
 21
2.8809811454
 31
0.0
 11
5.5024315717
 21
2.8788183241
 31
0.0
 11
5.4283363048
 21
2.8766541379
 31
0.0
 11
5.393190169
 21
2.8755726306
 31
0.0
 11
5.359727166
 21
2.8744910299
 31
0.0
 11
5.3282439154
 21
2.8734093318
 31
0.0
 11
5.2990316946
 21
2.8723276612
 31
0.0
 11
5.2723589468
 21
2.871246064
 31
0.0
 11
5.2484582361
 21
2.8701644627
 31
0.0
 11
5.2275531419
 21
2.8690827815
 31
0.0
 11
5.2098253036
 21
2.8680010331
 31
0.0
 11
5.2022038937
 21
2.8674601499
 31
0.0
 11
5.1954378628
 21
2.8669192692
 31
0.0
 11
5.1895427594
 21
2.8663783958
 31
0.0
 11
5.184528891
 21
2.8658375324
 31
0.0
 11
5.1804062891
 21
2.8652966818
 31
0.0
 11
5.1771849854
 21
2.8647558467
 31
0.0
 11
5.1748749519
 21
2.8642150298
 31
0.0
 11
5.1740639346
 21
2.8639446282
 31
0.0
 11
5.1734823658
 21
2.8636742305
 31
0.0
  0
LINE
  5
2DC
100
AcDbEntity
  8
0
100
AcDbLine
 62
6
  6
CONTINUOUS
 10
5.1762641099
 20
2.924183182
 11
5.1734829547
 21
2.9250737513
  0
SPLINE
  5
2DD
100
AcDbEntity
  8
0
100
AcDbSpline
 62
6
  6
CONTINUOUS
 70
0
 71
3
 72
45
 73
41
 74
39
 42
0.0000001
 43
0.0000001
 44
0.0000000001
 12
0.0016219718
 22
0.7352825285
 32
0.0
 13
0.6917852845
 23
0.2491508534
 33
0.0
 40
0.0
 40
0.0
 40
0.0
 40
0.0
 40
0.0009342174
 40
0.0017373634
 40
0.0028004549
 40
0.0041324506
 40
0.0057374031
 40
0.0076172514
 40
0.009772889
 40
0.0149123202
 40
0.0211533998
 40
0.0284821502
 40
0.0368805416
 40
0.0568110855
 40
0.0807850987
 40
0.1085792072
 40
0.1399387013
 40
0.1745915012
 40
0.2122112954
 40
0.2524600465
 40
0.2949761088
 40
0.3393650313
 40
0.3852281519
 40
0.47969375
 40
0.5749397158
 40
0.6675039475
 40
0.7540280966
 40
0.7940294449
 40
0.8313699645
 40
0.8656995476
 40
0.8967174071
 40
0.9241398691
 40
0.9477106088
 40
0.9672333805
 40
0.9754187326
 40
0.9825252991
 40
0.9885422373
 40
0.9934621085
 40
0.9972803459
 40
1.0
 40
1.0
 40
1.0
 40
1.0
 10
5.2116643492
 20
3.1890240067
 30
0.0
 10
5.2116648542
 20
3.1892529779
 30
0.0
 10
5.2120643844
 20
3.1895877193
 30
0.0
 10
5.2126571754
 20
3.1898698615
 30
0.0
 10
5.2134051619
 20
3.1901413504
 30
0.0
 10
5.2143457581
 20
3.1904051221
 30
0.0
 10
5.2154970797
 20
3.1906737646
 30
0.0
 10
5.2168529484
 20
3.1909421023
 30
0.0
 10
5.2190693856
 20
3.1913239575
 30
0.0
 10
5.2223547419
 20
3.1917893282
 30
0.0
 10
5.2269093125
 20
3.1923237045
 30
0.0
 10
5.2322670202
 20
3.1928601007
 30
0.0
 10
5.2409734575
 20
3.1936215934
 30
0.0
 10
5.2537596062
 20
3.1945495053
 30
0.0
 10
5.2713003489
 20
3.1956164709
 30
0.0
 10
5.2916464946
 20
3.1966876678
 30
0.0
 10
5.3146129105
 20
3.197762344
 30
0.0
 10
5.3399898534
 20
3.1988383781
 30
0.0
 10
5.3675472135
 20
3.1999161987
 30
0.0
 10
5.3970331494
 20
3.2009949371
 30
0.0
 10
5.4281791867
 20
3.202074182
 30
0.0
 10
5.4607020363
 20
3.2031541843
 30
0.0
 10
5.5059519983
 20
3.2046087469
 30
0.0
 10
5.5636622755
 20
3.2064019943
 30
0.0
 10
5.6328137421
 20
3.2085339107
 30
0.0
 10
5.7000179181
 20
3.2106640049
 30
0.0
 10
5.753685112
 20
3.2124780557
 30
0.0
 10
5.793820677
 20
3.2139551976
 30
0.0
 10
5.8211695907
 20
3.2150325999
 30
0.0
 10
5.8463149136
 20
3.2161089474
 30
0.0
 10
5.8690270329
 20
3.2171831225
 30
0.0
 10
5.8890991868
 20
3.2182536313
 30
0.0
 10
5.9063494946
 20
3.2193208617
 30
0.0
 10
5.918884068
 20
3.2202483031
 30
0.0
 10
5.9273829983
 20
3.2210106
 30
0.0
 10
5.9325783733
 20
3.2215468453
 30
0.0
 10
5.936968436
 20
3.2220809422
 30
0.0
 10
5.9405471355
 20
3.2226100027
 30
0.0
 10
5.9433056346
 20
3.2231342065
 30
0.0
 10
5.9448614022
 20
3.2235366216
 30
0.0
 10
5.9454885411
 20
3.2237624896
 30
0.0
 11
5.2116643492
 21
3.1890240067
 31
0.0
 11
5.2120853397
 21
3.1895667955
 31
0.0
 11
5.2126098235
 21
3.18983819
 31
0.0
 11
5.2133428721
 21
3.1901095844
 31
0.0
 11
5.2142839144
 21
3.1903809788
 31
0.0
 11
5.2154323797
 21
3.1906523732
 31
0.0
 11
5.2167876972
 21
3.1909237677
 31
0.0
 11
5.218349296
 21
3.1911951621
 31
0.0
 11
5.2220890542
 21
3.191737951
 31
0.0
 11
5.2266458082
 21
3.1922807398
 31
0.0
 11
5.232007117
 21
3.1928235286
 31
0.0
 11
5.2381584212
 21
3.1933663175
 31
0.0
 11
5.2527727738
 21
3.1944518952
 31
0.0
 11
5.2703670311
 21
3.1955374729
 31
0.0
 11
5.2907747502
 21
3.1966230506
 31
0.0
 11
5.3138073257
 21
3.1977086282
 31
0.0
 11
5.3392638498
 21
3.1987942059
 31
0.0
 11
5.3669037842
 21
3.1998797836
 31
0.0
 11
5.3964781424
 21
3.2009653612
 31
0.0
 11
5.4277206818
 21
3.2020509389
 31
0.0
 11
5.4603411019
 21
3.2031365165
 31
0.0
 11
5.4940460574
 21
3.2042220941
 31
0.0
 11
5.563471189
 21
3.2063932494
 31
0.0
 11
5.6334703908
 21
3.2085644046
 31
0.0
 11
5.7014967798
 21
3.2107355597
 31
0.0
 11
5.7650795714
 21
3.2129067148
 31
0.0
 11
5.794471895
 21
3.2139922924
 31
0.0
 11
5.8219063237
 21
3.2150778699
 31
0.0
 11
5.8471249734
 21
3.2161634474
 31
0.0
 11
5.8699060685
 21
3.2172490249
 31
0.0
 11
5.8900401302
 21
3.2183346024
 31
0.0
 11
5.9073372933
 21
3.2194201799
 31
0.0
 11
5.921650974
 21
3.2205057573
 31
0.0
 11
5.9276450091
 21
3.2210485461
 31
0.0
 11
5.9328420882
 21
3.2215913348
 31
0.0
 11
5.9372328255
 21
3.2221341235
 31
0.0
 11
5.9408093765
 21
3.2226769122
 31
0.0
 11
5.9435638966
 21
3.2232197009
 31
0.0
 11
5.9454885411
 21
3.2237624896
 31
0.0
  0
LINE
  5
2DE
100
AcDbEntity
  8
0
100
AcDbLine
 62
6
  6
CONTINUOUS
 10
5.9454885411
 20
3.2237624896
 11
5.9463177205
 21
3.2241306583
  0
SPLINE
  5
2DF
100
AcDbEntity
  8
0
100
AcDbSpline
 62
6
  6
CONTINUOUS
 70
0
 71
3
 72
26
 73
22
 74
20
 42
0.0000001
 43
0.0000001
 44
0.0000000001
 12
-0.406195741
 22
-0.0113669171
 32
0.0
 13
-0.3516333922
 23
-0.2036618383
 33
0.0
 40
0.0
 40
0.0
 40
0.0
 40
0.0
 40
0.1891292616
 40
0.3715436849
 40
0.4580722536
 40
0.5404610554
 40
0.6179812908
 40
0.6899169311
 40
0.7556126244
 40
0.8144938659
 40
0.8660105059
 40
0.9097211583
 40
0.9285245489
 40
0.9452280709
 40
0.9597968381
 40
0.9722081088
 40
0.9824413658
 40
0.9904800605
 40
0.9963180431
 40
0.9984217152
 40
1.0
 40
1.0
 40
1.0
 40
1.0
 10
5.5792541504
 20
2.952411181
 30
0.0
 10
5.5536463169
 20
2.9516945754
 30
0.0
 10
5.5033398297
 20
2.9502868692
 30
0.0
 10
5.4413192344
 20
2.9484890803
 30
0.0
 10
5.393753171
 20
2.9470291703
 30
0.0
 10
5.3603901117
 20
2.9459539355
 30
0.0
 10
5.3290047352
 20
2.944879695
 30
0.0
 10
5.2998818331
 20
2.9438065952
 30
0.0
 10
5.2732854174
 20
2.942734799
 30
0.0
 10
5.2494570958
 20
2.9416660556
 30
0.0
 10
5.2286099524
 20
2.9405998429
 30
0.0
 10
5.2131915749
 20
2.9396764212
 30
0.0
 10
5.2024878662
 20
2.9389220867
 30
0.0
 10
5.19572617
 20
2.9383859336
 30
0.0
 10
5.1898331376
 20
2.9378512701
 30
0.0
 10
5.1848206897
 20
2.937318477
 30
0.0
 10
5.1806973064
 20
2.9367905328
 30
0.0
 10
5.1774742327
 20
2.9362663322
 30
0.0
 10
5.1753547795
 20
2.9358071639
 30
0.0
 10
5.1741268118
 20
2.9354121301
 30
0.0
 10
5.1736676225
 20
2.9352114261
 30
0.0
 10
5.1734826299
 20
2.9351042807
 30
0.0
 11
5.5792541504
 21
2.952411181
 31
0.0
 11
5.5024310152
 21
2.9502483463
 31
0.0
 11
5.4283376453
 21
2.9480842182
 31
0.0
 11
5.3931929851
 21
2.9470027595
 31
0.0
 11
5.3597313779
 21
2.9459212179
 31
0.0
 11
5.3282492373
 21
2.9448395773
 31
0.0
 11
5.2990378665
 21
2.9437579351
 31
0.0
 11
5.2723640296
 21
2.9426763227
 31
0.0
 11
5.2484618182
 21
2.9415946833
 31
0.0
 11
5.2275557529
 21
2.9405129661
 31
0.0
 11
5.2098266941
 21
2.9394311909
 31
0.0
 11
5.202205016
 21
2.9388902958
 31
0.0
 11
5.1954390463
 21
2.9383494034
 31
0.0
 11
5.1895437191
 21
2.9378085176
 31
0.0
 11
5.1845294272
 21
2.9372676413
 31
0.0
 11
5.1804064191
 21
2.936726777
 31
0.0
 11
5.177184943
 21
2.9361859276
 31
0.0
 11
5.1748751227
 21
2.9356450956
 31
0.0
 11
5.1740641816
 21
2.9353746862
 31
0.0
 11
5.1734826299
 21
2.9351042807
 31
0.0
  0
SPLINE
  5
2E0
100
AcDbEntity
  8
0
100
AcDbSpline
 62
6
  6
CONTINUOUS
 70
0
 71
3
 72
17
 73
13
 74
11
 42
0.0000001
 43
0.0000001
 44
0.0000000001
 12
-0.0000340567
 22
-0.0133468492
 32
0.0
 13
0.0132636401
 23
-0.0014884199
 33
0.0
 40
0.0
 40
0.0
 40
0.0
 40
0.0
 40
0.0307360309
 40
0.0538637119
 40
0.0834675693
 40
0.1199487415
 40
0.1635113373
 40
0.2722670796
 40
0.410203309
 40
0.5774625974
 40
0.7740712926
 40
1.0
 40
1.0
 40
1.0
 40
1.0
 10
5.1730058244
 20
2.720262832
 30
0.0
 10
5.1730054755
 20
2.720126089
 30
0.0
 10
5.1731733769
 20
2.719906517
 30
0.0
 10
5.173477817
 20
2.7197065327
 30
0.0
 10
5.173836107
 20
2.7195280457
 30
0.0
 10
5.1742908707
 20
2.7193528499
 30
0.0
 10
5.1750918505
 20
2.7190974708
 30
0.0
 10
5.176347171
 20
2.7187906188
 30
0.0
 10
5.1781554723
 20
2.7184397701
 30
0.0
 10
5.1803603051
 20
2.7180873459
 30
0.0
 10
5.1829604384
 20
2.7177332404
 30
0.0
 10
5.1848273057
 20
2.7175119166
 30
0.0
 10
5.1858261847
 20
2.7173998243
 30
0.0
 11
5.1730058244
 21
2.720262832
 31
0.0
 11
5.1732063933
 21
2.7199049757
 31
0.0
 11
5.173457936
 21
2.7197260587
 31
0.0
 11
5.173810229
 21
2.7195471479
 31
0.0
 11
5.1742630798
 21
2.7193682409
 31
0.0
 11
5.174816296
 21
2.7191893352
 31
0.0
 11
5.176223054
 21
2.7188315183
 31
0.0
 11
5.1780289624
 21
2.718473678
 31
0.0
 11
5.1802324806
 21
2.7181157951
 31
0.0
 11
5.1828320682
 21
2.7177578503
 31
0.0
 11
5.1858261847
 21
2.7173998243
 31
0.0
  0
SPLINE
  5
2E1
100
AcDbEntity
  8
0
100
AcDbSpline
 62
6
  6
CONTINUOUS
 70
0
 71
3
 72
20
 73
16
 74
14
 42
0.0000001
 43
0.0000001
 44
0.0000000001
 12
-0.4018905124
 22
-0.0112464298
 32
0.0
 13
-0.3952574413
 23
-0.0735800331
 33
0.0
 40
0.0
 40
0.0
 40
0.0
 40
0.0
 40
0.1784329607
 40
0.3513810108
 40
0.5132011104
 40
0.6589375923
 40
0.7243044371
 40
0.7839851146
 40
0.8375047666
 40
0.8844422917
 40
0.9244467455
 40
0.9571835909
 40
0.9824205188
 40
0.9921760519
 40
1.0
 40
1.0
 40
1.0
 40
1.0
 10
5.5792541504
 20
3.0238411
 30
0.0
 10
5.5553506457
 20
3.0231721887
 30
0.0
 10
5.508278413
 20
3.0218549992
 30
0.0
 10
5.4395298785
 20
3.0198709514
 30
0.0
 10
5.3751650084
 20
3.0178906119
 30
0.0
 10
5.3252159881
 20
3.0161926603
 30
0.0
 10
5.2889530381
 20
3.0148064491
 30
0.0
 10
5.2650430351
 20
3.013806365
 30
0.0
 10
5.2436050952
 20
3.0128085415
 30
0.0
 10
5.2248072211
 20
3.0118130523
 30
0.0
 10
5.2087984185
 20
3.0108242265
 30
0.0
 10
5.1957044957
 20
3.0098406916
 30
0.0
 10
5.1866668117
 20
3.0089799044
 30
0.0
 10
5.1809741465
 20
3.0082565919
 30
0.0
 10
5.1786461086
 20
3.0078900069
 30
0.0
 10
5.1776152841
 20
3.0076981115
 30
0.0
 11
5.5792541504
 21
3.0238411
 31
0.0
 11
5.5075439329
 21
3.0218237994
 31
0.0
 11
5.4380398521
 21
3.0198051153
 31
0.0
 11
5.3730117209
 21
3.017787569
 31
0.0
 11
5.3144534373
 21
3.0157697685
 31
0.0
 11
5.2881922104
 21
3.0147608925
 31
0.0
 11
5.2642189416
 21
3.0137520236
 31
0.0
 11
5.242725147
 21
3.012743114
 31
0.0
 11
5.2238810089
 21
3.0117341394
 31
0.0
 11
5.2078289873
 21
3.0107251066
 31
0.0
 11
5.1947059478
 21
3.0097160305
 31
0.0
 11
5.1846097932
 21
3.0087069921
 31
0.0
 11
5.1807201795
 21
3.0082025245
 31
0.0
 11
5.1776152841
 21
3.0076981115
 31
0.0
  0
SPLINE
  5
2E2
100
AcDbEntity
  8
0
100
AcDbSpline
 62
6
  6
CONTINUOUS
 70
0
 71
3
 72
10
 73
6
 74
4
 42
0.0000001
 43
0.0000001
 44
0.0000000001
 12
-0.0042356301
 22
-0.0007884932
 32
0.0
 13
-0.0037301651
 23
-0.0021559575
 33
0.0
 40
0.0
 40
0.0
 40
0.0
 40
0.0
 40
0.6177824445
 40
0.8376323319
 40
1.0
 40
1.0
 40
1.0
 40
1.0
 10
5.1776152841
 20
3.0076981115
 30
0.0
 10
5.1767430514
 20
3.0075357391
 30
0.0
 10
5.1755616222
 20
3.0072937363
 30
0.0
 10
5.1741899547
 20
3.0068674406
 30
0.0
 10
5.1736823481
 20
3.0066509316
 30
0.0
 10
5.173480462
 20
3.0065342457
 30
0.0
 11
5.1776152841
 21
3.0076981115
 31
0.0
 11
5.1750180283
 21
3.0071161719
 31
0.0
 11
5.1741166231
 21
3.0068252121
 31
0.0
 11
5.173480462
 21
3.0065342457
 31
0.0
  0
SPLINE
  5
2E3
100
AcDbEntity
  8
0
100
AcDbSpline
 62
6
  6
CONTINUOUS
 70
0
 71
3
 72
14
 73
10
 74
8
 42
0.0000001
 43
0.0000001
 44
0.0000000001
 12
-0.0197397128
 22
0.0017822714
 32
0.0
 13
-0.0171606301
 23
0.0099169314
 33
0.0
 40
0.0
 40
0.0
 40
0.0
 40
0.0
 40
0.3812092465
 40
0.5392557818
 40
0.6753954456
 40
0.789510719
 40
0.881539749
 40
0.9515479166
 40
1.0
 40
1.0
 40
1.0
 40
1.0
 10
5.1930090911
 20
3.0649018555
 30
0.0
 10
5.1905007708
 20
3.0651283283
 30
0.0
 10
5.1869545512
 20
3.0654754337
 30
0.0
 10
5.1825244185
 20
3.0660097867
 30
0.0
 10
5.1798526383
 20
3.0663839621
 30
0.0
 10
5.1776221607
 20
3.0667564619
 30
0.0
 10
5.1758337742
 20
3.0671252367
 30
0.0
 10
5.1744926683
 20
3.0674898438
 30
0.0
 10
5.1737567516
 20
3.0677735884
 30
0.0
 10
5.1734795955
 20
3.0679337537
 30
0.0
 11
5.1930090911
 21
3.0649018555
 31
0.0
 11
5.1854915354
 21
3.0656588256
 31
0.0
 11
5.182382055
 21
3.0660377534
 31
0.0
 11
5.1797105324
 21
3.0664168735
 31
0.0
 11
5.1774807869
 21
3.0667961089
 31
0.0
 11
5.1756966382
 21
3.0671753826
 31
0.0
 11
5.1743619057
 21
3.0675546173
 31
0.0
 11
5.1734795955
 21
3.0679337537
 31
0.0
  0
SPLINE
  5
2E4
100
AcDbEntity
  8
0
100
AcDbSpline
 62
6
  6
CONTINUOUS
 70
0
 71
3
 72
12
 73
8
 74
6
 42
0.0000001
 43
0.0000001
 44
0.0000000001
 12
0.0000004683
 22
0.0033306565
 32
0.0
 13
-0.0032432995
 23
0.0007578135
 33
0.0
 40
0.0
 40
0.0
 40
0.0
 40
0.0
 40
0.1161662901
 40
0.2016950573
 40
0.310415107
 40
0.6029432224
 40
1.0
 40
1.0
 40
1.0
 40
1.0
 10
5.9855010682
 20
2.8184792718
 30
0.0
 10
5.9855010864
 20
2.8186082418
 30
0.0
 10
5.9853517943
 20
2.8188161832
 30
0.0
 10
5.9850731539
 20
2.8190094317
 30
0.0
 10
5.9845905473
 20
2.8192612404
 30
0.0
 10
5.9837516073
 20
2.8195511966
 30
0.0
 10
5.9830099747
 20
2.819743683
 30
0.0
 10
5.9825807167
 20
2.8198439814
 30
0.0
 11
5.9855010682
 21
2.8184792718
 31
0.0
 11
5.9853185824
 21
2.8188204437
 31
0.0
 11
5.9850904391
 21
2.8189910304
 31
0.0
 11
5.9847710288
 21
2.8191616179
 31
0.0
 11
5.983858407
 21
2.8195027964
 31
0.0
 11
5.9825807167
 21
2.8198439814
 31
0.0
  0
SPLINE
  5
2E5
100
AcDbEntity
  8
0
100
AcDbSpline
 62
6
  6
CONTINUOUS
 70
0
 71
3
 72
12
 73
8
 74
6
 42
0.0000001
 43
0.0000001
 44
0.0000000001
 12
0.0000297862
 22
-0.0032300401
 32
0.0
 13
-0.0031425609
 23
-0.0007472328
 33
0.0
 40
0.0
 40
0.0
 40
0.0
 40
0.0
 40
0.1171044855
 40
0.20271403
 40
0.3113692838
 40
0.6035115399
 40
1.0
 40
1.0
 40
1.0
 40
1.0
 10
5.985500997
 20
2.8274114773
 30
0.0
 10
5.9855021597
 20
2.8272853932
 30
0.0
 10
5.9853603555
 20
2.8270804806
 30
0.0
 10
5.9850909773
 20
2.8268895287
 30
0.0
 10
5.9846254311
 20
2.8266416217
 30
0.0
 10
5.983814296
 20
2.8263559718
 30
0.0
 10
5.983096876
 20
2.8261664542
 30
0.0
 10
5.9826815463
 20
2.8260676978
 30
0.0
 11
5.985500997
 21
2.8274114773
 31
0.0
 11
5.9853271204
 21
2.8270755401
 31
0.0
 11
5.9851074453
 21
2.8269075701
 31
0.0
 11
5.9847992738
 21
2.8267395989
 31
0.0
 11
5.9839174262
 21
2.8264036521
 31
0.0
 11
5.9826815463
 21
2.8260676978
 31
0.0
  0
SPLINE
  5
2E6
100
AcDbEntity
  8
0
100
AcDbSpline
 62
6
  6
CONTINUOUS
 70
0
 71
3
 72
11
 73
7
 74
5
 42
0.0000001
 43
0.0000001
 44
0.0000000001
 12
-0.0232939299
 22
-0.0055387914
 32
0.0
 13
-0.0238696719
 23
-0.0018772703
 33
0.0
 40
0.0
 40
0.0
 40
0.0
 40
0.0
 40
0.15727056
 40
0.3767794522
 40
0.6579471574
 40
1.0
 40
1.0
 40
1.0
 40
1.0
 10
5.9826815463
 20
2.8260676978
 30
0.0
 10
5.9814603965
 20
2.8257773349
 30
0.0
 10
5.978494088
 20
2.8252611868
 30
0.0
 10
5.9732867971
 20
2.8245860732
 30
0.0
 10
5.9665944391
 20
2.8239049175
 30
0.0
 10
5.9616379898
 20
2.8234868582
 30
0.0
 10
5.9589164268
 20
2.8232728163
 30
0.0
 11
5.9826815463
 21
2.8260676978
 31
0.0
 11
5.9789813434
 21
2.825369016
 31
0.0
 11
5.97377221
 21
2.8246703031
 31
0.0
 11
5.9670764648
 21
2.8239715671
 31
0.0
 11
5.9589164268
 21
2.8232728163
 31
0.0
  0
SPLINE
  5
2E7
100
AcDbEntity
  8
0
100
AcDbSpline
 62
6
  6
CONTINUOUS
 70
0
 71
3
 72
15
 73
11
 74
9
 42
0.0000001
 43
0.0000001
 44
0.0000000001
 12
-0.3787614258
 22
-0.0297883261
 32
0.0
 13
-0.3797823225
 23
-0.0106277752
 33
0.0
 40
0.0
 40
0.0
 40
0.0
 40
0.0
 40
0.0316092963
 40
0.0687077957
 40
0.1585084581
 40
0.2673971665
 40
0.3929192821
 40
0.5321901293
 40
0.682079253
 40
1.0
 40
1.0
 40
1.0
 40
1.0
 10
5.9589164268
 20
2.8232728163
 30
0.0
 10
5.9549256327
 20
2.8229589536
 30
0.0
 10
5.9462454418
 20
2.8223475976
 30
0.0
 10
5.9262074894
 20
2.8211404529
 30
0.0
 10
5.8963812531
 20
2.8196829373
 30
0.0
 10
5.85535598
 20
2.8180073058
 30
0.0
 10
5.8080613267
 20
2.816324149
 30
0.0
 10
5.7555716091
 20
2.8146343844
 30
0.0
 10
5.6787231118
 20
2.8123322554
 30
0.0
 10
5.6195010436
 20
2.8106773496
 30
0.0
 10
5.5792541504
 20
2.8095510862
 30
0.0
 11
5.9589164268
 21
2.8232728163
 31
0.0
 11
5.9469377448
 21
2.8224150867
 31
0.0
 11
5.9328689966
 21
2.8215573686
 31
0.0
 11
5.8987940884
 21
2.8198420496
 31
0.0
 11
5.8574594636
 21
2.8181268624
 31
0.0
 11
5.8098005767
 21
2.8164116277
 31
0.0
 11
5.7569150654
 21
2.8146966162
 31
0.0
 11
5.6999933693
 21
2.8129816789
 31
0.0
 11
5.5792541504
 21
2.8095510862
 31
0.0
  0
SPLINE
  5
2E8
100
AcDbEntity
  8
0
100
AcDbSpline
 62
6
  6
CONTINUOUS
 70
0
 71
3
 72
12
 73
8
 74
6
 42
0.0000001
 43
0.0000001
 44
0.0000000001
 12
-0.0000312102
 22
0.0033844532
 32
0.0
 13
-0.0032974005
 23
0.0007633138
 33
0.0
 40
0.0
 40
0.0
 40
0.0
 40
0.0
 40
0.1157948151
 40
0.2013552558
 40
0.3101548134
 40
0.6028566339
 40
1.0
 40
1.0
 40
1.0
 40
1.0
 10
5.985500997
 20
2.8899122035
 30
0.0
 10
5.9854997924
 20
2.8900428375
 30
0.0
 10
5.9853457736
 20
2.8902518899
 30
0.0
 10
5.9850618076
 20
2.8904462754
 30
0.0
 10
5.984569787
 20
2.890699876
 30
0.0
 10
5.9837160963
 20
2.8909919193
 30
0.0
 10
5.9829616963
 20
2.8911858589
 30
0.0
 10
5.9825251827
 20
2.8912869073
 30
0.0
 11
5.985500997
 21
2.8899122035
 31
0.0
 11
5.985312615
 21
2.8902558785
 31
0.0
 11
5.9850795207
 21
2.8904277157
 31
0.0
 11
5.9847538297
 21
2.890599553
 31
0.0
 11
5.9838246744
 21
2.8909432286
 31
0.0
 11
5.9825251827
 21
2.8912869073
 31
0.0
  0
SPLINE
  5
2E9
100
AcDbEntity
  8
0
100
AcDbSpline
 62
6
  6
CONTINUOUS
 70
0
 71
3
 72
12
 73
8
 74
6
 42
0.0000001
 43
0.0000001
 44
0.0000000001
 12
0.0000492828
 22
-0.003168609
 32
0.0
 13
-0.003081201
 23
-0.0007407513
 33
0.0
 40
0.0
 40
0.0
 40
0.0
 40
0.0
 40
0.1176922987
 40
0.2033444618
 40
0.3119520285
 40
0.6038493601
 40
1.0
 40
1.0
 40
1.0
 40
1.0
 10
5.9855007839
 20
2.8988435135
 30
0.0
 10
5.9855027173
 20
2.8987192066
 30
0.0
 10
5.9853655727
 20
2.898516118
 30
0.0
 10
5.9851019027
 20
2.8983265526
 30
0.0
 10
5.984646786
 20
2.8980810103
 30
0.0
 10
5.9838525735
 20
2.8977979782
 30
0.0
 10
5.9831498732
 20
2.8976102719
 30
0.0
 10
5.9827429999
 20
2.8975124555
 30
0.0
 11
5.9855007839
 21
2.8988435135
 31
0.0
 11
5.98533233
 21
2.898510757
 31
0.0
 11
5.9851178714
 21
2.898344377
 31
0.0
 11
5.9848165829
 21
2.8981779957
 31
0.0
 11
5.9839534902
 21
2.8978452289
 31
0.0
 11
5.9827429999
 21
2.8975124555
 31
0.0
  0
SPLINE
  5
2EA
100
AcDbEntity
  8
0
100
AcDbSpline
 62
6
  6
CONTINUOUS
 70
0
 71
3
 72
11
 73
7
 74
5
 42
0.0000001
 43
0.0000001
 44
0.0000000001
 12
-0.0231264632
 22
-0.0055598312
 32
0.0
 13
-0.0237115865
 23
-0.0018723476
 33
0.0
 40
0.0
 40
0.0
 40
0.0
 40
0.0
 40
0.1568143729
 40
0.3761658976
 40
0.6574843738
 40
1.0
 40
1.0
 40
1.0
 40
1.0
 10
5.9827429999
 20
2.8975124555
 30
0.0
 10
5.981534146
 20
2.897221835
 30
0.0
 10
5.9785927394
 20
2.8967061223
 30
0.0
 10
5.9734240143
 20
2.8960318255
 30
0.0
 10
5.9667725205
 20
2.8953514876
 30
0.0
 10
5.9618440798
 20
2.8949340218
 30
0.0
 10
5.9591368835
 20
2.8947202523
 30
0.0
 11
5.9827429999
 21
2.8975124555
 31
0.0
 11
5.9790790041
 21
2.8968144385
 31
0.0
 11
5.9739085488
 21
2.8961163949
 31
0.0
 11
5.9672537899
 21
2.8954183307
 31
0.0
 11
5.9591368835
 21
2.8947202523
 31
0.0
  0
SPLINE
  5
2EB
100
AcDbEntity
  8
0
100
AcDbSpline
 62
6
  6
CONTINUOUS
 70
0
 71
3
 72
15
 73
11
 74
9
 42
0.0000001
 43
0.0000001
 44
0.0000000001
 12
-0.3789724793
 22
-0.0299249566
 32
0.0
 13
-0.3800033709
 23
-0.0106339658
 33
0.0
 40
0.0
 40
0.0
 40
0.0
 40
0.0
 40
0.0315207175
 40
0.0685448199
 40
0.1582397504
 40
0.2670761622
 40
0.3925916726
 40
0.5319002743
 40
0.6818683353
 40
1.0
 40
1.0
 40
1.0
 40
1.0
 10
5.9591368835
 20
2.8947202523
 30
0.0
 10
5.9551550554
 20
2.8944058336
 30
0.0
 10
5.9464905514
 20
2.8937935487
 30
0.0
 10
5.9264751104
 20
2.8925846335
 30
0.0
 10
5.8966610389
 20
2.8911253228
 30
0.0
 10
5.8556328056
 20
2.8894477654
 30
0.0
 10
5.8083133403
 20
2.8877626263
 30
0.0
 10
5.7557791485
 20
2.8860708164
 30
0.0
 10
5.678844439
 20
2.883765697
 30
0.0
 10
5.6195511854
 20
2.8821088124
 30
0.0
 10
5.5792541504
 20
2.8809811454
 30
0.0
 11
5.9591368835
 21
2.8947202523
 31
0.0
 11
5.9471850307
 21
2.8938614482
 31
0.0
 11
5.933136464
 21
2.8930026533
 31
0.0
 11
5.8990820267
 21
2.8912851726
 31
0.0
 11
5.8577432893
 21
2.8895678293
 31
0.0
 11
5.8100592159
 21
2.8878504775
 31
0.0
 11
5.7571286002
 21
2.8861333248
 31
0.0
 11
5.7001437889
 21
2.8844161507
 31
0.0
 11
5.5792541504
 21
2.8809811454
 31
0.0
  0
SPLINE
  5
2EC
100
AcDbEntity
  8
0
100
AcDbSpline
 62
6
  6
CONTINUOUS
 70
0
 71
3
 72
22
 73
18
 74
16
 42
0.0000001
 43
0.0000001
 44
0.0000000001
 12
-0.4037816629
 22
-0.0112993713
 32
0.0
 13
-0.3927434436
 23
-0.0944451934
 33
0.0
 40
0.0
 40
0.0
 40
0.0
 40
0.0
 40
0.1818237673
 40
0.3577815519
 40
0.5218574392
 40
0.5977835403
 40
0.6687891563
 40
0.7342701073
 40
0.7937077677
 40
0.8466032415
 40
0.8925207006
 40
0.9311030514
 40
0.9620117103
 40
0.9745140546
 40
0.9850226372
 40
0.9935213526
 40
1.0
 40
1.0
 40
1.0
 40
1.0
 10
5.5792541504
 20
3.0952710922
 30
0.0
 10
5.5547817827
 20
3.0945862608
 30
0.0
 10
5.5066265652
 20
3.0932388577
 30
0.0
 10
5.4363895741
 20
3.0912085043
 30
0.0
 10
5.3804086337
 20
3.0894791901
 30
0.0
 10
5.3385561065
 20
3.0880731948
 30
0.0
 10
5.3099738452
 20
3.0870471493
 30
0.0
 10
5.2836131993
 20
3.086021943
 30
0.0
 10
5.2596929284
 20
3.0849987929
 30
0.0
 10
5.2384093905
 20
3.0839779364
 30
0.0
 10
5.2199372898
 20
3.0829609152
 30
0.0
 10
5.2044306732
 20
3.0819496353
 30
0.0
 10
5.1934249301
 20
3.0810663272
 30
0.0
 10
5.1862017082
 20
3.0803334345
 30
0.0
 10
5.1819889625
 20
3.0798262731
 30
0.0
 10
5.1785942851
 20
3.0793228896
 30
0.0
 10
5.1766119428
 20
3.0789433847
 30
0.0
 10
5.1757637941
 20
3.0787394256
 30
0.0
 11
5.5792541504
 21
3.0952710922
 31
0.0
 11
5.5058373657
 21
3.0932052499
 31
0.0
 11
5.4347910951
 21
3.0911379852
 31
0.0
 11
5.3685465348
 21
3.0890719568
 31
0.0
 11
5.3378943726
 21
3.0880388011
 31
0.0
 11
5.3092309983
 21
3.0870056043
 31
0.0
 11
5.2828008268
 21
3.0859724245
 31
0.0
 11
5.2588138352
 21
3.0849392335
 31
0.0
 11
5.2374722492
 21
3.0839059864
 31
0.0
 11
5.2189531687
 21
3.0828726738
 31
0.0
 11
5.2034025194
 21
3.08183933
 31
0.0
 11
5.1909601196
 21
3.0808059908
 31
0.0
 11
5.1859364239
 21
3.0802893315
 31
0.0
 11
5.1817231484
 21
3.0797726826
 31
0.0
 11
5.1783292772
 21
3.0792560464
 31
0.0
 11
5.1757637941
 21
3.0787394256
 31
0.0
  0
LINE
  5
2ED
100
AcDbEntity
  8
0
100
AcDbLine
 62
6
  6
CONTINUOUS
 10
5.1757637941
 20
3.0787394256
 11
5.173482693
 21
3.0779641832
  0
SPLINE
  5
2EE
100
AcDbEntity
  8
0
100
AcDbSpline
 62
6
  6
CONTINUOUS
 70
0
 71
3
 72
12
 73
8
 74
6
 42
0.0000001
 43
0.0000001
 44
0.0000000001
 12
-0.0000536164
 22
0.0034472387
 32
0.0
 13
-0.0033606064
 23
0.0007698405
 33
0.0
 40
0.0
 40
0.0
 40
0.0
 40
0.0
 40
0.1152778057
 40
0.2008070394
 40
0.309653251
 40
0.6025716532
 40
1.0
 40
1.0
 40
1.0
 40
1.0
 10
5.9855007839
 20
2.9613442422
 30
0.0
 10
5.9854987236
 20
2.9614767056
 30
0.0
 10
5.9853398733
 20
2.961687488
 30
0.0
 10
5.985050047
 20
2.9618832987
 30
0.0
 10
5.9845472777
 20
2.962139248
 30
0.0
 10
5.9836761963
 20
2.9624339164
 30
0.0
 10
5.9829066612
 20
2.9626296619
 30
0.0
 10
5.9824614611
 20
2.9627316473
 30
0.0
 11
5.9855007839
 21
2.9613442422
 31
0.0
 11
5.9853067505
 21
2.9616910969
 31
0.0
 11
5.9850682661
 21
2.9618645231
 31
0.0
 11
5.9847354796
 21
2.9620379486
 31
0.0
 11
5.9837870301
 21
2.9623847984
 31
0.0
 11
5.9824614611
 21
2.9627316473
 31
0.0
  0
SPLINE
  5
2EF
100
AcDbEntity
  8
0
100
AcDbSpline
 62
6
  6
CONTINUOUS
 70
0
 71
3
 72
12
 73
8
 74
6
 42
0.0000001
 43
0.0000001
 44
0.0000000001
 12
0.0000494955
 22
-0.0031284881
 32
0.0
 13
-0.0030410046
 23
-0.0007363281
 33
0.0
 40
0.0
 40
0.0
 40
0.0
 40
0.0
 40
0.1181714444
 40
0.2039149842
 40
0.3125316924
 40
0.604248005
 40
1.0
 40
1.0
 40
1.0
 40
1.0
 10
5.9855008335
 20
2.9702736024
 30
0.0
 10
5.9855027831
 20
2.9701503698
 30
0.0
 10
5.9853680739
 20
2.9699488874
 30
0.0
 10
5.9851078536
 20
2.9697603413
 30
0.0
 10
5.984659342
 20
2.9695166033
 30
0.0
 10
5.9838763414
 20
2.9692354869
 30
0.0
 10
5.9831834576
 20
2.969049086
 30
0.0
 10
5.9827822964
 20
2.9689519516
 30
0.0
 11
5.9855008335
 21
2.9702736024
 31
0.0
 11
5.9853348723
 21
2.9699431971
 31
0.0
 11
5.9851234902
 21
2.9697779929
 31
0.0
 11
5.9848264982
 21
2.9696127875
 31
0.0
 11
5.9839756575
 21
2.9692823726
 31
0.0
 11
5.9827822964
 21
2.9689519516
 31
0.0
  0
SPLINE
  5
2F0
100
AcDbEntity
  8
0
100
AcDbSpline
 62
6
  6
CONTINUOUS
 70
0
 71
3
 72
11
 73
7
 74
5
 42
0.0000001
 43
0.0000001
 44
0.0000000001
 12
-0.0229327256
 22
-0.0055527736
 32
0.0
 13
-0.0235215689
 23
-0.0018652065
 33
0.0
 40
0.0
 40
0.0
 40
0.0
 40
0.0
 40
0.1566322903
 40
0.3759158041
 40
0.6572921284
 40
1.0
 40
1.0
 40
1.0
 40
1.0
 10
5.9827822964
 20
2.9689519516
 30
0.0
 10
5.9815849613
 20
2.968662037
 30
0.0
 10
5.9786694231
 20
2.9681478962
 30
0.0
 10
5.9735439452
 20
2.9674757611
 30
0.0
 10
5.9669444566
 20
2.9667976014
 30
0.0
 10
5.9620535752
 20
2.966381519
 30
0.0
 10
5.9593665662
 20
2.9661684454
 30
0.0
 11
5.9827822964
 21
2.9689519516
 31
0.0
 11
5.9791525914
 21
2.9682561082
 31
0.0
 11
5.9740255155
 21
2.967560239
 31
0.0
 11
5.9674228975
 21
2.9668643495
 31
0.0
 11
5.9593665662
 21
2.9661684454
 31
0.0
  0
SPLINE
  5
2F1
100
AcDbEntity
  8
0
100
AcDbSpline
 62
6
  6
CONTINUOUS
 70
0
 71
3
 72
15
 73
11
 74
9
 42
0.0000001
 43
0.0000001
 44
0.0000000001
 12
-0.37919219
 22
-0.0300690713
 32
0.0
 13
-0.3802336754
 23
-0.0106403988
 33
0.0
 40
0.0
 40
0.0
 40
0.0
 40
0.0
 40
0.0314276401
 40
0.0683733634
 40
0.157955352
 40
0.2667347565
 40
0.3922474904
 40
0.5316001955
 40
0.6816506836
 40
1.0
 40
1.0
 40
1.0
 40
1.0
 10
5.9593665662
 20
2.9661684454
 30
0.0
 10
5.9553941943
 20
2.9658534454
 30
0.0
 10
5.9467462707
 20
2.9652401939
 30
0.0
 10
5.9267548896
 20
2.9640294458
 30
0.0
 10
5.8969543113
 20
2.96256828
 30
0.0
 10
5.8559231727
 20
2.960888697
 30
0.0
 10
5.8085770544
 20
2.9592014773
 30
0.0
 10
5.7559953618
 20
2.957507478
 30
0.0
 10
5.6789704166
 20
2.9551992417
 30
0.0
 10
5.6196031939
 20
2.9535403022
 30
0.0
 10
5.5792541504
 20
2.952411181
 30
0.0
 11
5.9593665662
 21
2.9661684454
 31
0.0
 11
5.9474430094
 21
2.965308524
 31
0.0
 11
5.9334158349
 21
2.9644486117
 31
0.0
 11
5.8993838343
 21
2.9627289034
 31
0.0
 11
5.858041796
 21
2.9610093303
 31
0.0
 11
5.8103299241
 21
2.9592897154
 31
0.0
 11
5.7573504853
 21
2.9575702624
 31
0.0
 11
5.7002998087
 21
2.955850757
 31
0.0
 11
5.5792541504
 21
2.952411181
 31
0.0
  0
LINE
  5
2F2
100
AcDbEntity
  8
0
100
AcDbLine
 62
6
  6
CONTINUOUS
 10
5.1760498353
 20
3.1385213649
 11
5.1734830158
 21
3.1393637029
  0
SPLINE
  5
2F3
100
AcDbEntity
  8
0
100
AcDbSpline
 62
6
  6
CONTINUOUS
 70
0
 71
3
 72
10
 73
6
 74
4
 42
0.0000001
 43
0.0000001
 44
0.0000000001
 12
-0.0030733051
 22
0.0017800767
 32
0.0
 13
-0.0034739871
 23
0.0007384384
 33
0.0
 40
0.0
 40
0.0
 40
0.0
 40
0.0
 40
0.1721110792
 40
0.3952595744
 40
1.0
 40
1.0
 40
1.0
 40
1.0
 10
5.9463143157
 20
3.0646273116
 30
0.0
 10
5.9461379991
 20
3.0647294353
 30
0.0
 10
5.9457100967
 20
3.0649233817
 30
0.0
 10
5.9445891285
 20
3.065305719
 30
0.0
 10
5.9436326634
 20
3.0655300864
 30
0.0
 10
5.9429323765
 20
3.0656789409
 30
0.0
 11
5.9463143157
 21
3.0646273116
 31
0.0
 11
5.9457624726
 21
3.0648902189
 31
0.0
 11
5.9450148156
 21
3.0651531262
 31
0.0
 11
5.9429323765
 21
3.0656789409
 31
0.0
  0
SPLINE
  5
2F4
100
AcDbEntity
  8
0
100
AcDbSpline
 62
6
  6
CONTINUOUS
 70
0
 71
3
 72
12
 73
8
 74
6
 42
0.0000001
 43
0.0000001
 44
0.0000000001
 12
-0.0000547984
 22
0.0034636696
 32
0.0
 13
-0.0033770838
 23
0.0007715665
 33
0.0
 40
0.0
 40
0.0
 40
0.0
 40
0.0
 40
0.1151121446
 40
0.2006123006
 40
0.309457306
 40
0.6024388407
 40
1.0
 40
1.0
 40
1.0
 40
1.0
 10
5.9855008335
 20
3.0327743289
 30
0.0
 10
5.9854987308
 20
3.0329072324
 30
0.0
 10
5.9853388247
 20
3.0331186017
 30
0.0
 10
5.9850475818
 20
3.033314805
 30
0.0
 10
5.9845420814
 20
3.0335714434
 30
0.0
 10
5.9836664111
 20
3.0338668495
 30
0.0
 10
5.9828928574
 20
3.0340630985
 30
0.0
 10
5.982445325
 20
3.0341653468
 30
0.0
 11
5.9855008335
 21
3.0327743289
 31
0.0
 11
5.9853057065
 21
3.0331220863
 31
0.0
 11
5.9850659358
 21
3.033295964
 31
0.0
 11
5.9847313709
 21
3.0334698411
 31
0.0
 11
5.9837778895
 21
3.0338175942
 31
0.0
 11
5.982445325
 21
3.0341653468
 31
0.0
  0
SPLINE
  5
2F5
100
AcDbEntity
  8
0
100
AcDbSpline
 62
6
  6
CONTINUOUS
 70
0
 71
3
 72
12
 73
8
 74
6
 42
0.0000001
 43
0.0000001
 44
0.0000000001
 12
0.0000501187
 22
-0.0031422087
 32
0.0
 13
-0.0030547598
 23
-0.0007378551
 33
0.0
 40
0.0
 40
0.0
 40
0.0
 40
0.0
 40
0.1180020405
 40
0.2037108206
 40
0.3123222808
 40
0.6041019465
 40
1.0
 40
1.0
 40
1.0
 40
1.0
 10
5.9855008229
 20
3.041703562
 30
0.0
 10
5.9855027943
 20
3.0415799663
 30
0.0
 10
5.9853672859
 20
3.0413779109
 30
0.0
 10
5.9851059003
 20
3.0411890091
 30
0.0
 10
5.9846551407
 20
3.040944639
 30
0.0
 10
5.983868297
 20
3.0406628552
 30
0.0
 10
5.9831720453
 20
3.0404760004
 30
0.0
 10
5.9827689208
 20
3.0403786286
 30
0.0
 11
5.9855008229
 21
3.041703562
 31
0.0
 11
5.9853340673
 21
3.0413723361
 31
0.0
 11
5.9851216508
 21
3.0412067216
 31
0.0
 11
5.9848231998
 21
3.0410411059
 31
0.0
 11
5.9839681683
 21
3.0407098703
 31
0.0
 11
5.9827689208
 21
3.0403786286
 31
0.0
  0
SPLINE
  5
2F6
100
AcDbEntity
  8
0
100
AcDbSpline
 62
6
  6
CONTINUOUS
 70
0
 71
3
 72
11
 73
7
 74
5
 42
0.0000001
 43
0.0000001
 44
0.0000000001
 12
-0.0229667804
 22
-0.0055474591
 32
0.0
 13
-0.0235534441
 23
-0.001866166
 33
0.0
 40
0.0
 40
0.0
 40
0.0
 40
0.0
 40
0.1567369561
 40
0.3760567115
 40
0.6573985131
 40
1.0
 40
1.0
 40
1.0
 40
1.0
 10
5.9827689208
 20
3.0403786286
 30
0.0
 10
5.9815690064
 20
3.040088798
 30
0.0
 10
5.9786483224
 20
3.0395746012
 30
0.0
 10
5.9735149705
 20
3.0389023386
 30
0.0
 10
5.9669073285
 20
3.038224052
 30
0.0
 10
5.9620109184
 20
3.0378078709
 30
0.0
 10
5.9593211034
 20
3.0375947538
 30
0.0
 11
5.9827689208
 21
3.0403786286
 31
0.0
 11
5.9791316359
 21
3.0396826929
 31
0.0
 11
5.97399666
 21
3.0389867315
 31
0.0
 11
5.9673858601
 21
3.0382907499
 31
0.0
 11
5.9593211034
 21
3.0375947538
 31
0.0
  0
SPLINE
  5
2F7
100
AcDbEntity
  8
0
100
AcDbSpline
 62
6
  6
CONTINUOUS
 70
0
 71
3
 72
15
 73
11
 74
9
 42
0.0000001
 43
0.0000001
 44
0.0000000001
 12
-0.3791487166
 22
-0.0300403808
 32
0.0
 13
-0.380188089
 23
-0.0106391132
 33
0.0
 40
0.0
 40
0.0
 40
0.0
 40
0.0
 40
0.0314460221
 40
0.0684071776
 40
0.1580112831
 40
0.2668015742
 40
0.3923145687
 40
0.5316586017
 40
0.6816934231
 40
1.0
 40
1.0
 40
1.0
 40
1.0
 10
5.9593211034
 20
3.0375947538
 30
0.0
 10
5.9553468637
 20
3.0372798703
 30
0.0
 10
5.9466956717
 20
3.0366668122
 30
0.0
 10
5.9266995705
 20
3.0354564309
 30
0.0
 10
5.8968964093
 20
3.0339956384
 30
0.0
 10
5.8558659609
 20
3.0323164602
 30
0.0
 10
5.8085251977
 20
3.0306296562
 30
0.0
 10
5.755952856
 20
3.0289360892
 30
0.0
 10
5.6789456433
 20
3.0266284679
 30
0.0
 10
5.6195929401
 20
3.0249699332
 30
0.0
 10
5.5792541504
 20
3.0238411
 30
0.0
 11
5.9593211034
 21
3.0375947538
 31
0.0
 11
5.9473919579
 21
3.0367350564
 31
0.0
 11
5.9333605773
 21
3.0358753681
 31
0.0
 11
5.8993242221
 21
3.0341561069
 31
0.0
 11
5.8579829861
 21
3.0324369815
 31
0.0
 11
5.8102767264
 21
3.0307178191
 31
0.0
 11
5.7573069313
 21
3.0289988214
 31
0.0
 11
5.7002690484
 21
3.0272797714
 31
0.0
 11
5.5792541504
 21
3.0238411
 31
0.0
  0
LINE
  5
2F8
100
AcDbEntity
  8
0
100
AcDbLine
 62
6
  6
CONTINUOUS
 10
5.9463177316
 20
3.1360573469
 11
5.9452879901
 21
3.1364948076
  0
SPLINE
  5
2F9
100
AcDbEntity
  8
0
100
AcDbSpline
 62
6
  6
CONTINUOUS
 70
0
 71
3
 72
12
 73
8
 74
6
 42
0.0000001
 43
0.0000001
 44
0.0000000001
 12
-0.0000550267
 22
0.0034499155
 32
0.0
 13
-0.0033633137
 23
0.0007701077
 33
0.0
 40
0.0
 40
0.0
 40
0.0
 40
0.0
 40
0.1152583185
 40
0.2007880083
 40
0.309637332
 40
0.6025643694
 40
1.0
 40
1.0
 40
1.0
 40
1.0
 10
5.9855008229
 20
3.1042042855
 30
0.0
 10
5.9854987088
 20
3.1043368293
 30
0.0
 10
5.9853396317
 20
3.1045476696
 30
0.0
 10
5.9850495448
 20
3.1047435364
 30
0.0
 10
5.9845463075
 20
3.1049995759
 30
0.0
 10
5.9836744848
 20
3.1052943481
 30
0.0
 10
5.9829043066
 20
3.1054901655
 30
0.0
 10
5.9824587397
 20
3.1055921882
 30
0.0
 11
5.9855008229
 21
3.1042042855
 31
0.0
 11
5.9853065121
 21
3.1045512643
 31
0.0
 11
5.9850677855
 21
3.1047247526
 31
0.0
 11
5.9847346881
 21
3.1048982403
 31
0.0
 11
5.9837854107
 21
3.1052452146
 31
0.0
 11
5.9824587397
 21
3.1055921882
 31
0.0
  0
SPLINE
  5
2FA
100
AcDbEntity
  8
0
100
AcDbSpline
 62
6
  6
CONTINUOUS
 70
0
 71
3
 72
11
 73
7
 74
5
 42
0.0000001
 43
0.0000001
 44
0.0000000001
 12
-0.0054059191
 22
0.0031245034
 32
0.0
 13
-0.0061611702
 23
0.0010131457
 33
0.0
 40
0.0
 40
0.0
 40
0.0
 40
0.0
 40
0.1535411828
 40
0.3704167504
 40
0.652344886
 40
1.0
 40
1.0
 40
1.0
 40
1.0
 10
5.9463136875
 20
3.2074874085
 30
0.0
 10
5.9460370105
 20
3.2076473218
 30
0.0
 10
5.9453162471
 20
3.2079355521
 30
0.0
 10
5.9440109471
 20
3.2083077307
 30
0.0
 10
5.9422883867
 20
3.2086837435
 30
0.0
 10
5.9409981163
 20
3.2089125963
 30
0.0
 10
5.9402841288
 20
3.2090300047
 30
0.0
 11
5.9463136875
 21
3.2074874085
 31
0.0
 11
5.9454359763
 21
3.2078730575
 31
0.0
 11
5.9441378991
 21
3.2082587066
 31
0.0
 11
5.9424203264
 21
3.2086443556
 31
0.0
 11
5.9402841288
 21
3.2090300047
 31
0.0
  0
SPLINE
  5
2FB
100
AcDbEntity
  8
0
100
AcDbSpline
 62
6
  6
CONTINUOUS
 70
0
 71
3
 72
12
 73
8
 74
6
 42
0.0000001
 43
0.0000001
 44
0.0000000001
 12
0.0000379334
 22
-0.0029396966
 32
0.0
 13
-0.0028516896
 23
-0.0007149273
 33
0.0
 40
0.0
 40
0.0
 40
0.0
 40
0.0
 40
0.1206376033
 40
0.2069061678
 40
0.3156149181
 40
0.6064140049
 40
1.0
 40
1.0
 40
1.0
 40
1.0
 10
5.9855010182
 20
3.1131325245
 30
0.0
 10
5.9855025436
 20
3.1130143119
 30
0.0
 10
5.9853785641
 20
3.112820956
 30
0.0
 10
5.9851343653
 20
3.1126374675
 30
0.0
 10
5.9847166751
 20
3.1124026355
 30
0.0
 10
5.9839865528
 20
3.1121309281
 30
0.0
 10
5.9833400089
 20
3.1119509055
 30
0.0
 10
5.9829658805
 20
3.1118571104
 30
0.0
 11
5.9855010182
 21
3.1131325245
 31
0.0
 11
5.9853456947
 21
3.1128136772
 31
0.0
 11
5.9851484408
 21
3.1126542523
 31
0.0
 11
5.9848714464
 21
3.1124948265
 31
0.0
 11
5.9840781996
 21
3.1121759713
 31
0.0
 11
5.9829658805
 21
3.1118571104
 31
0.0
  0
SPLINE
  5
2FC
100
AcDbEntity
  8
0
100
AcDbSpline
 62
6
  6
CONTINUOUS
 70
0
 71
3
 72
11
 73
7
 74
5
 42
0.0000001
 43
0.0000001
 44
0.0000000001
 12
-0.0224296951
 22
-0.0056231931
 32
0.0
 13
-0.0230496694
 23
-0.0018504768
 33
0.0
 40
0.0
 40
0.0
 40
0.0
 40
0.0
 40
0.1551791424
 40
0.37395748
 40
0.6558123634
 40
1.0
 40
1.0
 40
1.0
 40
1.0
 10
5.9829658805
 20
3.1118571104
 30
0.0
 10
5.9818056736
 20
3.1115662429
 30
0.0
 10
5.9789649311
 20
3.1110533054
 30
0.0
 10
5.9739549917
 20
3.1103834588
 30
0.0
 10
5.9674771941
 20
3.1097075984
 30
0.0
 10
5.9626694923
 20
3.1092932111
 30
0.0
 10
5.9600250219
 20
3.1090809073
 30
0.0
 11
5.9829658805
 21
3.1118571104
 31
0.0
 11
5.9794452984
 21
3.1111630948
 31
0.0
 11
5.9744341392
 21
3.1104690521
 31
0.0
 11
5.967953636
 21
3.1097749877
 31
0.0
 11
5.9600250219
 21
3.1090809073
 31
0.0
  0
SPLINE
  5
2FD
100
AcDbEntity
  8
0
100
AcDbSpline
 62
6
  6
CONTINUOUS
 70
0
 71
3
 72
15
 73
11
 74
9
 42
0.0000001
 43
0.0000001
 44
0.0000000001
 12
-0.3798210087
 22
-0.0304928434
 32
0.0
 13
-0.3808939489
 23
-0.0106588846
 33
0.0
 40
0.0
 40
0.0
 40
0.0
 40
0.0
 40
0.0311587064
 40
0.0678785418
 40
0.157136464
 40
0.2657564171
 40
0.3912670751
 40
0.5307480082
 40
0.6810270436
 40
1.0
 40
1.0
 40
1.0
 40
1.0
 10
5.9600250219
 20
3.1090809073
 30
0.0
 10
5.9560801115
 20
3.1087642015
 30
0.0
 10
5.9474802906
 20
3.1081481271
 30
0.0
 10
5.9275585885
 20
3.1069320314
 30
0.0
 10
5.897796589
 20
3.1054654376
 30
0.0
 10
5.8567560515
 20
3.1037799538
 30
0.0
 10
5.8093320551
 20
3.1020866801
 30
0.0
 10
5.7566140873
 20
3.1003863781
 30
0.0
 10
5.6793309526
 20
3.0980692033
 30
0.0
 10
5.6197524401
 20
3.0964043908
 30
0.0
 10
5.5792541504
 20
3.0952710922
 30
0.0
 11
5.9600250219
 21
3.1090809073
 31
0.0
 11
5.9481836325
 21
3.108217724
 31
0.0
 11
5.9342184446
 21
3.1073545509
 31
0.0
 11
5.9002511678
 21
3.1056283355
 31
0.0
 11
5.8588982971
 21
3.1039022421
 31
0.0
 11
5.811104496
 21
3.1021760177
 31
0.0
 11
5.7579842914
 21
3.1004499196
 31
0.0
 11
5.70074753
 21
3.0987237989
 31
0.0
 11
5.5792541504
 21
3.0952710922
 31
0.0
  0
SPLINE
  5
2FE
100
AcDbEntity
  8
0
100
AcDbSpline
 62
6
  6
CONTINUOUS
 70
0
 71
3
 72
22
 73
18
 74
16
 42
0.0000001
 43
0.0000001
 44
0.0000000001
 12
-0.4037211867
 22
-0.0112976813
 32
0.0
 13
-0.3929089409
 23
-0.0934933066
 33
0.0
 40
0.0
 40
0.0
 40
0.0
 40
0.0
 40
0.1816966856
 40
0.3575353833
 40
0.5215249977
 40
0.5974263734
 40
0.6684183049
 40
0.7338966784
 40
0.7933443588
 40
0.8462635314
 40
0.8922197984
 40
0.9308558166
 40
0.9618326654
 40
0.974374615
 40
0.9849263687
 40
0.9934716669
 40
1.0
 40
1.0
 40
1.0
 40
1.0
 10
5.5792541504
 20
3.1667011549
 30
0.0
 10
5.5548025499
 20
3.1660169045
 30
0.0
 10
5.5066876728
 20
3.1646706242
 30
0.0
 10
5.4365059345
 20
3.1626419962
 30
0.0
 10
5.3805643312
 20
3.1609141733
 30
0.0
 10
5.3387348327
 20
3.1595094289
 30
0.0
 10
5.3101623497
 20
3.1584842134
 30
0.0
 10
5.2838064668
 20
3.1574598371
 30
0.0
 10
5.2598855539
 20
3.1564375202
 30
0.0
 10
5.2385953975
 20
3.1554174709
 30
0.0
 10
5.2201103681
 20
3.1544012327
 30
0.0
 10
5.2045843588
 20
3.1533907023
 30
0.0
 10
5.1935584254
 20
3.1525080988
 30
0.0
 10
5.1863157891
 20
3.1517759985
 30
0.0
 10
5.182086117
 20
3.1512691569
 30
0.0
 10
5.1786729369
 20
3.1507660487
 30
0.0
 10
5.1766776699
 20
3.1503870152
 30
0.0
 10
5.1758226565
 20
3.1501835634
 30
0.0
 11
5.5792541504
 21
3.1667011549
 31
0.0
 11
5.5058996665
 21
3.1646370838
 31
0.0
 11
5.4349121089
 21
3.1625716744
 31
0.0
 11
5.3687122849
 21
3.1605074368
 31
0.0
 11
5.338074682
 21
3.1594751307
 31
0.0
 11
5.3094211062
 21
3.1584427828
 31
0.0
 11
5.2829959073
 21
3.1574104672
 31
0.0
 11
5.2590084267
 21
3.1563781501
 31
0.0
 11
5.2376604197
 21
3.1553457776
 31
0.0
 11
5.2191283748
 21
3.1543133363
 31
0.0
 11
5.2035582844
 21
3.1532808605
 31
0.0
 11
5.1910900541
 21
3.1522483871
 31
0.0
 11
5.1860509945
 21
3.1517321609
 31
0.0
 11
5.1818207407
 21
3.151215946
 31
0.0
 11
5.1784082941
 21
3.1506997458
 31
0.0
 11
5.1758226565
 21
3.1501835634
 31
0.0
  0
LINE
  5
2FF
100
AcDbEntity
  8
0
100
AcDbLine
 62
6
  6
CONTINUOUS
 10
5.1758226565
 20
3.1501835634
 11
5.1734826193
 21
3.1493942398
  0
LINE
  5
300
100
AcDbEntity
  8
0
100
AcDbLine
 62
6
  6
CONTINUOUS
 10
5.9463172665
 20
3.2789173909
 11
5.9450735805
 21
3.2794252145
  0
SPLINE
  5
301
100
AcDbEntity
  8
0
100
AcDbSpline
 62
6
  6
CONTINUOUS
 70
0
 71
3
 72
12
 73
8
 74
6
 42
0.0000001
 43
0.0000001
 44
0.0000000001
 12
-0.0000471032
 22
0.0036503214
 32
0.0
 13
-0.0035638728
 23
0.0007911235
 33
0.0
 40
0.0
 40
0.0
 40
0.0
 40
0.0
 40
0.1131794741
 40
0.1982808221
 40
0.3070614278
 40
0.6007602009
 40
1.0
 40
1.0
 40
1.0
 40
1.0
 10
5.9855010182
 20
3.1756332512
 30
0.0
 10
5.9854992411
 20
3.175770965
 30
0.0
 10
5.9853281908
 20
3.1759895287
 30
0.0
 10
5.9850214216
 20
3.1761902204
 30
0.0
 10
5.9844852413
 20
3.1764549465
 30
0.0
 10
5.9835572983
 20
3.1767588711
 30
0.0
 10
5.9827378451
 20
3.176960929
 30
0.0
 10
5.9822635651
 20
3.1770662117
 30
0.0
 11
5.9855010182
 21
3.1756332512
 31
0.0
 11
5.985295158
 21
3.1759914912
 31
0.0
 11
5.9850413195
 21
3.1761706107
 31
0.0
 11
5.9846868928
 21
3.1763497302
 31
0.0
 11
5.9836763269
 21
3.1767079698
 31
0.0
 11
5.9822635651
 21
3.1770662117
 31
0.0
  0
SPLINE
  5
302
100
AcDbEntity
  8
0
100
AcDbSpline
 62
6
  6
CONTINUOUS
 70
0
 71
3
 72
11
 73
7
 74
5
 42
0.0000001
 43
0.0000001
 44
0.0000000001
 12
0.006053875
 22
0.0034975658
 32
0.0
 13
0.0069081025
 23
0.0010772604
 33
0.0
 40
0.0
 40
0.0
 40
0.0
 40
0.0
 40
0.1499429954
 40
0.3656602487
 40
0.6488199143
 40
1.0
 40
1.0
 40
1.0
 40
1.0
 10
5.2121903005
 20
3.0289123896
 30
0.0
 10
5.2124928792
 20
3.0290872014
 30
0.0
 10
5.2132934797
 20
3.0293976534
 30
0.0
 10
5.2147509706
 20
3.0297971504
 30
0.0
 10
5.2166921898
 20
3.0302009641
 30
0.0
 10
5.2181500058
 20
3.0304464538
 30
0.0
 10
5.2189586685
 20
3.0305725579
 30
0.0
 11
5.2121903005
 21
3.0289123896
 31
0.0
 11
5.2131529682
 21
3.0293274659
 31
0.0
 11
5.2146029456
 21
3.0297425014
 31
0.0
 11
5.2165386925
 21
3.030157523
 31
0.0
 11
5.2189586685
 21
3.0305725579
 31
0.0
  0
SPLINE
  5
303
100
AcDbEntity
  8
0
100
AcDbSpline
 62
6
  6
CONTINUOUS
 70
0
 71
3
 72
40
 73
36
 74
34
 42
0.0000001
 43
0.0000001
 44
0.0000000001
 12
0.7204923365
 22
0.1123547087
 32
0.0
 13
-0.0011294867
 23
0.7291992264
 33
0.0
 40
0.0
 40
0.0
 40
0.0
 40
0.0
 40
0.005166722
 40
0.011358515
 40
0.0267633558
 40
0.0461004222
 40
0.0692232336
 40
0.0959248848
 40
0.1259886891
 40
0.1951668365
 40
0.2744303533
 40
0.3611071538
 40
0.452283301
 40
0.5448871727
 40
0.6357969996
 40
0.6796575327
 40
0.7219552932
 40
0.7623335442
 40
0.8004580903
 40
0.8359986985
 40
0.8686600106
 40
0.8981730829
 40
0.9242772049
 40
0.9467640291
 40
0.9654490294
 40
0.9801665089
 40
0.9860061158
 40
0.9908207907
 40
0.9928417738
 40
0.9946045573
 40
0.9961093803
 40
0.9973577078
 40
0.9983541234
 40
0.9991084841
 40
1.0
 40
1.0
 40
1.0
 40
1.0
 10
5.2189586685
 20
3.0305725579
 30
0.0
 10
5.2201995297
 20
3.0307660597
 30
0.0
 10
5.2229352112
 20
3.0311414684
 30
0.0
 10
5.2293982961
 20
3.0318836155
 30
0.0
 10
5.2393089332
 20
3.0327770739
 30
0.0
 10
5.2533369093
 20
3.0337999613
 30
0.0
 10
5.2701166854
 20
3.034827193
 30
0.0
 10
5.2895074976
 20
3.0358599616
 30
0.0
 10
5.3200860505
 20
3.0373083126
 30
0.0
 10
5.3634393079
 20
3.0390720463
 30
0.0
 10
5.4205522939
 20
3.0411162163
 30
0.0
 10
5.4830151538
 20
3.0431668543
 30
0.0
 10
5.5487220943
 20
3.0452213234
 30
0.0
 10
5.6154583991
 20
3.047276808
 30
0.0
 10
5.6706983744
 20
3.0490087186
 30
0.0
 10
5.7137148476
 20
3.0504124704
 30
0.0
 10
5.744454092
 20
3.0514523979
 30
0.0
 10
5.7737982933
 20
3.0524919423
 30
0.0
 10
5.8014990098
 20
3.0535305156
 30
0.0
 10
5.8273226282
 20
3.0545683391
 30
0.0
 10
5.8510513139
 20
3.0556049744
 30
0.0
 10
5.8724840526
 20
3.0566391348
 30
0.0
 10
5.8914405923
 20
3.0576712004
 30
0.0
 10
5.9077612218
 20
3.0586981076
 30
0.0
 10
5.921307899
 20
3.0597187204
 30
0.0
 10
5.9308058524
 20
3.0606117066
 30
0.0
 10
5.9369281031
 20
3.0613567034
 30
0.0
 10
5.9399768192
 20
3.061804734
 30
0.0
 10
5.9420345909
 20
3.062172223
 30
0.0
 10
5.9432936397
 20
3.062430551
 30
0.0
 10
5.9443619268
 20
3.0626891244
 30
0.0
 10
5.9452341762
 20
3.062943204
 30
0.0
 10
5.9459256337
 20
3.0632046522
 30
0.0
 10
5.9464783244
 20
3.0634783164
 30
0.0
 10
5.9468403717
 20
3.0638022537
 30
0.0
 10
5.9468400361
 20
3.0640189513
 30
0.0
 11
5.2189586685
 21
3.0305725579
 31
0.0
 11
5.2226898322
 21
3.0310950837
 31
0.0
 11
5.2271745447
 21
3.031617659
 31
0.0
 11
5.2383590211
 21
3.0326629
 31
0.0
 11
5.2524208161
 21
3.0337081653
 31
0.0
 11
5.2692495452
 21
3.0347533809
 31
0.0
 11
5.2886923192
 21
3.0357985652
 31
0.0
 11
5.310589919
 21
3.036843749
 31
0.0
 11
5.3609912998
 21
3.0389341506
 31
0.0
 11
5.4187524504
 21
3.0410245531
 31
0.0
 11
5.4819226043
 21
3.0431149502
 31
0.0
 11
5.5483753895
 21
3.0452053501
 31
0.0
 11
5.6158697785
 21
3.0472957497
 31
0.0
 11
5.6821282664
 21
3.0493861493
 31
0.0
 11
5.7140942886
 21
3.0504313492
 31
0.0
 11
5.7449201053
 21
3.0514765492
 31
0.0
 11
5.7743453729
 21
3.0525217491
 31
0.0
 11
5.8021261409
 21
3.0535669492
 31
0.0
 11
5.8280212709
 21
3.0546121492
 31
0.0
 11
5.8518149575
 21
3.0556573493
 31
0.0
 11
5.8733104969
 21
3.0567025494
 31
0.0
 11
5.8923169082
 21
3.0577477496
 31
0.0
 11
5.9086809573
 21
3.0587929498
 31
0.0
 11
5.9222659129
 21
3.05983815
 31
0.0
 11
5.9329468825
 21
3.0608833503
 31
0.0
 11
5.9371729343
 21
3.0614059504
 31
0.0
 11
5.9406446827
 21
3.0619285506
 31
0.0
 11
5.9420950334
 21
3.0621898506
 31
0.0
 11
5.9433536167
 21
3.0624511507
 31
0.0
 11
5.9444193685
 21
3.0627124508
 31
0.0
 11
5.9452913392
 21
3.0629737509
 31
0.0
 11
5.9459693141
 21
3.063235051
 31
0.0
 11
5.9464533701
 21
3.0634963511
 31
0.0
 11
5.9468400361
 21
3.0640189513
 31
0.0
  0
SPLINE
  5
304
100
AcDbEntity
  8
0
100
AcDbSpline
 62
6
  6
CONTINUOUS
 70
0
 71
3
 72
12
 73
8
 74
6
 42
0.0000001
 43
0.0000001
 44
0.0000000001
 12
0.0000161483
 22
-0.0031362557
 32
0.0
 13
-0.0030485309
 23
-0.0007367632
 33
0.0
 40
0.0
 40
0.0
 40
0.0
 40
0.0
 40
0.1183053698
 40
0.2041971469
 40
0.3129204438
 40
0.6046262358
 40
1.0
 40
1.0
 40
1.0
 40
1.0
 10
5.9855010526
 20
3.184560227
 30
0.0
 10
5.9855016894
 20
3.1844365484
 30
0.0
 10
5.9853648986
 20
3.1842358089
 30
0.0
 10
5.9851032338
 20
3.1840473477
 30
0.0
 10
5.9846528917
 20
3.1838039127
 30
0.0
 10
5.9838681293
 20
3.1835229342
 30
0.0
 10
5.9831738789
 20
3.1833365796
 30
0.0
 10
5.9827721092
 20
3.1832394806
 30
0.0
 11
5.9855010526
 21
3.184560227
 31
0.0
 11
5.9853317858
 21
3.1842300452
 31
0.0
 11
5.9851189208
 21
3.1840649535
 31
0.0
 11
5.9848205625
 21
3.1838998612
 31
0.0
 11
5.9839673483
 21
3.1835696735
 31
0.0
 11
5.9827721092
 21
3.1832394806
 31
0.0
  0
SPLINE
  5
305
100
AcDbEntity
  8
0
100
AcDbSpline
 62
6
  6
CONTINUOUS
 70
0
 71
3
 72
11
 73
7
 74
5
 42
0.0000001
 43
0.0000001
 44
0.0000000001
 12
-0.0227106019
 22
-0.0054886553
 32
0.0
 13
-0.0232907216
 23
-0.0018544703
 33
0.0
 40
0.0
 40
0.0
 40
0.0
 40
0.0
 40
0.1570477088
 40
0.3764629873
 40
0.6576969967
 40
1.0
 40
1.0
 40
1.0
 40
1.0
 10
5.9827721092
 20
3.1832394806
 30
0.0
 10
5.9815832265
 20
3.1829521537
 30
0.0
 10
5.9786921945
 20
3.1824417074
 30
0.0
 10
5.9736139347
 20
3.1817742169
 30
0.0
 10
5.9670825143
 20
3.1811007541
 30
0.0
 10
5.9622438876
 20
3.1806874994
 30
0.0
 10
5.959586393
 20
3.1804759025
 30
0.0
 11
5.9827721092
 21
3.1832394806
 31
0.0
 11
5.9791684041
 21
3.1825486129
 31
0.0
 11
5.9740886586
 21
3.1818577229
 31
0.0
 11
5.9675542093
 21
3.1811668172
 31
0.0
 11
5.959586393
 21
3.1804759025
 31
0.0
  0
SPLINE
  5
306
100
AcDbEntity
  8
0
100
AcDbSpline
 62
6
  6
CONTINUOUS
 70
0
 71
3
 72
15
 73
11
 74
9
 42
0.0000001
 43
0.0000001
 44
0.0000000001
 12
-0.3794022786
 22
-0.0302090356
 32
0.0
 13
-0.3804541039
 23
-0.0106465783
 33
0.0
 40
0.0
 40
0.0
 40
0.0
 40
0.0
 40
0.0313362435
 40
0.0682039552
 40
0.1576706201
 40
0.266388789
 40
0.3919034501
 40
0.5313046257
 40
0.6814376792
 40
1.0
 40
1.0
 40
1.0
 40
1.0
 10
5.959586393
 20
3.1804759025
 30
0.0
 10
5.9556233789
 20
3.1801603566
 30
0.0
 10
5.9469920228
 20
3.1795462016
 30
0.0
 10
5.9270253006
 20
3.1783337509
 30
0.0
 10
5.8972398146
 20
3.1768708883
 30
0.0
 10
5.856207104
 20
3.1751893362
 30
0.0
 10
5.8088349487
 20
3.1735001136
 30
0.0
 10
5.7562059353
 20
3.1718039083
 30
0.0
 10
5.6790927207
 20
3.1694926314
 30
0.0
 10
5.6196535978
 20
3.1678316878
 30
0.0
 10
5.5792541504
 20
3.1667011549
 30
0.0
 11
5.959586393
 21
3.1804759025
 31
0.0
 11
5.9476908394
 21
3.1796149421
 31
0.0
 11
5.933685313
 21
3.1787539997
 31
0.0
 11
5.8996775849
 21
3.1770322508
 31
0.0
 11
5.858334952
 21
3.1753105878
 31
0.0
 11
5.8105947318
 21
3.1735887224
 31
0.0
 11
5.7575661648
 21
3.1718669571
 31
0.0
 11
5.7004510146
 21
3.170145167
 31
0.0
 11
5.5792541504
 21
3.1667011549
 31
0.0
  0
LINE
  5
307
100
AcDbEntity
  8
0
100
AcDbLine
 62
6
  6
CONTINUOUS
 10
5.1759898697
 20
3.2099652205
 11
5.1734828156
 21
3.2107937613
  0
LINE
  5
308
100
AcDbEntity
  8
0
100
AcDbLine
 62
6
  6
CONTINUOUS
 10
5.2121914966
 20
3.1003423102
 11
5.2135825832
 21
3.1008958949
  0
SPLINE
  5
309
100
AcDbEntity
  8
0
100
AcDbSpline
 62
6
  6
CONTINUOUS
 70
0
 71
3
 72
45
 73
41
 74
39
 42
0.0000001
 43
0.0000001
 44
0.0000000001
 12
0.7031276476
 22
0.2130337486
 32
0.0
 13
0.0030678424
 23
0.7346852764
 33
0.0
 40
0.0
 40
0.0
 40
0.0
 40
0.0
 40
0.0030762152
 40
0.007244268
 40
0.0125024527
 40
0.0188437904
 40
0.0262591526
 40
0.0347373303
 40
0.0547984581
 40
0.0788386551
 40
0.1066579796
 40
0.1380026389
 40
0.1725857092
 40
0.2101083903
 40
0.2502239995
 40
0.3367789106
 40
0.4291420283
 40
0.5239975405
 40
0.6179329353
 40
0.6634971317
 40
0.707572127
 40
0.7497676832
 40
0.7896981739
 40
0.8270042395
 40
0.8613582945
 40
0.8924399432
 40
0.9199781887
 40
0.943730217
 40
0.963471512
 40
0.9717881297
 40
0.979045702
 40
0.9852277136
 40
0.9903193132
 40
0.992454217
 40
0.9943156397
 40
0.9959046515
 40
0.9972233679
 40
0.9982760159
 40
0.999071713
 40
1.0
 40
1.0
 40
1.0
 40
1.0
 10
5.2135825832
 20
3.1008958949
 30
0.0
 10
5.2143035738
 20
3.1011143408
 30
0.0
 10
5.2160352849
 20
3.1015130485
 30
0.0
 10
5.2190520287
 20
3.1020368221
 30
0.0
 10
5.2228779815
 20
3.1025649937
 30
0.0
 10
5.227504327
 20
3.1030971058
 30
0.0
 10
5.2329235506
 20
3.1036311708
 30
0.0
 10
5.2416963205
 20
3.1043878346
 30
0.0
 10
5.2545403972
 20
3.1053100677
 30
0.0
 10
5.2721216737
 20
3.1063725496
 30
0.0
 10
5.2924704434
 20
3.1074381353
 30
0.0
 10
5.3154040286
 20
3.1085069208
 30
0.0
 10
5.3407161624
 20
3.1095778718
 30
0.0
 10
5.3681779872
 20
3.1106497695
 30
0.0
 10
5.4083616662
 20
3.112117945
 30
0.0
 10
5.4619721463
 20
3.1139218363
 30
0.0
 10
5.5289850334
 20
3.1160411443
 30
0.0
 10
5.5978061993
 20
3.1181621057
 30
0.0
 10
5.6551713728
 20
3.1199466404
 30
0.0
 10
5.7001049852
 20
3.1213938981
 30
0.0
 10
5.7323730799
 20
3.1224681832
 30
0.0
 10
5.7632607287
 20
3.1235417364
 30
0.0
 10
5.7924896607
 20
3.1246146572
 30
0.0
 10
5.8197968887
 20
3.1256868207
 30
0.0
 10
5.84493535
 20
3.1267571528
 30
0.0
 10
5.8676794
 20
3.1278259821
 30
0.0
 10
5.8878240671
 20
3.1288916815
 30
0.0
 10
5.9051873003
 20
3.1299528312
 30
0.0
 10
5.9178423968
 20
3.1308757901
 30
0.0
 10
5.9264579829
 20
3.1316333435
 30
0.0
 10
5.9317594269
 20
3.1321669386
 30
0.0
 10
5.9362666955
 20
3.1326984685
 30
0.0
 10
5.9395181584
 20
3.1331612087
 30
0.0
 10
5.9417114757
 20
3.1335410768
 30
0.0
 10
5.9430527472
 20
3.1338079919
 30
0.0
 10
5.9441914047
 20
3.1340752015
 30
0.0
 10
5.9451215848
 20
3.1343376179
 30
0.0
 10
5.9458610059
 20
3.1346076231
 30
0.0
 10
5.9464480578
 20
3.1348887746
 30
0.0
 10
5.9468420746
 20
3.1352216271
 30
0.0
 10
5.9468430239
 20
3.13544896
 30
0.0
 11
5.2135825832
 21
3.1008958949
 31
0.0
 11
5.2157772204
 21
3.1014357864
 31
0.0
 11
5.2187914852
 21
3.1019756779
 31
0.0
 11
5.2226167177
 21
3.1025155694
 31
0.0
 11
5.2272442577
 21
3.1030554609
 31
0.0
 11
5.2326654454
 21
3.1035953524
 31
0.0
 11
5.23887085
 21
3.104135244
 31
0.0
 11
5.2535699873
 21
3.105215027
 31
0.0
 11
5.2711990826
 21
3.1062948101
 31
0.0
 11
5.2916091662
 21
3.1073745933
 31
0.0
 11
5.3146124979
 21
3.1084543764
 31
0.0
 11
5.3399974374
 21
3.1095341595
 31
0.0
 11
5.3675438842
 21
3.1106139427
 31
0.0
 11
5.3969967019
 21
3.1116937259
 31
0.0
 11
5.460551195
 21
3.1138532923
 31
0.0
 11
5.5283752369
 21
3.1160128588
 31
0.0
 11
5.5980313238
 21
3.1181724254
 31
0.0
 11
5.6670110802
 21
3.1203319921
 31
0.0
 11
5.7004692971
 21
3.1214117754
 31
0.0
 11
5.7328328215
 21
3.1224915588
 31
0.0
 11
5.763814735
 21
3.1235713421
 31
0.0
 11
5.793131456
 21
3.1246511255
 31
0.0
 11
5.8205186342
 21
3.1257309089
 31
0.0
 11
5.8457351648
 21
3.1268106923
 31
0.0
 11
5.8685450503
 21
3.1278904757
 31
0.0
 11
5.8887483357
 21
3.1289702592
 31
0.0
 11
5.9061653143
 21
3.1300500426
 31
0.0
 11
5.9206288296
 21
3.1311298261
 31
0.0
 11
5.9267150803
 21
3.1316697178
 31
0.0
 11
5.9320197549
 21
3.1322096096
 31
0.0
 11
5.9365294248
 21
3.1327495013
 31
0.0
 11
5.9402310152
 21
3.133289393
 31
0.0
 11
5.9417761072
 21
3.1335593389
 31
0.0
 11
5.9431167718
 21
3.1338292848
 31
0.0
 11
5.944252567
 21
3.1340992307
 31
0.0
 11
5.9451830505
 21
3.1343691765
 31
0.0
 11
5.9459077802
 21
3.1346391224
 31
0.0
 11
5.9464263137
 21
3.1349090683
 31
0.0
 11
5.9468430239
 21
3.13544896
 31
0.0
  0
SPLINE
  5
30A
100
AcDbEntity
  8
0
100
AcDbSpline
 62
6
  6
CONTINUOUS
 70
0
 71
3
 72
12
 73
8
 74
6
 42
0.0000001
 43
0.0000001
 44
0.0000000001
 12
-0.000017792
 22
0.0034554928
 32
0.0
 13
-0.003368431
 23
0.0007709863
 33
0.0
 40
0.0
 40
0.0
 40
0.0
 40
0.0
 40
0.1149475613
 40
0.2003005261
 40
0.3090445767
 40
0.602050776
 40
1.0
 40
1.0
 40
1.0
 40
1.0
 10
5.9855010526
 20
3.2470609558
 30
0.0
 10
5.9855003709
 20
3.247193356
 30
0.0
 10
5.9853426167
 20
3.2474055348
 30
0.0
 10
5.9850529546
 20
3.2476017301
 30
0.0
 10
5.9845494531
 20
3.2478586534
 30
0.0
 10
5.9836757793
 20
3.2481541382
 30
0.0
 10
5.9829037896
 20
3.2483504128
 30
0.0
 10
5.9824569681
 20
3.2484526839
 30
0.0
 11
5.9855010526
 21
3.2470609558
 31
0.0
 11
5.9853094337
 21
3.2474088848
 31
0.0
 11
5.9850712611
 21
3.2475828495
 31
0.0
 11
5.9847381866
 21
3.2477568147
 31
0.0
 11
5.9837873514
 21
3.2481047471
 31
0.0
 11
5.9824569681
 21
3.2484526839
 31
0.0
  0
SPLINE
  5
30B
100
AcDbEntity
  8
0
100
AcDbSpline
 62
6
  6
CONTINUOUS
 70
0
 71
3
 72
12
 73
8
 74
6
 42
0.0000001
 43
0.0000001
 44
0.0000000001
 12
-0.0000111159
 22
-0.0033950483
 32
0.0
 13
-0.0033078442
 23
-0.0007646194
 33
0.0
 40
0.0
 40
0.0
 40
0.0
 40
0.0
 40
0.1155443486
 40
0.2009913321
 40
0.3097304825
 40
0.6025054693
 40
1.0
 40
1.0
 40
1.0
 40
1.0
 10
5.9855010512
 20
3.2559876714
 30
0.0
 10
5.9855006231
 20
3.2558569118
 30
0.0
 10
5.9853468705
 20
3.2556468374
 30
0.0
 10
5.9850624857
 20
3.2554520744
 30
0.0
 10
5.9845690678
 20
3.2551976548
 30
0.0
 10
5.9837122385
 20
3.2549048627
 30
0.0
 10
5.9829549846
 20
3.254710431
 30
0.0
 10
5.9825167013
 20
3.2546091203
 30
0.0
 11
5.9855010512
 21
3.2559876714
 31
0.0
 11
5.985313671
 21
3.255643037
 31
0.0
 11
5.9850802965
 21
3.2554707195
 31
0.0
 11
5.9847538032
 21
3.2552984015
 31
0.0
 11
5.9838214719
 21
3.2549537632
 31
0.0
 11
5.9825167013
 21
3.2546091203
 31
0.0
  0
SPLINE
  5
30C
100
AcDbEntity
  8
0
100
AcDbSpline
 62
6
  6
CONTINUOUS
 70
0
 71
3
 72
11
 73
7
 74
5
 42
0.0000001
 43
0.0000001
 44
0.0000000001
 12
-0.0230328395
 22
-0.0053241192
 32
0.0
 13
-0.0235670474
 23
-0.0018580137
 33
0.0
 40
0.0
 40
0.0
 40
0.0
 40
0.0
 40
0.1593705497
 40
0.3795760269
 40
0.6600380396
 40
1.0
 40
1.0
 40
1.0
 40
1.0
 10
5.9825167013
 20
3.2546091203
 30
0.0
 10
5.9812931158
 20
3.2543262844
 30
0.0
 10
5.97834192
 20
3.2538194494
 30
0.0
 10
5.9731835034
 20
3.2531553981
 30
0.0
 10
5.9665923587
 20
3.2524854862
 30
0.0
 10
5.961720668
 20
3.2520739618
 30
0.0
 10
5.9590500348
 20
3.2518634104
 30
0.0
 11
5.9825167013
 21
3.2546091203
 31
0.0
 11
5.9788122101
 21
3.2539227074
 31
0.0
 11
5.9736519688
 21
3.2532362789
 31
0.0
 11
5.9670574272
 21
3.2525498436
 31
0.0
 11
5.9590500348
 21
3.2518634104
 31
0.0
  0
SPLINE
  5
30D
100
AcDbEntity
  8
0
100
AcDbSpline
 62
6
  6
CONTINUOUS
 70
0
 71
3
 72
15
 73
11
 74
9
 42
0.0000001
 43
0.0000001
 44
0.0000000001
 12
-0.3788893147
 22
-0.0298714355
 32
0.0
 13
-0.3799162886
 23
-0.0106315139
 33
0.0
 40
0.0
 40
0.0
 40
0.0
 40
0.0
 40
0.031549724
 40
0.0685953275
 40
0.1583166572
 40
0.2671587483
 40
0.3926784343
 40
0.5319813883
 40
0.6819359771
 40
1.0
 40
1.0
 40
1.0
 40
1.0
 10
5.9590500348
 20
3.2518634104
 30
0.0
 10
5.955065417
 20
3.2515492653
 30
0.0
 10
5.9463964638
 20
3.2509374344
 30
0.0
 10
5.9263758144
 20
3.2497293739
 30
0.0
 10
5.8965617522
 20
3.2482710218
 30
0.0
 10
5.8555383103
 20
3.2465941983
 30
0.0
 10
5.8082291407
 20
3.2449098686
 30
0.0
 10
5.755708875
 20
3.2432186733
 30
0.0
 10
5.678802778
 20
3.2409145725
 30
0.0
 10
5.6195333848
 20
3.2392583448
 30
0.0
 10
5.5792541504
 20
3.2381311775
 30
0.0
 11
5.9590500348
 21
3.2518634104
 31
0.0
 11
5.9470898428
 21
3.2510051557
 31
0.0
 11
5.9330362861
 21
3.2501469241
 31
0.0
 11
5.8989795707
 21
3.2484305494
 31
0.0
 11
5.8576481223
 21
3.2467141774
 31
0.0
 11
5.8099733747
 21
3.2449975943
 31
0.0
 11
5.7570570271
 21
3.2432811219
 31
0.0
 11
5.7000903891
 21
3.2415646132
 31
0.0
 11
5.5792541504
 21
3.2381311775
 31
0.0
  0
SPLINE
  5
30E
100
AcDbEntity
  8
0
100
AcDbSpline
 62
6
  6
CONTINUOUS
 70
0
 71
3
 72
12
 73
8
 74
6
 42
0.0000001
 43
0.0000001
 44
0.0000000001
 12
0.0091010145
 22
0.0052492204
 32
0.0
 13
0.0104204164
 23
0.001340784
 33
0.0
 40
0.0
 40
0.0
 40
0.0
 40
0.0
 40
0.0598770641
 40
0.1378074424
 40
0.3495215756
 40
0.6368223335
 40
1.0
 40
1.0
 40
1.0
 40
1.0
 10
5.2121929563
 20
3.1717723873
 30
0.0
 10
5.2123746036
 20
3.1718771566
 30
0.0
 10
5.2128166563
 20
3.1720756751
 30
0.0
 10
5.2139771995
 20
3.1724666386
 30
0.0
 10
5.2159488048
 20
3.1729249758
 30
0.0
 10
5.2189226368
 20
3.1734474714
 30
0.0
 10
5.2211796189
 20
3.1737613074
 30
0.0
 10
5.2224411064
 20
3.1739236217
 30
0.0
 11
5.2121929563
 21
3.1717723873
 31
0.0
 11
5.2127616757
 21
3.1720412916
 31
0.0
 11
5.2135350197
 21
3.1723101959
 31
0.0
 11
5.2156933606
 21
3.1728480045
 31
0.0
 11
5.2186635369
 21
3.1733858131
 31
0.0
 11
5.2224411064
 21
3.1739236217
 31
0.0
  0
SPLINE
  5
30F
100
AcDbEntity
  8
0
100
AcDbSpline
 62
6
  6
CONTINUOUS
 70
0
 71
3
 72
39
 73
35
 74
33
 42
0.0000001
 43
0.0000001
 44
0.0000000001
 12
0.7197518404
 22
0.0926097137
 32
0.0
 13
-0.0031054221
 23
0.7256787356
 33
0.0
 40
0.0
 40
0.0
 40
0.0
 40
0.0
 40
0.0131123168
 40
0.0301271701
 40
0.0509144075
 40
0.0753186595
 40
0.1031284021
 40
0.1341225101
 40
0.2046348114
 40
0.2845487402
 40
0.3712498272
 40
0.4619085775
 40
0.5535574149
 40
0.6431986128
 40
0.6863466564
 40
0.7279048044
 40
0.7675281178
 40
0.8049006122
 40
0.8397117343
 40
0.8716724879
 40
0.9005330009
 40
0.926049006
 40
0.9480121917
 40
0.9662574332
 40
0.9806278581
 40
0.9863258606
 40
0.9910231345
 40
0.992995257
 40
0.9947161428
 40
0.996186326
 40
0.997407399
 40
0.9983830928
 40
0.9991223134
 40
1.0
 40
1.0
 40
1.0
 40
1.0
 10
5.2224411064
 20
3.1739236217
 30
0.0
 10
5.2255869778
 20
3.1743283977
 30
0.0
 10
5.2328373013
 20
3.175081152
 30
0.0
 10
5.2451125338
 20
3.1760841767
 30
0.0
 10
5.2601264921
 20
3.1770942106
 30
0.0
 10
5.2777560661
 20
3.1781093499
 30
0.0
 10
5.2978580284
 20
3.1791282282
 30
0.0
 10
5.3291066894
 20
3.1805511421
 30
0.0
 10
5.3729573323
 20
3.1822877258
 30
0.0
 10
5.4302818747
 20
3.1843046251
 30
0.0
 10
5.4924823231
 20
3.1863270589
 30
0.0
 10
5.5575226796
 20
3.1883526175
 30
0.0
 10
5.6232745469
 20
3.1903789449
 30
0.0
 10
5.6775381577
 20
3.1920872538
 30
0.0
 10
5.7196892209
 20
3.1934716654
 30
0.0
 10
5.7497464721
 20
3.1944963248
 30
0.0
 10
5.7784058116
 20
3.195520701
 30
0.0
 10
5.8054320158
 20
3.1965441822
 30
0.0
 10
5.8306033148
 20
3.197566663
 30
0.0
 10
5.8537138156
 20
3.1985882218
 30
0.0
 10
5.8745736076
 20
3.1996073904
 30
0.0
 10
5.8930119312
 20
3.2006240413
 30
0.0
 10
5.9088784708
 20
3.2016361478
 30
0.0
 10
5.9220426892
 20
3.2026420273
 30
0.0
 10
5.9312701676
 20
3.2035214843
 30
0.0
 10
5.9372160762
 20
3.2042558324
 30
0.0
 10
5.9401754642
 20
3.2046973707
 30
0.0
 10
5.9421727972
 20
3.205059476
 30
0.0
 10
5.9433953421
 20
3.2053140536
 30
0.0
 10
5.9444331814
 20
3.2055688896
 30
0.0
 10
5.9452813013
 20
3.2058192422
 30
0.0
 10
5.9459536496
 20
3.2060767535
 30
0.0
 10
5.9464926172
 20
3.2063469118
 30
0.0
 10
5.9468424697
 20
3.2066667373
 30
0.0
 10
5.9468415612
 20
3.2068790434
 30
0.0
 11
5.2224411064
 21
3.1739236217
 31
0.0
 11
5.2319006279
 21
3.1749534788
 31
0.0
 11
5.2442050348
 21
3.1759833358
 31
0.0
 11
5.2592548337
 21
3.1770131928
 31
0.0
 11
5.2769346732
 21
3.1780430499
 31
0.0
 11
5.2970895026
 21
3.1790729069
 31
0.0
 11
5.3195578839
 21
3.1801027639
 31
0.0
 11
5.3706861588
 21
3.1821624779
 31
0.0
 11
5.4286419396
 21
3.1842221919
 31
0.0
 11
5.4915259278
 21
3.1862819059
 31
0.0
 11
5.5572834073
 21
3.1883416198
 31
0.0
 11
5.6237597271
 21
3.1904013337
 31
0.0
 11
5.6887784175
 21
3.1924610476
 31
0.0
 11
5.7200733811
 21
3.1934909045
 31
0.0
 11
5.7502139324
 21
3.1945207614
 31
0.0
 11
5.778949543
 21
3.1955506183
 31
0.0
 11
5.8060506553
 21
3.1965804752
 31
0.0
 11
5.8312915768
 21
3.1976103321
 31
0.0
 11
5.8544621528
 21
3.198640189
 31
0.0
 11
5.8753804694
 21
3.1996700458
 31
0.0
 11
5.8938683997
 21
3.2006999027
 31
0.0
 11
5.9097734557
 21
3.2017297595
 31
0.0
 11
5.9229736477
 21
3.2027596163
 31
0.0
 11
5.9333510787
 21
3.2037894731
 31
0.0
 11
5.9374538483
 21
3.2043044015
 31
0.0
 11
5.9408234741
 21
3.2048193299
 31
0.0
 11
5.942231265
 21
3.2050767941
 31
0.0
 11
5.9434532583
 21
3.2053342583
 31
0.0
 11
5.9444886169
 21
3.2055917225
 31
0.0
 11
5.9453365035
 21
3.2058491867
 31
0.0
 11
5.945996081
 21
3.2061066509
 31
0.0
 11
5.9464666994
 21
3.206364115
 31
0.0
 11
5.9468415612
 21
3.2068790434
 31
0.0
  0
LINE
  5
310
100
AcDbEntity
  8
0
100
AcDbLine
 62
6
  6
CONTINUOUS
 10
5.212193594
 20
3.2432024093
 11
5.2150419029
 21
3.2441363877
  0
SPLINE
  5
311
100
AcDbEntity
  8
0
100
AcDbSpline
 62
6
  6
CONTINUOUS
 70
0
 71
3
 72
42
 73
38
 74
36
 42
0.0000001
 43
0.0000001
 44
0.0000000001
 12
0.7147345997
 22
0.1634352416
 32
0.0
 13
0.0026936501
 23
0.7331775846
 33
0.0
 40
0.0
 40
0.0
 40
0.0
 40
0.0
 40
0.0038038608
 40
0.0086803125
 40
0.0216164712
 40
0.0387219696
 40
0.0598640778
 40
0.084845953
 40
0.1134602632
 40
0.1454569341
 40
0.1805457554
 40
0.2587692981
 40
0.3453775086
 40
0.4373298959
 40
0.5313960225
 40
0.6242647886
 40
0.6692278686
 40
0.7126739087
 40
0.7542261963
 40
0.7935183506
 40
0.8301973486
 40
0.8639515069
 40
0.8944779439
 40
0.9215052862
 40
0.9448096578
 40
0.9641758624
 40
0.9723296323
 40
0.9794440755
 40
0.9855053597
 40
0.9905008224
 40
0.992595684
 40
0.9944214709
 40
0.9959795162
 40
0.9972722435
 40
0.9983041894
 40
0.9990847726
 40
1.0
 40
1.0
 40
1.0
 40
1.0
 10
5.2150419029
 20
3.2441363877
 30
0.0
 10
5.2159481532
 20
3.244343616
 30
0.0
 10
5.2180346751
 20
3.2447342479
 30
0.0
 10
5.2232616427
 20
3.2455041655
 30
0.0
 10
5.2317495958
 20
3.2464125663
 30
0.0
 10
5.2442155108
 20
3.247450804
 30
0.0
 10
5.2596337408
 20
3.2484949314
 30
0.0
 10
5.2778691121
 20
3.2495474413
 30
0.0
 10
5.2987610336
 20
3.2506026849
 30
0.0
 10
5.3221256426
 20
3.2516604953
 30
0.0
 10
5.3576081022
 20
3.2531270411
 30
0.0
 10
5.4064347829
 20
3.2549211859
 30
0.0
 10
5.4691564693
 20
3.2570139636
 30
0.0
 10
5.5357518751
 20
3.2591107267
 30
0.0
 10
5.6038779821
 20
3.2612093
 30
0.0
 10
5.6605249701
 20
3.2629758293
 30
0.0
 10
5.7048050779
 20
3.2644081312
 30
0.0
 10
5.7365491219
 20
3.2654706272
 30
0.0
 10
5.76690644
 20
3.2665325202
 30
0.0
 10
5.7956089046
 20
3.2675935521
 30
0.0
 10
5.8224041937
 20
3.268653995
 30
0.0
 10
5.8470554678
 20
3.2697127398
 30
0.0
 10
5.8693456456
 20
3.2707695644
 30
0.0
 10
5.8890789515
 20
3.2718237658
 30
0.0
 10
5.9060805389
 20
3.2728734006
 30
0.0
 10
5.9184687528
 20
3.2737859061
 30
0.0
 10
5.9269001213
 20
3.2745353768
 30
0.0
 10
5.9320863375
 20
3.2750631643
 30
0.0
 10
5.9364962921
 20
3.2755890072
 30
0.0
 10
5.9396782674
 20
3.276046503
 30
0.0
 10
5.9418250594
 20
3.2764220841
 30
0.0
 10
5.9431374957
 20
3.2766860731
 30
0.0
 10
5.9442510618
 20
3.2769503473
 30
0.0
 10
5.94516045
 20
3.277209928
 30
0.0
 10
5.9458826267
 20
3.277476971
 30
0.0
 10
5.9464575655
 20
3.2777556988
 30
0.0
 10
5.9468401084
 20
3.2780853424
 30
0.0
 10
5.9468409301
 20
3.2783090171
 30
0.0
 11
5.2150419029
 21
3.2441363877
 31
0.0
 11
5.2177792371
 21
3.2446703353
 31
0.0
 11
5.221314471
 21
3.2452042829
 31
0.0
 11
5.2307387261
 21
3.246272178
 31
0.0
 11
5.2432346309
 21
3.2473400731
 31
0.0
 11
5.2586988269
 21
3.2484079682
 31
0.0
 11
5.2769839441
 21
3.2494758633
 31
0.0
 11
5.29793626
 21
3.2505437583
 31
0.0
 11
5.3213713418
 21
3.2516116534
 31
0.0
 11
5.3470756792
 21
3.2526795483
 31
0.0
 11
5.4043880322
 21
3.2548153382
 31
0.0
 11
5.4678517309
 21
3.2569511279
 31
0.0
 11
5.5352357758
 21
3.2590869175
 31
0.0
 11
5.6041703383
 21
3.2612227069
 31
0.0
 11
5.6722265903
 21
3.2633584962
 31
0.0
 11
5.7051754341
 21
3.2644263908
 31
0.0
 11
5.7370114063
 21
3.2654942854
 31
0.0
 11
5.7674580958
 21
3.2665621799
 31
0.0
 11
5.7962466172
 21
3.2676300744
 31
0.0
 11
5.8231178065
 21
3.2686979689
 31
0.0
 11
5.8478427149
 21
3.2697658633
 31
0.0
 11
5.8701986743
 21
3.2708337577
 31
0.0
 11
5.8899858539
 21
3.271901652
 31
0.0
 11
5.9070388079
 21
3.2729695463
 31
0.0
 11
5.9211975561
 21
3.2740374406
 31
0.0
 11
5.9271518651
 21
3.2745713877
 31
0.0
 11
5.9323406503
 21
3.2751053349
 31
0.0
 11
5.9367524846
 21
3.2756392819
 31
0.0
 11
5.9403759411
 21
3.276173229
 31
0.0
 11
5.9418884763
 21
3.2764402025
 31
0.0
 11
5.943200219
 21
3.276707176
 31
0.0
 11
5.9443109156
 21
3.2769741496
 31
0.0
 11
5.9452203437
 21
3.2772411231
 31
0.0
 11
5.9459282814
 21
3.2775080966
 31
0.0
 11
5.9464345065
 21
3.2777750701
 31
0.0
 11
5.9468409301
 21
3.2783090171
 31
0.0
  0
SPLINE
  5
312
100
AcDbEntity
  8
0
100
AcDbSpline
 62
6
  6
CONTINUOUS
 70
0
 71
3
 72
22
 73
18
 74
16
 42
0.0000001
 43
0.0000001
 44
0.0000000001
 12
-0.4036258814
 22
-0.0112949992
 32
0.0
 13
-0.3931513089
 23
-0.0920514938
 33
0.0
 40
0.0
 40
0.0
 40
0.0
 40
0.0
 40
0.1814993079
 40
0.3571604281
 40
0.5210212702
 40
0.596882261
 40
0.6678507406
 40
0.7333233681
 40
0.792784984
 40
0.8457399567
 40
0.8917551494
 40
0.9304733311
 40
0.9615555487
 40
0.9741587447
 40
0.9847772856
 40
0.9933946912
 40
1.0
 40
1.0
 40
1.0
 40
1.0
 10
5.5792541504
 20
3.2381311775
 30
0.0
 10
5.5548348777
 20
3.2374478326
 30
0.0
 10
5.5067818063
 20
3.2361032804
 30
0.0
 10
5.4366844011
 20
3.2340772738
 30
0.0
 10
5.3808026371
 20
3.2323517438
 30
0.0
 10
5.3390088988
 20
3.2309489208
 30
0.0
 10
5.3104524942
 20
3.2299250185
 30
0.0
 10
5.2841048475
 20
3.2289019575
 30
0.0
 10
5.2601836109
 20
3.2278809447
 30
0.0
 10
5.2388837891
 20
3.2268621797
 30
0.0
 10
5.2203792292
 20
3.2258471728
 30
0.0
 10
5.204823582
 20
3.2248378165
 30
0.0
 10
5.1937666083
 20
3.2239563435
 30
0.0
 10
5.1864940012
 20
3.2232254892
 30
0.0
 10
5.1822381696
 20
3.2227191593
 30
0.0
 10
5.178796375
 20
3.2222164907
 30
0.0
 10
5.1767811123
 20
3.2218381936
 30
0.0
 10
5.1759154837
 20
3.2216355174
 30
0.0
 11
5.5792541504
 21
3.2381311775
 31
0.0
 11
5.5059966486
 21
3.2360698682
 31
0.0
 11
5.435097515
 21
3.2340072549
 31
0.0
 11
5.3689652705
 21
3.2319457395
 31
0.0
 11
5.3383511793
 21
3.2309147711
 31
0.0
 11
5.3097138036
 21
3.2298837682
 31
0.0
 11
5.2832971211
 21
3.2288528167
 31
0.0
 11
5.2593096223
 21
3.2278218753
 31
0.0
 11
5.2379521278
 21
3.2267908793
 31
0.0
 11
5.2194005649
 21
3.22575981
 31
0.0
 11
5.2038008266
 21
3.2247287042
 31
0.0
 11
5.1912927555
 21
3.223697601
 31
0.0
 11
5.1862299689
 21
3.2231820601
 31
0.0
 11
5.181973479
 21
3.2226665305
 31
0.0
 11
5.1785323094
 21
3.2221510152
 31
0.0
 11
5.1759154837
 21
3.2216355174
 31
0.0
  0
LINE
  5
313
100
AcDbEntity
  8
0
100
AcDbLine
 62
6
  6
CONTINUOUS
 10
5.1759154837
 20
3.2216355174
 11
5.173482621
 21
3.2208242827
  0
SPLINE
  5
314
100
AcDbEntity
  8
0
100
AcDbSpline
 62
6
  6
CONTINUOUS
 70
0
 71
3
 72
16
 73
12
 74
10
 42
0.0000001
 43
0.0000001
 44
0.0000000001
 12
0.0000093725
 22
0.0074802284
 32
0.0
 13
0.0073958698
 23
0.0011202742
 33
0.0
 40
0.0
 40
0.0
 40
0.0
 40
0.0
 40
0.0382680304
 40
0.0637398705
 40
0.0949026126
 40
0.1762535634
 40
0.2846494997
 40
0.4209268779
 40
0.5854676796
 40
0.7784607277
 40
1.0
 40
1.0
 40
1.0
 40
1.0
 10
5.1730051393
 20
2.7827635719
 30
0.0
 10
5.1730052589
 20
2.7828589897
 30
0.0
 10
5.1730859358
 20
2.7830143259
 30
0.0
 10
5.1732601706
 20
2.7831724827
 30
0.0
 10
5.1735472323
 20
2.7833654277
 30
0.0
 10
5.1740515796
 20
2.7835922785
 30
0.0
 10
5.1748230054
 20
2.7838501635
 30
0.0
 10
5.1758105735
 20
2.7841090968
 30
0.0
 10
5.1770141505
 20
2.7843697611
 30
0.0
 10
5.178434343
 20
2.7846311942
 30
0.0
 10
5.1794550145
 20
2.7847946444
 30
0.0
 10
5.180001173
 20
2.7848773726
 30
0.0
 11
5.1730051393
 21
2.7827635719
 31
0.0
 11
5.173115233
 21
2.7830278078
 31
0.0
 11
5.1732525228
 21
2.783159926
 31
0.0
 11
5.1734445713
 21
2.783292044
 31
0.0
 11
5.1739927334
 21
2.7835562786
 31
0.0
 11
5.1747592985
 21
2.7838205102
 31
0.0
 11
5.1757438458
 21
2.784084737
 31
0.0
 11
5.1769459546
 21
2.7843489574
 31
0.0
 11
5.1783652039
 21
2.7846131699
 31
0.0
 11
5.180001173
 21
2.7848773726
 31
0.0
  0
SPLINE
  5
315
100
AcDbEntity
  8
0
100
AcDbSpline
 62
6
  6
CONTINUOUS
 70
0
 71
3
 72
12
 73
8
 74
6
 42
0.0000001
 43
0.0000001
 44
0.0000000001
 12
0.0698744016
 22
0.0105840812
 32
0.0
 13
0.070591394
 23
0.0033630161
 33
0.0
 40
0.0
 40
0.0
 40
0.0
 40
0.0
 40
0.0678491828
 40
0.1526149254
 40
0.3720057957
 40
0.6558541719
 40
1.0
 40
1.0
 40
1.0
 40
1.0
 10
5.180001173
 20
2.7848773726
 30
0.0
 10
5.18158148
 20
2.7851167464
 30
0.0
 10
5.1851483961
 20
2.7855731327
 30
0.0
 10
5.1938658005
 20
2.7864731937
 30
0.0
 10
5.2076779528
 20
2.7875429819
 30
0.0
 10
5.2276025988
 20
2.7887651604
 30
0.0
 10
5.2423775992
 20
2.7895160662
 30
0.0
 10
5.2504755104
 20
2.7899018555
 30
0.0
 11
5.180001173
 21
2.7848773726
 31
0.0
 11
5.1847548779
 21
2.785505322
 31
0.0
 11
5.1907123911
 21
2.7861332936
 31
0.0
 11
5.206166078
 21
2.7873896473
 31
0.0
 11
5.2261866399
 21
2.7886465591
 31
0.0
 11
5.2504755104
 21
2.7899018555
 31
0.0
  0
SPLINE
  5
316
100
AcDbEntity
  8
0
100
AcDbSpline
 62
6
  6
CONTINUOUS
 70
0
 71
3
 72
10
 73
6
 74
4
 42
0.0000001
 43
0.0000001
 44
0.0000000001
 12
-0.0045633657
 22
0.0008599988
 32
0.0
 13
-0.0040192008
 23
0.0023259256
 33
0.0
 40
0.0
 40
0.0
 40
0.0
 40
0.0
 40
0.6166831849
 40
0.8368051065
 40
1.0
 40
1.0
 40
1.0
 40
1.0
 10
5.2166479274
 20
3.1157197919
 30
0.0
 10
5.2157098771
 20
3.1158965742
 30
0.0
 10
5.2144384291
 20
3.1161603502
 30
0.0
 10
5.2129611791
 20
3.1166237168
 30
0.0
 10
5.2124131281
 20
3.1168590451
 30
0.0
 10
5.2121944904
 20
3.1169855715
 30
0.0
 11
5.2166479274
 21
3.1157197919
 31
0.0
 11
5.2138550501
 21
3.1163526817
 31
0.0
 11
5.2128830867
 21
3.1166691266
 31
0.0
 11
5.2121944904
 21
3.1169855715
 31
0.0
  0
SPLINE
  5
317
100
AcDbEntity
  8
0
100
AcDbSpline
 62
6
  6
CONTINUOUS
 70
0
 71
3
 72
12
 73
8
 74
6
 42
0.0000001
 43
0.0000001
 44
0.0000000001
 12
0.0000153023
 22
-0.0034312593
 32
0.0
 13
0.0033441408
 23
-0.0007684381
 33
0.0
 40
0.0
 40
0.0
 40
0.0
 40
0.0
 40
0.1151861581
 40
0.2005773062
 40
0.3093199127
 40
0.602233888
 40
1.0
 40
1.0
 40
1.0
 40
1.0
 10
5.173007249
 20
2.7916922293
 30
0.0
 10
5.1730078365
 20
2.7915604848
 30
0.0
 10
5.1731639937
 20
2.7913491525
 30
0.0
 10
5.1734515459
 20
2.7911535308
 30
0.0
 10
5.1739510072
 20
2.7908976122
 30
0.0
 10
5.1748179252
 20
2.7906032066
 30
0.0
 10
5.1755840034
 20
2.7904076705
 30
0.0
 10
5.1760273987
 20
2.7903057843
 30
0.0
 11
5.173007249
 21
2.7916922293
 31
0.0
 11
5.1731971845
 21
2.7913456212
 31
0.0
 11
5.1734334383
 21
2.7911723169
 31
0.0
 11
5.1737638771
 21
2.7909990121
 31
0.0
 11
5.174707293
 21
2.7906524004
 31
0.0
 11
5.1760273987
 21
2.7903057843
 31
0.0
  0
LINE
  5
318
100
AcDbEntity
  8
0
100
AcDbLine
 62
6
  6
CONTINUOUS
 10
5.2134444761
 20
3.1879056919
 11
5.2121915059
 21
3.1884156148
  0
SPLINE
  5
319
100
AcDbEntity
  8
0
100
AcDbSpline
 62
6
  6
CONTINUOUS
 70
0
 71
3
 72
12
 73
8
 74
6
 42
0.0000001
 43
0.0000001
 44
0.0000000001
 12
-0.0000140988
 22
0.0031614078
 32
0.0
 13
0.0030737284
 23
0.000739521
 33
0.0
 40
0.0
 40
0.0
 40
0.0
 40
0.0
 40
0.11801783
 40
0.2038606306
 40
0.3125834432
 40
0.6043999279
 40
1.0
 40
1.0
 40
1.0
 40
1.0
 10
5.173007249
 20
2.8541929538
 30
0.0
 10
5.1730066944
 20
2.8543173213
 30
0.0
 10
5.1731450968
 20
2.8545190078
 30
0.0
 10
5.1734089671
 20
2.8547080985
 30
0.0
 10
5.1738634799
 20
2.8549526304
 30
0.0
 10
5.174655248
 20
2.8552347858
 30
0.0
 10
5.1753556226
 20
2.8554219438
 30
0.0
 10
5.175760945
 20
2.855519462
 30
0.0
 11
5.173007249
 21
2.8541929538
 31
0.0
 11
5.1731782311
 21
2.8545245762
 31
0.0
 11
5.1733930734
 21
2.854690388
 31
0.0
 11
5.1736941548
 21
2.8548562006
 31
0.0
 11
5.1745550496
 21
2.8551878287
 31
0.0
 11
5.175760945
 21
2.855519462
 31
0.0
  0
SPLINE
  5
31A
100
AcDbEntity
  8
0
100
AcDbSpline
 62
6
  6
CONTINUOUS
 70
0
 71
3
 72
11
 73
7
 74
5
 42
0.0000001
 43
0.0000001
 44
0.0000000001
 12
0.0227521973
 22
0.005474045
 32
0.0
 13
0.0233277865
 23
0.0018552703
 33
0.0
 40
0.0
 40
0.0
 40
0.0
 40
0.0
 40
0.1572687236
 40
0.3767597
 40
0.6579204631
 40
1.0
 40
1.0
 40
1.0
 40
1.0
 10
5.175760945
 20
2.855519462
 30
0.0
 10
5.1769536814
 20
2.8558064273
 30
0.0
 10
5.179851768
 20
2.8563166607
 30
0.0
 10
5.1849400064
 20
2.8569839881
 30
0.0
 10
5.1914801533
 20
2.8576572813
 30
0.0
 10
5.1963241849
 20
2.858070474
 30
0.0
 10
5.1989841711
 20
2.858282024
 30
0.0
 11
5.175760945
 21
2.855519462
 31
0.0
 11
5.1793758825
 21
2.8562100769
 31
0.0
 11
5.1844656457
 21
2.8569007134
 31
0.0
 11
5.191008865
 21
2.8575913648
 31
0.0
 11
5.1989841711
 21
2.858282024
 31
0.0
  0
SPLINE
  5
31B
100
AcDbEntity
  8
0
100
AcDbSpline
 62
6
  6
CONTINUOUS
 70
0
 71
3
 72
15
 73
11
 74
9
 42
0.0000001
 43
0.0000001
 44
0.0000000001
 12
0.3793427831
 22
0.0301693174
 32
0.0
 13
0.3803916697
 23
0.0106448276
 33
0.0
 40
0.0
 40
0.0
 40
0.0
 40
0.0
 40
0.0313612718
 40
0.0682498449
 40
0.1577461306
 40
0.266478515
 40
0.3919939563
 40
0.5313840039
 40
0.6814963417
 40
1.0
 40
1.0
 40
1.0
 40
1.0
 10
5.1989841711
 20
2.858282024
 30
0.0
 10
5.2029497285
 20
2.8585974067
 30
0.0
 10
5.2115855145
 20
2.859211291
 30
0.0
 10
5.2315585745
 20
2.8604232282
 30
0.0
 10
5.2613474006
 20
2.8618855648
 30
0.0
 10
5.3023790531
 20
2.8635665636
 30
0.0
 10
5.3497439353
 20
2.8652552157
 30
0.0
 10
5.4023603793
 20
2.8669508409
 30
0.0
 10
5.4794494674
 20
2.8692612797
 30
0.0
 10
5.5388687709
 20
2.8709216726
 30
0.0
 10
5.5792541504
 20
2.8720518115
 30
0.0
 11
5.1989841711
 21
2.858282024
 31
0.0
 11
5.2108873342
 21
2.8591426704
 31
0.0
 11
5.2248985264
 21
2.8600032976
 31
0.0
 11
5.2589119776
 21
2.8617244175
 31
0.0
 11
5.3002532544
 21
2.8634454589
 31
0.0
 11
5.3479859493
 21
2.86516671
 31
0.0
 11
5.4010015879
 21
2.8668878626
 31
0.0
 11
5.4580994885
 21
2.8686090379
 31
0.0
 11
5.5792541504
 21
2.8720518115
 31
0.0
  0
SPLINE
  5
31C
100
AcDbEntity
  8
0
100
AcDbSpline
 62
6
  6
CONTINUOUS
 70
0
 71
3
 72
12
 73
8
 74
6
 42
0.0000001
 43
0.0000001
 44
0.0000000001
 12
0.0000467794
 22
-0.0036701452
 32
0.0
 13
0.0035837185
 23
-0.000793168
 33
0.0
 40
0.0
 40
0.0
 40
0.0
 40
0.0
 40
0.1129860407
 40
0.1980493905
 40
0.3068251348
 40
0.6005962455
 40
1.0
 40
1.0
 40
1.0
 40
1.0
 10
5.1730072675
 20
2.8631197686
 30
0.0
 10
5.1730090293
 20
2.8629815436
 30
0.0
 10
5.1731812949
 20
2.8627622439
 30
0.0
 10
5.1734897195
 20
2.862561088
 30
0.0
 10
5.1740291724
 20
2.8622955238
 30
0.0
 10
5.1749626663
 20
2.8619907148
 30
0.0
 10
5.175786993
 20
2.8617880524
 30
0.0
 10
5.1762641099
 20
2.8616824543
 30
0.0
 11
5.1730072675
 21
2.8631197686
 31
0.0
 11
5.1732143101
 21
2.8627604404
 31
0.0
 11
5.1734696577
 21
2.8625807767
 31
0.0
 11
5.1738262046
 21
2.8624011131
 31
0.0
 11
5.1748428412
 21
2.862041785
 31
0.0
 11
5.1762641099
 21
2.8616824543
 31
0.0
  0
LINE
  5
31D
100
AcDbEntity
  8
0
100
AcDbLine
 62
6
  6
CONTINUOUS
 10
5.2143815943
 20
3.2590708558
 11
5.2121929661
 21
3.2598456782
  0
SPLINE
  5
31E
100
AcDbEntity
  8
0
100
AcDbSpline
 62
6
  6
CONTINUOUS
 70
0
 71
3
 72
12
 73
8
 74
6
 42
0.0000001
 43
0.0000001
 44
0.0000000001
 12
-0.0000372374
 22
0.0029215146
 32
0.0
 13
0.0028334607
 23
0.0007128355
 33
0.0
 40
0.0
 40
0.0
 40
0.0
 40
0.0
 40
0.1208840378
 40
0.2072041945
 40
0.3159213377
 40
0.606628326
 40
1.0
 40
1.0
 40
1.0
 40
1.0
 10
5.1730072675
 20
2.9256204964
 30
0.0
 10
5.173005767
 20
2.9257382179
 30
0.0
 10
5.1731287042
 20
2.9259307896
 30
0.0
 10
5.1733713442
 20
2.9261137809
 30
0.0
 10
5.1737860654
 20
2.9263477483
 30
0.0
 10
5.1745111049
 20
2.9266185381
 30
0.0
 10
5.1751531985
 20
2.9267979395
 30
0.0
 10
5.1755247329
 20
2.9268914092
 30
0.0
 11
5.1730072675
 21
2.9256204964
 31
0.0
 11
5.1731615338
 21
2.9259382185
 31
0.0
 11
5.1733574183
 21
2.9260970806
 31
0.0
 11
5.1736324829
 21
2.9262559438
 31
0.0
 11
5.1744201906
 21
2.9265736737
 31
0.0
 11
5.1755247329
 21
2.9268914092
 31
0.0
  0
SPLINE
  5
31F
100
AcDbEntity
  8
0
100
AcDbSpline
 62
6
  6
CONTINUOUS
 70
0
 71
3
 72
11
 73
7
 74
5
 42
0.0000001
 43
0.0000001
 44
0.0000000001
 12
0.0223866246
 22
0.0056319749
 32
0.0
 13
0.0230100004
 23
0.00184932
 33
0.0
 40
0.0
 40
0.0
 40
0.0
 40
0.0
 40
0.1550253566
 40
0.3737506717
 40
0.65565642
 40
1.0
 40
1.0
 40
1.0
 40
1.0
 10
5.1755247329
 20
2.9268914092
 30
0.0
 10
5.1766815644
 20
2.9271824422
 30
0.0
 10
5.179515712
 20
2.9276953561
 30
0.0
 10
5.1845156998
 20
2.9283651016
 30
0.0
 10
5.1909834859
 20
2.9290408594
 30
0.0
 10
5.1957844896
 20
2.9294551553
 30
0.0
 10
5.1984256049
 20
2.9296674225
 30
0.0
 11
5.1755247329
 21
2.9268914092
 31
0.0
 11
5.1790354368
 21
2.9275853774
 31
0.0
 11
5.1840366128
 21
2.9282793728
 31
0.0
 11
5.1905070668
 21
2.9289733897
 31
0.0
 11
5.1984256049
 21
2.9296674225
 31
0.0
  0
SPLINE
  5
320
100
AcDbEntity
  8
0
100
AcDbSpline
 62
6
  6
CONTINUOUS
 70
0
 71
3
 72
15
 73
11
 74
9
 42
0.0000001
 43
0.0000001
 44
0.0000000001
 12
0.3798760095
 22
0.0305307383
 32
0.0
 13
0.3809517846
 23
0.0106605063
 33
0.0
 40
0.0
 40
0.0
 40
0.0
 40
0.0
 40
0.0311348738
 40
0.0678346612
 40
0.1570637746
 40
0.2656695599
 40
0.3911803315
 40
0.5306729912
 40
0.6809724158
 40
1.0
 40
1.0
 40
1.0
 40
1.0
 10
5.1984256049
 20
2.9296674225
 30
0.0
 10
5.2023680687
 20
2.9299842793
 30
0.0
 10
5.210963597
 20
2.9306006026
 30
0.0
 10
5.2308790559
 20
2.9318171692
 30
0.0
 10
5.2606375487
 20
2.9332842392
 30
0.0
 10
5.3016788572
 20
2.9349702454
 30
0.0
 10
5.3491097492
 20
2.9366640546
 30
0.0
 10
5.4018398085
 20
2.9383649169
 30
0.0
 10
5.4791456894
 20
2.9406828792
 30
0.0
 10
5.5387427745
 20
2.9423482085
 30
0.0
 10
5.5792541504
 20
2.9434818737
 30
0.0
 11
5.1984256049
 21
2.9296674225
 31
0.0
 11
5.2102596741
 21
2.9305308928
 31
0.0
 11
5.224219318
 21
2.9313943524
 31
0.0
 11
5.2581807436
 21
2.9331211393
 31
0.0
 11
5.2995344763
 21
2.9348478079
 31
0.0
 11
5.347335566
 21
2.9365746194
 31
0.0
 11
5.4004682972
 21
2.9383013088
 31
0.0
 11
5.4577215137
 21
2.9400280147
 31
0.0
 11
5.5792541504
 21
2.9434818737
 31
0.0
  0
SPLINE
  5
321
100
AcDbEntity
  8
0
100
AcDbSpline
 62
6
  6
CONTINUOUS
 70
0
 71
3
 72
12
 73
8
 74
6
 42
0.0000001
 43
0.0000001
 44
0.0000000001
 12
0.0000552872
 22
-0.0034707026
 32
0.0
 13
0.0033841356
 23
-0.0007723076
 33
0.0
 40
0.0
 40
0.0
 40
0.0
 40
0.0
 40
0.1150418803
 40
0.2005296681
 40
0.3093741314
 40
0.6023824313
 40
1.0
 40
1.0
 40
1.0
 40
1.0
 10
5.1730074677
 20
2.9345487195
 30
0.0
 10
5.1730095878
 20
2.9344156274
 30
0.0
 10
5.1731699449
 20
2.9342040061
 30
0.0
 10
5.1734617935
 20
2.9340076338
 30
0.0
 10
5.173968462
 20
2.9337506996
 30
0.0
 10
5.1748460957
 20
2.9334549769
 30
0.0
 10
5.1756213691
 20
2.9332585118
 30
0.0
 10
5.1760698997
 20
2.9331561507
 30
0.0
 11
5.1730074677
 21
2.9345487195
 31
0.0
 11
5.1732030612
 21
2.9342005743
 31
0.0
 11
5.1734433817
 21
2.9340265028
 31
0.0
 11
5.1737787073
 21
2.9338524319
 31
0.0
 11
5.1747343416
 21
2.933504291
 31
0.0
 11
5.1760698997
 21
2.9331561507
 31
0.0
  0
SPLINE
  5
322
100
AcDbEntity
  8
0
100
AcDbSpline
 62
6
  6
CONTINUOUS
 70
0
 71
3
 72
12
 73
8
 74
6
 42
0.0000001
 43
0.0000001
 44
0.0000000001
 12
-0.0000497705
 22
0.0031243886
 32
0.0
 13
0.0030369007
 23
0.0007358774
 33
0.0
 40
0.0
 40
0.0
 40
0.0
 40
0.0
 40
0.1182191298
 40
0.2039707645
 40
0.312587507
 40
0.6042854088
 40
1.0
 40
1.0
 40
1.0
 40
1.0
 10
5.1730074677
 20
2.9970494479
 30
0.0
 10
5.1730055064
 20
2.9971725688
 30
0.0
 10
5.1731399545
 20
2.9973738944
 30
0.0
 10
5.1733998159
 20
2.9975623381
 30
0.0
 10
5.1738476484
 20
2.9978058963
 30
0.0
 10
5.1746295071
 20
2.9980868202
 30
0.0
 10
5.1753213926
 20
2.9982730896
 30
0.0
 10
5.1757219746
 20
2.9983701554
 30
0.0
 11
5.1730074677
 21
2.9970494479
 31
0.0
 11
5.1731731524
 21
2.9973796174
 31
0.0
 11
5.1733842131
 21
2.9975447037
 31
0.0
 11
5.1736807618
 21
2.9977097912
 31
0.0
 11
5.174530351
 21
2.9980399702
 31
0.0
 11
5.1757219746
 21
2.9983701554
 31
0.0
  0
SPLINE
  5
323
100
AcDbEntity
  8
0
100
AcDbSpline
 62
6
  6
CONTINUOUS
 70
0
 71
3
 72
11
 73
7
 74
5
 42
0.0000001
 43
0.0000001
 44
0.0000000001
 12
0.0229319496
 22
0.0055566857
 32
0.0
 13
0.0235217242
 23
0.0018653577
 33
0.0
 40
0.0
 40
0.0
 40
0.0
 40
0.0
 40
0.1565881634
 40
0.3758569851
 40
0.6572481306
 40
1.0
 40
1.0
 40
1.0
 40
1.0
 10
5.1757219746
 20
2.9983701554
 30
0.0
 10
5.1769189319
 20
2.9986601925
 30
0.0
 10
5.1798340096
 20
2.9991744598
 30
0.0
 10
5.1849591531
 20
2.9998467385
 30
0.0
 10
5.1915590254
 20
3.0005250435
 30
0.0
 10
5.1964503987
 20
3.0009412073
 30
0.0
 10
5.1991377703
 20
3.0011543256
 30
0.0
 11
5.1757219746
 21
2.9983701554
 31
0.0
 11
5.1793506142
 21
2.999066165
 31
0.0
 11
5.1844773546
 21
2.9997622003
 31
0.0
 11
5.1910803539
 21
3.0004582558
 31
0.0
 11
5.1991377703
 21
3.0011543256
 31
0.0
  0
SPLINE
  5
324
100
AcDbEntity
  8
0
100
AcDbSpline
 62
6
  6
CONTINUOUS
 70
0
 71
3
 72
15
 73
11
 74
9
 42
0.0000001
 43
0.0000001
 44
0.0000000001
 12
0.379195978
 22
0.0300716104
 32
0.0
 13
0.3802376507
 23
0.0106405095
 33
0.0
 40
0.0
 40
0.0
 40
0.0
 40
0.0
 40
0.0314260307
 40
0.0683703792
 40
0.1579502478
 40
0.2667284224
 40
0.3922411556
 40
0.5315948842
 40
0.6816471151
 40
1.0
 40
1.0
 40
1.0
 40
1.0
 10
5.1991377703
 20
3.0011543256
 30
0.0
 10
5.2031099785
 20
3.001469336
 30
0.0
 10
5.2117576125
 20
3.0020826046
 30
0.0
 10
5.2317485532
 20
3.0032933837
 30
0.0
 10
5.2615488426
 20
3.0047545802
 30
0.0
 10
5.3025799842
 20
3.0064341984
 30
0.0
 10
5.3499265706
 20
3.0081214545
 30
0.0
 10
5.4025091631
 20
3.0098154957
 30
0.0
 10
5.4795357162
 20
3.0121237873
 30
0.0
 10
5.5389042327
 20
3.0137827631
 30
0.0
 10
5.5792541504
 20
3.0149119087
 30
0.0
 11
5.1991377703
 21
3.0011543256
 31
0.0
 11
5.2110608371
 21
3.0020142671
 31
0.0
 11
5.2250876337
 21
3.0028741988
 31
0.0
 11
5.2591191817
 21
3.0045939439
 31
0.0
 11
5.3004611833
 21
3.0063135534
 31
0.0
 11
5.3481735529
 21
3.0080332089
 31
0.0
 11
5.4011539343
 21
3.009752706
 31
0.0
 11
5.4582058698
 21
3.0114722556
 31
0.0
 11
5.5792541504
 21
3.0149119087
 31
0.0
  0
SPLINE
  5
325
100
AcDbEntity
  8
0
100
AcDbSpline
 62
6
  6
CONTINUOUS
 70
0
 71
3
 72
10
 73
6
 74
4
 42
0.0000001
 43
0.0000001
 44
0.0000000001
 12
0.0000169452
 22
-0.0017239538
 32
0.0
 13
0.001633012
 23
-0.0005527888
 33
0.0
 40
0.0
 40
0.0
 40
0.0
 40
0.0
 40
0.3384286693
 40
0.6237145751
 40
1.0
 40
1.0
 40
1.0
 40
1.0
 10
5.1730036659
 20
3.0059801136
 30
0.0
 10
5.1730055775
 20
3.0057856351
 30
0.0
 10
5.1733293277
 20
3.005497015
 30
0.0
 10
5.1738234504
 20
3.0052513536
 30
0.0
 10
5.1741851978
 20
3.0051136628
 30
0.0
 10
5.174390024
 20
3.0050443274
 30
0.0
 11
5.1730036659
 21
3.0059801136
 31
0.0
 11
5.1733523317
 21
3.0055122868
 31
0.0
 11
5.173784966
 21
3.0052783262
 31
0.0
 11
5.174390024
 21
3.0050443274
 31
0.0
  0
SPLINE
  5
326
100
AcDbEntity
  8
0
100
AcDbSpline
 62
6
  6
CONTINUOUS
 70
0
 71
3
 72
13
 73
9
 74
7
 42
0.0000001
 43
0.0000001
 44
0.0000000001
 12
-0.0000496665
 22
0.0050529182
 32
0.0
 13
0.0049678168
 23
0.000924795
 33
0.0
 40
0.0
 40
0.0
 40
0.0
 40
0.0
 40
0.1020756736
 40
0.1850213172
 40
0.2935353997
 40
0.4288195228
 40
0.5914696147
 40
1.0
 40
1.0
 40
1.0
 40
1.0
 10
5.1730036659
 20
3.0684808364
 30
0.0
 10
5.173001976
 20
3.0686527631
 30
0.0
 10
5.1732606433
 20
3.0689200504
 30
0.0
 10
5.1736806858
 20
3.0691496028
 30
0.0
 10
5.174194517
 20
3.0693643249
 30
0.0
 10
5.1748447043
 20
3.0695736064
 30
0.0
 10
5.1759956399
 20
3.0698808362
 30
0.0
 10
5.1769387827
 20
3.0700728987
 30
0.0
 10
5.1776152841
 20
3.0701988343
 30
0.0
 11
5.1730036659
 21
3.0684808364
 31
0.0
 11
5.1732892427
 21
3.0689103718
 31
0.0
 11
5.1736491864
 21
3.0691251205
 31
0.0
 11
5.1741537278
 21
3.069339862
 31
0.0
 11
5.1748027377
 21
3.0695546001
 31
0.0
 11
5.1755960866
 21
3.0697693388
 31
0.0
 11
5.1776152841
 21
3.0701988343
 31
0.0
  0
SPLINE
  5
327
100
AcDbEntity
  8
0
100
AcDbSpline
 62
6
  6
CONTINUOUS
 70
0
 71
3
 72
20
 73
16
 74
14
 42
0.0000001
 43
0.0000001
 44
0.0000000001
 12
0.3952574412
 22
0.0735800335
 32
0.0
 13
0.4018905124
 23
0.01124643
 33
0.0
 40
0.0
 40
0.0
 40
0.0
 40
0.0
 40
0.0078239481
 40
0.0175794812
 40
0.0428164091
 40
0.0755532545
 40
0.1155577083
 40
0.1624952334
 40
0.2160148854
 40
0.2756955629
 40
0.3410624077
 40
0.4867988897
 40
0.6486189892
 40
0.8215670393
 40
1.0
 40
1.0
 40
1.0
 40
1.0
 10
5.1776152841
 20
3.0701988343
 30
0.0
 10
5.1786461086
 20
3.0703907298
 30
0.0
 10
5.1809741465
 20
3.0707573148
 30
0.0
 10
5.1866668117
 20
3.0714806272
 30
0.0
 10
5.1957044957
 20
3.0723414144
 30
0.0
 10
5.2087984185
 20
3.0733249493
 30
0.0
 10
5.2248072211
 20
3.0743137751
 30
0.0
 10
5.2436050952
 20
3.0753092644
 30
0.0
 10
5.2650430351
 20
3.0763070879
 30
0.0
 10
5.2889530381
 20
3.077307172
 30
0.0
 10
5.3252159881
 20
3.0786933832
 30
0.0
 10
5.3751650084
 20
3.0803913349
 30
0.0
 10
5.4395298785
 20
3.0823716744
 30
0.0
 10
5.508278413
 20
3.0843557222
 30
0.0
 10
5.5553506457
 20
3.0856729118
 30
0.0
 10
5.5792541504
 20
3.086341823
 30
0.0
 11
5.1776152841
 21
3.0701988343
 31
0.0
 11
5.1807201795
 21
3.0707032473
 31
0.0
 11
5.1846097932
 21
3.0712077149
 31
0.0
 11
5.1947059478
 21
3.0722167533
 31
0.0
 11
5.2078289873
 21
3.0732258294
 31
0.0
 11
5.2238810089
 21
3.0742348623
 31
0.0
 11
5.242725147
 21
3.0752438369
 31
0.0
 11
5.2642189416
 21
3.0762527465
 31
0.0
 11
5.2881922104
 21
3.0772616154
 31
0.0
 11
5.3144534373
 21
3.0782704914
 31
0.0
 11
5.3730117209
 21
3.080288292
 31
0.0
 11
5.4380398521
 21
3.0823058383
 31
0.0
 11
5.5075439329
 21
3.0843245224
 31
0.0
 11
5.5792541504
 21
3.086341823
 31
0.0
  0
SPLINE
  5
328
100
AcDbEntity
  8
0
100
AcDbSpline
 62
6
  6
CONTINUOUS
 70
0
 71
3
 72
12
 73
8
 74
6
 42
0.0000001
 43
0.0000001
 44
0.0000000001
 12
0.0000553367
 22
-0.0034501184
 32
0.0
 13
0.0033635211
 23
-0.0007701327
 33
0.0
 40
0.0
 40
0.0
 40
0.0
 40
0.0
 40
0.1152590375
 40
0.2007898469
 40
0.3096400255
 40
0.6025671371
 40
1.0
 40
1.0
 40
1.0
 40
1.0
 10
5.1730075293
 20
3.0774085776
 30
0.0
 10
5.1730096553
 20
3.0772760252
 30
0.0
 10
5.1731687578
 20
3.0770651849
 30
0.0
 10
5.1734588697
 20
3.0768693126
 30
0.0
 10
5.1739621451
 20
3.0766132678
 30
0.0
 10
5.1748340209
 20
3.0763184879
 30
0.0
 10
5.175604244
 20
3.0761226653
 30
0.0
 10
5.1760498353
 20
3.07602064
 30
0.0
 11
5.1730075293
 21
3.0774085776
 31
0.0
 11
5.1732018777
 21
3.0770615895
 31
0.0
 11
5.1734406277
 21
3.0768880967
 31
0.0
 11
5.1737737516
 21
3.0767146045
 31
0.0
 11
5.174723091
 21
3.0763676217
 31
0.0
 11
5.1760498353
 21
3.07602064
 31
0.0
  0
SPLINE
  5
329
100
AcDbEntity
  8
0
100
AcDbSpline
 62
6
  6
CONTINUOUS
 70
0
 71
3
 72
12
 73
8
 74
6
 42
0.0000001
 43
0.0000001
 44
0.0000000001
 12
0.0025249954
 22
-0.000676046
 32
0.0
 13
-0.0000040784
 23
-0.0026139287
 33
0.0
 40
0.0
 40
0.0
 40
0.0
 40
0.0
 40
0.389051428
 40
0.6780412385
 40
0.7870152459
 40
0.8744322866
 40
1.0
 40
1.0
 40
1.0
 40
1.0
 10
5.9832789932
 20
2.7482398193
 30
0.0
 10
5.9836064443
 20
2.7481521471
 30
0.0
 10
5.9841731205
 20
2.7479837764
 30
0.0
 10
5.9848121129
 20
2.7477294154
 30
0.0
 10
5.9851772001
 20
2.7475109574
 30
0.0
 10
5.9853938705
 20
2.7473370375
 30
0.0
 10
5.985500637
 20
2.7471588062
 30
0.0
 10
5.9855004663
 20
2.7470493978
 30
0.0
 11
5.9832789932
 21
2.7482398193
 31
0.0
 11
5.9842514265
 21
2.747942214
 31
0.0
 11
5.9849457317
 21
2.7476446086
 31
0.0
 11
5.985188626
 21
2.747495806
 31
0.0
 11
5.985362036
 21
2.7473470032
 31
0.0
 11
5.9855004663
 21
2.7470493978
 31
0.0
  0
SPLINE
  5
32A
100
AcDbEntity
  8
0
100
AcDbSpline
 62
6
  6
CONTINUOUS
 70
0
 71
3
 72
12
 73
8
 74
6
 42
0.0000001
 43
0.0000001
 44
0.0000000001
 12
-0.0000507986
 22
0.0031671776
 32
0.0
 13
0.0030797868
 23
0.0007406134
 33
0.0
 40
0.0
 40
0.0
 40
0.0
 40
0.0
 40
0.1176989936
 40
0.2033468987
 40
0.3119499057
 40
0.6038429077
 40
1.0
 40
1.0
 40
1.0
 40
1.0
 10
5.1730075293
 20
3.1399093026
 30
0.0
 10
5.1730055363
 20
3.1400335605
 30
0.0
 10
5.1731425212
 20
3.1402366402
 30
0.0
 10
5.173406034
 20
3.1404261822
 30
0.0
 10
5.1738608914
 20
3.1406716901
 30
0.0
 10
5.1746547248
 20
3.1409546774
 30
0.0
 10
5.175357101
 20
3.1411423509
 30
0.0
 10
5.1757637941
 20
3.1412401507
 30
0.0
 11
5.1730075293
 21
3.1399093026
 31
0.0
 11
5.1731757671
 21
3.1402420066
 31
0.0
 11
5.1733900765
 21
3.1404083604
 31
0.0
 11
5.1736911884
 21
3.1405747154
 31
0.0
 11
5.1745538463
 21
3.1409074298
 31
0.0
 11
5.1757637941
 21
3.1412401507
 31
0.0
  0
SPLINE
  5
32B
100
AcDbEntity
  8
0
100
AcDbSpline
 62
6
  6
CONTINUOUS
 70
0
 71
3
 72
11
 73
7
 74
5
 42
0.0000001
 43
0.0000001
 44
0.0000000001
 12
0.0231256575
 22
0.0055611553
 32
0.0
 13
0.0237111088
 23
0.0018723788
 33
0.0
 40
0.0
 40
0.0
 40
0.0
 40
0.0
 40
0.1567987734
 40
0.3761451919
 40
0.6574689525
 40
1.0
 40
1.0
 40
1.0
 40
1.0
 10
5.1757637941
 20
3.1412401507
 30
0.0
 10
5.1769724857
 20
3.1415308115
 30
0.0
 10
5.1799136621
 20
3.142046563
 30
0.0
 10
5.1850821524
 20
3.1427209026
 30
0.0
 10
5.1917336332
 20
3.1434012837
 30
0.0
 10
5.1966621376
 20
3.1438187733
 30
0.0
 10
5.1993694012
 20
3.1440325559
 30
0.0
 11
5.1757637941
 21
3.1412401507
 31
0.0
 11
5.1794273268
 21
3.1419382186
 31
0.0
 11
5.1845975479
 21
3.142636313
 31
0.0
 11
5.1912522939
 21
3.1433344275
 31
0.0
 11
5.1993694012
 21
3.1440325559
 31
0.0
  0
SPLINE
  5
32C
100
AcDbEntity
  8
0
100
AcDbSpline
 62
6
  6
CONTINUOUS
 70
0
 71
3
 72
15
 73
11
 74
9
 42
0.0000001
 43
0.0000001
 44
0.0000000001
 12
0.3789744087
 22
0.0299262108
 32
0.0
 13
0.3800053923
 23
0.0106340199
 33
0.0
 40
0.0
 40
0.0
 40
0.0
 40
0.0
 40
0.0315198637
 40
0.0685432076
 40
0.1582368954
 40
0.2670723793
 40
0.3925875009
 40
0.5318965336
 40
0.681866042
 40
1.0
 40
1.0
 40
1.0
 40
1.0
 10
5.1993694012
 20
3.1440325559
 30
0.0
 10
5.2033511418
 20
3.1443469793
 30
0.0
 10
5.2120154867
 20
3.1449592717
 30
0.0
 10
5.2320306714
 20
3.1461682003
 30
0.0
 10
5.2618445298
 20
3.1476275225
 30
0.0
 10
5.3028726565
 20
3.1493050939
 30
0.0
 10
5.350192261
 20
3.1509902485
 30
0.0
 10
5.4027269207
 20
3.1526820798
 30
0.0
 10
5.4796625677
 20
3.1549872307
 30
0.0
 10
5.5389566106
 20
3.1566441371
 30
0.0
 10
5.5792541504
 20
3.157771818
 30
0.0
 11
5.1993694012
 21
3.1440325559
 31
0.0
 11
5.2113209919
 21
3.1448913688
 31
0.0
 11
5.2253693442
 21
3.1457501719
 31
0.0
 11
5.2594234894
 21
3.1474676673
 31
0.0
 11
5.3007620934
 21
3.1491850246
 31
0.0
 11
5.3484462723
 21
3.1509023921
 31
0.0
 11
5.4013773331
 21
3.1526195661
 31
0.0
 11
5.4583629974
 21
3.154336769
 31
0.0
 11
5.5792541504
 21
3.157771818
 31
0.0
  0
SPLINE
  5
32D
100
AcDbEntity
  8
0
100
AcDbSpline
 62
6
  6
CONTINUOUS
 70
0
 71
3
 72
12
 73
8
 74
6
 42
0.0000001
 43
0.0000001
 44
0.0000000001
 12
0.0000350727
 22
-0.0033909555
 32
0.0
 13
0.0033039591
 23
-0.0007639789
 33
0.0
 40
0.0
 40
0.0
 40
0.0
 40
0.0
 40
0.1157510765
 40
0.2013152656
 40
0.3101241692
 40
0.6028463812
 40
1.0
 40
1.0
 40
1.0
 40
1.0
 10
5.1730073375
 20
3.1488404065
 30
0.0
 10
5.1730086907
 20
3.1487095709
 30
0.0
 10
5.17316328
 20
3.1485003851
 30
0.0
 10
5.1734478906
 20
3.1483058605
 30
0.0
 10
5.1739410511
 20
3.1480520429
 30
0.0
 10
5.1747965292
 20
3.1477597466
 30
0.0
 10
5.1755524766
 20
3.1475656314
 30
0.0
 10
5.1759898697
 20
3.1474644924
 30
0.0
 11
5.1730073375
 21
3.1488404065
 31
0.0
 11
5.1731964325
 21
3.1484964281
 31
0.0
 11
5.173430126
 21
3.1483244394
 31
0.0
 11
5.1737565773
 21
3.1481524508
 31
0.0
 11
5.1746877353
 21
3.1478084728
 31
0.0
 11
5.1759898697
 21
3.1474644924
 31
0.0
  0
SPLINE
  5
32E
100
AcDbEntity
  8
0
100
AcDbSpline
 62
6
  6
CONTINUOUS
 70
0
 71
3
 72
12
 73
8
 74
6
 42
0.0000001
 43
0.0000001
 44
0.0000000001
 12
-0.0000333678
 22
0.0032261177
 32
0.0
 13
0.0031386568
 23
0.0007468484
 33
0.0
 40
0.0
 40
0.0
 40
0.0
 40
0.0
 40
0.1171256704
 40
0.2027266058
 40
0.31137155
 40
0.603501666
 40
1.0
 40
1.0
 40
1.0
 40
1.0
 10
5.1730073375
 20
3.2113411346
 30
0.0
 10
5.1730060348
 20
3.2114670883
 30
0.0
 10
5.1731474306
 20
3.2116719593
 30
0.0
 10
5.173416391
 20
3.2118628411
 30
0.0
 10
5.173881233
 20
3.2121106427
 30
0.0
 10
5.1746913157
 20
3.2123961606
 30
0.0
 10
5.1754078324
 20
3.2125855835
 30
0.0
 10
5.1758226565
 20
3.2126842916
 30
0.0
 11
5.1730073375
 21
3.2113411346
 31
0.0
 11
5.1731806731
 21
3.211676916
 31
0.0
 11
5.1733999538
 21
3.2118448081
 31
0.0
 11
5.1737076487
 21
3.2120127015
 31
0.0
 11
5.1745882984
 21
3.2123484929
 31
0.0
 11
5.1758226565
 21
3.2126842916
 31
0.0
  0
SPLINE
  5
32F
100
AcDbEntity
  8
0
100
AcDbSpline
 62
6
  6
CONTINUOUS
 70
0
 71
3
 72
11
 73
7
 74
5
 42
0.0000001
 43
0.0000001
 44
0.0000000001
 12
0.0232954467
 22
0.0055431887
 32
0.0
 13
0.0238721528
 23
0.0018775245
 33
0.0
 40
0.0
 40
0.0
 40
0.0
 40
0.0
 40
0.157223895
 40
0.376717489
 40
0.6579009793
 40
1.0
 40
1.0
 40
1.0
 40
1.0
 10
5.1758226565
 20
3.2126842916
 30
0.0
 10
5.1770435234
 20
3.2129747988
 30
0.0
 10
5.1800096304
 20
3.2134911068
 30
0.0
 10
5.1852170737
 20
3.2141664053
 30
0.0
 10
5.1919104938
 20
3.2148477482
 30
0.0
 10
5.1968679497
 20
3.2152659144
 30
0.0
 10
5.1995901631
 20
3.2154800142
 30
0.0
 11
5.1758226565
 21
3.2126842916
 31
0.0
 11
5.1795220813
 21
3.2133831843
 31
0.0
 11
5.1847313691
 21
3.2140821078
 31
0.0
 11
5.1914281772
 21
3.2147810537
 31
0.0
 11
5.1995901631
 21
3.2154800142
 31
0.0
  0
SPLINE
  5
330
100
AcDbEntity
  8
0
100
AcDbSpline
 62
6
  6
CONTINUOUS
 70
0
 71
3
 72
15
 73
11
 74
9
 42
0.0000001
 43
0.0000001
 44
0.0000000001
 12
0.3787630636
 22
0.0297893925
 32
0.0
 13
0.379784038
 23
0.0106278275
 33
0.0
 40
0.0
 40
0.0
 40
0.0
 40
0.0
 40
0.0316086013
 40
0.0687064947
 40
0.1585062455
 40
0.2673943198
 40
0.3929158798
 40
0.5321867209
 40
0.6820768926
 40
1.0
 40
1.0
 40
1.0
 40
1.0
 10
5.1995901631
 20
3.2154800142
 30
0.0
 10
5.2035808866
 20
3.2157938812
 30
0.0
 10
5.2122609513
 20
3.2164052444
 30
0.0
 10
5.232298713
 20
3.2176124024
 30
0.0
 10
5.2621248111
 20
3.2190699299
 30
0.0
 10
5.303150003
 20
3.2207455735
 30
0.0
 10
5.3504447182
 20
3.2224287433
 30
0.0
 10
5.4029347343
 20
3.2241185229
 30
0.0
 10
5.4797840094
 20
3.2264206803
 30
0.0
 10
5.5390067766
 20
3.2280756062
 30
0.0
 10
5.5792541504
 20
3.2292018835
 30
0.0
 11
5.1995901631
 21
3.2154800142
 31
0.0
 11
5.2115686341
 21
3.2163377522
 31
0.0
 11
5.2256372149
 21
3.2171954784
 31
0.0
 11
5.2597119299
 21
3.2189108129
 31
0.0
 11
5.3010465
 21
3.2206260145
 31
0.0
 11
5.3487053909
 21
3.2223412606
 31
0.0
 11
5.4015911385
 21
3.2240562862
 31
0.0
 11
5.4585134897
 21
3.225771247
 31
0.0
 11
5.5792541504
 21
3.2292018835
 31
0.0
  0
SPLINE
  5
331
100
AcDbEntity
  8
0
100
AcDbSpline
 62
6
  6
CONTINUOUS
 70
0
 71
3
 72
12
 73
8
 74
6
 42
0.0000001
 43
0.0000001
 44
0.0000000001
 12
0.000004061
 22
-0.0033326069
 32
0.0
 13
0.0032452659
 23
-0.0007579807
 33
0.0
 40
0.0
 40
0.0
 40
0.0
 40
0.0
 40
0.1161755801
 40
0.2017213254
 40
0.3104544419
 40
0.6029840637
 40
1.0
 40
1.0
 40
1.0
 40
1.0
 10
5.1730072175
 20
3.2202732995
 30
0.0
 10
5.1730073748
 20
3.2201442437
 30
0.0
 10
5.173156995
 20
3.2199363667
 30
0.0
 10
5.1734359083
 20
3.2197430994
 30
0.0
 10
5.1739189134
 20
3.2194912877
 30
0.0
 10
5.1747583529
 20
3.2192013019
 30
0.0
 10
5.1755003999
 20
3.2190087904
 30
0.0
 10
5.175929874
 20
3.2189084802
 30
0.0
 11
5.1730072175
 21
3.2202732995
 31
0.0
 11
5.1731901972
 21
3.2199320996
 31
0.0
 11
5.1734186093
 21
3.2197614991
 31
0.0
 11
5.1737383023
 21
3.2195908979
 31
0.0
 11
5.1746515292
 21
3.2192496922
 31
0.0
 11
5.175929874
 21
3.2189084802
 31
0.0
  0
ENDSEC
  0
SECTION
  2
OBJECTS
  0
DICTIONARY
  5
C
100
AcDbDictionary
280
0
281
1
  3
ACAD_GROUP
350
D
  3
ACAD_MLINESTYLE
350
17
  3
ACAD_LAYOUT
350
1A
  3
ACAD_PLOTSETTINGS
350
19
  3
ACAD_PLOTSTYLENAME
350
E
  0
DICTIONARY
  5
D
102
{ACAD_REACTORS
330
C
102
}
100
AcDbDictionary
280
0
281
1
  0
ACDBDICTIONARYWDFLT
  5
E
102
{ACAD_REACTORS
330
C
102
}
100
AcDbDictionary
281
1
  3
Normal
350
F
100
AcDbDictionaryWithDefault
340
F
  0
DICTIONARY
  5
17
102
{ACAD_REACTORS
330
C
102
}
100
AcDbDictionary
280
0
281
1
  3
Standard
350
18
  0
DICTIONARY
  5
19
102
{ACAD_REACTORS
330
C
102
}
100
AcDbDictionary
281
1
  0
DICTIONARY
  5
1A
102
{ACAD_REACTORS
330
C
102
}
100
AcDbDictionary
281
1
  3
Model
350
332
  3
Layout1
350
333
  0
ACDBPLACEHOLDER
  5
F
102
{ACAD_REACTORS
330
E
102
}
  0
MLINESTYLE
  5
18
102
{ACAD_REACTORS
330
17
102
}
100
AcDbMlineStyle
  2
STANDARD
 70
0
  3

 62
256
 51
90.0
 52
90.0
 71
2
 49
0.5
 62
256
  6
BYLAYER
 49
-0.5
 62
256
  6
BYLAYER
  0
LAYOUT
  5
332
102
{ACAD_REACTORS
330
1A
102
}
100
AcDbPlotSettings
  1

  2
none_device
  4

  6

 40
0.0
 41
0.0
 42
0.0
 43
0.0
 44
279.4
 45
431.8
 46
0.0
 47
0.0
 48
0.0
 49
0.0
140
0.0
141
0.0
142
1.0
143
1.0
 70
1024
 72
0
 73
0
 74
0
  7

 75
0
147
1.0
148
0.0
149
0.0
100
AcDbLayout
  1
Model
 70
0
 71
0
 10
0.0
 20
0.0
 11
11.0
 21
17.0
 12
0.0
 22
0.0
 32
0.0
 14
0.0
 24
0.0
 34
0.0
 15
0.0
 25
0.0
 35
0.0
146
0.0
 13
0.0
 23
0.0
 33
0.0
 16
1.0
 26
0.0
 36
0.0
 17
0.0
 27
1.0
 37
0.0
 76
0
330
203
345
0
346
0
  0
LAYOUT
  5
333
102
{ACAD_REACTORS
330
1A
102
}
100
AcDbPlotSettings
  1

  2
none_device
  4

  6

 40
0.0
 41
0.0
 42
0.0
 43
0.0
 44
279.4
 45
431.8
 46
0.0
 47
0.0
 48
0.0
 49
0.0
140
0.0
141
0.0
142
1.0
143
1.0
 70
0
 72
0
 73
0
 74
0
  7

 75
0
147
1.0
148
0.0
149
0.0
100
AcDbLayout
  1
Layout1
 70
0
 71
1
 10
0.0
 20
0.0
 11
11.0
 21
17.0
 12
0.0
 22
0.0
 32
0.0
 14
0.0
 24
0.0
 34
0.0
 15
0.0
 25
0.0
 35
0.0
146
0.0
 13
0.0
 23
0.0
 33
0.0
 16
1.0
 26
0.0
 36
0.0
 17
0.0
 27
1.0
 37
0.0
 76
0
330
204
345
0
346
0
  0
ENDSEC
  0
EOF
