999
DXF file: E:\BT Custom\CADOUTPUT\_RIGHT.dxf
999
Pro/ENGINEER 2018400 by Parametric Technology Corporation
  0
SECTION
  2
HEADER
  9
$ACADVER
  1
AC1018
  9
$DWGCODEPAGE
  3
ANSI_1252
  9
$EXTMAX
 10
22.0
 20
17.0
 30
0.0
  9
$EXTMIN
 10
0.0
 20
0.0
 30
0.0
  9
$LIMMIN
 10
0.0
 20
0.0
  9
$LIMMAX
 10
22.0
 20
17.0
  9
$VIEWCTR
 10
11.0
 20
8.5
  9
$VIEWSIZE
 40
17.0
  9
$CLAYER
  8
0
  9
$LTSCALE
 40
1.21
  9
$CELTYPE
  6
BYLAYER
  9
$DIMSCALE
 40
1.0
  9
$DIMASZ
 40
0.1
  9
$DIMEXO
 40
0.0625
  9
$DIMDLI
 40
0.836
  9
$DIMEXE
 40
0.125
  9
$DIMCEN
 40
0.198
  9
$DIMLFAC
 40
1.0
  9
$DIMBLK
  1
_FILLED
  9
$DIMALT
 70
1
  9
$DIMALTD
 70
2
  9
$DIMALTTD
 70
2
  9
$DIMALTF
 40
25.4
  9
$DIMTXT
 40
0.08
  9
$DIMTOL
 70
1
  9
$DIMLIM
 70
0
  9
$DIMTFAC
 40
1.0
  9
$DIMTP
 40
0.001
  9
$DIMTM
 40
0.001
  9
$DIMGAP
 40
0.09
  9
$DIMDSEP
 70
46
  9
$AUNITS
 70
0
  9
$PDMODE
 70
3
  9
$PDSIZE
 40
0.06
  9
$HANDSEED
  5
4FF
  9
$TILEMODE
 70
1
  9
$MEASUREMENT
 70
0
  9
$INSUNITS
 70
1
  0
ENDSEC
  0
SECTION
  2
CLASSES
  0
CLASS
  1
ACDBDICTIONARYWDFLT
  2
AcDbDictionaryWithDefault
  3
AutoCAD 2000
 90
0
 91
1
280
0
281
0
  0
CLASS
  1
ACDBPLACEHOLDER
  2
AcDbPlaceHolder
  3
AutoCAD 2000
 90
0
 91
1
280
0
281
0
  0
CLASS
  1
LAYOUT
  2
AcDbLayout
  3
AutoCAD 2000
 90
0
 91
0
280
0
281
0
  0
ENDSEC
  0
SECTION
  2
TABLES
  0
TABLE
  2
VPORT
  5
8
100
AcDbSymbolTable
 70
2
  0
VPORT
  5
1F4
100
AcDbSymbolTableRecord
100
AcDbViewportTableRecord
  2
*ACTIVE
 70
0
 10
0.0
 20
0.0
 11
1.0
 21
1.0
 12
11.0
 22
8.5
 13
0.0
 23
0.0
 14
1.0
 24
1.0
 15
0.0
 25
0.0
 16
0.0
 26
0.0
 36
1.0
 17
0.0
 27
0.0
 37
0.0
 40
17.0
 41
1.2941176471
 42
50.0
 43
0.0
 44
0.0
 50
0.0
 51
0.0
 71
0
 72
100
 73
1
 74
1
 75
0
 76
0
 77
0
 78
0
  0
ENDTAB
  0
TABLE
  2
LTYPE
  5
5
100
AcDbSymbolTable
 70
6
  0
LTYPE
  5
14
100
AcDbSymbolTableRecord
100
AcDbLinetypeTableRecord
  2
BYBLOCK
 70
0
  3

 72
65
 73
0
 40
0.0
  0
LTYPE
  5
15
100
AcDbSymbolTableRecord
100
AcDbLinetypeTableRecord
  2
BYLAYER
 70
0
  3

 72
65
 73
0
 40
0.0
  0
LTYPE
  5
16
100
AcDbSymbolTableRecord
100
AcDbLinetypeTableRecord
  2
CONTINUOUS
 70
64
  3
Solid line
 72
65
 73
0
 40
0.0
  0
LTYPE
  5
1F5
100
AcDbSymbolTableRecord
100
AcDbLinetypeTableRecord
  2
CENTER
 70
64
  3
____ _ ____ _ ____ _ ____ _ ____ _ ____ _ ____
 72
65
 73
4
 40
0.6
 49
0.375
 74
0
 49
-0.075
 74
0
 49
0.075
 74
0
 49
-0.075
 74
0
  0
LTYPE
  5
1F6
100
AcDbSymbolTableRecord
100
AcDbLinetypeTableRecord
  2
HIDDEN
 70
64
  3
- - - - - - - - - - - - - - - - - - - -
 72
65
 73
2
 40
0.2
 49
0.1
 74
0
 49
-0.1
 74
0
  0
LTYPE
  5
1F7
100
AcDbSymbolTableRecord
100
AcDbLinetypeTableRecord
  2
PHANTOM
 70
64
  3
_____ _ _ _____ _ _ _____ _ _ _____
 72
65
 73
6
 40
0.8
 49
0.45
 74
0
 49
-0.05
 74
0
 49
0.1
 74
0
 49
-0.05
 74
0
 49
0.1
 74
0
 49
-0.05
 74
0
  0
LTYPE
  5
1F8
100
AcDbSymbolTableRecord
100
AcDbLinetypeTableRecord
  2
DOT
 70
64
  3
. . . . . . . . . . . . . . . . . . . .
 72
65
 73
2
 40
0.2
 49
0.1
 74
0
 49
-0.1
 74
0
  0
LTYPE
  5
1F9
100
AcDbSymbolTableRecord
100
AcDbLinetypeTableRecord
  2
DASHED
 70
64
  3
- - - - - - - - - - - - - - - - - - - -
 72
65
 73
2
 40
0.2
 49
0.1
 74
0
 49
-0.1
 74
0
  0
ENDTAB
  0
TABLE
  2
LAYER
  5
2
100
AcDbSymbolTable
 70
36
  0
LAYER
  5
10
100
AcDbSymbolTableRecord
100
AcDbLayerTableRecord
  2
0
 70
0
 62
7
  6
CONTINUOUS
370
-3
390
F
  0
LAYER
  5
1FA
100
AcDbSymbolTableRecord
100
AcDbLayerTableRecord
  2
DEFAULT_1
 70
0
 62
7
  6
CENTER
370
-3
390
F
  0
LAYER
  5
1FB
100
AcDbSymbolTableRecord
100
AcDbLayerTableRecord
  2
DEFAULT_2
 70
0
 62
8
  6
HIDDEN
370
-3
390
F
  0
LAYER
  5
1FC
100
AcDbSymbolTableRecord
100
AcDbLayerTableRecord
  2
DEFAULT_3
 70
0
 62
7
  6
PHANTOM
370
-3
390
F
  0
LAYER
  5
1FD
100
AcDbSymbolTableRecord
100
AcDbLayerTableRecord
  2
ALL_FEATURES
 70
0
 62
7
  6
CONTINUOUS
370
-3
390
F
  0
LAYER
  5
1FE
100
AcDbSymbolTableRecord
100
AcDbLayerTableRecord
  2
AXES_FEATURES
 70
0
 62
7
  6
CONTINUOUS
370
-3
390
F
  0
LAYER
  5
1FF
100
AcDbSymbolTableRecord
100
AcDbLayerTableRecord
  2
DIMENSIONS
 70
0
 62
7
  6
CONTINUOUS
370
-3
390
F
  0
ENDTAB
  0
TABLE
  2
STYLE
  5
3
100
AcDbSymbolTable
 70
1
  0
STYLE
  5
11
100
AcDbSymbolTableRecord
100
AcDbTextStyleTableRecord
  2
STANDARD
 70
0
 40
0.0
 41
0.8
 50
0.0
 71
0
 42
0.2
  3
txt
  4

  0
STYLE
  5
200
100
AcDbSymbolTableRecord
100
AcDbTextStyleTableRecord
  2
TEXTSTYLE_1
 70
0
 40
0.0
 41
0.8
 50
0.0
 71
0
 42
0.2
  3
gdt
  4

  0
ENDTAB
  0
TABLE
  2
VIEW
  5
6
100
AcDbSymbolTable
 70
0
  0
ENDTAB
  0
TABLE
  2
UCS
  5
7
100
AcDbSymbolTable
 70
0
  0
ENDTAB
  0
TABLE
  2
APPID
  5
9
100
AcDbSymbolTable
 70
1
  0
APPID
  5
201
100
AcDbSymbolTableRecord
100
AcDbRegAppTableRecord
  2
ACAD
 70
0
  0
ENDTAB
  0
TABLE
  2
BLOCK_RECORD
  5
1
100
AcDbSymbolTable
 70
0
  0
BLOCK_RECORD
  5
202
100
AcDbSymbolTableRecord
100
AcDbBlockTableRecord
  2
*Model_Space
  0
BLOCK_RECORD
  5
203
100
AcDbSymbolTableRecord
100
AcDbBlockTableRecord
  2
*Paper_Space
  0
BLOCK_RECORD
  5
204
100
AcDbSymbolTableRecord
100
AcDbBlockTableRecord
  2
_FILLED
  0
ENDTAB
  0
TABLE
  2
DIMSTYLE
  5
A
100
AcDbSymbolTable
 70
1
100
AcDbDimStyleTable
 71
0
  0
DIMSTYLE
105
205
100
AcDbSymbolTableRecord
100
AcDbDimStyleTableRecord
  2
STANDARD
 70
0
  3

  4

 40
1.0
 41
0.1
 42
0.0625
 43
0.38
 44
0.125
 45
0.0
 46
0.0
 47
0.001
 48
0.001
140
0.08
141
0.09
142
0.0
143
25.4
144
1.0
145
0.0
146
1.0
147
0.09
 71
1.0
 72
0.0
 73
1
 74
1
 75
0
 76
0
 77
0
 78
4
 79
1
170
1
171
2
172
0
173
0
174
0
175
0
176
0
177
0
178
0
270
2
179
3
271
3
272
3
273
2
274
2
275
0
280
0
281
0
282
0
283
1
284
4
285
0
286
0
287
3
288
0
340
11
278
46
341
204
342
204
343
204
344
204
  0
ENDTAB
  0
ENDSEC
  0
SECTION
  2
BLOCKS
  0
BLOCK
  5
20
100
AcDbEntity
  8
0
100
AcDbBlockBegin
  2
*Model_Space
 70
0
 10
0.0
 20
0.0
 30
0.0
  3
*Model_Space
  1

  0
ENDBLK
  5
21
100
AcDbEntity
  8
0
100
AcDbBlockEnd
  0
BLOCK
  5
1C
100
AcDbEntity
  8
0
100
AcDbBlockBegin
  2
*Paper_Space
 70
0
 10
0.0
 20
0.0
 30
0.0
  3
*Paper_Space
  1

  0
ENDBLK
  5
1D
100
AcDbEntity
  8
0
100
AcDbBlockEnd
  0
BLOCK
  5
206
100
AcDbEntity
  8
0
100
AcDbBlockBegin
  2
_FILLED
 70
64
 10
0.0
 20
0.0
  3
_FILLED
  1

  0
SOLID
  5
207
100
AcDbEntity
  8
0
  6
BYBLOCK
 62
0
100
AcDbTrace
 10
0.0
 20
0.0
 11
-1.0
 21
0.2
 12
-1.0
 22
-0.2
 13
-1.0
 23
-0.2
  0
ENDBLK
  5
208
100
AcDbEntity
  8
0
  6
BYBLOCK
 62
0
100
AcDbBlockEnd
  0
ENDSEC
  0
SECTION
  2
ENTITIES
  0
LWPOLYLINE
  5
209
100
AcDbEntity
  8
0
100
AcDbPolyline
 62
7
  6
CONTINUOUS
 90
51
 70
0
 10
11.3710808353
 20
-5.5013028756
 10
11.4622386741
 20
-5.4875827082
 10
11.5657450472
 20
-5.4328534141
 10
11.6378899894
 20
-5.3543435815
 10
11.681376485
 20
-5.2716014817
 10
11.710105059
 20
-5.1827339875
 10
11.7323024678
 20
-5.0751418222
 10
11.7504344168
 20
-4.9386208495
 10
11.7648292953
 20
-4.7680784256
 10
11.775280457
 20
-4.5647148945
 10
11.7817240703
 20
-4.3382366879
 10
11.7846895403
 20
-4.0951086557
 10
11.7847311927
 20
-3.8400862929
 10
11.7823675297
 20
-3.5779064477
 10
11.7780532342
 20
-3.3095813023
 10
11.7721060552
 20
-3.0358940331
 10
11.7647668379
 20
-2.7577209816
 10
11.7562098799
 20
-2.4748860462
 10
11.7465353863
 20
-2.1862493882
 10
11.7358482983
 20
-1.8918416645
 10
11.7242494437
 20
-1.5920563822
 10
11.7118108004
 20
-1.2868826372
 10
11.6985767177
 20
-0.9759115691
 10
11.6845628086
 20
-0.658317095
 10
11.6697955593
 20
-0.3337026113
 10
11.6543165634
 20
-0.0020790807
 10
11.6381551104
 20
0.3367573936
 10
11.621329736
 20
0.6831885098
 10
11.6038471092
 20
1.0377958374
 10
11.5857103687
 20
1.4011880903
 10
11.5669359867
 20
1.7737027307
 10
11.5475353276
 20
2.1558018977
 10
11.527516573
 20
2.5480533821
 10
11.5068850752
 20
2.9511433151
 10
11.4856463054
 20
3.3658329796
 10
11.463811052
 20
3.7928837149
 10
11.4413892349
 20
4.2332049797
 10
11.4183952682
 20
4.6877927968
 10
11.3948508344
 20
5.157731915
 10
11.3707853849
 20
5.6442604489
 10
11.346225299
 20
6.1490998792
 10
11.3212157047
 20
6.6741593205
 10
11.2958354652
 20
7.2214137493
 10
11.2701990153
 20
7.7931156162
 10
11.2444401567
 20
8.3926571708
 10
11.2187847409
 20
9.0237319961
 10
11.193603614
 20
9.6902118545
 10
11.1693847526
 20
10.3993907048
 10
11.1470041478
 20
11.1604549629
 10
11.1281119835
 20
11.9822877325
 10
11.1160427625
 20
12.8183067087
  0
LINE
  5
20A
100
AcDbEntity
  8
0
100
AcDbLine
 62
7
  6
CONTINUOUS
 10
11.371165156
 20
-5.5013029934
 11
11.3710808353
 21
-5.5013028756
  0
LWPOLYLINE
  5
20B
100
AcDbEntity
  8
0
100
AcDbPolyline
 62
7
  6
CONTINUOUS
 90
5
 70
0
 10
9.6837458087
 20
22.993811502
 10
9.6821564298
 20
22.9929640091
 10
9.6794999786
 20
22.9901278081
 10
9.6780138114
 20
22.9867890336
 10
9.6770395384
 20
22.9827554689
  0
LWPOLYLINE
  5
20C
100
AcDbEntity
  8
0
100
AcDbPolyline
 62
7
  6
CONTINUOUS
 90
4
 70
0
 10
9.6969799067
 20
22.9991052709
 10
9.6958013264
 20
22.9985939052
 10
9.6875294102
 20
22.9921537922
 10
9.6818873571
 20
22.9827616549
  0
LWPOLYLINE
  5
20D
100
AcDbEntity
  8
0
100
AcDbPolyline
 62
7
  6
CONTINUOUS
 90
4
 70
0
 10
9.6969799067
 20
22.7091052709
 10
9.6958013264
 20
22.7085939052
 10
9.6875294102
 20
22.7021537922
 10
9.6818873571
 20
22.6927616549
  0
LWPOLYLINE
  5
20E
100
AcDbEntity
  8
0
100
AcDbPolyline
 62
7
  6
CONTINUOUS
 90
4
 70
0
 10
9.6969799067
 20
22.4191052709
 10
9.6958013384
 20
22.4185939108
 10
9.6875294179
 20
22.4121538012
 10
9.6818873605
 20
22.4027616628
  0
LINE
  5
20F
100
AcDbEntity
  8
0
100
AcDbLine
 62
7
  6
CONTINUOUS
 10
9.6837325028
 20
22.9938063142
 11
9.7249834891
 21
23.0103067087
  0
LINE
  5
210
100
AcDbEntity
  8
0
100
AcDbLine
 62
7
  6
CONTINUOUS
 10
9.6837325028
 20
22.7038063142
 11
9.7249834891
 21
22.7203067087
  0
LINE
  5
211
100
AcDbEntity
  8
0
100
AcDbLine
 62
7
  6
CONTINUOUS
 10
9.6837325028
 20
22.4138063142
 11
9.7249834891
 21
22.4303067087
  0
LINE
  5
212
100
AcDbEntity
  8
0
100
AcDbLine
 62
7
  6
CONTINUOUS
 10
9.6837457389
 20
22.9938114822
 11
9.6837324043
 21
22.9938062748
  0
LINE
  5
213
100
AcDbEntity
  8
0
100
AcDbLine
 62
7
  6
CONTINUOUS
 10
9.6837457389
 20
22.7038114822
 11
9.6837324043
 21
22.7038062748
  0
LINE
  5
214
100
AcDbEntity
  8
0
100
AcDbLine
 62
7
  6
CONTINUOUS
 10
9.6837457389
 20
22.4138114822
 11
9.6837324043
 21
22.4138062748
  0
LINE
  5
215
100
AcDbEntity
  8
0
100
AcDbLine
 62
7
  6
CONTINUOUS
 10
9.6837457389
 20
22.1238114822
 11
9.6837324043
 21
22.1238062748
  0
LWPOLYLINE
  5
216
100
AcDbEntity
  8
0
100
AcDbPolyline
 62
7
  6
CONTINUOUS
 90
5
 70
0
 10
9.6837458087
 20
22.703811502
 10
9.6821564298
 20
22.7029640091
 10
9.6794999786
 20
22.7001278081
 10
9.6780138114
 20
22.6967890336
 10
9.6770395384
 20
22.6927554689
  0
LWPOLYLINE
  5
217
100
AcDbEntity
  8
0
100
AcDbPolyline
 62
7
  6
CONTINUOUS
 90
5
 70
0
 10
9.6837458087
 20
22.413811502
 10
9.6821564298
 20
22.4129640091
 10
9.6794999786
 20
22.4101278081
 10
9.6780138114
 20
22.4067890336
 10
9.6770395384
 20
22.4027554689
  0
LWPOLYLINE
  5
218
100
AcDbEntity
  8
0
100
AcDbPolyline
 62
7
  6
CONTINUOUS
 90
5
 70
0
 10
9.6837458087
 20
22.123811502
 10
9.6821564298
 20
22.1229640091
 10
9.6794999786
 20
22.1201278081
 10
9.6780138114
 20
22.1167890336
 10
9.6770395384
 20
22.1127554689
  0
LWPOLYLINE
  5
219
100
AcDbEntity
  8
0
100
AcDbPolyline
 62
7
  6
CONTINUOUS
 90
5
 70
0
 10
9.6837458087
 20
21.833811502
 10
9.6821564298
 20
21.8329640091
 10
9.6794999786
 20
21.8301278081
 10
9.6780138114
 20
21.8267890336
 10
9.6770395384
 20
21.8227554689
  0
LWPOLYLINE
  5
21A
100
AcDbEntity
  8
0
100
AcDbPolyline
 62
7
  6
CONTINUOUS
 90
4
 70
0
 10
9.6969799067
 20
22.1291052709
 10
9.6958013264
 20
22.1285939052
 10
9.6875294103
 20
22.1221537922
 10
9.6818873572
 20
22.1127616549
  0
LWPOLYLINE
  5
21B
100
AcDbEntity
  8
0
100
AcDbPolyline
 62
7
  6
CONTINUOUS
 90
4
 70
0
 10
9.6969799067
 20
21.8391052709
 10
9.6958013449
 20
21.8385939138
 10
9.6875294221
 20
21.8321538061
 10
9.6818873623
 20
21.8227616671
  0
LWPOLYLINE
  5
21C
100
AcDbEntity
  8
0
100
AcDbPolyline
 62
7
  6
CONTINUOUS
 90
4
 70
0
 10
9.6969799067
 20
21.5491052709
 10
9.6958013449
 20
21.5485939138
 10
9.6875294221
 20
21.5421538061
 10
9.6818873623
 20
21.5327616671
  0
LWPOLYLINE
  5
21D
100
AcDbEntity
  8
0
100
AcDbPolyline
 62
7
  6
CONTINUOUS
 90
4
 70
0
 10
9.6969799067
 20
21.2591052709
 10
9.6958013449
 20
21.2585939138
 10
9.6875294221
 20
21.2521538061
 10
9.6818873623
 20
21.2427616671
  0
LINE
  5
21E
100
AcDbEntity
  8
0
100
AcDbLine
 62
7
  6
CONTINUOUS
 10
9.6837325028
 20
22.1238063142
 11
9.7249834891
 21
22.1403067087
  0
LINE
  5
21F
100
AcDbEntity
  8
0
100
AcDbLine
 62
7
  6
CONTINUOUS
 10
9.6837325028
 20
21.8338063142
 11
9.7249834891
 21
21.8503067087
  0
LINE
  5
220
100
AcDbEntity
  8
0
100
AcDbLine
 62
7
  6
CONTINUOUS
 10
9.6837325028
 20
21.5438063142
 11
9.7249834891
 21
21.5603067087
  0
LINE
  5
221
100
AcDbEntity
  8
0
100
AcDbLine
 62
7
  6
CONTINUOUS
 10
9.6837325028
 20
21.2538063142
 11
9.7249834891
 21
21.2703067087
  0
LINE
  5
222
100
AcDbEntity
  8
0
100
AcDbLine
 62
7
  6
CONTINUOUS
 10
9.6837457389
 20
21.8338114822
 11
9.6837324043
 21
21.8338062748
  0
LINE
  5
223
100
AcDbEntity
  8
0
100
AcDbLine
 62
7
  6
CONTINUOUS
 10
9.6837457389
 20
21.5438114822
 11
9.6837324043
 21
21.5438062748
  0
LINE
  5
224
100
AcDbEntity
  8
0
100
AcDbLine
 62
7
  6
CONTINUOUS
 10
9.6837457389
 20
21.2538114822
 11
9.6837324043
 21
21.2538062748
  0
LWPOLYLINE
  5
225
100
AcDbEntity
  8
0
100
AcDbPolyline
 62
7
  6
CONTINUOUS
 90
5
 70
0
 10
9.6837458087
 20
21.543811502
 10
9.6821564298
 20
21.5429640091
 10
9.6794999786
 20
21.5401278081
 10
9.6780138114
 20
21.5367890336
 10
9.6770395384
 20
21.5327554689
  0
LWPOLYLINE
  5
226
100
AcDbEntity
  8
0
100
AcDbPolyline
 62
7
  6
CONTINUOUS
 90
5
 70
0
 10
9.6837458087
 20
21.253811502
 10
9.6821564298
 20
21.2529640091
 10
9.6794999786
 20
21.2501278081
 10
9.6780138114
 20
21.2467890336
 10
9.6770395384
 20
21.2427554689
  0
LWPOLYLINE
  5
227
100
AcDbEntity
  8
0
100
AcDbPolyline
 62
7
  6
CONTINUOUS
 90
5
 70
0
 10
9.6837458087
 20
20.963811502
 10
9.6821564298
 20
20.9629640091
 10
9.6794999786
 20
20.9601278081
 10
9.6780138114
 20
20.9567890336
 10
9.6770395384
 20
20.9527554689
  0
LWPOLYLINE
  5
228
100
AcDbEntity
  8
0
100
AcDbPolyline
 62
7
  6
CONTINUOUS
 90
5
 70
0
 10
9.6837458087
 20
20.673811502
 10
9.6821564298
 20
20.6729640091
 10
9.6794999786
 20
20.6701278081
 10
9.6780138114
 20
20.6667890336
 10
9.6770395384
 20
20.6627554689
  0
LWPOLYLINE
  5
229
100
AcDbEntity
  8
0
100
AcDbPolyline
 62
7
  6
CONTINUOUS
 90
4
 70
0
 10
9.6969799067
 20
20.9691052709
 10
9.695801347
 20
20.9685939148
 10
9.6875294235
 20
20.9621538077
 10
9.6818873628
 20
20.9527616685
  0
LWPOLYLINE
  5
22A
100
AcDbEntity
  8
0
100
AcDbPolyline
 62
7
  6
CONTINUOUS
 90
4
 70
0
 10
9.6969799067
 20
20.6791052709
 10
9.6958013264
 20
20.6785939052
 10
9.6875294103
 20
20.6721537922
 10
9.6818873572
 20
20.6627616549
  0
LWPOLYLINE
  5
22B
100
AcDbEntity
  8
0
100
AcDbPolyline
 62
7
  6
CONTINUOUS
 90
4
 70
0
 10
9.6969799067
 20
20.3891052709
 10
9.6958013264
 20
20.3885939052
 10
9.6875294103
 20
20.3821537922
 10
9.6818873572
 20
20.372761655
  0
LINE
  5
22C
100
AcDbEntity
  8
0
100
AcDbLine
 62
7
  6
CONTINUOUS
 10
9.6837325028
 20
20.9638063142
 11
9.7249834891
 21
20.9803067087
  0
LINE
  5
22D
100
AcDbEntity
  8
0
100
AcDbLine
 62
7
  6
CONTINUOUS
 10
9.6837325028
 20
20.6738063142
 11
9.7249834891
 21
20.6903067087
  0
LINE
  5
22E
100
AcDbEntity
  8
0
100
AcDbLine
 62
7
  6
CONTINUOUS
 10
9.6837325028
 20
20.3838063142
 11
9.7249834891
 21
20.4003067087
  0
LINE
  5
22F
100
AcDbEntity
  8
0
100
AcDbLine
 62
7
  6
CONTINUOUS
 10
9.6837325028
 20
20.0938063142
 11
9.7249834891
 21
20.1103067087
  0
LINE
  5
230
100
AcDbEntity
  8
0
100
AcDbLine
 62
7
  6
CONTINUOUS
 10
9.6837457389
 20
20.9638114822
 11
9.6837324043
 21
20.9638062748
  0
LINE
  5
231
100
AcDbEntity
  8
0
100
AcDbLine
 62
7
  6
CONTINUOUS
 10
9.6837457389
 20
20.6738114822
 11
9.6837324043
 21
20.6738062748
  0
LINE
  5
232
100
AcDbEntity
  8
0
100
AcDbLine
 62
7
  6
CONTINUOUS
 10
9.6837457389
 20
20.3838114822
 11
9.6837324043
 21
20.3838062748
  0
LINE
  5
233
100
AcDbEntity
  8
0
100
AcDbLine
 62
7
  6
CONTINUOUS
 10
9.6837457389
 20
20.0938114822
 11
9.6837324043
 21
20.0938062748
  0
LWPOLYLINE
  5
234
100
AcDbEntity
  8
0
100
AcDbPolyline
 62
7
  6
CONTINUOUS
 90
5
 70
0
 10
9.6837458087
 20
20.383811502
 10
9.6821564298
 20
20.3829640091
 10
9.6794999786
 20
20.3801278081
 10
9.6780138114
 20
20.3767890336
 10
9.6770395384
 20
20.3727554689
  0
LWPOLYLINE
  5
235
100
AcDbEntity
  8
0
100
AcDbPolyline
 62
7
  6
CONTINUOUS
 90
5
 70
0
 10
9.6837458087
 20
20.093811502
 10
9.6821564298
 20
20.0929640091
 10
9.6794999786
 20
20.0901278081
 10
9.6780138114
 20
20.0867890336
 10
9.6770395384
 20
20.0827554689
  0
LWPOLYLINE
  5
236
100
AcDbEntity
  8
0
100
AcDbPolyline
 62
7
  6
CONTINUOUS
 90
4
 70
0
 10
9.6969799067
 20
20.0991052709
 10
9.6958013264
 20
20.0985939052
 10
9.6875294103
 20
20.0921537922
 10
9.6818873572
 20
20.082761655
  0
LWPOLYLINE
  5
237
100
AcDbEntity
  8
0
100
AcDbPolyline
 62
7
  6
CONTINUOUS
 90
5
 70
0
 10
11.0912044802
 20
-5.3454613456
 10
11.1292478538
 20
-5.3917503908
 10
11.1924323822
 20
-5.4457585692
 10
11.2825769526
 20
-5.4884260163
 10
11.371165156
 20
-5.5013029934
  0
LINE
  5
238
100
AcDbEntity
  8
0
100
AcDbLine
 62
7
  6
CONTINUOUS
 10
10.2492880362
 20
-4.1827466617
 11
11.0915283906
 21
-5.3459096339
  0
LINE
  5
239
100
AcDbEntity
  8
0
100
AcDbLine
 62
7
  6
CONTINUOUS
 10
10.7028648998
 20
-3.8543139764
 11
11.2148458213
 21
-4.5613772834
  0
LWPOLYLINE
  5
23A
100
AcDbEntity
  8
0
100
AcDbPolyline
 62
7
  6
CONTINUOUS
 90
8
 70
0
 10
9.6818873571
 20
22.9827616549
 10
9.6787251254
 20
22.9718071655
 10
9.6777242095
 20
22.9602320745
 10
9.6787642839
 20
22.9485914983
 10
9.6819451072
 20
22.937715799
 10
9.6875322014
 20
22.9284566766
 10
9.695815873
 20
22.922012684
 10
9.6969803468
 20
22.921507934
  0
LWPOLYLINE
  5
23B
100
AcDbEntity
  8
0
100
AcDbPolyline
 62
7
  6
CONTINUOUS
 90
8
 70
0
 10
9.6818873571
 20
22.6927616549
 10
9.6787251254
 20
22.6818071655
 10
9.6777242095
 20
22.6702320745
 10
9.6787642839
 20
22.6585914983
 10
9.6819451072
 20
22.647715799
 10
9.6875322014
 20
22.6384566766
 10
9.695815873
 20
22.632012684
 10
9.6969803468
 20
22.631507934
  0
LWPOLYLINE
  5
23C
100
AcDbEntity
  8
0
100
AcDbPolyline
 62
7
  6
CONTINUOUS
 90
8
 70
0
 10
9.6818873605
 20
22.4027616628
 10
9.6787251271
 20
22.3918071752
 10
9.6777242095
 20
22.3802320937
 10
9.6787642807
 20
22.3685915155
 10
9.6819451053
 20
22.3577158036
 10
9.6875322079
 20
22.3484566689
 10
9.6958158863
 20
22.3420126778
 10
9.6969803468
 20
22.341507934
  0
LWPOLYLINE
  5
23D
100
AcDbEntity
  8
0
100
AcDbPolyline
 62
7
  6
CONTINUOUS
 90
8
 70
0
 10
9.6818873572
 20
22.1127616549
 10
9.6787251254
 20
22.1018071655
 10
9.6777242095
 20
22.0902320745
 10
9.6787642839
 20
22.0785914983
 10
9.6819451072
 20
22.067715799
 10
9.6875322014
 20
22.0584566766
 10
9.695815873
 20
22.052012684
 10
9.6969803468
 20
22.051507934
  0
LWPOLYLINE
  5
23E
100
AcDbEntity
  8
0
100
AcDbPolyline
 62
7
  6
CONTINUOUS
 90
8
 70
0
 10
9.6818873623
 20
21.8227616671
 10
9.6787251281
 20
21.8118071805
 10
9.6777242095
 20
21.8002321041
 10
9.678764279
 20
21.7885915249
 10
9.6819451042
 20
21.7777158062
 10
9.6875322115
 20
21.7684566648
 10
9.6958158937
 20
21.7620126743
 10
9.6969803468
 20
21.761507934
  0
LWPOLYLINE
  5
23F
100
AcDbEntity
  8
0
100
AcDbPolyline
 62
7
  6
CONTINUOUS
 90
8
 70
0
 10
9.6818873623
 20
21.5327616671
 10
9.6787251281
 20
21.5218071805
 10
9.6777242095
 20
21.5102321041
 10
9.678764279
 20
21.4985915249
 10
9.6819451042
 20
21.4877158062
 10
9.6875322115
 20
21.4784566648
 10
9.6958158937
 20
21.4720126743
 10
9.6969803468
 20
21.471507934
  0
LWPOLYLINE
  5
240
100
AcDbEntity
  8
0
100
AcDbPolyline
 62
7
  6
CONTINUOUS
 90
8
 70
0
 10
9.6818873623
 20
21.2427616671
 10
9.6787251281
 20
21.2318071805
 10
9.6777242095
 20
21.2202321041
 10
9.678764279
 20
21.2085915249
 10
9.6819451042
 20
21.1977158062
 10
9.6875322115
 20
21.1884566648
 10
9.6958158936
 20
21.1820126744
 10
9.6969803468
 20
21.181507934
  0
LWPOLYLINE
  5
241
100
AcDbEntity
  8
0
100
AcDbPolyline
 62
7
  6
CONTINUOUS
 90
8
 70
0
 10
9.6818873628
 20
20.9527616685
 10
9.6787251284
 20
20.9418071823
 10
9.6777242095
 20
20.9302321076
 10
9.6787642784
 20
20.9185915281
 10
9.6819451038
 20
20.9077158071
 10
9.6875322127
 20
20.8984566634
 10
9.695815896
 20
20.8920126732
 10
9.6969803468
 20
20.891507934
  0
LWPOLYLINE
  5
242
100
AcDbEntity
  8
0
100
AcDbPolyline
 62
7
  6
CONTINUOUS
 90
8
 70
0
 10
9.6818873572
 20
20.6627616549
 10
9.6787251254
 20
20.6518071655
 10
9.6777242095
 20
20.6402320745
 10
9.6787642839
 20
20.6285914983
 10
9.6819451072
 20
20.617715799
 10
9.6875322014
 20
20.6084566766
 10
9.695815873
 20
20.602012684
 10
9.6969803468
 20
20.601507934
  0
LWPOLYLINE
  5
243
100
AcDbEntity
  8
0
100
AcDbPolyline
 62
7
  6
CONTINUOUS
 90
8
 70
0
 10
9.6818873572
 20
20.372761655
 10
9.6787251254
 20
20.3618071656
 10
9.6777242095
 20
20.3502320746
 10
9.6787642839
 20
20.3385914983
 10
9.6819451072
 20
20.327715799
 10
9.6875322014
 20
20.3184566766
 10
9.6958158729
 20
20.312012684
 10
9.6969803468
 20
20.311507934
  0
LWPOLYLINE
  5
244
100
AcDbEntity
  8
0
100
AcDbPolyline
 62
7
  6
CONTINUOUS
 90
8
 70
0
 10
9.6818873572
 20
20.082761655
 10
9.6787251254
 20
20.0718071655
 10
9.6777242095
 20
20.0602320745
 10
9.6787642839
 20
20.0485914983
 10
9.6819451072
 20
20.037715799
 10
9.6875322014
 20
20.0284566766
 10
9.695815873
 20
20.022012684
 10
9.6969803468
 20
20.021507934
  0
LINE
  5
245
100
AcDbEntity
  8
0
100
AcDbLine
 62
7
  6
CONTINUOUS
 10
10.4659834891
 20
14.3318067087
 11
10.4624834891
 21
14.3283067087
  0
LINE
  5
246
100
AcDbEntity
  8
0
100
AcDbLine
 62
7
  6
CONTINUOUS
 10
10.3980078416
 20
14.3283067087
 11
10.3818614332
 21
14.3169665202
  0
LWPOLYLINE
  5
247
100
AcDbEntity
  8
0
100
AcDbPolyline
 62
7
  6
CONTINUOUS
 90
3
 70
0
 10
9.6770395384
 20
22.9827554689
 10
9.6763179963
 20
22.9775455655
 10
9.6758258952
 20
22.971102924
  0
LWPOLYLINE
  5
248
100
AcDbEntity
  8
0
100
AcDbPolyline
 62
7
  6
CONTINUOUS
 90
3
 70
0
 10
9.6770395384
 20
22.6927554689
 10
9.6763179963
 20
22.6875455655
 10
9.6758258952
 20
22.681102924
  0
LWPOLYLINE
  5
249
100
AcDbEntity
  8
0
100
AcDbPolyline
 62
7
  6
CONTINUOUS
 90
3
 70
0
 10
9.6770395384
 20
22.4027554689
 10
9.6763179963
 20
22.3975455655
 10
9.6758258952
 20
22.391102924
  0
LWPOLYLINE
  5
24A
100
AcDbEntity
  8
0
100
AcDbPolyline
 62
7
  6
CONTINUOUS
 90
3
 70
0
 10
9.6770395384
 20
22.1127554689
 10
9.6763179963
 20
22.1075455655
 10
9.6758258952
 20
22.101102924
  0
LINE
  5
24B
100
AcDbEntity
  8
0
100
AcDbLine
 62
7
  6
CONTINUOUS
 10
11.2881055451
 20
13.8296468973
 11
11.2719591367
 21
13.8183067087
  0
LINE
  5
24C
100
AcDbEntity
  8
0
100
AcDbLine
 62
7
  6
CONTINUOUS
 10
8.6849834891
 20
14.0453067086
 11
8.6849834891
 21
14.5553067089
  0
LINE
  5
24D
100
AcDbEntity
  8
0
100
AcDbLine
 62
9
  6
CONTINUOUS
 10
8.7149834891
 20
14.5853067087
 11
8.7149834891
 21
14.0153067087
  0
LWPOLYLINE
  5
24E
100
AcDbEntity
  8
0
100
AcDbPolyline
 62
7
  6
CONTINUOUS
 90
4
 70
0
 10
9.6764921866
 20
22.9788866536
 10
9.6760913728
 20
22.9750891917
 10
9.6757392574
 20
22.9692948372
 10
9.6755683906
 20
22.9628269267
  0
LWPOLYLINE
  5
24F
100
AcDbEntity
  8
0
100
AcDbPolyline
 62
7
  6
CONTINUOUS
 90
3
 70
0
 10
9.6764921866
 20
22.6888866536
 10
9.6760913728
 20
22.6850891917
 10
9.6757392574
 20
22.6792948372
  0
LWPOLYLINE
  5
250
100
AcDbEntity
  8
0
100
AcDbPolyline
 62
7
  6
CONTINUOUS
 90
4
 70
0
 10
9.6764921866
 20
22.3988866536
 10
9.6760913728
 20
22.3950891917
 10
9.6757392574
 20
22.3892948372
 10
9.6755683906
 20
22.3828269267
  0
LWPOLYLINE
  5
251
100
AcDbEntity
  8
0
100
AcDbPolyline
 62
7
  6
CONTINUOUS
 90
3
 70
0
 10
9.6764921866
 20
22.1088866536
 10
9.6760913728
 20
22.1050891917
 10
9.6757392574
 20
22.0992948372
  0
LWPOLYLINE
  5
252
100
AcDbEntity
  8
0
100
AcDbPolyline
 62
7
  6
CONTINUOUS
 90
3
 70
0
 10
9.6764921866
 20
21.8188866536
 10
9.6760913728
 20
21.8150891917
 10
9.6757392574
 20
21.8092948372
  0
LWPOLYLINE
  5
253
100
AcDbEntity
  8
0
100
AcDbPolyline
 62
7
  6
CONTINUOUS
 90
3
 70
0
 10
9.6764921866
 20
21.5288866536
 10
9.6760913728
 20
21.5250891917
 10
9.6757392574
 20
21.5192948372
  0
LWPOLYLINE
  5
254
100
AcDbEntity
  8
0
100
AcDbPolyline
 62
7
  6
CONTINUOUS
 90
3
 70
0
 10
9.6764922613
 20
21.2388873614
 10
9.6760913728
 20
21.2350891917
 10
9.6757392574
 20
21.2292948372
  0
LWPOLYLINE
  5
255
100
AcDbEntity
  8
0
100
AcDbPolyline
 62
7
  6
CONTINUOUS
 90
4
 70
0
 10
9.6764922613
 20
20.9488873614
 10
9.6760913728
 20
20.9450891917
 10
9.6757392574
 20
20.9392948372
 10
9.6755683906
 20
20.9328269267
  0
LWPOLYLINE
  5
256
100
AcDbEntity
  8
0
100
AcDbPolyline
 62
7
  6
CONTINUOUS
 90
3
 70
0
 10
9.6764922613
 20
20.6588873614
 10
9.6760913728
 20
20.6550891917
 10
9.6757392574
 20
20.6492948372
  0
LWPOLYLINE
  5
257
100
AcDbEntity
  8
0
100
AcDbPolyline
 62
7
  6
CONTINUOUS
 90
4
 70
0
 10
9.6764922613
 20
20.3688873614
 10
9.6760913728
 20
20.3650891917
 10
9.6757392574
 20
20.3592948372
 10
9.6755683906
 20
20.3528269267
  0
LWPOLYLINE
  5
258
100
AcDbEntity
  8
0
100
AcDbPolyline
 62
7
  6
CONTINUOUS
 90
3
 70
0
 10
9.6764922613
 20
20.0788873614
 10
9.6760913728
 20
20.0750891917
 10
9.6757392574
 20
20.0692948372
  0
LWPOLYLINE
  5
259
100
AcDbEntity
  8
0
100
AcDbPolyline
 62
7
  6
CONTINUOUS
 90
3
 70
0
 10
9.6770395384
 20
21.8227554689
 10
9.6763179963
 20
21.8175455655
 10
9.6758258952
 20
21.811102924
  0
LWPOLYLINE
  5
25A
100
AcDbEntity
  8
0
100
AcDbPolyline
 62
7
  6
CONTINUOUS
 90
3
 70
0
 10
9.6770395384
 20
21.5327554689
 10
9.6763179963
 20
21.5275455655
 10
9.6758258952
 20
21.521102924
  0
LWPOLYLINE
  5
25B
100
AcDbEntity
  8
0
100
AcDbPolyline
 62
7
  6
CONTINUOUS
 90
3
 70
0
 10
9.6770395384
 20
21.2427554689
 10
9.6763179963
 20
21.2375455655
 10
9.6758258952
 20
21.231102924
  0
LWPOLYLINE
  5
25C
100
AcDbEntity
  8
0
100
AcDbPolyline
 62
7
  6
CONTINUOUS
 90
3
 70
0
 10
9.6770395384
 20
20.9527554689
 10
9.6763179963
 20
20.9475455655
 10
9.6758258952
 20
20.941102924
  0
LWPOLYLINE
  5
25D
100
AcDbEntity
  8
0
100
AcDbPolyline
 62
7
  6
CONTINUOUS
 90
3
 70
0
 10
9.6770395384
 20
20.6627554689
 10
9.6763179963
 20
20.6575455655
 10
9.6758258952
 20
20.651102924
  0
LWPOLYLINE
  5
25E
100
AcDbEntity
  8
0
100
AcDbPolyline
 62
7
  6
CONTINUOUS
 90
3
 70
0
 10
9.6770395384
 20
20.3727554689
 10
9.6763179963
 20
20.3675455655
 10
9.6758258952
 20
20.361102924
  0
LWPOLYLINE
  5
25F
100
AcDbEntity
  8
0
100
AcDbPolyline
 62
7
  6
CONTINUOUS
 90
3
 70
0
 10
9.6770395384
 20
20.0827554689
 10
9.6763179963
 20
20.0775455655
 10
9.6758258952
 20
20.071102924
  0
LINE
  5
260
100
AcDbEntity
  8
0
100
AcDbLine
 62
7
  6
CONTINUOUS
 10
9.6755542972
 20
20.0603067092
 11
9.6755683906
 21
20.0577864907
  0
LINE
  5
261
100
AcDbEntity
  8
0
100
AcDbLine
 62
7
  6
CONTINUOUS
 10
9.6755542972
 20
20.3503067092
 11
9.6755683906
 21
20.3477864907
  0
LINE
  5
262
100
AcDbEntity
  8
0
100
AcDbLine
 62
7
  6
CONTINUOUS
 10
9.6755542972
 20
20.6403067092
 11
9.6755683906
 21
20.6377864907
  0
LINE
  5
263
100
AcDbEntity
  8
0
100
AcDbLine
 62
7
  6
CONTINUOUS
 10
9.6755542972
 20
20.9303067092
 11
9.6755683906
 21
20.9277864907
  0
LINE
  5
264
100
AcDbEntity
  8
0
100
AcDbLine
 62
7
  6
CONTINUOUS
 10
9.6755542972
 20
21.2203067092
 11
9.6755683906
 21
21.2177864907
  0
LINE
  5
265
100
AcDbEntity
  8
0
100
AcDbLine
 62
7
  6
CONTINUOUS
 10
9.6755542972
 20
21.5103067092
 11
9.6755683906
 21
21.5077864907
  0
LINE
  5
266
100
AcDbEntity
  8
0
100
AcDbLine
 62
7
  6
CONTINUOUS
 10
9.6755542972
 20
21.8003067092
 11
9.6755683906
 21
21.7977864907
  0
LINE
  5
267
100
AcDbEntity
  8
0
100
AcDbLine
 62
7
  6
CONTINUOUS
 10
9.6755542972
 20
22.0903067092
 11
9.6755683906
 21
22.0877864907
  0
LINE
  5
268
100
AcDbEntity
  8
0
100
AcDbLine
 62
7
  6
CONTINUOUS
 10
9.6755542972
 20
22.3803067092
 11
9.6755683906
 21
22.3777864907
  0
LINE
  5
269
100
AcDbEntity
  8
0
100
AcDbLine
 62
7
  6
CONTINUOUS
 10
9.6755542972
 20
22.6703067092
 11
9.6755683906
 21
22.6677864907
  0
LINE
  5
26A
100
AcDbEntity
  8
0
100
AcDbLine
 62
7
  6
CONTINUOUS
 10
9.6755542972
 20
22.9603067092
 11
9.6755683906
 21
22.9577864907
  0
LINE
  5
26B
100
AcDbEntity
  8
0
100
AcDbLine
 62
7
  6
CONTINUOUS
 10
9.4199834891
 20
15.3903067087
 11
9.4199834891
 21
15.0803067087
  0
LINE
  5
26C
100
AcDbEntity
  8
0
100
AcDbLine
 62
7
  6
CONTINUOUS
 10
9.4199834891
 20
13.5203067087
 11
9.4199834891
 21
13.2103067087
  0
LINE
  5
26D
100
AcDbEntity
  8
0
100
AcDbLine
 62
7
  6
CONTINUOUS
 10
9.4749834891
 20
15.0403067087
 11
9.4749834891
 21
14.5853067087
  0
LINE
  5
26E
100
AcDbEntity
  8
0
100
AcDbLine
 62
7
  6
CONTINUOUS
 10
9.4749834891
 20
14.0153067087
 11
9.4749834891
 21
13.5603067087
  0
LINE
  5
26F
100
AcDbEntity
  8
0
100
AcDbLine
 62
9
  6
CONTINUOUS
 10
9.7199834891
 20
14.0153067087
 11
9.7199834891
 21
14.0453067087
  0
LINE
  5
270
100
AcDbEntity
  8
0
100
AcDbLine
 62
9
  6
CONTINUOUS
 10
9.7199834891
 20
14.5553067087
 11
9.7199834891
 21
14.5853067087
  0
LINE
  5
271
100
AcDbEntity
  8
0
100
AcDbLine
 62
7
  6
CONTINUOUS
 10
9.7249834891
 20
23.0103067087
 11
9.7249834891
 21
22.9754911197
  0
LINE
  5
272
100
AcDbEntity
  8
0
100
AcDbLine
 62
7
  6
CONTINUOUS
 10
9.7249834891
 20
22.9451222876
 11
9.7249834891
 21
22.9103067087
  0
LINE
  5
273
100
AcDbEntity
  8
0
100
AcDbLine
 62
7
  6
CONTINUOUS
 10
9.7249834891
 20
22.7203067087
 11
9.7249834891
 21
22.6854911862
  0
LINE
  5
274
100
AcDbEntity
  8
0
100
AcDbLine
 62
7
  6
CONTINUOUS
 10
9.7249834891
 20
22.6551222092
 11
9.7249834891
 21
22.6203067087
  0
LINE
  5
275
100
AcDbEntity
  8
0
100
AcDbLine
 62
7
  6
CONTINUOUS
 10
9.7249834891
 20
22.4303067087
 11
9.7249834891
 21
22.3954911867
  0
LINE
  5
276
100
AcDbEntity
  8
0
100
AcDbLine
 62
7
  6
CONTINUOUS
 10
9.7249834891
 20
22.365122225
 11
9.7249834891
 21
22.3303067087
  0
LINE
  5
277
100
AcDbEntity
  8
0
100
AcDbLine
 62
7
  6
CONTINUOUS
 10
9.7249834891
 20
22.1403067087
 11
9.7249834891
 21
22.1054911638
  0
LINE
  5
278
100
AcDbEntity
  8
0
100
AcDbLine
 62
7
  6
CONTINUOUS
 10
9.7249834891
 20
22.0751222267
 11
9.7249834891
 21
22.0403067087
  0
LINE
  5
279
100
AcDbEntity
  8
0
100
AcDbLine
 62
7
  6
CONTINUOUS
 10
9.7249834891
 20
21.8503067087
 11
9.7249834891
 21
21.8154911867
  0
LINE
  5
27A
100
AcDbEntity
  8
0
100
AcDbLine
 62
7
  6
CONTINUOUS
 10
9.7249834891
 20
21.785122225
 11
9.7249834891
 21
21.7503067087
  0
LINE
  5
27B
100
AcDbEntity
  8
0
100
AcDbLine
 62
7
  6
CONTINUOUS
 10
9.7249834891
 20
21.5603067087
 11
9.7249834891
 21
21.5254911867
  0
LINE
  5
27C
100
AcDbEntity
  8
0
100
AcDbLine
 62
7
  6
CONTINUOUS
 10
9.7249834891
 20
21.495122225
 11
9.7249834891
 21
21.4603067087
  0
LINE
  5
27D
100
AcDbEntity
  8
0
100
AcDbLine
 62
7
  6
CONTINUOUS
 10
9.7249834891
 20
21.2703067087
 11
9.7249834891
 21
21.2354911867
  0
LINE
  5
27E
100
AcDbEntity
  8
0
100
AcDbLine
 62
7
  6
CONTINUOUS
 10
9.7249834891
 20
21.205122225
 11
9.7249834891
 21
21.1703067087
  0
LINE
  5
27F
100
AcDbEntity
  8
0
100
AcDbLine
 62
7
  6
CONTINUOUS
 10
9.7249834891
 20
20.9803067087
 11
9.7249834891
 21
20.9454911867
  0
LINE
  5
280
100
AcDbEntity
  8
0
100
AcDbLine
 62
7
  6
CONTINUOUS
 10
9.7249834891
 20
20.915122225
 11
9.7249834891
 21
20.8803067087
  0
LINE
  5
281
100
AcDbEntity
  8
0
100
AcDbLine
 62
7
  6
CONTINUOUS
 10
9.7249834891
 20
20.6903067087
 11
9.7249834891
 21
20.6554911638
  0
LINE
  5
282
100
AcDbEntity
  8
0
100
AcDbLine
 62
7
  6
CONTINUOUS
 10
9.7249834891
 20
20.6251222267
 11
9.7249834891
 21
20.5903067087
  0
LINE
  5
283
100
AcDbEntity
  8
0
100
AcDbLine
 62
7
  6
CONTINUOUS
 10
9.7249834891
 20
20.4003067087
 11
9.7249834891
 21
20.3654911862
  0
LINE
  5
284
100
AcDbEntity
  8
0
100
AcDbLine
 62
7
  6
CONTINUOUS
 10
9.7249834891
 20
20.3351222092
 11
9.7249834891
 21
20.3003067087
  0
LINE
  5
285
100
AcDbEntity
  8
0
100
AcDbLine
 62
7
  6
CONTINUOUS
 10
9.7249834891
 20
20.1103067087
 11
9.7249834891
 21
20.0754911157
  0
LINE
  5
286
100
AcDbEntity
  8
0
100
AcDbLine
 62
7
  6
CONTINUOUS
 10
9.7249834891
 20
20.0451222876
 11
9.7249834891
 21
20.0103067087
  0
LINE
  5
287
100
AcDbEntity
  8
0
100
AcDbLine
 62
7
  6
CONTINUOUS
 10
9.7549834891
 20
15.4103067087
 11
9.7549834891
 21
23.5003067087
  0
LINE
  5
288
100
AcDbEntity
  8
0
100
AcDbLine
 62
9
  6
CONTINUOUS
 10
9.8199834891
 20
23.5103067087
 11
9.8199834885
 21
15.4103067087
  0
LINE
  5
289
100
AcDbEntity
  8
0
100
AcDbLine
 62
7
  6
CONTINUOUS
 10
9.6755789912
 20
22.9636397982
 11
9.6755542972
 21
22.9603067092
  0
LINE
  5
28A
100
AcDbEntity
  8
0
100
AcDbLine
 62
7
  6
CONTINUOUS
 10
9.6755789912
 20
22.6736397982
 11
9.6755542972
 21
22.6703067092
  0
LINE
  5
28B
100
AcDbEntity
  8
0
100
AcDbLine
 62
7
  6
CONTINUOUS
 10
9.6755789912
 20
22.3836397982
 11
9.6755542972
 21
22.3803067092
  0
LINE
  5
28C
100
AcDbEntity
  8
0
100
AcDbLine
 62
7
  6
CONTINUOUS
 10
9.6755789912
 20
22.0936397982
 11
9.6755542972
 21
22.0903067092
  0
LINE
  5
28D
100
AcDbEntity
  8
0
100
AcDbLine
 62
7
  6
CONTINUOUS
 10
9.6755789912
 20
21.8036397982
 11
9.6755542972
 21
21.8003067092
  0
LINE
  5
28E
100
AcDbEntity
  8
0
100
AcDbLine
 62
7
  6
CONTINUOUS
 10
9.6755789912
 20
21.5136397982
 11
9.6755542972
 21
21.5103067092
  0
LINE
  5
28F
100
AcDbEntity
  8
0
100
AcDbLine
 62
7
  6
CONTINUOUS
 10
9.6755789912
 20
21.2236397982
 11
9.6755542972
 21
21.2203067092
  0
LINE
  5
290
100
AcDbEntity
  8
0
100
AcDbLine
 62
7
  6
CONTINUOUS
 10
9.6755789912
 20
20.9336397982
 11
9.6755542972
 21
20.9303067092
  0
LINE
  5
291
100
AcDbEntity
  8
0
100
AcDbLine
 62
7
  6
CONTINUOUS
 10
9.6755789912
 20
20.6436397982
 11
9.6755542972
 21
20.6403067092
  0
LINE
  5
292
100
AcDbEntity
  8
0
100
AcDbLine
 62
7
  6
CONTINUOUS
 10
9.6755789912
 20
20.3536397982
 11
9.6755542972
 21
20.3503067092
  0
LINE
  5
293
100
AcDbEntity
  8
0
100
AcDbLine
 62
7
  6
CONTINUOUS
 10
9.6755789912
 20
20.0636397982
 11
9.6755542972
 21
20.0603067092
  0
LINE
  5
294
100
AcDbEntity
  8
0
100
AcDbLine
 62
7
  6
CONTINUOUS
 10
9.6757392574
 20
22.6792948372
 11
9.6755683906
 21
22.6728269267
  0
LINE
  5
295
100
AcDbEntity
  8
0
100
AcDbLine
 62
7
  6
CONTINUOUS
 10
9.6757392574
 20
22.0992948372
 11
9.6755683906
 21
22.0928269267
  0
LINE
  5
296
100
AcDbEntity
  8
0
100
AcDbLine
 62
7
  6
CONTINUOUS
 10
9.6757392574
 20
21.8092948372
 11
9.6755683906
 21
21.8028269267
  0
LINE
  5
297
100
AcDbEntity
  8
0
100
AcDbLine
 62
7
  6
CONTINUOUS
 10
9.6757392574
 20
21.5192948372
 11
9.6755683906
 21
21.5128269267
  0
LINE
  5
298
100
AcDbEntity
  8
0
100
AcDbLine
 62
7
  6
CONTINUOUS
 10
9.6757392574
 20
21.2292948372
 11
9.6755683906
 21
21.2228269267
  0
LINE
  5
299
100
AcDbEntity
  8
0
100
AcDbLine
 62
7
  6
CONTINUOUS
 10
9.6757392574
 20
20.6492948372
 11
9.6755683906
 21
20.6428269267
  0
LINE
  5
29A
100
AcDbEntity
  8
0
100
AcDbLine
 62
7
  6
CONTINUOUS
 10
9.6757392574
 20
20.0692948372
 11
9.6755683906
 21
20.0628269267
  0
LINE
  5
29B
100
AcDbEntity
  8
0
100
AcDbLine
 62
7
  6
CONTINUOUS
 10
9.6758258952
 20
22.971102924
 11
9.6755789912
 21
22.9636397982
  0
LINE
  5
29C
100
AcDbEntity
  8
0
100
AcDbLine
 62
7
  6
CONTINUOUS
 10
9.6758258952
 20
22.681102924
 11
9.6755789912
 21
22.6736397982
  0
LINE
  5
29D
100
AcDbEntity
  8
0
100
AcDbLine
 62
7
  6
CONTINUOUS
 10
9.6758258952
 20
22.391102924
 11
9.6755789912
 21
22.3836397982
  0
LINE
  5
29E
100
AcDbEntity
  8
0
100
AcDbLine
 62
7
  6
CONTINUOUS
 10
9.6758258952
 20
22.101102924
 11
9.6755789912
 21
22.0936397982
  0
LINE
  5
29F
100
AcDbEntity
  8
0
100
AcDbLine
 62
7
  6
CONTINUOUS
 10
9.6758258952
 20
21.811102924
 11
9.6755789912
 21
21.8036397982
  0
LINE
  5
2A0
100
AcDbEntity
  8
0
100
AcDbLine
 62
7
  6
CONTINUOUS
 10
9.6758258952
 20
21.521102924
 11
9.6755789912
 21
21.5136397982
  0
LINE
  5
2A1
100
AcDbEntity
  8
0
100
AcDbLine
 62
7
  6
CONTINUOUS
 10
9.6758258952
 20
21.231102924
 11
9.6755789912
 21
21.2236397982
  0
LINE
  5
2A2
100
AcDbEntity
  8
0
100
AcDbLine
 62
7
  6
CONTINUOUS
 10
9.6758258952
 20
20.941102924
 11
9.6755789912
 21
20.9336397982
  0
LINE
  5
2A3
100
AcDbEntity
  8
0
100
AcDbLine
 62
7
  6
CONTINUOUS
 10
9.6758258952
 20
20.651102924
 11
9.6755789912
 21
20.6436397982
  0
LINE
  5
2A4
100
AcDbEntity
  8
0
100
AcDbLine
 62
7
  6
CONTINUOUS
 10
9.6758258952
 20
20.361102924
 11
9.6755789912
 21
20.3536397982
  0
LINE
  5
2A5
100
AcDbEntity
  8
0
100
AcDbLine
 62
7
  6
CONTINUOUS
 10
9.6758258952
 20
20.071102924
 11
9.6755789912
 21
20.0636397982
  0
LINE
  5
2A6
100
AcDbEntity
  8
0
100
AcDbLine
 62
7
  6
CONTINUOUS
 10
9.6760913728
 20
20.0455242258
 11
9.6766150659
 21
20.0405625583
  0
LWPOLYLINE
  5
2A7
100
AcDbEntity
  8
0
100
AcDbPolyline
 62
7
  6
CONTINUOUS
 90
3
 70
0
 10
9.6755683906
 20
20.0577864907
 10
9.6757392574
 20
20.0513185802
 10
9.6760913728
 20
20.0455242258
  0
LWPOLYLINE
  5
2A8
100
AcDbEntity
  8
0
100
AcDbPolyline
 62
7
  6
CONTINUOUS
 90
3
 70
0
 10
9.6755683906
 20
20.3477864907
 10
9.6757392574
 20
20.3413185802
 10
9.6760913728
 20
20.3355242258
  0
LWPOLYLINE
  5
2A9
100
AcDbEntity
  8
0
100
AcDbPolyline
 62
7
  6
CONTINUOUS
 90
3
 70
0
 10
9.6755683906
 20
20.6377864907
 10
9.6757392574
 20
20.6313185802
 10
9.6760913728
 20
20.6255242258
  0
LWPOLYLINE
  5
2AA
100
AcDbEntity
  8
0
100
AcDbPolyline
 62
7
  6
CONTINUOUS
 90
3
 70
0
 10
9.6755683906
 20
20.9277864907
 10
9.6757392574
 20
20.9213185802
 10
9.6760913728
 20
20.9155242258
  0
LWPOLYLINE
  5
2AB
100
AcDbEntity
  8
0
100
AcDbPolyline
 62
7
  6
CONTINUOUS
 90
3
 70
0
 10
9.6755683906
 20
21.2177864907
 10
9.6757392574
 20
21.2113185802
 10
9.6760913728
 20
21.2055242258
  0
LWPOLYLINE
  5
2AC
100
AcDbEntity
  8
0
100
AcDbPolyline
 62
7
  6
CONTINUOUS
 90
3
 70
0
 10
9.6755683906
 20
21.5077864907
 10
9.6757392574
 20
21.5013185802
 10
9.6760913728
 20
21.4955242258
  0
LWPOLYLINE
  5
2AD
100
AcDbEntity
  8
0
100
AcDbPolyline
 62
7
  6
CONTINUOUS
 90
3
 70
0
 10
9.6755683906
 20
21.7977864907
 10
9.6757392574
 20
21.7913185802
 10
9.6760913728
 20
21.7855242258
  0
LWPOLYLINE
  5
2AE
100
AcDbEntity
  8
0
100
AcDbPolyline
 62
7
  6
CONTINUOUS
 90
3
 70
0
 10
9.6755683906
 20
22.0877864907
 10
9.6757392574
 20
22.0813185802
 10
9.6760913728
 20
22.0755242258
  0
LWPOLYLINE
  5
2AF
100
AcDbEntity
  8
0
100
AcDbPolyline
 62
7
  6
CONTINUOUS
 90
3
 70
0
 10
9.6755683906
 20
22.3777864907
 10
9.6757392574
 20
22.3713185802
 10
9.6760913728
 20
22.3655242258
  0
LWPOLYLINE
  5
2B0
100
AcDbEntity
  8
0
100
AcDbPolyline
 62
7
  6
CONTINUOUS
 90
3
 70
0
 10
9.6755683906
 20
22.6677864907
 10
9.6757392574
 20
22.6613185802
 10
9.6760913728
 20
22.6555242258
  0
LWPOLYLINE
  5
2B1
100
AcDbEntity
  8
0
100
AcDbPolyline
 62
7
  6
CONTINUOUS
 90
3
 70
0
 10
9.6755683906
 20
22.9577864907
 10
9.6757392574
 20
22.9513185802
 10
9.6760913728
 20
22.9455242258
  0
LWPOLYLINE
  5
2B2
100
AcDbEntity
  8
0
100
AcDbPolyline
 62
7
  6
CONTINUOUS
 90
51
 70
0
 10
10.5559772582
 20
12.8183067087
 10
10.5662262914
 20
12.0729113962
 10
10.5823871227
 20
11.3319408781
 10
10.6016133883
 20
10.6405704392
 10
10.6226046723
 20
9.9923786574
 10
10.6446080999
 20
9.3812014519
 10
10.6671976557
 20
8.8007381492
 10
10.6900613523
 20
8.2471360016
 10
10.7129633293
 20
7.7178467563
 10
10.7357563994
 20
7.2102851981
 10
10.7583480194
 20
6.7220667743
 10
10.7806549833
 20
6.2515942948
 10
10.8026174341
 20
5.7974774252
 10
10.8241983113
 20
5.3583652206
 10
10.8453768208
 20
4.9329632235
 10
10.8661340478
 20
4.5202319574
 10
10.8864500845
 20
4.1193691487
 10
10.9063109358
 20
3.7296283264
 10
10.9257067485
 20
3.3503192081
 10
10.9446306291
 20
2.9808050783
 10
10.9630750457
 20
2.6205511822
 10
10.9810358086
 20
2.2690244894
 10
10.9985102168
 20
1.9257138569
 10
11.0154933429
 20
1.5901869401
 10
11.0319776745
 20
1.2620826084
 10
11.0479530021
 20
0.9411111819
 10
11.0634068682
 20
0.627039965
 10
11.0783387948
 20
0.3193963933
 10
11.0927448113
 20
0.0177743715
 10
11.1066135512
 20
-0.2781030099
 10
11.1199266447
 20
-0.5683968212
 10
11.1326585313
 20
-0.8531480866
 10
11.1447789431
 20
-1.1323394668
 10
11.1562809275
 20
-1.406591465
 10
11.1671453807
 20
-1.6764056511
 10
11.1773338765
 20
-1.9420009033
 10
11.1867901751
 20
-2.2033379584
 10
11.1954410577
 20
-2.4600778682
 10
11.2032088117
 20
-2.7119728914
 10
11.2100365916
 20
-2.9600526168
 10
11.2158167331
 20
-3.2047499574
 10
11.2203801173
 20
-3.4456640996
 10
11.2235031459
 20
-3.6816462518
 10
11.2249449093
 20
-3.912486233
 10
11.2243752247
 20
-4.1366608532
 10
11.2213562689
 20
-4.3506910789
 10
11.2154236171
 20
-4.550162679
 10
11.2062624093
 20
-4.7279751923
 10
11.194314883
 20
-4.8724111645
 10
11.1809456243
 20
-4.9767817825
 10
11.1678777318
 20
-5.0427779707
  0
LINE
  5
2B3
100
AcDbEntity
  8
0
100
AcDbLine
 62
9
  6
CONTINUOUS
 10
9.8714834891
 20
23.5203067087
 11
9.8714834891
 21
23.5103067087
  0
LINE
  5
2B4
100
AcDbEntity
  8
0
100
AcDbLine
 62
7
  6
CONTINUOUS
 10
9.9699834891
 20
12.7603067086
 11
9.9699834891
 21
13.7653067087
  0
LINE
  5
2B5
100
AcDbEntity
  8
0
100
AcDbLine
 62
7
  6
CONTINUOUS
 10
9.9699834891
 20
14.8353067088
 11
9.9699834891
 21
15.8403067089
  0
LINE
  5
2B6
100
AcDbEntity
  8
0
100
AcDbLine
 62
7
  6
CONTINUOUS
 10
9.9749834891
 20
12.7441048562
 11
9.9749834891
 21
9.1374656128
  0
LINE
  5
2B7
100
AcDbEntity
  8
0
100
AcDbLine
 62
9
  6
CONTINUOUS
 10
9.9999834891
 20
15.8703067087
 11
9.9999834891
 21
14.8353067087
  0
LINE
  5
2B8
100
AcDbEntity
  8
0
100
AcDbLine
 62
9
  6
CONTINUOUS
 10
9.9999834891
 20
13.7653067087
 11
9.9999834891
 21
12.7303067087
  0
LINE
  5
2B9
100
AcDbEntity
  8
0
100
AcDbLine
 62
7
  6
CONTINUOUS
 10
10.2099834891
 20
14.3918067087
 11
10.2099834891
 21
15.6668067087
  0
LINE
  5
2BA
100
AcDbEntity
  8
0
100
AcDbLine
 62
9
  6
CONTINUOUS
 10
10.2499834891
 20
15.7068067087
 11
10.2499834891
 21
14.3518067087
  0
LINE
  5
2BB
100
AcDbEntity
  8
0
100
AcDbLine
 62
7
  6
CONTINUOUS
 10
10.3666094197
 20
14.2759819286
 11
10.3666094197
 21
13.8706314888
  0
LINE
  5
2BC
100
AcDbEntity
  8
0
100
AcDbLine
 62
7
  6
CONTINUOUS
 10
10.4055817945
 20
13.8706314888
 11
10.4055817945
 21
14.2759819286
  0
LINE
  5
2BD
100
AcDbEntity
  8
0
100
AcDbLine
 62
7
  6
CONTINUOUS
 10
10.4647953578
 20
14.2759819286
 11
10.4647953578
 21
13.8706314888
  0
LINE
  5
2BE
100
AcDbEntity
  8
0
100
AcDbLine
 62
7
  6
CONTINUOUS
 10
10.4724834891
 20
14.3318067087
 11
10.4724834891
 21
14.3518067087
  0
LINE
  5
2BF
100
AcDbEntity
  8
0
100
AcDbLine
 62
9
  6
CONTINUOUS
 10
10.5099834891
 20
12.7303067087
 11
10.5099834891
 21
13.7653067087
  0
LINE
  5
2C0
100
AcDbEntity
  8
0
100
AcDbLine
 62
9
  6
CONTINUOUS
 10
10.5099834891
 20
15.7068067087
 11
10.5099834891
 21
15.8703067087
  0
LINE
  5
2C1
100
AcDbEntity
  8
0
100
AcDbLine
 62
7
  6
CONTINUOUS
 10
10.5289834891
 20
13.8183067087
 11
10.5289834891
 21
12.8183067087
  0
LINE
  5
2C2
100
AcDbEntity
  8
0
100
AcDbLine
 62
7
  6
CONTINUOUS
 10
10.5349834891
 20
12.7441048562
 11
10.5349834891
 21
9.1374656128
  0
LINE
  5
2C3
100
AcDbEntity
  8
0
100
AcDbLine
 62
7
  6
CONTINUOUS
 10
10.5399834891
 20
15.8403067088
 11
10.5399834891
 21
15.7068067087
  0
LINE
  5
2C4
100
AcDbEntity
  8
0
100
AcDbLine
 62
7
  6
CONTINUOUS
 10
10.5399834891
 20
12.8183067087
 11
10.5399834891
 21
12.7603067085
  0
LINE
  5
2C5
100
AcDbEntity
  8
0
100
AcDbLine
 62
9
  6
CONTINUOUS
 10
10.6384834891
 20
23.5103067087
 11
10.6384834891
 21
23.5203067087
  0
LINE
  5
2C6
100
AcDbEntity
  8
0
100
AcDbLine
 62
9
  6
CONTINUOUS
 10
10.6899834895
 20
15.7068067087
 11
10.6899834891
 21
23.5103067087
  0
LINE
  5
2C7
100
AcDbEntity
  8
0
100
AcDbLine
 62
7
  6
CONTINUOUS
 10
10.7549834891
 20
23.5003067087
 11
10.7549834891
 21
15.7068067087
  0
LINE
  5
2C8
100
AcDbEntity
  8
0
100
AcDbLine
 62
7
  6
CONTINUOUS
 10
10.8317953802
 20
13.8706314888
 11
10.8317953802
 21
14.2759819286
  0
LINE
  5
2C9
100
AcDbEntity
  8
0
100
AcDbLine
 62
7
  6
CONTINUOUS
 10
9.974541272
 20
9.0214697997
 11
9.9035724979
 21
-0.2715240872
  0
LINE
  5
2CA
100
AcDbEntity
  8
0
100
AcDbLine
 62
7
  6
CONTINUOUS
 10
10.5345249429
 20
9.0171933141
 11
10.4635561688
 21
-0.2758005728
  0
LINE
  5
2CB
100
AcDbEntity
  8
0
100
AcDbLine
 62
9
  6
CONTINUOUS
 10
9.9749834891
 20
9.1374656128
 11
10.5349834891
 21
9.1374656128
  0
LINE
  5
2CC
100
AcDbEntity
  8
0
100
AcDbLine
 62
7
  6
CONTINUOUS
 10
9.6760913728
 20
20.3355242258
 11
9.6766150659
 21
20.3305625583
  0
LINE
  5
2CD
100
AcDbEntity
  8
0
100
AcDbLine
 62
7
  6
CONTINUOUS
 10
9.6760913728
 20
20.6255242258
 11
9.6766150659
 21
20.6205625583
  0
LINE
  5
2CE
100
AcDbEntity
  8
0
100
AcDbLine
 62
7
  6
CONTINUOUS
 10
9.6760913728
 20
20.9155242258
 11
9.6766150659
 21
20.9105625583
  0
LINE
  5
2CF
100
AcDbEntity
  8
0
100
AcDbLine
 62
7
  6
CONTINUOUS
 10
9.6760913728
 20
21.2055242258
 11
9.6766150659
 21
21.2005625583
  0
LINE
  5
2D0
100
AcDbEntity
  8
0
100
AcDbLine
 62
7
  6
CONTINUOUS
 10
9.6760913728
 20
21.4955242258
 11
9.6766150659
 21
21.4905625583
  0
LINE
  5
2D1
100
AcDbEntity
  8
0
100
AcDbLine
 62
7
  6
CONTINUOUS
 10
9.6760913728
 20
21.7855242258
 11
9.6766150659
 21
21.7805625583
  0
LINE
  5
2D2
100
AcDbEntity
  8
0
100
AcDbLine
 62
7
  6
CONTINUOUS
 10
9.6760913728
 20
22.0755242258
 11
9.6766150659
 21
22.0705625583
  0
LINE
  5
2D3
100
AcDbEntity
  8
0
100
AcDbLine
 62
7
  6
CONTINUOUS
 10
9.6760913728
 20
22.3655242258
 11
9.6766150659
 21
22.3605625583
  0
LINE
  5
2D4
100
AcDbEntity
  8
0
100
AcDbLine
 62
7
  6
CONTINUOUS
 10
9.6760913728
 20
22.6555242258
 11
9.6766150659
 21
22.6505625583
  0
LINE
  5
2D5
100
AcDbEntity
  8
0
100
AcDbLine
 62
7
  6
CONTINUOUS
 10
9.6760913728
 20
22.9455242258
 11
9.6766150659
 21
22.9405625583
  0
LINE
  5
2D6
100
AcDbEntity
  8
0
100
AcDbLine
 62
7
  6
CONTINUOUS
 10
10.9331694272
 20
14.2759819286
 11
10.9331694272
 21
13.8706314888
  0
LINE
  5
2D7
100
AcDbEntity
  8
0
100
AcDbLine
 62
7
  6
CONTINUOUS
 10
11.1409834891
 20
13.8183067087
 11
11.1409834891
 21
12.8183067087
  0
LINE
  5
2D8
100
AcDbEntity
  8
0
100
AcDbLine
 62
7
  6
CONTINUOUS
 10
11.1974834891
 20
14.3318067087
 11
11.1974834891
 21
14.3518067087
  0
LINE
  5
2D9
100
AcDbEntity
  8
0
100
AcDbLine
 62
7
  6
CONTINUOUS
 10
11.2611970748
 20
13.8706314888
 11
11.2611970748
 21
14.2759819286
  0
LINE
  5
2DA
100
AcDbEntity
  8
0
100
AcDbLine
 62
7
  6
CONTINUOUS
 10
11.3033575586
 20
14.2759819286
 11
11.3033575586
 21
13.8706314888
  0
LINE
  5
2DB
100
AcDbEntity
  8
0
100
AcDbLine
 62
9
  6
CONTINUOUS
 10
11.7949834891
 20
14.0153067087
 11
11.7949834891
 21
14.3518067087
  0
LWPOLYLINE
  5
2DC
100
AcDbEntity
  8
0
100
AcDbPolyline
 62
7
  6
CONTINUOUS
 90
6
 70
0
 10
9.6766150659
 20
20.0405625583
 10
9.677320317
 20
20.0364503393
 10
9.6782552872
 20
20.0331161202
 10
9.6796726224
 20
20.0302146254
 10
9.6822088096
 20
20.0276141293
 10
9.6837410465
 20
20.0268042535
  0
LWPOLYLINE
  5
2DD
100
AcDbEntity
  8
0
100
AcDbPolyline
 62
7
  6
CONTINUOUS
 90
6
 70
0
 10
9.6766150659
 20
20.3305625583
 10
9.677320317
 20
20.3264503393
 10
9.6782552872
 20
20.3231161202
 10
9.6796726224
 20
20.3202146254
 10
9.6822088096
 20
20.3176141293
 10
9.6837410465
 20
20.3168042535
  0
LWPOLYLINE
  5
2DE
100
AcDbEntity
  8
0
100
AcDbPolyline
 62
7
  6
CONTINUOUS
 90
6
 70
0
 10
9.6766150659
 20
20.6205625583
 10
9.677320317
 20
20.6164503393
 10
9.6782552872
 20
20.6131161202
 10
9.6796726224
 20
20.6102146254
 10
9.6822088096
 20
20.6076141293
 10
9.6837410465
 20
20.6068042535
  0
LWPOLYLINE
  5
2DF
100
AcDbEntity
  8
0
100
AcDbPolyline
 62
7
  6
CONTINUOUS
 90
6
 70
0
 10
9.6766150659
 20
20.9105625583
 10
9.677320317
 20
20.9064503393
 10
9.6782552872
 20
20.9031161202
 10
9.6796726224
 20
20.9002146254
 10
9.6822088096
 20
20.8976141293
 10
9.6837410465
 20
20.8968042535
  0
LWPOLYLINE
  5
2E0
100
AcDbEntity
  8
0
100
AcDbPolyline
 62
7
  6
CONTINUOUS
 90
6
 70
0
 10
9.6766150659
 20
21.2005625583
 10
9.677320317
 20
21.1964503393
 10
9.6782552872
 20
21.1931161202
 10
9.6796726224
 20
21.1902146254
 10
9.6822088096
 20
21.1876141293
 10
9.6837410465
 20
21.1868042535
  0
LWPOLYLINE
  5
2E1
100
AcDbEntity
  8
0
100
AcDbPolyline
 62
7
  6
CONTINUOUS
 90
6
 70
0
 10
9.6766150659
 20
21.4905625583
 10
9.677320317
 20
21.4864503393
 10
9.6782552872
 20
21.4831161202
 10
9.6796726224
 20
21.4802146254
 10
9.6822088096
 20
21.4776141293
 10
9.6837410465
 20
21.4768042535
  0
LWPOLYLINE
  5
2E2
100
AcDbEntity
  8
0
100
AcDbPolyline
 62
7
  6
CONTINUOUS
 90
5
 70
0
 10
9.6765180456
 20
20.0416233934
 10
9.6770395384
 20
20.0378579485
 10
9.6780138114
 20
20.0338243838
 10
9.6794999786
 20
20.0304856093
 10
9.6821564298
 20
20.0276494084
  0
LWPOLYLINE
  5
2E3
100
AcDbEntity
  8
0
100
AcDbPolyline
 62
7
  6
CONTINUOUS
 90
5
 70
0
 10
9.6765180456
 20
20.3316233934
 10
9.6770395384
 20
20.3278579485
 10
9.6780138114
 20
20.3238243838
 10
9.6794999786
 20
20.3204856093
 10
9.6821564298
 20
20.3176494084
  0
LWPOLYLINE
  5
2E4
100
AcDbEntity
  8
0
100
AcDbPolyline
 62
7
  6
CONTINUOUS
 90
5
 70
0
 10
9.6765180456
 20
20.6216233934
 10
9.6770395384
 20
20.6178579485
 10
9.6780138114
 20
20.6138243838
 10
9.6794999786
 20
20.6104856093
 10
9.6821564298
 20
20.6076494084
  0
LWPOLYLINE
  5
2E5
100
AcDbEntity
  8
0
100
AcDbPolyline
 62
7
  6
CONTINUOUS
 90
5
 70
0
 10
9.6765180456
 20
20.9116233934
 10
9.6770395384
 20
20.9078579485
 10
9.6780138114
 20
20.9038243838
 10
9.6794999786
 20
20.9004856093
 10
9.6821564298
 20
20.8976494084
  0
LWPOLYLINE
  5
2E6
100
AcDbEntity
  8
0
100
AcDbPolyline
 62
7
  6
CONTINUOUS
 90
5
 70
0
 10
9.6765180456
 20
21.2016233934
 10
9.6770395384
 20
21.1978579485
 10
9.6780138114
 20
21.1938243838
 10
9.6794999786
 20
21.1904856093
 10
9.6821564298
 20
21.1876494084
  0
LWPOLYLINE
  5
2E7
100
AcDbEntity
  8
0
100
AcDbPolyline
 62
7
  6
CONTINUOUS
 90
5
 70
0
 10
9.6765179114
 20
21.4916243625
 10
9.6770395384
 20
21.4878579485
 10
9.6780138114
 20
21.4838243838
 10
9.6794999786
 20
21.4804856093
 10
9.6821564298
 20
21.4776494084
  0
LWPOLYLINE
  5
2E8
100
AcDbEntity
  8
0
100
AcDbPolyline
 62
7
  6
CONTINUOUS
 90
5
 70
0
 10
9.6765179114
 20
21.7816243625
 10
9.6770395384
 20
21.7778579485
 10
9.6780138114
 20
21.7738243838
 10
9.6794999786
 20
21.7704856093
 10
9.6821564298
 20
21.7676494084
  0
LWPOLYLINE
  5
2E9
100
AcDbEntity
  8
0
100
AcDbPolyline
 62
7
  6
CONTINUOUS
 90
5
 70
0
 10
9.6765179114
 20
22.0716243625
 10
9.6770395384
 20
22.0678579485
 10
9.6780138114
 20
22.0638243838
 10
9.6794999786
 20
22.0604856093
 10
9.6821564298
 20
22.0576494084
  0
LWPOLYLINE
  5
2EA
100
AcDbEntity
  8
0
100
AcDbPolyline
 62
7
  6
CONTINUOUS
 90
5
 70
0
 10
9.6765179114
 20
22.3616243625
 10
9.6770395384
 20
22.3578579485
 10
9.6780138114
 20
22.3538243838
 10
9.6794999786
 20
22.3504856093
 10
9.6821564298
 20
22.3476494084
  0
LWPOLYLINE
  5
2EB
100
AcDbEntity
  8
0
100
AcDbPolyline
 62
7
  6
CONTINUOUS
 90
5
 70
0
 10
9.6765179114
 20
22.6516243625
 10
9.6770395384
 20
22.6478579485
 10
9.6780138114
 20
22.6438243838
 10
9.6794999786
 20
22.6404856093
 10
9.6821564298
 20
22.6376494084
  0
LWPOLYLINE
  5
2EC
100
AcDbEntity
  8
0
100
AcDbPolyline
 62
7
  6
CONTINUOUS
 90
5
 70
0
 10
9.6765179114
 20
22.9416243625
 10
9.6770395384
 20
22.9378579485
 10
9.6780138114
 20
22.9338243838
 10
9.6794999786
 20
22.9304856093
 10
9.6821564298
 20
22.9276494084
  0
LINE
  5
2ED
100
AcDbEntity
  8
0
100
AcDbLine
 62
7
  6
CONTINUOUS
 10
11.8249834891
 20
14.3518067087
 11
11.8249834891
 21
14.0453067085
  0
LINE
  5
2EE
100
AcDbEntity
  8
0
100
AcDbLine
 62
7
  6
CONTINUOUS
 10
12.4049834891
 20
14.3518067087
 11
12.4049834891
 21
15.7068067087
  0
LINE
  5
2EF
100
AcDbEntity
  8
0
100
AcDbLine
 62
7
  6
CONTINUOUS
 10
12.4149834891
 20
14.0193067087
 11
12.4149834891
 21
16.0393067087
  0
LINE
  5
2F0
100
AcDbEntity
  8
0
100
AcDbLine
 62
9
  6
CONTINUOUS
 10
12.4549834891
 20
16.0793067087
 11
12.4549834891
 21
13.9793067087
  0
LINE
  5
2F1
100
AcDbEntity
  8
0
100
AcDbLine
 62
7
  6
CONTINUOUS
 10
12.7349834891
 20
13.9793067087
 11
12.7349834891
 21
16.0793067087
  0
LWPOLYLINE
  5
2F2
100
AcDbEntity
  8
0
100
AcDbPolyline
 62
7
  6
CONTINUOUS
 90
6
 70
0
 10
9.6766150659
 20
21.7805625583
 10
9.677320317
 20
21.7764503393
 10
9.6782552872
 20
21.7731161202
 10
9.6796726224
 20
21.7702146254
 10
9.6822088096
 20
21.7676141293
 10
9.6837410465
 20
21.7668042535
  0
LWPOLYLINE
  5
2F3
100
AcDbEntity
  8
0
100
AcDbPolyline
 62
7
  6
CONTINUOUS
 90
6
 70
0
 10
9.6766150659
 20
22.0705625583
 10
9.677320317
 20
22.0664503393
 10
9.6782552872
 20
22.0631161202
 10
9.6796726224
 20
22.0602146254
 10
9.6822088096
 20
22.0576141293
 10
9.6837410465
 20
22.0568042535
  0
LWPOLYLINE
  5
2F4
100
AcDbEntity
  8
0
100
AcDbPolyline
 62
7
  6
CONTINUOUS
 90
6
 70
0
 10
9.6766150659
 20
22.3605625583
 10
9.677320317
 20
22.3564503393
 10
9.6782552872
 20
22.3531161202
 10
9.6796726224
 20
22.3502146254
 10
9.6822088096
 20
22.3476141293
 10
9.6837410465
 20
22.3468042535
  0
LWPOLYLINE
  5
2F5
100
AcDbEntity
  8
0
100
AcDbPolyline
 62
7
  6
CONTINUOUS
 90
6
 70
0
 10
9.6766150659
 20
22.6505625583
 10
9.677320317
 20
22.6464503393
 10
9.6782552872
 20
22.6431161202
 10
9.6796726224
 20
22.6402146254
 10
9.6822088096
 20
22.6376141293
 10
9.6837410465
 20
22.6368042535
  0
LWPOLYLINE
  5
2F6
100
AcDbEntity
  8
0
100
AcDbPolyline
 62
7
  6
CONTINUOUS
 90
6
 70
0
 10
9.6766150659
 20
22.9405625583
 10
9.677320317
 20
22.9364503393
 10
9.6782552872
 20
22.9331161202
 10
9.6796726224
 20
22.9302146254
 10
9.6822088096
 20
22.9276141293
 10
9.6837410465
 20
22.9268042535
  0
LINE
  5
2F7
100
AcDbEntity
  8
0
100
AcDbLine
 62
7
  6
CONTINUOUS
 10
10.5099834892
 20
12.7303067087
 11
9.9999834889
 21
12.7303067087
  0
LINE
  5
2F8
100
AcDbEntity
  8
0
100
AcDbLine
 62
9
  6
CONTINUOUS
 10
9.9699834891
 20
12.7603067087
 11
10.5399834891
 21
12.7603067087
  0
LINE
  5
2F9
100
AcDbEntity
  8
0
100
AcDbLine
 62
7
  6
CONTINUOUS
 10
10.5290482133
 20
12.8183067087
 11
11.140918765
 21
12.8183067087
  0
LINE
  5
2FA
100
AcDbEntity
  8
0
100
AcDbLine
 62
7
  6
CONTINUOUS
 10
10.3818614332
 20
13.8296468973
 11
10.3980078416
 21
13.8183067087
  0
LINE
  5
2FB
100
AcDbEntity
  8
0
100
AcDbLine
 62
7
  6
CONTINUOUS
 10
9.9699834891
 20
13.1903067087
 11
9.4399923244
 21
13.1903067087
  0
LINE
  5
2FC
100
AcDbEntity
  8
0
100
AcDbLine
 62
9
  6
CONTINUOUS
 10
9.4199839831
 20
13.2103067087
 11
9.9699834891
 21
13.2103067087
  0
LINE
  5
2FD
100
AcDbEntity
  8
0
100
AcDbLine
 62
9
  6
CONTINUOUS
 10
9.9699834891
 20
13.5203067087
 11
9.4199834891
 21
13.5203067087
  0
LINE
  5
2FE
100
AcDbEntity
  8
0
100
AcDbLine
 62
7
  6
CONTINUOUS
 10
9.9699834891
 20
13.5403067087
 11
9.4399838441
 21
13.5403067087
  0
LINE
  5
2FF
100
AcDbEntity
  8
0
100
AcDbLine
 62
9
  6
CONTINUOUS
 10
9.4749834891
 20
13.5603067087
 11
9.9699834891
 21
13.5603067087
  0
LINE
  5
300
100
AcDbEntity
  8
0
100
AcDbLine
 62
9
  6
CONTINUOUS
 10
10.5289834891
 20
13.7653067087
 11
10.5099834891
 21
13.7653067087
  0
LINE
  5
301
100
AcDbEntity
  8
0
100
AcDbLine
 62
9
  6
CONTINUOUS
 10
9.9999834891
 20
13.7653067087
 11
9.9699834891
 21
13.7653067087
  0
LINE
  5
302
100
AcDbEntity
  8
0
100
AcDbLine
 62
7
  6
CONTINUOUS
 10
10.3980269882
 20
13.8183067087
 11
11.27193999
 21
13.8183067087
  0
LINE
  5
303
100
AcDbEntity
  8
0
100
AcDbLine
 62
7
  6
CONTINUOUS
 10
10.4055817945
 20
13.8706314888
 11
10.4647953578
 21
13.8706314888
  0
LINE
  5
304
100
AcDbEntity
  8
0
100
AcDbLine
 62
7
  6
CONTINUOUS
 10
10.8317953802
 20
13.8706314888
 11
10.9331694272
 21
13.8706314888
  0
LINE
  5
305
100
AcDbEntity
  8
0
100
AcDbLine
 62
7
  6
CONTINUOUS
 10
11.2611970748
 20
13.8706314888
 11
11.3033575586
 21
13.8706314888
  0
LINE
  5
306
100
AcDbEntity
  8
0
100
AcDbLine
 62
7
  6
CONTINUOUS
 10
12.7349834891
 20
13.9793067087
 11
12.4549834891
 21
13.9793067087
  0
LINE
  5
307
100
AcDbEntity
  8
0
100
AcDbLine
 62
7
  6
CONTINUOUS
 10
11.7949834892
 20
14.0153067087
 11
11.3033575586
 21
14.0153067087
  0
LINE
  5
308
100
AcDbEntity
  8
0
100
AcDbLine
 62
7
  6
CONTINUOUS
 10
9.719983489
 20
14.0153067087
 11
8.7149834889
 21
14.0153067087
  0
LINE
  5
309
100
AcDbEntity
  8
0
100
AcDbLine
 62
9
  6
CONTINUOUS
 10
12.4149834891
 20
14.0193067087
 11
12.7349834891
 21
14.0193067087
  0
LINE
  5
30A
100
AcDbEntity
  8
0
100
AcDbLine
 62
7
  6
CONTINUOUS
 10
11.2719591367
 20
14.3283067087
 11
11.2881055451
 21
14.3169665202
  0
LINE
  5
30B
100
AcDbEntity
  8
0
100
AcDbLine
 62
7
  6
CONTINUOUS
 10
11.2039834891
 20
14.3318067087
 11
11.2053234891
 21
14.3304667087
  0
LINE
  5
30C
100
AcDbEntity
  8
0
100
AcDbLine
 62
9
  6
CONTINUOUS
 10
8.6849834891
 20
14.0453067087
 11
9.7199834892
 21
14.0453067087
  0
LINE
  5
30D
100
AcDbEntity
  8
0
100
AcDbLine
 62
9
  6
CONTINUOUS
 10
11.3033575586
 20
14.0453067087
 11
11.8249834891
 21
14.0453067087
  0
LINE
  5
30E
100
AcDbEntity
  8
0
100
AcDbLine
 62
7
  6
CONTINUOUS
 10
11.3033575586
 20
14.2759819286
 11
11.2611970748
 21
14.2759819286
  0
LINE
  5
30F
100
AcDbEntity
  8
0
100
AcDbLine
 62
7
  6
CONTINUOUS
 10
10.9331694272
 20
14.2759819286
 11
10.8317953802
 21
14.2759819286
  0
LINE
  5
310
100
AcDbEntity
  8
0
100
AcDbLine
 62
7
  6
CONTINUOUS
 10
10.4647953578
 20
14.2759819286
 11
10.4055817945
 21
14.2759819286
  0
LINE
  5
311
100
AcDbEntity
  8
0
100
AcDbLine
 62
7
  6
CONTINUOUS
 10
11.2719432478
 20
14.3283067087
 11
10.3980237305
 21
14.3283067087
  0
LINE
  5
312
100
AcDbEntity
  8
0
100
AcDbLine
 62
7
  6
CONTINUOUS
 10
11.2039834891
 20
14.3318067087
 11
10.4659834891
 21
14.3318067087
  0
LINE
  5
313
100
AcDbEntity
  8
0
100
AcDbLine
 62
7
  6
CONTINUOUS
 10
12.4049834891
 20
14.3518067087
 11
10.2499834891
 21
14.3518067087
  0
LINE
  5
314
100
AcDbEntity
  8
0
100
AcDbLine
 62
7
  6
CONTINUOUS
 10
12.4149834891
 20
14.3793067087
 11
12.4049834891
 21
14.3793067087
  0
LINE
  5
315
100
AcDbEntity
  8
0
100
AcDbLine
 62
9
  6
CONTINUOUS
 10
10.2099834891
 20
14.3918067087
 11
12.4049834891
 21
14.3918067087
  0
LINE
  5
316
100
AcDbEntity
  8
0
100
AcDbLine
 62
9
  6
CONTINUOUS
 10
12.4049834891
 20
14.5493067087
 11
12.4149834891
 21
14.5493067087
  0
LINE
  5
317
100
AcDbEntity
  8
0
100
AcDbLine
 62
9
  6
CONTINUOUS
 10
9.7199834891
 20
14.5553067087
 11
8.6849834891
 21
14.5553067087
  0
LINE
  5
318
100
AcDbEntity
  8
0
100
AcDbLine
 62
7
  6
CONTINUOUS
 10
8.7149834891
 20
14.5853067087
 11
9.7199834891
 21
14.5853067087
  0
LINE
  5
319
100
AcDbEntity
  8
0
100
AcDbLine
 62
9
  6
CONTINUOUS
 10
9.9699834891
 20
14.8353067087
 11
9.9999834891
 21
14.8353067087
  0
LINE
  5
31A
100
AcDbEntity
  8
0
100
AcDbLine
 62
9
  6
CONTINUOUS
 10
9.9699834891
 20
15.0403067087
 11
9.4749839506
 21
15.0403067087
  0
LINE
  5
31B
100
AcDbEntity
  8
0
100
AcDbLine
 62
7
  6
CONTINUOUS
 10
9.9699834891
 20
15.0603067087
 11
9.4399923244
 21
15.0603067087
  0
LINE
  5
31C
100
AcDbEntity
  8
0
100
AcDbLine
 62
9
  6
CONTINUOUS
 10
9.4199839831
 20
15.0803067087
 11
9.9699834891
 21
15.0803067087
  0
LINE
  5
31D
100
AcDbEntity
  8
0
100
AcDbLine
 62
9
  6
CONTINUOUS
 10
9.9699834891
 20
15.3903067087
 11
9.4199834891
 21
15.3903067087
  0
LINE
  5
31E
100
AcDbEntity
  8
0
100
AcDbLine
 62
7
  6
CONTINUOUS
 10
9.9699834891
 20
15.4103067087
 11
9.4399838441
 21
15.4103067087
  0
LINE
  5
31F
100
AcDbEntity
  8
0
100
AcDbLine
 62
9
  6
CONTINUOUS
 10
12.4149834891
 20
15.5093067087
 11
12.4049834891
 21
15.5093067087
  0
LINE
  5
320
100
AcDbEntity
  8
0
100
AcDbLine
 62
9
  6
CONTINUOUS
 10
12.4049834891
 20
15.6668067087
 11
10.2099834891
 21
15.6668067087
  0
LINE
  5
321
100
AcDbEntity
  8
0
100
AcDbLine
 62
7
  6
CONTINUOUS
 10
12.4049834891
 20
15.6793067087
 11
12.4149834891
 21
15.6793067087
  0
LINE
  5
322
100
AcDbEntity
  8
0
100
AcDbLine
 62
7
  6
CONTINUOUS
 10
10.2499834891
 20
15.7068067087
 11
12.4049834891
 21
15.7068067087
  0
LINE
  5
323
100
AcDbEntity
  8
0
100
AcDbLine
 62
9
  6
CONTINUOUS
 10
10.5399834891
 20
15.8403067087
 11
9.9699834891
 21
15.8403067087
  0
LINE
  5
324
100
AcDbEntity
  8
0
100
AcDbLine
 62
7
  6
CONTINUOUS
 10
9.9999834891
 20
15.8703067087
 11
10.5099834893
 21
15.8703067087
  0
LINE
  5
325
100
AcDbEntity
  8
0
100
AcDbLine
 62
9
  6
CONTINUOUS
 10
12.7349834891
 20
16.0393067087
 11
12.4149834891
 21
16.0393067087
  0
LINE
  5
326
100
AcDbEntity
  8
0
100
AcDbLine
 62
7
  6
CONTINUOUS
 10
12.4549834891
 20
16.0793067087
 11
12.7349834891
 21
16.0793067087
  0
LINE
  5
327
100
AcDbEntity
  8
0
100
AcDbLine
 62
7
  6
CONTINUOUS
 10
9.6837327324
 20
20.0268070114
 11
9.6837413196
 21
20.0268036275
  0
LINE
  5
328
100
AcDbEntity
  8
0
100
AcDbLine
 62
7
  6
CONTINUOUS
 10
9.6837324323
 20
20.0268071314
 11
9.7249834891
 21
20.0103067087
  0
LINE
  5
329
100
AcDbEntity
  8
0
100
AcDbLine
 62
7
  6
CONTINUOUS
 10
9.6821564298
 20
20.0276494084
 11
9.6837458087
 21
20.0268019155
  0
LINE
  5
32A
100
AcDbEntity
  8
0
100
AcDbLine
 62
7
  6
CONTINUOUS
 10
9.6821564298
 20
20.3176494084
 11
9.6837458087
 21
20.3168019155
  0
LINE
  5
32B
100
AcDbEntity
  8
0
100
AcDbLine
 62
7
  6
CONTINUOUS
 10
9.6821564298
 20
20.6076494084
 11
9.6837458087
 21
20.6068019155
  0
LINE
  5
32C
100
AcDbEntity
  8
0
100
AcDbLine
 62
7
  6
CONTINUOUS
 10
9.7249834891
 20
20.0103067087
 11
9.7549834891
 21
20.0065567087
  0
LINE
  5
32D
100
AcDbEntity
  8
0
100
AcDbLine
 62
7
  6
CONTINUOUS
 10
9.6837327324
 20
20.3168070114
 11
9.6837413196
 21
20.3168036275
  0
LINE
  5
32E
100
AcDbEntity
  8
0
100
AcDbLine
 62
7
  6
CONTINUOUS
 10
9.6837327324
 20
20.6068070114
 11
9.6837413196
 21
20.6068036275
  0
LINE
  5
32F
100
AcDbEntity
  8
0
100
AcDbLine
 62
7
  6
CONTINUOUS
 10
9.6837327324
 20
20.8968070114
 11
9.6837413196
 21
20.8968036275
  0
LINE
  5
330
100
AcDbEntity
  8
0
100
AcDbLine
 62
7
  6
CONTINUOUS
 10
9.6837324323
 20
20.3168071314
 11
9.7249834891
 21
20.3003067087
  0
LINE
  5
331
100
AcDbEntity
  8
0
100
AcDbLine
 62
7
  6
CONTINUOUS
 10
9.6837324323
 20
20.6068071314
 11
9.7249834891
 21
20.5903067087
  0
LINE
  5
332
100
AcDbEntity
  8
0
100
AcDbLine
 62
7
  6
CONTINUOUS
 10
9.6837324323
 20
20.8968071314
 11
9.7249834891
 21
20.8803067087
  0
LINE
  5
333
100
AcDbEntity
  8
0
100
AcDbLine
 62
7
  6
CONTINUOUS
 10
9.6821564298
 20
20.8976494084
 11
9.6837458087
 21
20.8968019155
  0
LINE
  5
334
100
AcDbEntity
  8
0
100
AcDbLine
 62
7
  6
CONTINUOUS
 10
9.6821564298
 20
21.1876494084
 11
9.6837458087
 21
21.1868019155
  0
LINE
  5
335
100
AcDbEntity
  8
0
100
AcDbLine
 62
7
  6
CONTINUOUS
 10
9.6821564298
 20
21.4776494084
 11
9.6837458087
 21
21.4768019155
  0
LINE
  5
336
100
AcDbEntity
  8
0
100
AcDbLine
 62
7
  6
CONTINUOUS
 10
9.6821564298
 20
21.7676494084
 11
9.6837458087
 21
21.7668019155
  0
LINE
  5
337
100
AcDbEntity
  8
0
100
AcDbLine
 62
7
  6
CONTINUOUS
 10
9.7249834891
 20
20.1103067087
 11
9.7549834891
 21
20.1140567087
  0
LINE
  5
338
100
AcDbEntity
  8
0
100
AcDbLine
 62
7
  6
CONTINUOUS
 10
9.7249834891
 20
20.4003067087
 11
9.7549834891
 21
20.4040567087
  0
LINE
  5
339
100
AcDbEntity
  8
0
100
AcDbLine
 62
7
  6
CONTINUOUS
 10
9.7249834891
 20
20.6903067087
 11
9.7549834891
 21
20.6940567087
  0
LINE
  5
33A
100
AcDbEntity
  8
0
100
AcDbLine
 62
9
  6
CONTINUOUS
 10
9.675605484
 20
20.0603067092
 11
9.6755542972
 21
20.0603067092
  0
LINE
  5
33B
100
AcDbEntity
  8
0
100
AcDbLine
 62
9
  6
CONTINUOUS
 10
9.6777306633
 20
20.0603067087
 11
9.6769251663
 21
20.0603067087
  0
LINE
  5
33C
100
AcDbEntity
  8
0
100
AcDbLine
 62
9
  6
CONTINUOUS
 10
9.6889416915
 20
20.0603067087
 11
9.7079291508
 21
20.0603067088
  0
LINE
  5
33D
100
AcDbEntity
  8
0
100
AcDbLine
 62
9
  6
CONTINUOUS
 10
9.675605484
 20
20.3503067092
 11
9.6755542972
 21
20.3503067092
  0
LINE
  5
33E
100
AcDbEntity
  8
0
100
AcDbLine
 62
9
  6
CONTINUOUS
 10
9.6777306633
 20
20.3503067087
 11
9.6769251663
 21
20.3503067087
  0
LINE
  5
33F
100
AcDbEntity
  8
0
100
AcDbLine
 62
9
  6
CONTINUOUS
 10
9.6889416915
 20
20.3503067087
 11
9.7079291508
 21
20.3503067088
  0
LINE
  5
340
100
AcDbEntity
  8
0
100
AcDbLine
 62
9
  6
CONTINUOUS
 10
9.675605484
 20
20.6403067092
 11
9.6755542972
 21
20.6403067092
  0
LINE
  5
341
100
AcDbEntity
  8
0
100
AcDbLine
 62
9
  6
CONTINUOUS
 10
9.6777306633
 20
20.6403067087
 11
9.6769251663
 21
20.6403067087
  0
LINE
  5
342
100
AcDbEntity
  8
0
100
AcDbLine
 62
9
  6
CONTINUOUS
 10
9.6889416915
 20
20.6403067087
 11
9.7079291508
 21
20.6403067088
  0
LINE
  5
343
100
AcDbEntity
  8
0
100
AcDbLine
 62
7
  6
CONTINUOUS
 10
9.7249834891
 20
20.3003067087
 11
9.7549834891
 21
20.2965567087
  0
LINE
  5
344
100
AcDbEntity
  8
0
100
AcDbLine
 62
7
  6
CONTINUOUS
 10
9.7249834891
 20
20.5903067087
 11
9.7549834891
 21
20.5865567087
  0
LINE
  5
345
100
AcDbEntity
  8
0
100
AcDbLine
 62
7
  6
CONTINUOUS
 10
9.7249834891
 20
20.8803067087
 11
9.7549834891
 21
20.8765567087
  0
LINE
  5
346
100
AcDbEntity
  8
0
100
AcDbLine
 62
7
  6
CONTINUOUS
 10
9.6837327324
 20
21.1868070114
 11
9.6837413196
 21
21.1868036275
  0
LINE
  5
347
100
AcDbEntity
  8
0
100
AcDbLine
 62
7
  6
CONTINUOUS
 10
9.6837327324
 20
21.4768070114
 11
9.6837413196
 21
21.4768036275
  0
LINE
  5
348
100
AcDbEntity
  8
0
100
AcDbLine
 62
7
  6
CONTINUOUS
 10
9.6837327324
 20
21.7668070114
 11
9.6837413196
 21
21.7668036275
  0
LINE
  5
349
100
AcDbEntity
  8
0
100
AcDbLine
 62
7
  6
CONTINUOUS
 10
9.6837327324
 20
22.0568070114
 11
9.6837413196
 21
22.0568036275
  0
LINE
  5
34A
100
AcDbEntity
  8
0
100
AcDbLine
 62
7
  6
CONTINUOUS
 10
9.6837324323
 20
21.1868071314
 11
9.7249834891
 21
21.1703067087
  0
LINE
  5
34B
100
AcDbEntity
  8
0
100
AcDbLine
 62
7
  6
CONTINUOUS
 10
9.6837324323
 20
21.4768071314
 11
9.7249834891
 21
21.4603067087
  0
LINE
  5
34C
100
AcDbEntity
  8
0
100
AcDbLine
 62
7
  6
CONTINUOUS
 10
9.6837324323
 20
21.7668071314
 11
9.7249834891
 21
21.7503067087
  0
LINE
  5
34D
100
AcDbEntity
  8
0
100
AcDbLine
 62
7
  6
CONTINUOUS
 10
9.6837324323
 20
22.0568071314
 11
9.7249834891
 21
22.0403067087
  0
LINE
  5
34E
100
AcDbEntity
  8
0
100
AcDbLine
 62
7
  6
CONTINUOUS
 10
9.6821564298
 20
22.0576494084
 11
9.6837458087
 21
22.0568019155
  0
LINE
  5
34F
100
AcDbEntity
  8
0
100
AcDbLine
 62
7
  6
CONTINUOUS
 10
9.6821564298
 20
22.3476494084
 11
9.6837458087
 21
22.3468019155
  0
LINE
  5
350
100
AcDbEntity
  8
0
100
AcDbLine
 62
7
  6
CONTINUOUS
 10
9.6821564298
 20
22.6376494084
 11
9.6837458087
 21
22.6368019155
  0
LINE
  5
351
100
AcDbEntity
  8
0
100
AcDbLine
 62
7
  6
CONTINUOUS
 10
9.6821564298
 20
22.9276494084
 11
9.6837458087
 21
22.9268019155
  0
LINE
  5
352
100
AcDbEntity
  8
0
100
AcDbLine
 62
7
  6
CONTINUOUS
 10
9.7249834891
 20
20.9803067087
 11
9.7549834891
 21
20.9840567087
  0
LINE
  5
353
100
AcDbEntity
  8
0
100
AcDbLine
 62
7
  6
CONTINUOUS
 10
9.7249834891
 20
21.2703067087
 11
9.7549834891
 21
21.2740567087
  0
LINE
  5
354
100
AcDbEntity
  8
0
100
AcDbLine
 62
7
  6
CONTINUOUS
 10
9.7249834891
 20
21.5603067087
 11
9.7549834891
 21
21.5640567087
  0
LINE
  5
355
100
AcDbEntity
  8
0
100
AcDbLine
 62
9
  6
CONTINUOUS
 10
9.675605484
 20
20.9303067092
 11
9.6755542972
 21
20.9303067092
  0
LINE
  5
356
100
AcDbEntity
  8
0
100
AcDbLine
 62
9
  6
CONTINUOUS
 10
9.6777306604
 20
20.9303067087
 11
9.6769251663
 21
20.9303067087
  0
LINE
  5
357
100
AcDbEntity
  8
0
100
AcDbLine
 62
9
  6
CONTINUOUS
 10
9.6889416915
 20
20.9303067087
 11
9.7079291508
 21
20.9303067088
  0
LINE
  5
358
100
AcDbEntity
  8
0
100
AcDbLine
 62
9
  6
CONTINUOUS
 10
9.675605484
 20
21.2203067092
 11
9.6755542972
 21
21.2203067092
  0
LINE
  5
359
100
AcDbEntity
  8
0
100
AcDbLine
 62
9
  6
CONTINUOUS
 10
9.6777306607
 20
21.2203067087
 11
9.6769251663
 21
21.2203067087
  0
LINE
  5
35A
100
AcDbEntity
  8
0
100
AcDbLine
 62
9
  6
CONTINUOUS
 10
9.6889416915
 20
21.2203067087
 11
9.7079291508
 21
21.2203067088
  0
LINE
  5
35B
100
AcDbEntity
  8
0
100
AcDbLine
 62
9
  6
CONTINUOUS
 10
9.675605484
 20
21.5103067092
 11
9.6755542972
 21
21.5103067092
  0
LINE
  5
35C
100
AcDbEntity
  8
0
100
AcDbLine
 62
9
  6
CONTINUOUS
 10
9.6777306607
 20
21.5103067087
 11
9.6769251663
 21
21.5103067087
  0
LINE
  5
35D
100
AcDbEntity
  8
0
100
AcDbLine
 62
9
  6
CONTINUOUS
 10
9.6889416915
 20
21.5103067087
 11
9.7079291508
 21
21.5103067088
  0
LINE
  5
35E
100
AcDbEntity
  8
0
100
AcDbLine
 62
9
  6
CONTINUOUS
 10
9.675605484
 20
21.8003067092
 11
9.6755542972
 21
21.8003067092
  0
LINE
  5
35F
100
AcDbEntity
  8
0
100
AcDbLine
 62
9
  6
CONTINUOUS
 10
9.6777306607
 20
21.8003067087
 11
9.6769251663
 21
21.8003067087
  0
LINE
  5
360
100
AcDbEntity
  8
0
100
AcDbLine
 62
9
  6
CONTINUOUS
 10
9.6889416915
 20
21.8003067087
 11
9.7079291508
 21
21.8003067088
  0
LINE
  5
361
100
AcDbEntity
  8
0
100
AcDbLine
 62
7
  6
CONTINUOUS
 10
9.7249834891
 20
21.1703067087
 11
9.7549834891
 21
21.1665567087
  0
LINE
  5
362
100
AcDbEntity
  8
0
100
AcDbLine
 62
7
  6
CONTINUOUS
 10
9.7249834891
 20
21.4603067087
 11
9.7549834891
 21
21.4565567087
  0
LINE
  5
363
100
AcDbEntity
  8
0
100
AcDbLine
 62
7
  6
CONTINUOUS
 10
9.7249834891
 20
21.7503067087
 11
9.7549834891
 21
21.7465567087
  0
LINE
  5
364
100
AcDbEntity
  8
0
100
AcDbLine
 62
7
  6
CONTINUOUS
 10
9.7249834891
 20
22.0403067087
 11
9.7549834891
 21
22.0365567087
  0
LINE
  5
365
100
AcDbEntity
  8
0
100
AcDbLine
 62
7
  6
CONTINUOUS
 10
9.6837327324
 20
22.3468070114
 11
9.6837413196
 21
22.3468036275
  0
LINE
  5
366
100
AcDbEntity
  8
0
100
AcDbLine
 62
7
  6
CONTINUOUS
 10
9.6837327324
 20
22.6368070114
 11
9.6837413196
 21
22.6368036275
  0
LINE
  5
367
100
AcDbEntity
  8
0
100
AcDbLine
 62
7
  6
CONTINUOUS
 10
9.6837327324
 20
22.9268070114
 11
9.6837413196
 21
22.9268036275
  0
LINE
  5
368
100
AcDbEntity
  8
0
100
AcDbLine
 62
7
  6
CONTINUOUS
 10
9.6837324323
 20
22.3468071314
 11
9.7249834891
 21
22.3303067087
  0
LINE
  5
369
100
AcDbEntity
  8
0
100
AcDbLine
 62
7
  6
CONTINUOUS
 10
9.6837324323
 20
22.6368071314
 11
9.7249834891
 21
22.6203067087
  0
LINE
  5
36A
100
AcDbEntity
  8
0
100
AcDbLine
 62
7
  6
CONTINUOUS
 10
9.6837324323
 20
22.9268071314
 11
9.7249834891
 21
22.9103067087
  0
LINE
  5
36B
100
AcDbEntity
  8
0
100
AcDbLine
 62
7
  6
CONTINUOUS
 10
9.7249834891
 20
21.8503067087
 11
9.7549834891
 21
21.8540567087
  0
LINE
  5
36C
100
AcDbEntity
  8
0
100
AcDbLine
 62
7
  6
CONTINUOUS
 10
9.7249834891
 20
22.1403067087
 11
9.7549834891
 21
22.1440567087
  0
LINE
  5
36D
100
AcDbEntity
  8
0
100
AcDbLine
 62
7
  6
CONTINUOUS
 10
9.7249834891
 20
22.4303067087
 11
9.7549834891
 21
22.4340567087
  0
LINE
  5
36E
100
AcDbEntity
  8
0
100
AcDbLine
 62
7
  6
CONTINUOUS
 10
9.7249834891
 20
22.7203067087
 11
9.7549834891
 21
22.7240567087
  0
LINE
  5
36F
100
AcDbEntity
  8
0
100
AcDbLine
 62
7
  6
CONTINUOUS
 10
9.7249834891
 20
23.0103067087
 11
9.7549834891
 21
23.0140567087
  0
LINE
  5
370
100
AcDbEntity
  8
0
100
AcDbLine
 62
9
  6
CONTINUOUS
 10
9.675605484
 20
22.0903067092
 11
9.6755542972
 21
22.0903067092
  0
LINE
  5
371
100
AcDbEntity
  8
0
100
AcDbLine
 62
9
  6
CONTINUOUS
 10
9.6777306633
 20
22.0903067087
 11
9.6769251663
 21
22.0903067087
  0
LINE
  5
372
100
AcDbEntity
  8
0
100
AcDbLine
 62
9
  6
CONTINUOUS
 10
9.6889416915
 20
22.0903067087
 11
9.7079291508
 21
22.0903067088
  0
LINE
  5
373
100
AcDbEntity
  8
0
100
AcDbLine
 62
9
  6
CONTINUOUS
 10
9.675605484
 20
22.3803067092
 11
9.6755542972
 21
22.3803067092
  0
LINE
  5
374
100
AcDbEntity
  8
0
100
AcDbLine
 62
9
  6
CONTINUOUS
 10
9.6777306616
 20
22.3803067087
 11
9.6769251663
 21
22.3803067087
  0
LINE
  5
375
100
AcDbEntity
  8
0
100
AcDbLine
 62
9
  6
CONTINUOUS
 10
9.6889416915
 20
22.3803067087
 11
9.7079291508
 21
22.3803067088
  0
LINE
  5
376
100
AcDbEntity
  8
0
100
AcDbLine
 62
9
  6
CONTINUOUS
 10
9.675605484
 20
22.6703067092
 11
9.6755542972
 21
22.6703067092
  0
LINE
  5
377
100
AcDbEntity
  8
0
100
AcDbLine
 62
9
  6
CONTINUOUS
 10
9.6777306633
 20
22.6703067087
 11
9.6769251663
 21
22.6703067087
  0
LINE
  5
378
100
AcDbEntity
  8
0
100
AcDbLine
 62
9
  6
CONTINUOUS
 10
9.6889416915
 20
22.6703067087
 11
9.7079291508
 21
22.6703067088
  0
LINE
  5
379
100
AcDbEntity
  8
0
100
AcDbLine
 62
9
  6
CONTINUOUS
 10
9.675605484
 20
22.9603067092
 11
9.6755542972
 21
22.9603067092
  0
LINE
  5
37A
100
AcDbEntity
  8
0
100
AcDbLine
 62
9
  6
CONTINUOUS
 10
9.6777306633
 20
22.9603067087
 11
9.6769251663
 21
22.9603067087
  0
LINE
  5
37B
100
AcDbEntity
  8
0
100
AcDbLine
 62
9
  6
CONTINUOUS
 10
9.6889416915
 20
22.9603067087
 11
9.7079291508
 21
22.9603067088
  0
LINE
  5
37C
100
AcDbEntity
  8
0
100
AcDbLine
 62
9
  6
CONTINUOUS
 10
10.7549834891
 20
23.5003067087
 11
9.7549834891
 21
23.5003067087
  0
LINE
  5
37D
100
AcDbEntity
  8
0
100
AcDbLine
 62
7
  6
CONTINUOUS
 10
9.7649834891
 20
23.5103067087
 11
10.7449834891
 21
23.5103067087
  0
LINE
  5
37E
100
AcDbEntity
  8
0
100
AcDbLine
 62
7
  6
CONTINUOUS
 10
9.8014834891
 20
23.5203067087
 11
10.7084834891
 21
23.5203067087
  0
LINE
  5
37F
100
AcDbEntity
  8
0
100
AcDbLine
 62
7
  6
CONTINUOUS
 10
9.7249834891
 20
22.3303067087
 11
9.7549834891
 21
22.3265567087
  0
LINE
  5
380
100
AcDbEntity
  8
0
100
AcDbLine
 62
7
  6
CONTINUOUS
 10
9.7249834891
 20
22.6203067087
 11
9.7549834891
 21
22.6165567087
  0
LINE
  5
381
100
AcDbEntity
  8
0
100
AcDbLine
 62
7
  6
CONTINUOUS
 10
9.7249834891
 20
22.9103067087
 11
9.7549834891
 21
22.9065567087
  0
ARC
  5
382
100
AcDbEntity
  8
0
100
AcDbCircle
 62
7
  6
CONTINUOUS
 10
-5.2309890033
 20
9.1374374207
 40
15.7659724924
100
AcDbArc
 50
359.5630116307
 51
0.0001024541
  0
ARC
  5
383
100
AcDbEntity
  8
0
100
AcDbCircle
 62
7
  6
CONTINUOUS
 10
-5.2309947673
 20
9.1374374392
 40
15.2059782564
100
AcDbArc
 50
359.5630323418
 51
0.0001061577
  0
ARC
  5
384
100
AcDbEntity
  8
0
100
AcDbCircle
 62
9
  6
CONTINUOUS
 10
6.5057064165
 20
-4.5973602922
 40
5.0114709997
100
AcDbArc
 50
354.5653220338
 51
355.1846924175
  0
ARC
  5
385
100
AcDbEntity
  8
0
100
AcDbCircle
 62
9
  6
CONTINUOUS
 10
9.7199834891
 20
14.8353067087
 40
0.28
100
AcDbArc
 50
270.0000000027
 51
359.9999999931
  0
ARC
  5
386
100
AcDbEntity
  8
0
100
AcDbCircle
 62
9
  6
CONTINUOUS
 10
9.7199834891
 20
13.7653067087
 40
0.28
100
AcDbArc
 50
0.0000000027
 51
89.9999999931
  0
ARC
  5
387
100
AcDbEntity
  8
0
100
AcDbCircle
 62
7
  6
CONTINUOUS
 10
9.7199834891
 20
13.7653067087
 40
0.25
100
AcDbArc
 50
0.0
 51
90.0000000151
  0
ARC
  5
388
100
AcDbEntity
  8
0
100
AcDbCircle
 62
7
  6
CONTINUOUS
 10
9.7199834891
 20
14.8353067087
 40
0.25
100
AcDbArc
 50
270.0
 51
360.0
  0
ARC
  5
389
100
AcDbEntity
  8
0
100
AcDbCircle
 62
7
  6
CONTINUOUS
 10
10.2499834891
 20
15.6668067087
 40
0.04
100
AcDbArc
 50
90.0
 51
180.0
  0
ARC
  5
38A
100
AcDbEntity
  8
0
100
AcDbCircle
 62
7
  6
CONTINUOUS
 10
10.2499834891
 20
14.3918067087
 40
0.04
100
AcDbArc
 50
180.0
 51
270.0
  0
ARC
  5
38B
100
AcDbEntity
  8
0
100
AcDbCircle
 62
7
  6
CONTINUOUS
 10
9.9999834891
 20
12.7603067087
 40
0.03
100
AcDbArc
 50
180.0000001132
 51
270.0
  0
ARC
  5
38C
100
AcDbEntity
  8
0
100
AcDbCircle
 62
7
  6
CONTINUOUS
 10
10.5099834891
 20
12.7603067087
 40
0.03
100
AcDbArc
 50
270.000000113
 51
360.0
  0
ARC
  5
38D
100
AcDbEntity
  8
0
100
AcDbCircle
 62
7
  6
CONTINUOUS
 10
10.5099834891
 20
15.8403067087
 40
0.03
100
AcDbArc
 50
0.0000001132
 51
90.0
  0
ARC
  5
38E
100
AcDbEntity
  8
0
100
AcDbCircle
 62
7
  6
CONTINUOUS
 10
9.9999834891
 20
15.8403067087
 40
0.03
100
AcDbArc
 50
90.000000113
 51
180.0
  0
ARC
  5
38F
100
AcDbEntity
  8
0
100
AcDbCircle
 62
7
  6
CONTINUOUS
 10
8.7149834891
 20
14.5553067087
 40
0.03
100
AcDbArc
 50
90.0000001132
 51
180.0
  0
ARC
  5
390
100
AcDbEntity
  8
0
100
AcDbCircle
 62
7
  6
CONTINUOUS
 10
8.7149834891
 20
14.0453067087
 40
0.03
100
AcDbArc
 50
180.000000113
 51
270.0
  0
ARC
  5
391
100
AcDbEntity
  8
0
100
AcDbCircle
 62
7
  6
CONTINUOUS
 10
9.4399834891
 20
13.5203067087
 40
0.02
100
AcDbArc
 50
90.0
 51
180.0
  0
ARC
  5
392
100
AcDbEntity
  8
0
100
AcDbCircle
 62
7
  6
CONTINUOUS
 10
9.4399834891
 20
13.2103067087
 40
0.02
100
AcDbArc
 50
180.0
 51
270.0
  0
ARC
  5
393
100
AcDbEntity
  8
0
100
AcDbCircle
 62
7
  6
CONTINUOUS
 10
9.4549834891
 20
13.5603067087
 40
0.02
100
AcDbArc
 50
270.0
 51
360.0
  0
ARC
  5
394
100
AcDbEntity
  8
0
100
AcDbCircle
 62
7
  6
CONTINUOUS
 10
9.4549834891
 20
15.0403067087
 40
0.02
100
AcDbArc
 50
0.0
 51
90.0
  0
ARC
  5
395
100
AcDbEntity
  8
0
100
AcDbCircle
 62
7
  6
CONTINUOUS
 10
9.4399834891
 20
15.0803067087
 40
0.02
100
AcDbArc
 50
180.0
 51
270.0
  0
ARC
  5
396
100
AcDbEntity
  8
0
100
AcDbCircle
 62
7
  6
CONTINUOUS
 10
9.4399834891
 20
15.3903067087
 40
0.02
100
AcDbArc
 50
90.0
 51
180.0
  0
ARC
  5
397
100
AcDbEntity
  8
0
100
AcDbCircle
 62
9
  6
CONTINUOUS
 10
9.6645641703
 20
20.657099266
 40
0.0191159184
100
AcDbArc
 50
20.6239520779
 51
22.1181762307
  0
ARC
  5
398
100
AcDbEntity
  8
0
100
AcDbCircle
 62
9
  6
CONTINUOUS
 10
9.6645641704
 20
20.367099266
 40
0.0191159184
100
AcDbArc
 50
20.6239520901
 51
22.1181762362
  0
ARC
  5
399
100
AcDbEntity
  8
0
100
AcDbCircle
 62
9
  6
CONTINUOUS
 10
9.6645641704
 20
20.077099266
 40
0.0191159184
100
AcDbArc
 50
20.6239520805
 51
22.1181762361
  0
ARC
  5
39A
100
AcDbEntity
  8
0
100
AcDbCircle
 62
9
  6
CONTINUOUS
 10
9.664564174
 20
21.5270992675
 40
0.0191159144
100
AcDbArc
 50
20.6239565886
 51
22.1181762932
  0
ARC
  5
39B
100
AcDbEntity
  8
0
100
AcDbCircle
 62
9
  6
CONTINUOUS
 10
9.664564174
 20
21.2370992675
 40
0.0191159144
100
AcDbArc
 50
20.6239565906
 51
22.1181762928
  0
ARC
  5
39C
100
AcDbEntity
  8
0
100
AcDbCircle
 62
9
  6
CONTINUOUS
 10
9.6645641744
 20
20.9470992676
 40
0.019115914
100
AcDbArc
 50
20.6239571052
 51
22.1181763004
  0
ARC
  5
39D
100
AcDbEntity
  8
0
100
AcDbCircle
 62
9
  6
CONTINUOUS
 10
9.6645641704
 20
22.977099266
 40
0.0191159184
100
AcDbArc
 50
20.6239520737
 51
22.1181762361
  0
ARC
  5
39E
100
AcDbEntity
  8
0
100
AcDbCircle
 62
9
  6
CONTINUOUS
 10
9.6645641703
 20
22.107099266
 40
0.0191159184
100
AcDbArc
 50
20.6239520771
 51
22.1181762309
  0
ARC
  5
39F
100
AcDbEntity
  8
0
100
AcDbCircle
 62
9
  6
CONTINUOUS
 10
9.6645641703
 20
22.687099266
 40
0.0191159184
100
AcDbArc
 50
20.6239520717
 51
22.1181762353
  0
ARC
  5
3A0
100
AcDbEntity
  8
0
100
AcDbCircle
 62
9
  6
CONTINUOUS
 10
9.6645641727
 20
22.397099267
 40
0.0191159158
100
AcDbArc
 50
20.6239549962
 51
22.1181762708
  0
ARC
  5
3A1
100
AcDbEntity
  8
0
100
AcDbCircle
 62
9
  6
CONTINUOUS
 10
9.664564174
 20
21.8170992675
 40
0.0191159144
100
AcDbArc
 50
20.6239565892
 51
22.1181762926
  0
ARC
  5
3A2
100
AcDbEntity
  8
0
100
AcDbCircle
 62
7
  6
CONTINUOUS
 10
9.7990375341
 20
20.6403119053
 40
0.122112368
100
AcDbArc
 50
177.1173758025
 51
180.0024382615
  0
ARC
  5
3A3
100
AcDbEntity
  8
0
100
AcDbCircle
 62
7
  6
CONTINUOUS
 10
9.7990375341
 20
20.3503119053
 40
0.122112368
100
AcDbArc
 50
177.1173758025
 51
180.0024382615
  0
ARC
  5
3A4
100
AcDbEntity
  8
0
100
AcDbCircle
 62
7
  6
CONTINUOUS
 10
9.7990375341
 20
21.5103119053
 40
0.122112368
100
AcDbArc
 50
177.1173758024
 51
180.0024382615
  0
ARC
  5
3A5
100
AcDbEntity
  8
0
100
AcDbCircle
 62
7
  6
CONTINUOUS
 10
9.7990375341
 20
20.0603119053
 40
0.122112368
100
AcDbArc
 50
177.1173758025
 51
180.0024382615
  0
ARC
  5
3A6
100
AcDbEntity
  8
0
100
AcDbCircle
 62
7
  6
CONTINUOUS
 10
9.7990375341
 20
21.2203119053
 40
0.122112368
100
AcDbArc
 50
177.1173758025
 51
180.0024382615
  0
ARC
  5
3A7
100
AcDbEntity
  8
0
100
AcDbCircle
 62
7
  6
CONTINUOUS
 10
9.7990375341
 20
20.9303119053
 40
0.122112368
100
AcDbArc
 50
177.1173758025
 51
180.0024382615
  0
ARC
  5
3A8
100
AcDbEntity
  8
0
100
AcDbCircle
 62
7
  6
CONTINUOUS
 10
9.7964136298
 20
21.2202365587
 40
0.1194884841
100
AcDbArc
 50
179.9663624331
 51
182.9543379018
  0
ARC
  5
3A9
100
AcDbEntity
  8
0
100
AcDbCircle
 62
7
  6
CONTINUOUS
 10
9.7964136298
 20
21.5102365587
 40
0.1194884841
100
AcDbArc
 50
179.9663624331
 51
182.9543379017
  0
ARC
  5
3AA
100
AcDbEntity
  8
0
100
AcDbCircle
 62
7
  6
CONTINUOUS
 10
9.7964136298
 20
20.3502365587
 40
0.1194884841
100
AcDbArc
 50
179.9663624332
 51
182.9543379015
  0
ARC
  5
3AB
100
AcDbEntity
  8
0
100
AcDbCircle
 62
7
  6
CONTINUOUS
 10
9.7964136298
 20
20.9302365587
 40
0.1194884841
100
AcDbArc
 50
179.9663624331
 51
182.9543379018
  0
ARC
  5
3AC
100
AcDbEntity
  8
0
100
AcDbCircle
 62
7
  6
CONTINUOUS
 10
9.7964136298
 20
20.6402365587
 40
0.1194884841
100
AcDbArc
 50
179.9663624331
 51
182.9543379018
  0
ARC
  5
3AD
100
AcDbEntity
  8
0
100
AcDbCircle
 62
7
  6
CONTINUOUS
 10
9.7964136298
 20
20.0602365587
 40
0.1194884841
100
AcDbArc
 50
179.9663624332
 51
182.9543379015
  0
ARC
  5
3AE
100
AcDbEntity
  8
0
100
AcDbCircle
 62
7
  6
CONTINUOUS
 10
9.7454039026
 20
20.6394535112
 40
0.0403568801
100
AcDbArc
 50
189.3577169524
 51
193.030668108
  0
ARC
  5
3AF
100
AcDbEntity
  8
0
100
AcDbCircle
 62
7
  6
CONTINUOUS
 10
9.7454039026
 20
20.3494535112
 40
0.0403568801
100
AcDbArc
 50
189.3577169525
 51
193.0306681079
  0
ARC
  5
3B0
100
AcDbEntity
  8
0
100
AcDbCircle
 62
7
  6
CONTINUOUS
 10
9.7454039026
 20
21.5094535112
 40
0.0403568801
100
AcDbArc
 50
189.3577169525
 51
193.0306681079
  0
ARC
  5
3B1
100
AcDbEntity
  8
0
100
AcDbCircle
 62
7
  6
CONTINUOUS
 10
9.7454039026
 20
20.0594535112
 40
0.0403568801
100
AcDbArc
 50
189.3577169526
 51
193.0306681079
  0
ARC
  5
3B2
100
AcDbEntity
  8
0
100
AcDbCircle
 62
7
  6
CONTINUOUS
 10
9.7454039026
 20
21.2194535112
 40
0.0403568801
100
AcDbArc
 50
189.3577169524
 51
193.0306681079
  0
ARC
  5
3B3
100
AcDbEntity
  8
0
100
AcDbCircle
 62
7
  6
CONTINUOUS
 10
9.7454039026
 20
20.9294535112
 40
0.0403568801
100
AcDbArc
 50
189.3577169524
 51
193.030668108
  0
ARC
  5
3B4
100
AcDbEntity
  8
0
100
AcDbCircle
 62
7
  6
CONTINUOUS
 10
9.7454019504
 20
20.6411602834
 40
0.0403548925
100
AcDbArc
 50
166.9662753028
 51
170.6423607031
  0
ARC
  5
3B5
100
AcDbEntity
  8
0
100
AcDbCircle
 62
7
  6
CONTINUOUS
 10
9.7454019504
 20
20.3511602834
 40
0.0403548925
100
AcDbArc
 50
166.966275303
 51
170.6423607029
  0
ARC
  5
3B6
100
AcDbEntity
  8
0
100
AcDbCircle
 62
7
  6
CONTINUOUS
 10
9.7454019504
 20
21.5111602834
 40
0.0403548925
100
AcDbArc
 50
166.966275303
 51
170.6423607029
  0
ARC
  5
3B7
100
AcDbEntity
  8
0
100
AcDbCircle
 62
7
  6
CONTINUOUS
 10
9.7454019504
 20
20.0611602834
 40
0.0403548925
100
AcDbArc
 50
166.966275303
 51
170.6423607029
  0
ARC
  5
3B8
100
AcDbEntity
  8
0
100
AcDbCircle
 62
7
  6
CONTINUOUS
 10
9.7454019504
 20
21.2211602834
 40
0.0403548925
100
AcDbArc
 50
166.9662753032
 51
170.6423607028
  0
ARC
  5
3B9
100
AcDbEntity
  8
0
100
AcDbCircle
 62
7
  6
CONTINUOUS
 10
9.7454019504
 20
20.9311602834
 40
0.0403548925
100
AcDbArc
 50
166.966275303
 51
170.6423607031
  0
ARC
  5
3BA
100
AcDbEntity
  8
0
100
AcDbCircle
 62
7
  6
CONTINUOUS
 10
9.7990375341
 20
22.3803119053
 40
0.122112368
100
AcDbArc
 50
177.1173758025
 51
180.0024382615
  0
ARC
  5
3BB
100
AcDbEntity
  8
0
100
AcDbCircle
 62
7
  6
CONTINUOUS
 10
9.7990375341
 20
21.8003119053
 40
0.122112368
100
AcDbArc
 50
177.1173758025
 51
180.0024382615
  0
ARC
  5
3BC
100
AcDbEntity
  8
0
100
AcDbCircle
 62
7
  6
CONTINUOUS
 10
9.7990375341
 20
22.9603119053
 40
0.122112368
100
AcDbArc
 50
177.1173758025
 51
180.0024382615
  0
ARC
  5
3BD
100
AcDbEntity
  8
0
100
AcDbCircle
 62
7
  6
CONTINUOUS
 10
9.7990375341
 20
22.0903119053
 40
0.122112368
100
AcDbArc
 50
177.1173758025
 51
180.0024382615
  0
ARC
  5
3BE
100
AcDbEntity
  8
0
100
AcDbCircle
 62
7
  6
CONTINUOUS
 10
9.7990375341
 20
22.6703119053
 40
0.122112368
100
AcDbArc
 50
177.1173758025
 51
180.0024382615
  0
ARC
  5
3BF
100
AcDbEntity
  8
0
100
AcDbCircle
 62
7
  6
CONTINUOUS
 10
9.7964136298
 20
22.3802365587
 40
0.1194884841
100
AcDbArc
 50
179.9663624331
 51
182.9543379018
  0
ARC
  5
3C0
100
AcDbEntity
  8
0
100
AcDbCircle
 62
7
  6
CONTINUOUS
 10
9.7964136298
 20
22.6702365587
 40
0.1194884841
100
AcDbArc
 50
179.9663624331
 51
182.9543379016
  0
ARC
  5
3C1
100
AcDbEntity
  8
0
100
AcDbCircle
 62
7
  6
CONTINUOUS
 10
9.7964136298
 20
22.9602365587
 40
0.1194884841
100
AcDbArc
 50
179.9663624331
 51
182.9543379016
  0
ARC
  5
3C2
100
AcDbEntity
  8
0
100
AcDbCircle
 62
7
  6
CONTINUOUS
 10
9.7964136298
 20
21.8002365587
 40
0.1194884841
100
AcDbArc
 50
179.966362433
 51
182.9543379019
  0
ARC
  5
3C3
100
AcDbEntity
  8
0
100
AcDbCircle
 62
7
  6
CONTINUOUS
 10
9.7964136298
 20
22.0902365587
 40
0.1194884841
100
AcDbArc
 50
179.9663624331
 51
182.9543379018
  0
ARC
  5
3C4
100
AcDbEntity
  8
0
100
AcDbCircle
 62
7
  6
CONTINUOUS
 10
9.7454039026
 20
22.6694535112
 40
0.0403568801
100
AcDbArc
 50
189.3577169525
 51
193.0306681081
  0
ARC
  5
3C5
100
AcDbEntity
  8
0
100
AcDbCircle
 62
7
  6
CONTINUOUS
 10
9.7454039026
 20
22.3794535112
 40
0.0403568801
100
AcDbArc
 50
189.3577169524
 51
193.0306681079
  0
ARC
  5
3C6
100
AcDbEntity
  8
0
100
AcDbCircle
 62
7
  6
CONTINUOUS
 10
9.7454039026
 20
21.7994535112
 40
0.0403568801
100
AcDbArc
 50
189.3577169523
 51
193.030668108
  0
ARC
  5
3C7
100
AcDbEntity
  8
0
100
AcDbCircle
 62
7
  6
CONTINUOUS
 10
9.7454039026
 20
22.9594535112
 40
0.0403568801
100
AcDbArc
 50
189.3577169523
 51
193.0306681081
  0
ARC
  5
3C8
100
AcDbEntity
  8
0
100
AcDbCircle
 62
7
  6
CONTINUOUS
 10
9.7454039026
 20
22.0894535112
 40
0.0403568801
100
AcDbArc
 50
189.3577169523
 51
193.0306681079
  0
ARC
  5
3C9
100
AcDbEntity
  8
0
100
AcDbCircle
 62
7
  6
CONTINUOUS
 10
9.7454019504
 20
22.6711602834
 40
0.0403548925
100
AcDbArc
 50
166.966275303
 51
170.642360703
  0
ARC
  5
3CA
100
AcDbEntity
  8
0
100
AcDbCircle
 62
7
  6
CONTINUOUS
 10
9.7454019504
 20
22.3811602834
 40
0.0403548925
100
AcDbArc
 50
166.966275303
 51
170.6423607029
  0
ARC
  5
3CB
100
AcDbEntity
  8
0
100
AcDbCircle
 62
7
  6
CONTINUOUS
 10
9.7454019504
 20
21.8011602834
 40
0.0403548925
100
AcDbArc
 50
166.9662753032
 51
170.6423607029
  0
ARC
  5
3CC
100
AcDbEntity
  8
0
100
AcDbCircle
 62
7
  6
CONTINUOUS
 10
9.7454019504
 20
22.9611602834
 40
0.0403548925
100
AcDbArc
 50
166.966275303
 51
170.642360703
  0
ARC
  5
3CD
100
AcDbEntity
  8
0
100
AcDbCircle
 62
7
  6
CONTINUOUS
 10
9.7454019504
 20
22.0911602834
 40
0.0403548925
100
AcDbArc
 50
166.9662753032
 51
170.6423607029
  0
ARC
  5
3CE
100
AcDbEntity
  8
0
100
AcDbCircle
 62
7
  6
CONTINUOUS
 10
9.8014834891
 20
23.5103067087
 40
0.01
100
AcDbArc
 50
90.0
 51
180.0
  0
ARC
  5
3CF
100
AcDbEntity
  8
0
100
AcDbCircle
 62
7
  6
CONTINUOUS
 10
9.7649834891
 20
23.5003067087
 40
0.01
100
AcDbArc
 50
90.0
 51
180.0
  0
ARC
  5
3D0
100
AcDbEntity
  8
0
100
AcDbCircle
 62
9
  6
CONTINUOUS
 10
10.7899834891
 20
13.7653067087
 40
0.28
100
AcDbArc
 50
169.0818900702
 51
179.9999999931
  0
ARC
  5
3D1
100
AcDbEntity
  8
0
100
AcDbCircle
 62
7
  6
CONTINUOUS
 10
11.1452207302
 20
14.0479972578
 40
0.21191774
100
AcDbArc
 50
299.8296189414
 51
303.1799641626
  0
ARC
  5
3D2
100
AcDbEntity
  8
0
100
AcDbCircle
 62
7
  6
CONTINUOUS
 10
12.4549834891
 20
16.0393067087
 40
0.04
100
AcDbArc
 50
90.0
 51
180.0
  0
ARC
  5
3D3
100
AcDbEntity
  8
0
100
AcDbCircle
 62
7
  6
CONTINUOUS
 10
12.4549834891
 20
14.0193067087
 40
0.04
100
AcDbArc
 50
180.0
 51
270.0
  0
ARC
  5
3D4
100
AcDbEntity
  8
0
100
AcDbCircle
 62
7
  6
CONTINUOUS
 10
11.7949834891
 20
14.0453067087
 40
0.03
100
AcDbArc
 50
270.0000001132
 51
360.0
  0
ARC
  5
3D5
100
AcDbEntity
  8
0
100
AcDbCircle
 62
7
  6
CONTINUOUS
 10
10.7084834891
 20
23.5103067087
 40
0.01
100
AcDbArc
 50
0.0
 51
90.0
  0
ARC
  5
3D6
100
AcDbEntity
  8
0
100
AcDbCircle
 62
7
  6
CONTINUOUS
 10
10.7449834891
 20
23.5003067087
 40
0.01
100
AcDbArc
 50
0.0
 51
90.0
  0
SPLINE
  5
3D7
100
AcDbEntity
  8
0
100
AcDbSpline
 62
7
  6
CONTINUOUS
 70
0
 71
3
 72
19
 73
15
 74
0
 42
0.0000001
 43
0.0000001
 44
0.0000000001
 40
0.0
 40
0.0
 40
0.0
 40
0.0
 40
0.0428867434
 40
0.0859087911
 40
0.1303853222
 40
0.1774481311
 40
0.2278684568
 40
0.2820710662
 40
0.3402261977
 40
0.4022897728
 40
0.5372054325
 40
0.684470916
 40
0.8403043052
 40
1.0
 40
1.0
 40
1.0
 40
1.0
 10
9.6969874845
 20
20.9488331226
 30
0.0
 10
9.6973205012
 20
20.9489126345
 30
0.0
 10
9.698006884
 20
20.9490014585
 30
0.0
 10
9.6990512767
 20
20.9489092272
 30
0.0
 10
9.7000857914
 20
20.9485939899
 30
0.0
 10
9.7010936779
 20
20.9480633968
 30
0.0
 10
9.702065438
 20
20.947333631
 30
0.0
 10
9.7029916796
 20
20.9464172822
 30
0.0
 10
9.7038621623
 20
20.9453269228
 30
0.0
 10
9.7049674381
 20
20.943612701
 30
0.0
 10
9.7061312491
 20
20.9411079346
 30
0.0
 10
9.7071358883
 20
20.9377491227
 30
0.0
 10
9.7077749476
 20
20.9341026849
 30
0.0
 10
9.7079291751
 20
20.9315816058
 30
0.0
 10
9.7079291508
 20
20.9303067087
 30
0.0
  0
SPLINE
  5
3D8
100
AcDbEntity
  8
0
100
AcDbSpline
 62
7
  6
CONTINUOUS
 70
0
 71
3
 72
19
 73
15
 74
0
 42
0.0000001
 43
0.0000001
 44
0.0000000001
 40
0.0
 40
0.0
 40
0.0
 40
0.0
 40
0.0428867434
 40
0.0859087911
 40
0.1303853222
 40
0.1774481311
 40
0.2278684568
 40
0.2820710662
 40
0.3402261977
 40
0.4022897728
 40
0.5372054325
 40
0.684470916
 40
0.8403043052
 40
1.0
 40
1.0
 40
1.0
 40
1.0
 10
9.6969874845
 20
21.2388331226
 30
0.0
 10
9.6973205012
 20
21.2389126345
 30
0.0
 10
9.698006884
 20
21.2390014585
 30
0.0
 10
9.6990512767
 20
21.2389092272
 30
0.0
 10
9.7000857914
 20
21.2385939899
 30
0.0
 10
9.7010936779
 20
21.2380633968
 30
0.0
 10
9.702065438
 20
21.237333631
 30
0.0
 10
9.7029916796
 20
21.2364172822
 30
0.0
 10
9.7038621623
 20
21.2353269228
 30
0.0
 10
9.7049674381
 20
21.233612701
 30
0.0
 10
9.7061312491
 20
21.2311079346
 30
0.0
 10
9.7071358883
 20
21.2277491227
 30
0.0
 10
9.7077749476
 20
21.2241026849
 30
0.0
 10
9.7079291751
 20
21.2215816058
 30
0.0
 10
9.7079291508
 20
21.2203067087
 30
0.0
  0
SPLINE
  5
3D9
100
AcDbEntity
  8
0
100
AcDbSpline
 62
7
  6
CONTINUOUS
 70
0
 71
3
 72
19
 73
15
 74
0
 42
0.0000001
 43
0.0000001
 44
0.0000000001
 40
0.0
 40
0.0
 40
0.0
 40
0.0
 40
0.0428867434
 40
0.0859087911
 40
0.1303853222
 40
0.1774481311
 40
0.2278684568
 40
0.2820710662
 40
0.3402261976
 40
0.4022897728
 40
0.5372054324
 40
0.684470916
 40
0.8403043052
 40
1.0
 40
1.0
 40
1.0
 40
1.0
 10
9.6969874845
 20
20.0788331226
 30
0.0
 10
9.6973205011
 20
20.0789126345
 30
0.0
 10
9.698006884
 20
20.0790014585
 30
0.0
 10
9.6990512767
 20
20.0789092272
 30
0.0
 10
9.7000857914
 20
20.0785939899
 30
0.0
 10
9.7010936779
 20
20.0780633968
 30
0.0
 10
9.702065438
 20
20.077333631
 30
0.0
 10
9.7029916796
 20
20.0764172822
 30
0.0
 10
9.7038621623
 20
20.0753269228
 30
0.0
 10
9.7049674381
 20
20.073612701
 30
0.0
 10
9.7061312491
 20
20.0711079346
 30
0.0
 10
9.7071358883
 20
20.0677491228
 30
0.0
 10
9.7077749476
 20
20.0641026849
 30
0.0
 10
9.7079291751
 20
20.0615816058
 30
0.0
 10
9.7079291508
 20
20.0603067087
 30
0.0
  0
SPLINE
  5
3DA
100
AcDbEntity
  8
0
100
AcDbSpline
 62
7
  6
CONTINUOUS
 70
0
 71
3
 72
19
 73
15
 74
0
 42
0.0000001
 43
0.0000001
 44
0.0000000001
 40
0.0
 40
0.0
 40
0.0
 40
0.0
 40
0.1596711733
 40
0.315486639
 40
0.4627370792
 40
0.5976341869
 40
0.6596961686
 40
0.7178634242
 40
0.7720917813
 40
0.8225383223
 40
0.869614366
 40
0.914082719
 40
0.957099846
 40
1.0
 40
1.0
 40
1.0
 40
1.0
 10
9.7079291508
 20
22.0903067087
 30
0.0
 10
9.7079291751
 20
22.0890320001
 30
0.0
 10
9.7077749774
 20
22.0865112448
 30
0.0
 10
9.7071360364
 20
22.082865238
 30
0.0
 10
9.7061317753
 20
22.07950673
 30
0.0
 10
9.7049682123
 20
22.0770021272
 30
0.0
 10
9.7038629253
 20
22.0752879747
 30
0.0
 10
9.7029923539
 20
22.0741973176
 30
0.0
 10
9.7020660216
 20
22.0732803323
 30
0.0
 10
9.7010941424
 20
22.0725498575
 30
0.0
 10
9.7000863144
 20
22.0720186031
 30
0.0
 10
9.6990516617
 20
22.0717034084
 30
0.0
 10
9.6980070205
 20
22.071613135
 30
0.0
 10
9.6973207753
 20
22.0717027345
 30
0.0
 10
9.6969876463
 20
22.0717822454
 30
0.0
  0
SPLINE
  5
3DB
100
AcDbEntity
  8
0
100
AcDbSpline
 62
7
  6
CONTINUOUS
 70
0
 71
3
 72
19
 73
15
 74
0
 42
0.0000001
 43
0.0000001
 44
0.0000000001
 40
0.0
 40
0.0
 40
0.0
 40
0.0
 40
0.1596711733
 40
0.315486639
 40
0.4627370792
 40
0.5976341869
 40
0.6596961686
 40
0.7178634242
 40
0.7720917813
 40
0.8225383223
 40
0.869614366
 40
0.914082719
 40
0.957099846
 40
1.0
 40
1.0
 40
1.0
 40
1.0
 10
9.7079291508
 20
21.8003067087
 30
0.0
 10
9.7079291751
 20
21.7990320001
 30
0.0
 10
9.7077749774
 20
21.7965112448
 30
0.0
 10
9.7071360364
 20
21.792865238
 30
0.0
 10
9.7061317753
 20
21.78950673
 30
0.0
 10
9.7049682123
 20
21.7870021272
 30
0.0
 10
9.7038629253
 20
21.7852879747
 30
0.0
 10
9.7029923539
 20
21.7841973176
 30
0.0
 10
9.7020660216
 20
21.7832803323
 30
0.0
 10
9.7010941424
 20
21.7825498575
 30
0.0
 10
9.7000863144
 20
21.7820186031
 30
0.0
 10
9.6990516617
 20
21.7817034084
 30
0.0
 10
9.6980070205
 20
21.781613135
 30
0.0
 10
9.6973207753
 20
21.7817027345
 30
0.0
 10
9.6969876463
 20
21.7817822454
 30
0.0
  0
SPLINE
  5
3DC
100
AcDbEntity
  8
0
100
AcDbSpline
 62
7
  6
CONTINUOUS
 70
0
 71
3
 72
19
 73
15
 74
0
 42
0.0000001
 43
0.0000001
 44
0.0000000001
 40
0.0
 40
0.0
 40
0.0
 40
0.0
 40
0.1596711733
 40
0.315486639
 40
0.4627370792
 40
0.5976341869
 40
0.6596961686
 40
0.7178634242
 40
0.7720917813
 40
0.8225383223
 40
0.869614366
 40
0.914082719
 40
0.957099846
 40
1.0
 40
1.0
 40
1.0
 40
1.0
 10
9.7079291508
 20
21.5103067087
 30
0.0
 10
9.7079291751
 20
21.5090320001
 30
0.0
 10
9.7077749774
 20
21.5065112448
 30
0.0
 10
9.7071360364
 20
21.502865238
 30
0.0
 10
9.7061317753
 20
21.49950673
 30
0.0
 10
9.7049682123
 20
21.4970021272
 30
0.0
 10
9.7038629253
 20
21.4952879747
 30
0.0
 10
9.7029923539
 20
21.4941973176
 30
0.0
 10
9.7020660216
 20
21.4932803323
 30
0.0
 10
9.7010941424
 20
21.4925498575
 30
0.0
 10
9.7000863144
 20
21.4920186031
 30
0.0
 10
9.6990516617
 20
21.4917034084
 30
0.0
 10
9.6980070205
 20
21.491613135
 30
0.0
 10
9.6973207753
 20
21.4917027345
 30
0.0
 10
9.6969876463
 20
21.4917822454
 30
0.0
  0
SPLINE
  5
3DD
100
AcDbEntity
  8
0
100
AcDbSpline
 62
7
  6
CONTINUOUS
 70
0
 71
3
 72
19
 73
15
 74
0
 42
0.0000001
 43
0.0000001
 44
0.0000000001
 40
0.0
 40
0.0
 40
0.0
 40
0.0
 40
0.1596711733
 40
0.3154866389
 40
0.4627370792
 40
0.5976341869
 40
0.6596961686
 40
0.7178634242
 40
0.7720917813
 40
0.8225383223
 40
0.869614366
 40
0.914082719
 40
0.957099846
 40
1.0
 40
1.0
 40
1.0
 40
1.0
 10
9.7079291508
 20
22.9603067087
 30
0.0
 10
9.7079291751
 20
22.9590320001
 30
0.0
 10
9.7077749774
 20
22.9565112448
 30
0.0
 10
9.7071360364
 20
22.952865238
 30
0.0
 10
9.7061317753
 20
22.94950673
 30
0.0
 10
9.7049682123
 20
22.9470021272
 30
0.0
 10
9.7038629253
 20
22.9452879747
 30
0.0
 10
9.7029923539
 20
22.9441973176
 30
0.0
 10
9.7020660216
 20
22.9432803323
 30
0.0
 10
9.7010941424
 20
22.9425498575
 30
0.0
 10
9.7000863144
 20
22.9420186031
 30
0.0
 10
9.6990516617
 20
22.9417034084
 30
0.0
 10
9.6980070205
 20
22.941613135
 30
0.0
 10
9.6973207753
 20
22.9417027345
 30
0.0
 10
9.6969876463
 20
22.9417822454
 30
0.0
  0
SPLINE
  5
3DE
100
AcDbEntity
  8
0
100
AcDbSpline
 62
7
  6
CONTINUOUS
 70
0
 71
3
 72
19
 73
15
 74
0
 42
0.0000001
 43
0.0000001
 44
0.0000000001
 40
0.0
 40
0.0
 40
0.0
 40
0.0
 40
0.0428867434
 40
0.0859087911
 40
0.1303853222
 40
0.1774481311
 40
0.2278684568
 40
0.2820710662
 40
0.3402261976
 40
0.4022897728
 40
0.5372054324
 40
0.684470916
 40
0.8403043052
 40
1.0
 40
1.0
 40
1.0
 40
1.0
 10
9.6969874845
 20
20.3688331226
 30
0.0
 10
9.6973205011
 20
20.3689126345
 30
0.0
 10
9.698006884
 20
20.3690014585
 30
0.0
 10
9.6990512767
 20
20.3689092272
 30
0.0
 10
9.7000857914
 20
20.3685939899
 30
0.0
 10
9.7010936779
 20
20.3680633968
 30
0.0
 10
9.702065438
 20
20.367333631
 30
0.0
 10
9.7029916796
 20
20.3664172822
 30
0.0
 10
9.7038621623
 20
20.3653269228
 30
0.0
 10
9.7049674381
 20
20.363612701
 30
0.0
 10
9.7061312491
 20
20.3611079346
 30
0.0
 10
9.7071358883
 20
20.3577491228
 30
0.0
 10
9.7077749476
 20
20.3541026849
 30
0.0
 10
9.7079291751
 20
20.3515816058
 30
0.0
 10
9.7079291508
 20
20.3503067087
 30
0.0
  0
SPLINE
  5
3DF
100
AcDbEntity
  8
0
100
AcDbSpline
 62
7
  6
CONTINUOUS
 70
0
 71
3
 72
19
 73
15
 74
0
 42
0.0000001
 43
0.0000001
 44
0.0000000001
 40
0.0
 40
0.0
 40
0.0
 40
0.0
 40
0.0428867434
 40
0.0859087911
 40
0.1303853222
 40
0.1774481311
 40
0.2278684568
 40
0.2820710662
 40
0.3402261977
 40
0.4022897728
 40
0.5372054325
 40
0.684470916
 40
0.8403043052
 40
1.0
 40
1.0
 40
1.0
 40
1.0
 10
9.6969874845
 20
20.6588331226
 30
0.0
 10
9.6973205012
 20
20.6589126345
 30
0.0
 10
9.698006884
 20
20.6590014585
 30
0.0
 10
9.6990512767
 20
20.6589092272
 30
0.0
 10
9.7000857914
 20
20.6585939899
 30
0.0
 10
9.7010936779
 20
20.6580633968
 30
0.0
 10
9.702065438
 20
20.657333631
 30
0.0
 10
9.7029916796
 20
20.6564172822
 30
0.0
 10
9.7038621623
 20
20.6553269228
 30
0.0
 10
9.7049674381
 20
20.653612701
 30
0.0
 10
9.7061312491
 20
20.6511079346
 30
0.0
 10
9.7071358883
 20
20.6477491227
 30
0.0
 10
9.7077749476
 20
20.6441026849
 30
0.0
 10
9.7079291751
 20
20.6415816058
 30
0.0
 10
9.7079291508
 20
20.6403067087
 30
0.0
  0
SPLINE
  5
3E0
100
AcDbEntity
  8
0
100
AcDbSpline
 62
7
  6
CONTINUOUS
 70
0
 71
3
 72
19
 73
15
 74
0
 42
0.0000001
 43
0.0000001
 44
0.0000000001
 40
0.0
 40
0.0
 40
0.0
 40
0.0
 40
0.1596711733
 40
0.3154866389
 40
0.4627370792
 40
0.5976341869
 40
0.6596961686
 40
0.7178634242
 40
0.7720917813
 40
0.8225383223
 40
0.869614366
 40
0.914082719
 40
0.957099846
 40
1.0
 40
1.0
 40
1.0
 40
1.0
 10
9.7079291508
 20
22.6703067087
 30
0.0
 10
9.7079291751
 20
22.6690320001
 30
0.0
 10
9.7077749774
 20
22.6665112448
 30
0.0
 10
9.7071360364
 20
22.662865238
 30
0.0
 10
9.7061317753
 20
22.65950673
 30
0.0
 10
9.7049682123
 20
22.6570021272
 30
0.0
 10
9.7038629253
 20
22.6552879747
 30
0.0
 10
9.7029923539
 20
22.6541973176
 30
0.0
 10
9.7020660216
 20
22.6532803323
 30
0.0
 10
9.7010941424
 20
22.6525498575
 30
0.0
 10
9.7000863144
 20
22.6520186031
 30
0.0
 10
9.6990516617
 20
22.6517034084
 30
0.0
 10
9.6980070205
 20
22.651613135
 30
0.0
 10
9.6973207753
 20
22.6517027345
 30
0.0
 10
9.6969876463
 20
22.6517822454
 30
0.0
  0
SPLINE
  5
3E1
100
AcDbEntity
  8
0
100
AcDbSpline
 62
7
  6
CONTINUOUS
 70
0
 71
3
 72
19
 73
15
 74
0
 42
0.0000001
 43
0.0000001
 44
0.0000000001
 40
0.0
 40
0.0
 40
0.0
 40
0.0
 40
0.1596711733
 40
0.315486639
 40
0.4627370792
 40
0.5976341869
 40
0.6596961686
 40
0.7178634242
 40
0.7720917813
 40
0.8225383223
 40
0.869614366
 40
0.914082719
 40
0.957099846
 40
1.0
 40
1.0
 40
1.0
 40
1.0
 10
9.7079291508
 20
22.3803067087
 30
0.0
 10
9.7079291751
 20
22.3790320001
 30
0.0
 10
9.7077749774
 20
22.3765112448
 30
0.0
 10
9.7071360364
 20
22.372865238
 30
0.0
 10
9.7061317753
 20
22.36950673
 30
0.0
 10
9.7049682123
 20
22.3670021272
 30
0.0
 10
9.7038629253
 20
22.3652879747
 30
0.0
 10
9.7029923539
 20
22.3641973176
 30
0.0
 10
9.7020660216
 20
22.3632803323
 30
0.0
 10
9.7010941424
 20
22.3625498575
 30
0.0
 10
9.7000863144
 20
22.3620186031
 30
0.0
 10
9.6990516617
 20
22.3617034084
 30
0.0
 10
9.6980070205
 20
22.361613135
 30
0.0
 10
9.6973207753
 20
22.3617027345
 30
0.0
 10
9.6969876463
 20
22.3617822454
 30
0.0
  0
SPLINE
  5
3E2
100
AcDbEntity
  8
0
100
AcDbSpline
 62
7
  6
CONTINUOUS
 70
0
 71
3
 72
19
 73
15
 74
0
 42
0.0000001
 43
0.0000001
 44
0.0000000001
 40
0.0
 40
0.0
 40
0.0
 40
0.0
 40
0.0428867434
 40
0.0859087911
 40
0.1303853222
 40
0.1774481311
 40
0.2278684568
 40
0.2820710662
 40
0.3402261977
 40
0.4022897728
 40
0.5372054325
 40
0.684470916
 40
0.8403043052
 40
1.0
 40
1.0
 40
1.0
 40
1.0
 10
9.6969874845
 20
22.3988331226
 30
0.0
 10
9.6973205012
 20
22.3989126345
 30
0.0
 10
9.698006884
 20
22.3990014585
 30
0.0
 10
9.6990512767
 20
22.3989092272
 30
0.0
 10
9.7000857914
 20
22.3985939899
 30
0.0
 10
9.7010936779
 20
22.3980633968
 30
0.0
 10
9.702065438
 20
22.397333631
 30
0.0
 10
9.7029916796
 20
22.3964172822
 30
0.0
 10
9.7038621623
 20
22.3953269228
 30
0.0
 10
9.7049674381
 20
22.393612701
 30
0.0
 10
9.7061312491
 20
22.3911079346
 30
0.0
 10
9.7071358883
 20
22.3877491227
 30
0.0
 10
9.7077749476
 20
22.3841026849
 30
0.0
 10
9.7079291751
 20
22.3815816058
 30
0.0
 10
9.7079291508
 20
22.3803067087
 30
0.0
  0
SPLINE
  5
3E3
100
AcDbEntity
  8
0
100
AcDbSpline
 62
7
  6
CONTINUOUS
 70
0
 71
3
 72
19
 73
15
 74
0
 42
0.0000001
 43
0.0000001
 44
0.0000000001
 40
0.0
 40
0.0
 40
0.0
 40
0.0
 40
0.1596711733
 40
0.315486639
 40
0.4627370792
 40
0.5976341869
 40
0.6596961686
 40
0.7178634242
 40
0.7720917813
 40
0.8225383223
 40
0.869614366
 40
0.914082719
 40
0.957099846
 40
1.0
 40
1.0
 40
1.0
 40
1.0
 10
9.7079291508
 20
20.6403067087
 30
0.0
 10
9.7079291751
 20
20.6390320001
 30
0.0
 10
9.7077749774
 20
20.6365112448
 30
0.0
 10
9.7071360364
 20
20.632865238
 30
0.0
 10
9.7061317753
 20
20.62950673
 30
0.0
 10
9.7049682123
 20
20.6270021272
 30
0.0
 10
9.7038629253
 20
20.6252879747
 30
0.0
 10
9.7029923539
 20
20.6241973176
 30
0.0
 10
9.7020660216
 20
20.6232803323
 30
0.0
 10
9.7010941424
 20
20.6225498575
 30
0.0
 10
9.7000863144
 20
20.6220186031
 30
0.0
 10
9.6990516617
 20
20.6217034084
 30
0.0
 10
9.6980070205
 20
20.621613135
 30
0.0
 10
9.6973207753
 20
20.6217027345
 30
0.0
 10
9.6969876463
 20
20.6217822454
 30
0.0
  0
SPLINE
  5
3E4
100
AcDbEntity
  8
0
100
AcDbSpline
 62
7
  6
CONTINUOUS
 70
0
 71
3
 72
19
 73
15
 74
0
 42
0.0000001
 43
0.0000001
 44
0.0000000001
 40
0.0
 40
0.0
 40
0.0
 40
0.0
 40
0.0428867434
 40
0.0859087911
 40
0.1303853222
 40
0.1774481311
 40
0.2278684568
 40
0.2820710662
 40
0.3402261976
 40
0.4022897728
 40
0.5372054324
 40
0.684470916
 40
0.8403043052
 40
1.0
 40
1.0
 40
1.0
 40
1.0
 10
9.6969874845
 20
22.6888331226
 30
0.0
 10
9.6973205011
 20
22.6889126345
 30
0.0
 10
9.698006884
 20
22.6890014585
 30
0.0
 10
9.6990512767
 20
22.6889092272
 30
0.0
 10
9.7000857914
 20
22.6885939899
 30
0.0
 10
9.7010936779
 20
22.6880633968
 30
0.0
 10
9.702065438
 20
22.687333631
 30
0.0
 10
9.7029916796
 20
22.6864172822
 30
0.0
 10
9.7038621623
 20
22.6853269228
 30
0.0
 10
9.7049674381
 20
22.683612701
 30
0.0
 10
9.7061312491
 20
22.6811079346
 30
0.0
 10
9.7071358883
 20
22.6777491228
 30
0.0
 10
9.7077749476
 20
22.6741026849
 30
0.0
 10
9.7079291751
 20
22.6715816058
 30
0.0
 10
9.7079291508
 20
22.6703067087
 30
0.0
  0
SPLINE
  5
3E5
100
AcDbEntity
  8
0
100
AcDbSpline
 62
7
  6
CONTINUOUS
 70
0
 71
3
 72
19
 73
15
 74
0
 42
0.0000001
 43
0.0000001
 44
0.0000000001
 40
0.0
 40
0.0
 40
0.0
 40
0.0
 40
0.1596711733
 40
0.3154866389
 40
0.4627370792
 40
0.5976341869
 40
0.6596961686
 40
0.7178634242
 40
0.7720917813
 40
0.8225383223
 40
0.869614366
 40
0.914082719
 40
0.957099846
 40
1.0
 40
1.0
 40
1.0
 40
1.0
 10
9.7079291508
 20
20.3503067087
 30
0.0
 10
9.7079291751
 20
20.3490320001
 30
0.0
 10
9.7077749774
 20
20.3465112448
 30
0.0
 10
9.7071360364
 20
20.342865238
 30
0.0
 10
9.7061317753
 20
20.33950673
 30
0.0
 10
9.7049682123
 20
20.3370021272
 30
0.0
 10
9.7038629253
 20
20.3352879747
 30
0.0
 10
9.7029923539
 20
20.3341973176
 30
0.0
 10
9.7020660216
 20
20.3332803323
 30
0.0
 10
9.7010941424
 20
20.3325498575
 30
0.0
 10
9.7000863144
 20
20.3320186031
 30
0.0
 10
9.6990516617
 20
20.3317034084
 30
0.0
 10
9.6980070205
 20
20.331613135
 30
0.0
 10
9.6973207753
 20
20.3317027345
 30
0.0
 10
9.6969876463
 20
20.3317822454
 30
0.0
  0
SPLINE
  5
3E6
100
AcDbEntity
  8
0
100
AcDbSpline
 62
7
  6
CONTINUOUS
 70
0
 71
3
 72
19
 73
15
 74
0
 42
0.0000001
 43
0.0000001
 44
0.0000000001
 40
0.0
 40
0.0
 40
0.0
 40
0.0
 40
0.1596711733
 40
0.3154866389
 40
0.4627370792
 40
0.5976341869
 40
0.6596961686
 40
0.7178634242
 40
0.7720917813
 40
0.8225383223
 40
0.869614366
 40
0.914082719
 40
0.957099846
 40
1.0
 40
1.0
 40
1.0
 40
1.0
 10
9.7079291508
 20
20.0603067087
 30
0.0
 10
9.7079291751
 20
20.0590320001
 30
0.0
 10
9.7077749774
 20
20.0565112448
 30
0.0
 10
9.7071360364
 20
20.052865238
 30
0.0
 10
9.7061317753
 20
20.04950673
 30
0.0
 10
9.7049682123
 20
20.0470021272
 30
0.0
 10
9.7038629253
 20
20.0452879747
 30
0.0
 10
9.7029923539
 20
20.0441973176
 30
0.0
 10
9.7020660216
 20
20.0432803323
 30
0.0
 10
9.7010941424
 20
20.0425498575
 30
0.0
 10
9.7000863144
 20
20.0420186031
 30
0.0
 10
9.6990516617
 20
20.0417034084
 30
0.0
 10
9.6980070205
 20
20.041613135
 30
0.0
 10
9.6973207753
 20
20.0417027345
 30
0.0
 10
9.6969876463
 20
20.0417822454
 30
0.0
  0
SPLINE
  5
3E7
100
AcDbEntity
  8
0
100
AcDbSpline
 62
7
  6
CONTINUOUS
 70
0
 71
3
 72
19
 73
15
 74
0
 42
0.0000001
 43
0.0000001
 44
0.0000000001
 40
0.0
 40
0.0
 40
0.0
 40
0.0
 40
0.0428867434
 40
0.0859087911
 40
0.1303853222
 40
0.1774481311
 40
0.2278684568
 40
0.2820710662
 40
0.3402261976
 40
0.4022897728
 40
0.5372054324
 40
0.684470916
 40
0.8403043052
 40
1.0
 40
1.0
 40
1.0
 40
1.0
 10
9.6969874845
 20
22.9788331226
 30
0.0
 10
9.6973205011
 20
22.9789126345
 30
0.0
 10
9.698006884
 20
22.9790014585
 30
0.0
 10
9.6990512767
 20
22.9789092272
 30
0.0
 10
9.7000857914
 20
22.9785939899
 30
0.0
 10
9.7010936779
 20
22.9780633968
 30
0.0
 10
9.702065438
 20
22.977333631
 30
0.0
 10
9.7029916796
 20
22.9764172822
 30
0.0
 10
9.7038621623
 20
22.9753269228
 30
0.0
 10
9.7049674381
 20
22.973612701
 30
0.0
 10
9.7061312491
 20
22.9711079346
 30
0.0
 10
9.7071358883
 20
22.9677491228
 30
0.0
 10
9.7077749476
 20
22.9641026849
 30
0.0
 10
9.7079291751
 20
22.9615816058
 30
0.0
 10
9.7079291508
 20
22.9603067087
 30
0.0
  0
SPLINE
  5
3E8
100
AcDbEntity
  8
0
100
AcDbSpline
 62
7
  6
CONTINUOUS
 70
0
 71
3
 72
19
 73
15
 74
0
 42
0.0000001
 43
0.0000001
 44
0.0000000001
 40
0.0
 40
0.0
 40
0.0
 40
0.0
 40
0.0428867434
 40
0.0859087911
 40
0.1303853222
 40
0.1774481311
 40
0.2278684568
 40
0.2820710662
 40
0.3402261977
 40
0.4022897728
 40
0.5372054325
 40
0.684470916
 40
0.8403043052
 40
1.0
 40
1.0
 40
1.0
 40
1.0
 10
9.6969874845
 20
21.5288331226
 30
0.0
 10
9.6973205011
 20
21.5289126345
 30
0.0
 10
9.698006884
 20
21.5290014585
 30
0.0
 10
9.6990512767
 20
21.5289092272
 30
0.0
 10
9.7000857914
 20
21.5285939899
 30
0.0
 10
9.7010936779
 20
21.5280633968
 30
0.0
 10
9.702065438
 20
21.527333631
 30
0.0
 10
9.7029916796
 20
21.5264172822
 30
0.0
 10
9.7038621623
 20
21.5253269228
 30
0.0
 10
9.7049674381
 20
21.523612701
 30
0.0
 10
9.7061312491
 20
21.5211079346
 30
0.0
 10
9.7071358883
 20
21.5177491227
 30
0.0
 10
9.7077749476
 20
21.5141026849
 30
0.0
 10
9.7079291751
 20
21.5115816058
 30
0.0
 10
9.7079291508
 20
21.5103067087
 30
0.0
  0
SPLINE
  5
3E9
100
AcDbEntity
  8
0
100
AcDbSpline
 62
7
  6
CONTINUOUS
 70
0
 71
3
 72
19
 73
15
 74
0
 42
0.0000001
 43
0.0000001
 44
0.0000000001
 40
0.0
 40
0.0
 40
0.0
 40
0.0
 40
0.1596711733
 40
0.315486639
 40
0.4627370792
 40
0.5976341869
 40
0.6596961686
 40
0.7178634242
 40
0.7720917813
 40
0.8225383223
 40
0.869614366
 40
0.914082719
 40
0.957099846
 40
1.0
 40
1.0
 40
1.0
 40
1.0
 10
9.7079291508
 20
21.2203067087
 30
0.0
 10
9.7079291751
 20
21.2190320001
 30
0.0
 10
9.7077749774
 20
21.2165112448
 30
0.0
 10
9.7071360364
 20
21.212865238
 30
0.0
 10
9.7061317753
 20
21.20950673
 30
0.0
 10
9.7049682123
 20
21.2070021272
 30
0.0
 10
9.7038629253
 20
21.2052879747
 30
0.0
 10
9.7029923539
 20
21.2041973176
 30
0.0
 10
9.7020660216
 20
21.2032803323
 30
0.0
 10
9.7010941424
 20
21.2025498575
 30
0.0
 10
9.7000863144
 20
21.2020186031
 30
0.0
 10
9.6990516617
 20
21.2017034084
 30
0.0
 10
9.6980070205
 20
21.201613135
 30
0.0
 10
9.6973207753
 20
21.2017027345
 30
0.0
 10
9.6969876463
 20
21.2017822454
 30
0.0
  0
SPLINE
  5
3EA
100
AcDbEntity
  8
0
100
AcDbSpline
 62
7
  6
CONTINUOUS
 70
0
 71
3
 72
19
 73
15
 74
0
 42
0.0000001
 43
0.0000001
 44
0.0000000001
 40
0.0
 40
0.0
 40
0.0
 40
0.0
 40
0.1596711733
 40
0.315486639
 40
0.4627370792
 40
0.5976341869
 40
0.6596961686
 40
0.7178634242
 40
0.7720917813
 40
0.8225383223
 40
0.869614366
 40
0.914082719
 40
0.957099846
 40
1.0
 40
1.0
 40
1.0
 40
1.0
 10
9.7079291508
 20
20.9303067087
 30
0.0
 10
9.7079291751
 20
20.9290320001
 30
0.0
 10
9.7077749774
 20
20.9265112448
 30
0.0
 10
9.7071360364
 20
20.922865238
 30
0.0
 10
9.7061317753
 20
20.91950673
 30
0.0
 10
9.7049682123
 20
20.9170021272
 30
0.0
 10
9.7038629253
 20
20.9152879747
 30
0.0
 10
9.7029923539
 20
20.9141973176
 30
0.0
 10
9.7020660216
 20
20.9132803323
 30
0.0
 10
9.7010941424
 20
20.9125498575
 30
0.0
 10
9.7000863144
 20
20.9120186031
 30
0.0
 10
9.6990516617
 20
20.9117034084
 30
0.0
 10
9.6980070205
 20
20.911613135
 30
0.0
 10
9.6973207753
 20
20.9117027345
 30
0.0
 10
9.6969876463
 20
20.9117822454
 30
0.0
  0
SPLINE
  5
3EB
100
AcDbEntity
  8
0
100
AcDbSpline
 62
7
  6
CONTINUOUS
 70
0
 71
3
 72
19
 73
15
 74
0
 42
0.0000001
 43
0.0000001
 44
0.0000000001
 40
0.0
 40
0.0
 40
0.0
 40
0.0
 40
0.0428867434
 40
0.0859087911
 40
0.1303853222
 40
0.1774481311
 40
0.2278684568
 40
0.2820710662
 40
0.3402261977
 40
0.4022897728
 40
0.5372054325
 40
0.684470916
 40
0.8403043052
 40
1.0
 40
1.0
 40
1.0
 40
1.0
 10
9.6969874845
 20
21.8188331226
 30
0.0
 10
9.6973205012
 20
21.8189126345
 30
0.0
 10
9.698006884
 20
21.8190014585
 30
0.0
 10
9.6990512767
 20
21.8189092272
 30
0.0
 10
9.7000857914
 20
21.8185939899
 30
0.0
 10
9.7010936779
 20
21.8180633968
 30
0.0
 10
9.702065438
 20
21.817333631
 30
0.0
 10
9.7029916796
 20
21.8164172822
 30
0.0
 10
9.7038621623
 20
21.8153269228
 30
0.0
 10
9.7049674381
 20
21.813612701
 30
0.0
 10
9.7061312491
 20
21.8111079346
 30
0.0
 10
9.7071358883
 20
21.8077491227
 30
0.0
 10
9.7077749476
 20
21.8041026849
 30
0.0
 10
9.7079291751
 20
21.8015816058
 30
0.0
 10
9.7079291508
 20
21.8003067087
 30
0.0
  0
SPLINE
  5
3EC
100
AcDbEntity
  8
0
100
AcDbSpline
 62
7
  6
CONTINUOUS
 70
0
 71
3
 72
19
 73
15
 74
0
 42
0.0000001
 43
0.0000001
 44
0.0000000001
 40
0.0
 40
0.0
 40
0.0
 40
0.0
 40
0.0428867434
 40
0.0859087911
 40
0.1303853222
 40
0.1774481311
 40
0.2278684568
 40
0.2820710662
 40
0.3402261977
 40
0.4022897728
 40
0.5372054325
 40
0.684470916
 40
0.8403043052
 40
1.0
 40
1.0
 40
1.0
 40
1.0
 10
9.6969874845
 20
22.1088331226
 30
0.0
 10
9.6973205012
 20
22.1089126345
 30
0.0
 10
9.698006884
 20
22.1090014585
 30
0.0
 10
9.6990512767
 20
22.1089092272
 30
0.0
 10
9.7000857914
 20
22.1085939899
 30
0.0
 10
9.7010936779
 20
22.1080633968
 30
0.0
 10
9.702065438
 20
22.107333631
 30
0.0
 10
9.7029916796
 20
22.1064172822
 30
0.0
 10
9.7038621623
 20
22.1053269228
 30
0.0
 10
9.7049674381
 20
22.103612701
 30
0.0
 10
9.7061312491
 20
22.1011079346
 30
0.0
 10
9.7071358883
 20
22.0977491227
 30
0.0
 10
9.7077749476
 20
22.0941026849
 30
0.0
 10
9.7079291751
 20
22.0915816058
 30
0.0
 10
9.7079291508
 20
22.0903067087
 30
0.0
  0
SPLINE
  5
3ED
100
AcDbEntity
  8
0
100
AcDbSpline
 62
7
  6
CONTINUOUS
 70
0
 71
3
 72
9
 73
5
 74
0
 42
0.0000001
 43
0.0000001
 44
0.0000000001
 40
0.0
 40
0.0
 40
0.0
 40
0.0
 40
0.2433935919
 40
1.0
 40
1.0
 40
1.0
 40
1.0
 10
9.7055840748
 20
22.6777218481
 30
0.0
 10
9.7054854279
 20
22.6771260128
 30
0.0
 10
9.7051323248
 20
22.6746695859
 30
0.0
 10
9.7049834891
 20
22.6721841184
 30
0.0
 10
9.7049834891
 20
22.6703067087
 30
0.0
  0
SPLINE
  5
3EE
100
AcDbEntity
  8
0
100
AcDbSpline
 62
7
  6
CONTINUOUS
 70
0
 71
3
 72
9
 73
5
 74
0
 42
0.0000001
 43
0.0000001
 44
0.0000000001
 40
0.0
 40
0.0
 40
0.0
 40
0.0
 40
0.2433935919
 40
1.0
 40
1.0
 40
1.0
 40
1.0
 10
9.7055840748
 20
22.6628915693
 30
0.0
 10
9.7054854279
 20
22.6634874046
 30
0.0
 10
9.7051323248
 20
22.6659438315
 30
0.0
 10
9.7049834891
 20
22.6684292991
 30
0.0
 10
9.7049834891
 20
22.6703067088
 30
0.0
  0
SPLINE
  5
3EF
100
AcDbEntity
  8
0
100
AcDbSpline
 62
7
  6
CONTINUOUS
 70
0
 71
3
 72
12
 73
8
 74
0
 42
0.0000001
 43
0.0000001
 44
0.0000000001
 40
0.0
 40
0.0
 40
0.0
 40
0.0
 40
0.2540166884
 40
0.5063407204
 40
0.7553771174
 40
0.8783196191
 40
1.0
 40
1.0
 40
1.0
 40
1.0
 10
9.7257612661
 20
22.3803067087
 30
0.0
 10
9.725761207
 20
22.3790190447
 30
0.0
 10
9.7257039577
 20
22.3764520521
 30
0.0
 10
9.7254785556
 20
22.3726290278
 30
0.0
 10
9.7252229329
 20
22.3694745497
 30
0.0
 10
9.7250351399
 20
22.3669792382
 30
0.0
 10
9.7249844902
 20
22.365739404
 30
0.0
 10
9.7249834891
 20
22.3651225813
 30
0.0
  0
SPLINE
  5
3F0
100
AcDbEntity
  8
0
100
AcDbSpline
 62
9
  6
CONTINUOUS
 70
0
 71
3
 72
10
 73
6
 74
0
 42
0.0000001
 43
0.0000001
 44
0.0000000001
 40
0.0
 40
0.0
 40
0.0
 40
0.0
 40
0.2200762201
 40
0.4645410035
 40
1.0
 40
1.0
 40
1.0
 40
1.0
 10
9.7219901368
 20
22.3935173767
 30
0.0
 10
9.7221795987
 20
22.3937011377
 30
0.0
 10
9.7226041902
 20
22.3940638013
 30
0.0
 10
9.7235820986
 20
22.394759465
 30
0.0
 10
9.7244035112
 20
22.3952153981
 30
0.0
 10
9.7249834234
 20
22.3954912557
 30
0.0
  0
SPLINE
  5
3F1
100
AcDbEntity
  8
0
100
AcDbSpline
 62
7
  6
CONTINUOUS
 70
0
 71
3
 72
13
 73
9
 74
0
 42
0.0000001
 43
0.0000001
 44
0.0000000001
 40
0.0
 40
0.0
 40
0.0
 40
0.0
 40
0.1216798934
 40
0.2446221778
 40
0.3686530796
 40
0.4936595278
 40
0.7459831849
 40
1.0
 40
1.0
 40
1.0
 40
1.0
 10
9.7249834891
 20
22.3954909874
 30
0.0
 10
9.7249845599
 20
22.3948741613
 30
0.0
 10
9.7250353454
 20
22.3936343245
 30
0.0
 10
9.7251755784
 20
22.3917708729
 30
0.0
 10
9.725323667
 20
22.3898910108
 30
0.0
 10
9.7255154167
 20
22.3873567328
 30
0.0
 10
9.7257041841
 20
22.3841614071
 30
0.0
 10
9.7257613253
 20
22.381594386
 30
0.0
 10
9.7257612661
 20
22.3803067087
 30
0.0
  0
SPLINE
  5
3F2
100
AcDbEntity
  8
0
100
AcDbSpline
 62
9
  6
CONTINUOUS
 70
0
 71
3
 72
17
 73
13
 74
0
 42
0.0000001
 43
0.0000001
 44
0.0000000001
 40
0.0
 40
0.0
 40
0.0
 40
0.0
 40
0.1736540641
 40
0.3315185521
 40
0.473383623
 40
0.5999771366
 40
0.7127149581
 40
0.813948504
 40
0.8615035483
 40
0.9078147536
 40
0.9536895237
 40
1.0
 40
1.0
 40
1.0
 40
1.0
 10
9.7249834891
 20
22.3954911867
 30
0.0
 10
9.7243018945
 20
22.3977376819
 30
0.0
 10
9.7227011418
 20
22.4019432709
 30
0.0
 10
9.7195910481
 20
22.4075600222
 30
0.0
 10
9.7160858372
 20
22.4121622936
 30
0.0
 10
9.7123413783
 20
22.4157382401
 30
0.0
 10
9.7084709155
 20
22.4182833863
 30
0.0
 10
9.7051271513
 20
22.4195484189
 30
0.0
 10
9.7025138118
 20
22.4199602612
 30
0.0
 10
9.700617429
 20
22.4199802866
 30
0.0
 10
9.6987572458
 20
22.4197103795
 30
0.0
 10
9.6975617608
 20
22.4193373574
 30
0.0
 10
9.6969802457
 20
22.4191054051
 30
0.0
  0
SPLINE
  5
3F3
100
AcDbEntity
  8
0
100
AcDbSpline
 62
9
  6
CONTINUOUS
 70
0
 71
3
 72
10
 73
6
 74
0
 42
0.0000001
 43
0.0000001
 44
0.0000000001
 40
0.0
 40
0.0
 40
0.0
 40
0.0
 40
0.206554978
 40
0.444686112
 40
1.0
 40
1.0
 40
1.0
 40
1.0
 10
9.7219900381
 20
22.3670960881
 30
0.0
 10
9.7221678682
 20
22.3669236165
 30
0.0
 10
9.7225728606
 20
22.3665749496
 30
0.0
 10
9.7235463412
 20
22.3658729805
 30
0.0
 10
9.7243820499
 20
22.3654083048
 30
0.0
 10
9.724983491
 20
22.3651222308
 30
0.0
  0
SPLINE
  5
3F4
100
AcDbEntity
  8
0
100
AcDbSpline
 62
9
  6
CONTINUOUS
 70
0
 71
3
 72
17
 73
13
 74
0
 42
0.0000001
 43
0.0000001
 44
0.0000000001
 40
0.0
 40
0.0
 40
0.0
 40
0.0
 40
0.1736675781
 40
0.3315376016
 40
0.4734008432
 40
0.5999864517
 40
0.7127125459
 40
0.8139347006
 40
0.8614861447
 40
0.9077973762
 40
0.9536780404
 40
1.0
 40
1.0
 40
1.0
 40
1.0
 10
9.7249834891
 20
22.365122225
 30
0.0
 10
9.724301639
 20
22.3628749004
 30
0.0
 10
9.7227002201
 20
22.3586678681
 30
0.0
 10
9.7195886345
 20
22.3530495158
 30
0.0
 10
9.7160817819
 20
22.3484464208
 30
0.0
 10
9.7123356368
 20
22.3448704357
 30
0.0
 10
9.7084635086
 20
22.3423260531
 30
0.0
 10
9.7051184034
 20
22.3410624756
 30
0.0
 10
9.7025042136
 20
22.3406522958
 30
0.0
 10
9.7006072191
 20
22.3406337609
 30
0.0
 10
9.6987464943
 20
22.3409054525
 30
0.0
 10
9.6975507888
 20
22.3412797947
 30
0.0
 10
9.6969691831
 20
22.3415124311
 30
0.0
  0
SPLINE
  5
3F5
100
AcDbEntity
  8
0
100
AcDbSpline
 62
9
  6
CONTINUOUS
 70
0
 71
3
 72
33
 73
29
 74
0
 42
0.0000001
 43
0.0000001
 44
0.0000000001
 40
0.0
 40
0.0
 40
0.0
 40
0.0
 40
0.0729778853
 40
0.1068777995
 40
0.1389837589
 40
0.1693720372
 40
0.1981778846
 40
0.2255161679
 40
0.2515114769
 40
0.3000863568
 40
0.3231985327
 40
0.3458510611
 40
0.3683535491
 40
0.3910439154
 40
0.4142897872
 40
0.4384763061
 40
0.4910052312
 40
0.5508994496
 40
0.5840032089
 40
0.6190889159
 40
0.6560069053
 40
0.6945168041
 40
0.7341464922
 40
0.7743731674
 40
0.8544856658
 40
0.9307154432
 40
0.9663295326
 40
1.0
 40
1.0
 40
1.0
 40
1.0
 10
9.7219900107
 20
22.3670957186
 30
0.0
 10
9.7212006192
 20
22.3648761758
 30
0.0
 10
9.7197417213
 20
22.3617196779
 30
0.0
 10
9.7172974313
 20
22.3579523449
 30
0.0
 10
9.7153676835
 20
22.3555052276
 30
0.0
 10
9.713329059
 20
22.3533706377
 30
0.0
 10
9.7112092762
 20
22.3515449034
 30
0.0
 10
9.7090337276
 20
22.3500202185
 30
0.0
 10
9.7061540035
 20
22.3484222848
 30
0.0
 10
9.7031428584
 20
22.3473638472
 30
0.0
 10
9.7001172619
 20
22.346951426
 30
0.0
 10
9.6979058627
 20
22.3469612905
 30
0.0
 10
9.6957326814
 20
22.3472899288
 30
0.0
 10
9.6936129458
 20
22.3479402987
 30
0.0
 10
9.6915628306
 20
22.3489189607
 30
0.0
 10
9.688871226
 20
22.3507166704
 30
0.0
 10
9.6857584711
 20
22.3539125739
 30
0.0
 10
9.6833082646
 20
22.3579591992
 30
0.0
 10
9.6816608215
 20
22.3617552986
 30
0.0
 10
9.6805742244
 20
22.3649737608
 30
0.0
 10
9.6796989581
 20
22.368435535
 30
0.0
 10
9.6790539137
 20
22.3720962737
 30
0.0
 10
9.6786448517
 20
22.3758980427
 30
0.0
 10
9.6784282758
 20
22.3810605346
 30
0.0
 10
9.6787848817
 20
22.3874141405
 30
0.0
 10
9.6799389304
 20
22.3935254789
 30
0.0
 10
9.6813464014
 20
22.3980113717
 30
0.0
 10
9.6821898241
 20
22.4000863848
 30
0.0
 10
9.6826455829
 20
22.4010731024
 30
0.0
  0
SPLINE
  5
3F6
100
AcDbEntity
  8
0
100
AcDbSpline
 62
9
  6
CONTINUOUS
 70
0
 71
3
 72
11
 73
7
 74
0
 42
0.0000001
 43
0.0000001
 44
0.0000000001
 40
0.0
 40
0.0
 40
0.0
 40
0.0
 40
0.2451241479
 40
0.5000053487
 40
0.7548928053
 40
1.0
 40
1.0
 40
1.0
 40
1.0
 10
9.7219903014
 20
22.3935175769
 30
0.0
 10
9.7227259543
 20
22.3914461582
 30
0.0
 10
9.7238520901
 20
22.3870814084
 30
0.0
 10
9.7244629565
 20
22.3803063144
 30
0.0
 10
9.7238521081
 20
22.3735313831
 30
0.0
 10
9.7227260289
 20
22.3691666977
 30
0.0
 10
9.7219902771
 20
22.3670954754
 30
0.0
  0
SPLINE
  5
3F7
100
AcDbEntity
  8
0
100
AcDbSpline
 62
7
  6
CONTINUOUS
 70
0
 71
3
 72
17
 73
13
 74
0
 42
0.0000001
 43
0.0000001
 44
0.0000000001
 40
0.0
 40
0.0
 40
0.0
 40
0.0
 40
0.1538280371
 40
0.3049742318
 40
0.4497431139
 40
0.5846818768
 40
0.7072831354
 40
0.8166582777
 40
0.8665331274
 40
0.9134039307
 40
0.9576755257
 40
1.0
 40
1.0
 40
1.0
 40
1.0
 10
9.6889416915
 20
22.3803067087
 30
0.0
 10
9.6889416915
 20
22.3814039602
 30
0.0
 10
9.6890321705
 20
22.3835804057
 30
0.0
 10
9.6894344873
 20
22.386767031
 30
0.0
 10
9.6900994338
 20
22.3897725036
 30
0.0
 10
9.6910224579
 20
22.3924976515
 30
0.0
 10
9.6922016167
 20
22.3948444733
 30
0.0
 10
9.6933998222
 20
22.3964763995
 30
0.0
 10
9.6944580012
 20
22.3975017307
 30
0.0
 10
9.6952654727
 20
22.3981068328
 30
0.0
 10
9.6961054535
 20
22.3985626552
 30
0.0
 10
9.6966938391
 20
22.398763011
 30
0.0
 10
9.6969874845
 20
22.3988331226
 30
0.0
  0
SPLINE
  5
3F8
100
AcDbEntity
  8
0
100
AcDbSpline
 62
7
  6
CONTINUOUS
 70
0
 71
3
 72
9
 73
5
 74
0
 42
0.0000001
 43
0.0000001
 44
0.0000000001
 40
0.0
 40
0.0
 40
0.0
 40
0.0
 40
0.2433935919
 40
1.0
 40
1.0
 40
1.0
 40
1.0
 10
9.7055840748
 20
22.3877218481
 30
0.0
 10
9.7054854279
 20
22.3871260128
 30
0.0
 10
9.7051323248
 20
22.3846695859
 30
0.0
 10
9.7049834891
 20
22.3821841184
 30
0.0
 10
9.7049834891
 20
22.3803067087
 30
0.0
  0
SPLINE
  5
3F9
100
AcDbEntity
  8
0
100
AcDbSpline
 62
7
  6
CONTINUOUS
 70
0
 71
3
 72
9
 73
5
 74
0
 42
0.0000001
 43
0.0000001
 44
0.0000000001
 40
0.0
 40
0.0
 40
0.0
 40
0.0
 40
0.2433935919
 40
1.0
 40
1.0
 40
1.0
 40
1.0
 10
9.7055840748
 20
22.3728915693
 30
0.0
 10
9.7054854279
 20
22.3734874046
 30
0.0
 10
9.7051323248
 20
22.3759438315
 30
0.0
 10
9.7049834891
 20
22.3784292991
 30
0.0
 10
9.7049834891
 20
22.3803067088
 30
0.0
  0
SPLINE
  5
3FA
100
AcDbEntity
  8
0
100
AcDbSpline
 62
9
  6
CONTINUOUS
 70
0
 71
3
 72
15
 73
11
 74
0
 42
0.0000001
 43
0.0000001
 44
0.0000000001
 40
0.0
 40
0.0
 40
0.0
 40
0.0
 40
0.2059457368
 40
0.3862603902
 40
0.541006224
 40
0.6706590914
 40
0.776558592
 40
0.8618488238
 40
0.9327858932
 40
1.0
 40
1.0
 40
1.0
 40
1.0
 10
9.6863848982
 20
22.4102776024
 30
0.0
 10
9.6862808885
 20
22.4105862291
 30
0.0
 10
9.686074236
 20
22.4111613196
 30
0.0
 10
9.685742065
 20
22.4119503036
 30
0.0
 10
9.6854097175
 20
22.4126066342
 30
0.0
 10
9.6850784393
 20
22.4131290258
 30
0.0
 10
9.6847477812
 20
22.4135169122
 30
0.0
 10
9.6844147124
 20
22.4137716345
 30
0.0
 10
9.6840695075
 20
22.4138842688
 30
0.0
 10
9.6838447417
 20
22.4138491591
 30
0.0
 10
9.6837454017
 20
22.4138113495
 30
0.0
  0
SPLINE
  5
3FB
100
AcDbEntity
  8
0
100
AcDbSpline
 62
9
  6
CONTINUOUS
 70
0
 71
3
 72
20
 73
16
 74
0
 42
0.0000001
 43
0.0000001
 44
0.0000000001
 40
0.0
 40
0.0
 40
0.0
 40
0.0
 40
0.1889717008
 40
0.2682334643
 40
0.3375016344
 40
0.3972148992
 40
0.4481398035
 40
0.5291068633
 40
0.5654626827
 40
0.6038547289
 40
0.6476199861
 40
0.6989911704
 40
0.7593050227
 40
0.8293394252
 40
1.0
 40
1.0
 40
1.0
 40
1.0
 10
9.6824361512
 20
22.3567310955
 30
0.0
 10
9.6822468953
 20
22.3562327811
 30
0.0
 10
9.6819524148
 20
22.3555337494
 30
0.0
 10
9.6814976986
 20
22.3546963991
 30
0.0
 10
9.6811765046
 20
22.3542039558
 30
0.0
 10
9.6808540964
 20
22.353809238
 30
0.0
 10
9.6804587154
 20
22.3534426996
 30
0.0
 10
9.6800087217
 20
22.3532168304
 30
0.0
 10
9.6795610116
 20
22.3532481663
 30
0.0
 10
9.6792498427
 20
22.3533840384
 30
0.0
 10
9.6789546059
 20
22.3536231019
 30
0.0
 10
9.678672152
 20
22.3539609778
 30
0.0
 10
9.6784005117
 20
22.3543970846
 30
0.0
 10
9.6780276542
 20
22.3551610482
 30
0.0
 10
9.6778053272
 20
22.3558052055
 30
0.0
 10
9.6776659181
 20
22.3562659693
 30
0.0
  0
SPLINE
  5
3FC
100
AcDbEntity
  8
0
100
AcDbSpline
 62
9
  6
CONTINUOUS
 70
0
 71
3
 72
10
 73
6
 74
0
 42
0.0000001
 43
0.0000001
 44
0.0000000001
 40
0.0
 40
0.0
 40
0.0
 40
0.0
 40
0.2077206415
 40
0.4444504055
 40
1.0
 40
1.0
 40
1.0
 40
1.0
 10
9.6776659181
 20
22.3562659693
 30
0.0
 10
9.6775438254
 20
22.3566694999
 30
0.0
 10
9.6773140392
 20
22.357542489
 30
0.0
 10
9.6768963305
 20
22.3595291693
 30
0.0
 10
9.6766607011
 20
22.3611214577
 30
0.0
 10
9.6765204275
 20
22.3622402596
 30
0.0
  0
SPLINE
  5
3FD
100
AcDbEntity
  8
0
100
AcDbSpline
 62
9
  6
CONTINUOUS
 70
0
 71
3
 72
11
 73
7
 74
0
 42
0.0000001
 43
0.0000001
 44
0.0000000001
 40
0.0
 40
0.0
 40
0.0
 40
0.0
 40
0.2189645478
 40
0.4640168384
 40
0.7275655859
 40
1.0
 40
1.0
 40
1.0
 40
1.0
 10
9.6765204275
 20
22.3622402596
 30
0.0
 10
9.6763560839
 20
22.3635510411
 30
0.0
 10
9.676081995
 20
22.366338121
 30
0.0
 10
9.675806529
 20
22.3707195489
 30
0.0
 10
9.6756419954
 20
22.3754292945
 30
0.0
 10
9.6756055063
 20
22.3786630736
 30
0.0
 10
9.6756054812
 20
22.3803067087
 30
0.0
  0
SPLINE
  5
3FE
100
AcDbEntity
  8
0
100
AcDbSpline
 62
9
  6
CONTINUOUS
 70
0
 71
3
 72
13
 73
9
 74
0
 42
0.0000001
 43
0.0000001
 44
0.0000000001
 40
0.0
 40
0.0
 40
0.0
 40
0.0
 40
0.2955495816
 40
0.5719767915
 40
0.6971929035
 40
0.8113001029
 40
0.9126232351
 40
1.0
 40
1.0
 40
1.0
 40
1.0
 10
9.675605482
 20
22.3803067087
 30
0.0
 10
9.6756055378
 20
22.3825798219
 30
0.0
 10
9.6756735193
 20
22.3869792099
 30
0.0
 10
9.6759371569
 20
22.3923365533
 30
0.0
 10
9.676274031
 20
22.3962893371
 30
0.0
 10
9.67657197
 20
22.3988928165
 30
0.0
 10
9.6769237006
 20
22.4011956115
 30
0.0
 10
9.6772141802
 20
22.40261868
 30
0.0
 10
9.677373791
 20
22.4032714775
 30
0.0
  0
SPLINE
  5
3FF
100
AcDbEntity
  8
0
100
AcDbSpline
 62
9
  6
CONTINUOUS
 70
0
 71
3
 72
21
 73
17
 74
0
 42
0.0000001
 43
0.0000001
 44
0.0000000001
 40
0.0
 40
0.0
 40
0.0
 40
0.0
 40
0.1904842968
 40
0.2700495678
 40
0.3392096511
 40
0.3984141887
 40
0.448467091
 40
0.490784272
 40
0.5277835592
 40
0.5631020417
 40
0.6009035172
 40
0.644549416
 40
0.6961781898
 40
0.7570151111
 40
0.8277435874
 40
1.0
 40
1.0
 40
1.0
 40
1.0
 10
9.677373791
 20
22.4032714775
 30
0.0
 10
9.67751159
 20
22.403835066
 30
0.0
 10
9.6777324083
 20
22.404629291
 30
0.0
 10
9.6781008675
 20
22.4055953331
 30
0.0
 10
9.6783729859
 20
22.406168168
 30
0.0
 10
9.6786566844
 20
22.4066332084
 30
0.0
 10
9.6789524616
 20
22.406990508
 30
0.0
 10
9.679262655
 20
22.4072395329
 30
0.0
 10
9.67959157
 20
22.4073746004
 30
0.0
 10
9.6799345155
 20
22.4073831526
 30
0.0
 10
9.6802766365
 20
22.4072662392
 30
0.0
 10
9.6806143571
 20
22.4070361136
 30
0.0
 10
9.6809509602
 20
22.4066974626
 30
0.0
 10
9.681287805
 20
22.4062510634
 30
0.0
 10
9.6817686459
 20
22.4054591495
 30
0.0
 10
9.6820756991
 20
22.404782781
 30
0.0
 10
9.6822733336
 20
22.4042967566
 30
0.0
  0
SPLINE
  5
400
100
AcDbEntity
  8
0
100
AcDbSpline
 62
7
  6
CONTINUOUS
 70
0
 71
3
 72
19
 73
15
 74
0
 42
0.0000001
 43
0.0000001
 44
0.0000000001
 40
0.0
 40
0.0
 40
0.0
 40
0.0
 40
0.1965434825
 40
0.378277384
 40
0.5411229987
 40
0.6821374873
 40
0.7438064913
 40
0.7992658851
 40
0.8483140957
 40
0.8908038271
 40
0.926705042
 40
0.9562213996
 40
0.980065507
 40
1.0
 40
1.0
 40
1.0
 40
1.0
 10
9.6770796805
 20
22.3864529437
 30
0.0
 10
9.6771222488
 20
22.3872822851
 30
0.0
 10
9.6772223914
 20
22.3888776276
 30
0.0
 10
9.6774292208
 20
22.3911549969
 30
0.0
 10
9.677688938
 20
22.3931907179
 30
0.0
 10
9.6779566268
 20
22.3947127523
 30
0.0
 10
9.6782009536
 20
22.3957759835
 30
0.0
 10
9.6783865617
 20
22.3964533933
 30
0.0
 10
9.6785819081
 20
22.3970433453
 30
0.0
 10
9.6787861525
 20
22.3975421681
 30
0.0
 10
9.6789985411
 20
22.3979466742
 30
0.0
 10
9.6792194422
 20
22.3982545413
 30
0.0
 10
9.6794519999
 20
22.3984643637
 30
0.0
 10
9.679628772
 20
22.3985362999
 30
0.0
 10
9.679712047
 20
22.3985489275
 30
0.0
  0
SPLINE
  5
401
100
AcDbEntity
  8
0
100
AcDbSpline
 62
7
  6
CONTINUOUS
 70
0
 71
3
 72
19
 73
15
 74
0
 42
0.0000001
 43
0.0000001
 44
0.0000000001
 40
0.0
 40
0.0
 40
0.0
 40
0.0
 40
0.0199968702
 40
0.043879722
 40
0.0733980458
 40
0.1092789981
 40
0.1517320512
 40
0.2007320722
 40
0.2561358658
 40
0.3177460937
 40
0.4586618846
 40
0.621480948
 40
0.8032796883
 40
1.0
 40
1.0
 40
1.0
 40
1.0
 10
9.6797120557
 20
22.3620647121
 30
0.0
 10
9.6796291029
 20
22.3620775333
 30
0.0
 10
9.6794532641
 20
22.3621493579
 30
0.0
 10
9.6792214807
 20
22.3623575456
 30
0.0
 10
9.6790012626
 20
22.3626629847
 30
0.0
 10
9.6787896218
 20
22.363064246
 30
0.0
 10
9.6785860682
 20
22.3635590673
 30
0.0
 10
9.6783913383
 20
22.3641443198
 30
0.0
 10
9.6782062238
 20
22.3648163928
 30
0.0
 10
9.6779623846
 20
22.365871495
 30
0.0
 10
9.6776949503
 20
22.3673825293
 30
0.0
 10
9.677435162
 20
22.3694044522
 30
0.0
 10
9.6772277263
 20
22.3716676505
 30
0.0
 10
9.6771269258
 20
22.3732534895
 30
0.0
 10
9.6770839546
 20
22.3740781129
 30
0.0
  0
SPLINE
  5
402
100
AcDbEntity
  8
0
100
AcDbSpline
 62
9
  6
CONTINUOUS
 70
0
 71
3
 72
15
 73
11
 74
0
 42
0.0000001
 43
0.0000001
 44
0.0000000001
 40
0.0
 40
0.0
 40
0.0
 40
0.0
 40
0.0688096865
 40
0.1408361159
 40
0.226591055
 40
0.3323927173
 40
0.4615045565
 40
0.6155504303
 40
0.7950566491
 40
1.0
 40
1.0
 40
1.0
 40
1.0
 10
9.6837409828
 20
22.3468037622
 30
0.0
 10
9.6838372678
 20
22.3467664472
 30
0.0
 10
9.6840537889
 20
22.3467297211
 30
0.0
 10
9.6843882563
 20
22.3468300262
 30
0.0
 10
9.6847119387
 20
22.3470654468
 30
0.0
 10
9.6850333829
 20
22.3474265982
 30
0.0
 10
9.6853560303
 20
22.3479146572
 30
0.0
 10
9.6856797444
 20
22.3485297981
 30
0.0
 10
9.6860035634
 20
22.3492707609
 30
0.0
 10
9.6862051756
 20
22.3498116144
 30
0.0
 10
9.6863066503
 20
22.3501019508
 30
0.0
  0
SPLINE
  5
403
100
AcDbEntity
  8
0
100
AcDbSpline
 62
9
  6
CONTINUOUS
 70
0
 71
3
 72
15
 73
11
 74
0
 42
0.0000001
 43
0.0000001
 44
0.0000000001
 40
0.0
 40
0.0
 40
0.0
 40
0.0
 40
0.2059457419
 40
0.3862603995
 40
0.5410062366
 40
0.6706591058
 40
0.7765586064
 40
0.8618488358
 40
0.9327859001
 40
1.0
 40
1.0
 40
1.0
 40
1.0
 10
9.6863848986
 20
21.8302776014
 30
0.0
 10
9.6862808888
 20
21.8305862281
 30
0.0
 10
9.6860742363
 20
21.8311613188
 30
0.0
 10
9.6857420653
 20
21.831950303
 30
0.0
 10
9.6854097177
 20
21.8326066338
 30
0.0
 10
9.6850784394
 20
21.8331290256
 30
0.0
 10
9.6847477814
 20
21.833516912
 30
0.0
 10
9.6844147125
 20
21.8337716344
 30
0.0
 10
9.6840695075
 20
21.8338842688
 30
0.0
 10
9.6838447417
 20
21.8338491592
 30
0.0
 10
9.6837454017
 20
21.8338113495
 30
0.0
  0
SPLINE
  5
404
100
AcDbEntity
  8
0
100
AcDbSpline
 62
9
  6
CONTINUOUS
 70
0
 71
3
 72
20
 73
16
 74
0
 42
0.0000001
 43
0.0000001
 44
0.0000000001
 40
0.0
 40
0.0
 40
0.0
 40
0.0
 40
0.1889717087
 40
0.268233476
 40
0.3375016494
 40
0.3972149172
 40
0.4481398238
 40
0.5291068855
 40
0.5654627038
 40
0.6038547477
 40
0.647620002
 40
0.6989911829
 40
0.759305032
 40
0.8293394313
 40
1.0
 40
1.0
 40
1.0
 40
1.0
 10
9.6824361514
 20
21.7767310961
 30
0.0
 10
9.6822468956
 20
21.7762327816
 30
0.0
 10
9.681952415
 20
21.7755337498
 30
0.0
 10
9.6814976988
 20
21.7746963994
 30
0.0
 10
9.6811765048
 20
21.774203956
 30
0.0
 10
9.6808540965
 20
21.7738092381
 30
0.0
 10
9.6804587156
 20
21.7734426997
 30
0.0
 10
9.6800087218
 20
21.7732168304
 30
0.0
 10
9.6795610117
 20
21.7732481662
 30
0.0
 10
9.6792498428
 20
21.7733840384
 30
0.0
 10
9.6789546059
 20
21.7736231019
 30
0.0
 10
9.678672152
 20
21.7739609778
 30
0.0
 10
9.6784005117
 20
21.7743970845
 30
0.0
 10
9.6780276542
 20
21.7751610481
 30
0.0
 10
9.6778053273
 20
21.7758052055
 30
0.0
 10
9.6776659181
 20
21.7762659693
 30
0.0
  0
SPLINE
  5
405
100
AcDbEntity
  8
0
100
AcDbSpline
 62
9
  6
CONTINUOUS
 70
0
 71
3
 72
10
 73
6
 74
0
 42
0.0000001
 43
0.0000001
 44
0.0000000001
 40
0.0
 40
0.0
 40
0.0
 40
0.0
 40
0.2077206415
 40
0.4444504055
 40
1.0
 40
1.0
 40
1.0
 40
1.0
 10
9.6776659181
 20
21.7762659693
 30
0.0
 10
9.6775438254
 20
21.7766694999
 30
0.0
 10
9.6773140392
 20
21.777542489
 30
0.0
 10
9.6768963305
 20
21.7795291693
 30
0.0
 10
9.6766607011
 20
21.7811214577
 30
0.0
 10
9.6765204275
 20
21.7822402596
 30
0.0
  0
SPLINE
  5
406
100
AcDbEntity
  8
0
100
AcDbSpline
 62
9
  6
CONTINUOUS
 70
0
 71
3
 72
11
 73
7
 74
0
 42
0.0000001
 43
0.0000001
 44
0.0000000001
 40
0.0
 40
0.0
 40
0.0
 40
0.0
 40
0.2189645478
 40
0.4640168384
 40
0.7275655859
 40
1.0
 40
1.0
 40
1.0
 40
1.0
 10
9.6765204275
 20
21.7822402596
 30
0.0
 10
9.6763560839
 20
21.7835510411
 30
0.0
 10
9.676081995
 20
21.786338121
 30
0.0
 10
9.675806529
 20
21.7907195489
 30
0.0
 10
9.6756419954
 20
21.7954292945
 30
0.0
 10
9.6756055063
 20
21.7986630736
 30
0.0
 10
9.6756054812
 20
21.8003067087
 30
0.0
  0
SPLINE
  5
407
100
AcDbEntity
  8
0
100
AcDbSpline
 62
9
  6
CONTINUOUS
 70
0
 71
3
 72
13
 73
9
 74
0
 42
0.0000001
 43
0.0000001
 44
0.0000000001
 40
0.0
 40
0.0
 40
0.0
 40
0.0
 40
0.2955495816
 40
0.5719767915
 40
0.6971929035
 40
0.8113001029
 40
0.9126232351
 40
1.0
 40
1.0
 40
1.0
 40
1.0
 10
9.675605482
 20
21.8003067087
 30
0.0
 10
9.6756055378
 20
21.8025798219
 30
0.0
 10
9.6756735193
 20
21.8069792099
 30
0.0
 10
9.6759371569
 20
21.8123365533
 30
0.0
 10
9.676274031
 20
21.8162893371
 30
0.0
 10
9.67657197
 20
21.8188928165
 30
0.0
 10
9.6769237006
 20
21.8211956115
 30
0.0
 10
9.6772141802
 20
21.82261868
 30
0.0
 10
9.677373791
 20
21.8232714775
 30
0.0
  0
SPLINE
  5
408
100
AcDbEntity
  8
0
100
AcDbSpline
 62
9
  6
CONTINUOUS
 70
0
 71
3
 72
21
 73
17
 74
0
 42
0.0000001
 43
0.0000001
 44
0.0000000001
 40
0.0
 40
0.0
 40
0.0
 40
0.0
 40
0.1904842968
 40
0.2700495678
 40
0.3392096511
 40
0.3984141887
 40
0.448467091
 40
0.490784272
 40
0.5277835592
 40
0.5631020417
 40
0.6009035172
 40
0.644549416
 40
0.6961781898
 40
0.7570151111
 40
0.8277435874
 40
1.0
 40
1.0
 40
1.0
 40
1.0
 10
9.677373791
 20
21.8232714775
 30
0.0
 10
9.67751159
 20
21.823835066
 30
0.0
 10
9.6777324083
 20
21.824629291
 30
0.0
 10
9.6781008675
 20
21.8255953331
 30
0.0
 10
9.6783729859
 20
21.826168168
 30
0.0
 10
9.6786566844
 20
21.8266332084
 30
0.0
 10
9.6789524616
 20
21.826990508
 30
0.0
 10
9.679262655
 20
21.8272395329
 30
0.0
 10
9.67959157
 20
21.8273746004
 30
0.0
 10
9.6799345155
 20
21.8273831526
 30
0.0
 10
9.6802766365
 20
21.8272662392
 30
0.0
 10
9.6806143571
 20
21.8270361136
 30
0.0
 10
9.6809509602
 20
21.8266974626
 30
0.0
 10
9.681287805
 20
21.8262510634
 30
0.0
 10
9.6817686459
 20
21.8254591495
 30
0.0
 10
9.6820756991
 20
21.824782781
 30
0.0
 10
9.6822733336
 20
21.8242967566
 30
0.0
  0
SPLINE
  5
409
100
AcDbEntity
  8
0
100
AcDbSpline
 62
9
  6
CONTINUOUS
 70
0
 71
3
 72
15
 73
11
 74
0
 42
0.0000001
 43
0.0000001
 44
0.0000000001
 40
0.0
 40
0.0
 40
0.0
 40
0.0
 40
0.0688096772
 40
0.1408360997
 40
0.2265910352
 40
0.3323926974
 40
0.4615045392
 40
0.6155504175
 40
0.7950566422
 40
1.0
 40
1.0
 40
1.0
 40
1.0
 10
9.6837409828
 20
20.8968037622
 30
0.0
 10
9.6838372678
 20
20.8967664472
 30
0.0
 10
9.6840537889
 20
20.8967297211
 30
0.0
 10
9.6843882564
 20
20.8968300263
 30
0.0
 10
9.6847119389
 20
20.8970654469
 30
0.0
 10
9.6850333832
 20
20.8974265985
 30
0.0
 10
9.6853560306
 20
20.8979146577
 30
0.0
 10
9.6856797447
 20
20.8985297988
 30
0.0
 10
9.6860035638
 20
20.899270762
 30
0.0
 10
9.686205176
 20
20.8998116157
 30
0.0
 10
9.6863066508
 20
20.9001019521
 30
0.0
  0
SPLINE
  5
40A
100
AcDbEntity
  8
0
100
AcDbSpline
 62
7
  6
CONTINUOUS
 70
0
 71
3
 72
19
 73
15
 74
0
 42
0.0000001
 43
0.0000001
 44
0.0000000001
 40
0.0
 40
0.0
 40
0.0
 40
0.0
 40
0.1965434825
 40
0.378277384
 40
0.5411229987
 40
0.6821374873
 40
0.7438064913
 40
0.7992658851
 40
0.8483140957
 40
0.8908038271
 40
0.926705042
 40
0.9562213996
 40
0.980065507
 40
1.0
 40
1.0
 40
1.0
 40
1.0
 10
9.6770796805
 20
21.8064529437
 30
0.0
 10
9.6771222488
 20
21.8072822851
 30
0.0
 10
9.6772223914
 20
21.8088776276
 30
0.0
 10
9.6774292208
 20
21.8111549969
 30
0.0
 10
9.677688938
 20
21.8131907179
 30
0.0
 10
9.6779566268
 20
21.8147127523
 30
0.0
 10
9.6782009536
 20
21.8157759835
 30
0.0
 10
9.6783865617
 20
21.8164533933
 30
0.0
 10
9.6785819081
 20
21.8170433453
 30
0.0
 10
9.6787861525
 20
21.8175421681
 30
0.0
 10
9.6789985411
 20
21.8179466742
 30
0.0
 10
9.6792194422
 20
21.8182545413
 30
0.0
 10
9.6794519999
 20
21.8184643637
 30
0.0
 10
9.679628772
 20
21.8185362999
 30
0.0
 10
9.679712047
 20
21.8185489275
 30
0.0
  0
SPLINE
  5
40B
100
AcDbEntity
  8
0
100
AcDbSpline
 62
9
  6
CONTINUOUS
 70
0
 71
3
 72
15
 73
11
 74
0
 42
0.0000001
 43
0.0000001
 44
0.0000000001
 40
0.0
 40
0.0
 40
0.0
 40
0.0
 40
0.2059457276
 40
0.3862603731
 40
0.5410062011
 40
0.670659065
 40
0.7765585657
 40
0.8618488019
 40
0.9327858807
 40
1.0
 40
1.0
 40
1.0
 40
1.0
 10
9.6863848976
 20
20.6702776043
 30
0.0
 10
9.6862808878
 20
20.6705862309
 30
0.0
 10
9.6860742354
 20
20.6711613211
 30
0.0
 10
9.6857420645
 20
20.6719503047
 30
0.0
 10
9.685409717
 20
20.6726066349
 30
0.0
 10
9.6850784389
 20
20.6731290263
 30
0.0
 10
9.684747781
 20
20.6735169124
 30
0.0
 10
9.6844147122
 20
20.6737716345
 30
0.0
 10
9.6840695074
 20
20.6738842688
 30
0.0
 10
9.6838447417
 20
20.6738491591
 30
0.0
 10
9.6837454017
 20
20.6738113495
 30
0.0
  0
SPLINE
  5
40C
100
AcDbEntity
  8
0
100
AcDbSpline
 62
9
  6
CONTINUOUS
 70
0
 71
3
 72
20
 73
16
 74
0
 42
0.0000001
 43
0.0000001
 44
0.0000000001
 40
0.0
 40
0.0
 40
0.0
 40
0.0
 40
0.1889716864
 40
0.268233443
 40
0.3375016069
 40
0.3972148663
 40
0.4481397663
 40
0.5291068228
 40
0.5654626443
 40
0.6038546946
 40
0.6476199573
 40
0.6989911474
 40
0.7593050057
 40
0.8293394141
 40
1.0
 40
1.0
 40
1.0
 40
1.0
 10
9.6824361508
 20
20.6167310944
 30
0.0
 10
9.6822468949
 20
20.6162327801
 30
0.0
 10
9.6819524144
 20
20.6155337486
 30
0.0
 10
9.6814976982
 20
20.6146963985
 30
0.0
 10
9.6811765043
 20
20.6142039554
 30
0.0
 10
9.6808540961
 20
20.6138092376
 30
0.0
 10
9.6804587152
 20
20.6134426994
 30
0.0
 10
9.6800087215
 20
20.6132168304
 30
0.0
 10
9.6795610114
 20
20.6132481663
 30
0.0
 10
9.6792498426
 20
20.6133840385
 30
0.0
 10
9.6789546058
 20
20.613623102
 30
0.0
 10
9.6786721519
 20
20.613960978
 30
0.0
 10
9.6784005116
 20
20.6143970847
 30
0.0
 10
9.6780276541
 20
20.6151610483
 30
0.0
 10
9.6778053272
 20
20.6158052055
 30
0.0
 10
9.6776659181
 20
20.6162659693
 30
0.0
  0
SPLINE
  5
40D
100
AcDbEntity
  8
0
100
AcDbSpline
 62
9
  6
CONTINUOUS
 70
0
 71
3
 72
10
 73
6
 74
0
 42
0.0000001
 43
0.0000001
 44
0.0000000001
 40
0.0
 40
0.0
 40
0.0
 40
0.0
 40
0.2077206415
 40
0.4444504055
 40
1.0
 40
1.0
 40
1.0
 40
1.0
 10
9.6776659181
 20
20.6162659693
 30
0.0
 10
9.6775438254
 20
20.6166694999
 30
0.0
 10
9.6773140392
 20
20.617542489
 30
0.0
 10
9.6768963305
 20
20.6195291693
 30
0.0
 10
9.6766607011
 20
20.6211214577
 30
0.0
 10
9.6765204275
 20
20.6222402596
 30
0.0
  0
SPLINE
  5
40E
100
AcDbEntity
  8
0
100
AcDbSpline
 62
9
  6
CONTINUOUS
 70
0
 71
3
 72
11
 73
7
 74
0
 42
0.0000001
 43
0.0000001
 44
0.0000000001
 40
0.0
 40
0.0
 40
0.0
 40
0.0
 40
0.2189645478
 40
0.4640168384
 40
0.7275655859
 40
1.0
 40
1.0
 40
1.0
 40
1.0
 10
9.6765204275
 20
20.6222402596
 30
0.0
 10
9.6763560839
 20
20.6235510411
 30
0.0
 10
9.676081995
 20
20.626338121
 30
0.0
 10
9.675806529
 20
20.6307195489
 30
0.0
 10
9.6756419954
 20
20.6354292945
 30
0.0
 10
9.6756055063
 20
20.6386630736
 30
0.0
 10
9.6756054812
 20
20.6403067087
 30
0.0
  0
SPLINE
  5
40F
100
AcDbEntity
  8
0
100
AcDbSpline
 62
9
  6
CONTINUOUS
 70
0
 71
3
 72
13
 73
9
 74
0
 42
0.0000001
 43
0.0000001
 44
0.0000000001
 40
0.0
 40
0.0
 40
0.0
 40
0.0
 40
0.2955495816
 40
0.5719767915
 40
0.6971929035
 40
0.8113001029
 40
0.9126232351
 40
1.0
 40
1.0
 40
1.0
 40
1.0
 10
9.675605482
 20
20.6403067087
 30
0.0
 10
9.6756055378
 20
20.6425798219
 30
0.0
 10
9.6756735193
 20
20.6469792099
 30
0.0
 10
9.6759371569
 20
20.6523365533
 30
0.0
 10
9.676274031
 20
20.6562893371
 30
0.0
 10
9.67657197
 20
20.6588928165
 30
0.0
 10
9.6769237006
 20
20.6611956115
 30
0.0
 10
9.6772141802
 20
20.66261868
 30
0.0
 10
9.677373791
 20
20.6632714775
 30
0.0
  0
SPLINE
  5
410
100
AcDbEntity
  8
0
100
AcDbSpline
 62
9
  6
CONTINUOUS
 70
0
 71
3
 72
21
 73
17
 74
0
 42
0.0000001
 43
0.0000001
 44
0.0000000001
 40
0.0
 40
0.0
 40
0.0
 40
0.0
 40
0.1904842968
 40
0.2700495678
 40
0.3392096511
 40
0.3984141887
 40
0.448467091
 40
0.490784272
 40
0.5277835592
 40
0.5631020417
 40
0.6009035172
 40
0.644549416
 40
0.6961781898
 40
0.7570151111
 40
0.8277435874
 40
1.0
 40
1.0
 40
1.0
 40
1.0
 10
9.677373791
 20
20.6632714775
 30
0.0
 10
9.67751159
 20
20.663835066
 30
0.0
 10
9.6777324083
 20
20.664629291
 30
0.0
 10
9.6781008675
 20
20.6655953331
 30
0.0
 10
9.6783729859
 20
20.666168168
 30
0.0
 10
9.6786566844
 20
20.6666332084
 30
0.0
 10
9.6789524616
 20
20.666990508
 30
0.0
 10
9.679262655
 20
20.6672395329
 30
0.0
 10
9.67959157
 20
20.6673746004
 30
0.0
 10
9.6799345155
 20
20.6673831526
 30
0.0
 10
9.6802766365
 20
20.6672662392
 30
0.0
 10
9.6806143571
 20
20.6670361136
 30
0.0
 10
9.6809509602
 20
20.6666974626
 30
0.0
 10
9.681287805
 20
20.6662510634
 30
0.0
 10
9.6817686459
 20
20.6654591495
 30
0.0
 10
9.6820756991
 20
20.664782781
 30
0.0
 10
9.6822733336
 20
20.6642967566
 30
0.0
  0
SPLINE
  5
411
100
AcDbEntity
  8
0
100
AcDbSpline
 62
7
  6
CONTINUOUS
 70
0
 71
3
 72
19
 73
15
 74
0
 42
0.0000001
 43
0.0000001
 44
0.0000000001
 40
0.0
 40
0.0
 40
0.0
 40
0.0
 40
0.1965434825
 40
0.378277384
 40
0.5411229987
 40
0.6821374873
 40
0.7438064913
 40
0.7992658851
 40
0.8483140957
 40
0.8908038271
 40
0.926705042
 40
0.9562213996
 40
0.980065507
 40
1.0
 40
1.0
 40
1.0
 40
1.0
 10
9.6770796805
 20
20.6464529437
 30
0.0
 10
9.6771222488
 20
20.6472822851
 30
0.0
 10
9.6772223914
 20
20.6488776276
 30
0.0
 10
9.6774292208
 20
20.6511549969
 30
0.0
 10
9.677688938
 20
20.6531907179
 30
0.0
 10
9.6779566268
 20
20.6547127523
 30
0.0
 10
9.6782009536
 20
20.6557759835
 30
0.0
 10
9.6783865617
 20
20.6564533933
 30
0.0
 10
9.6785819081
 20
20.6570433453
 30
0.0
 10
9.6787861525
 20
20.6575421681
 30
0.0
 10
9.6789985411
 20
20.6579466742
 30
0.0
 10
9.6792194422
 20
20.6582545413
 30
0.0
 10
9.6794519999
 20
20.6584643637
 30
0.0
 10
9.679628772
 20
20.6585362999
 30
0.0
 10
9.679712047
 20
20.6585489275
 30
0.0
  0
SPLINE
  5
412
100
AcDbEntity
  8
0
100
AcDbSpline
 62
7
  6
CONTINUOUS
 70
0
 71
3
 72
17
 73
13
 74
0
 42
0.0000001
 43
0.0000001
 44
0.0000000001
 40
0.0
 40
0.0
 40
0.0
 40
0.0
 40
0.0423416224
 40
0.0866052909
 40
0.1334577727
 40
0.1833175896
 40
0.2926984467
 40
0.4153112173
 40
0.5502178265
 40
0.69496526
 40
0.8461345126
 40
1.0
 40
1.0
 40
1.0
 40
1.0
 10
9.6969876463
 20
22.3617822454
 30
0.0
 10
9.6966938833
 20
22.3618523605
 30
0.0
 10
9.6961051802
 20
22.3620518087
 30
0.0
 10
9.6952648043
 20
22.3625068352
 30
0.0
 10
9.6944573168
 20
22.3631114031
 30
0.0
 10
9.6933992683
 20
22.3641365764
 30
0.0
 10
9.6922018274
 20
22.3657690566
 30
0.0
 10
9.6910230265
 20
22.3681157761
 30
0.0
 10
9.6900993723
 20
22.370840329
 30
0.0
 10
9.6894346809
 20
22.3738455847
 30
0.0
 10
9.6890322688
 20
22.3770323878
 30
0.0
 10
9.6889416915
 20
22.3792092158
 30
0.0
 10
9.6889416915
 20
22.3803067087
 30
0.0
  0
SPLINE
  5
413
100
AcDbEntity
  8
0
100
AcDbSpline
 62
7
  6
CONTINUOUS
 70
0
 71
3
 72
13
 73
9
 74
0
 42
0.0000001
 43
0.0000001
 44
0.0000000001
 40
0.0
 40
0.0
 40
0.0
 40
0.0
 40
0.2540171123
 40
0.5063378308
 40
0.6313425988
 40
0.7553716097
 40
0.8783156595
 40
1.0
 40
1.0
 40
1.0
 40
1.0
 10
9.7257589963
 20
20.6403067087
 30
0.0
 10
9.7257590006
 20
20.6390190095
 30
0.0
 10
9.7257048034
 20
20.6364519068
 30
0.0
 10
9.7255149836
 20
20.6332565547
 30
0.0
 10
9.7253213907
 20
20.6307224153
 30
0.0
 10
9.7251724651
 20
20.628842598
 30
0.0
 10
9.7250327657
 20
20.6269790492
 30
0.0
 10
9.7249835
 20
20.6257390718
 30
0.0
 10
9.7249834891
 20
20.6251222125
 30
0.0
  0
SPLINE
  5
414
100
AcDbEntity
  8
0
100
AcDbSpline
 62
9
  6
CONTINUOUS
 70
0
 71
3
 72
10
 73
6
 74
0
 42
0.0000001
 43
0.0000001
 44
0.0000000001
 40
0.0
 40
0.0
 40
0.0
 40
0.0
 40
0.2200745588
 40
0.4645388943
 40
1.0
 40
1.0
 40
1.0
 40
1.0
 10
9.7219901165
 20
20.653517406
 30
0.0
 10
9.7221795849
 20
20.653701159
 30
0.0
 10
9.7226041905
 20
20.654063806
 30
0.0
 10
9.7235821287
 20
20.6547594366
 30
0.0
 10
9.7244035625
 20
20.655215344
 30
0.0
 10
9.7249834888
 20
20.6554911844
 30
0.0
  0
SPLINE
  5
415
100
AcDbEntity
  8
0
100
AcDbSpline
 62
7
  6
CONTINUOUS
 70
0
 71
3
 72
13
 73
9
 74
0
 42
0.0000001
 43
0.0000001
 44
0.0000000001
 40
0.0
 40
0.0
 40
0.0
 40
0.0
 40
0.121684334
 40
0.2446282574
 40
0.3686571778
 40
0.4936619917
 40
0.7459828164
 40
1.0
 40
1.0
 40
1.0
 40
1.0
 10
9.7249834891
 20
20.6554911804
 30
0.0
 10
9.7249835003
 20
20.6548743221
 30
0.0
 10
9.7250327831
 20
20.653634348
 30
0.0
 10
9.7251724652
 20
20.6517708025
 30
0.0
 10
9.725321393
 20
20.6498909893
 30
0.0
 10
9.7255149876
 20
20.6473568539
 30
0.0
 10
9.7257048022
 20
20.6441615054
 30
0.0
 10
9.7257589921
 20
20.6415944062
 30
0.0
 10
9.7257589963
 20
20.6403067087
 30
0.0
  0
SPLINE
  5
416
100
AcDbEntity
  8
0
100
AcDbSpline
 62
9
  6
CONTINUOUS
 70
0
 71
3
 72
17
 73
13
 74
0
 42
0.0000001
 43
0.0000001
 44
0.0000000001
 40
0.0
 40
0.0
 40
0.0
 40
0.0
 40
0.1736540913
 40
0.3315185898
 40
0.4733836649
 40
0.5999771802
 40
0.7127149977
 40
0.8139485345
 40
0.8615035723
 40
0.9078147703
 40
0.9536895322
 40
1.0
 40
1.0
 40
1.0
 40
1.0
 10
9.7249834891
 20
20.6554911638
 30
0.0
 10
9.7243018938
 20
20.6577376605
 30
0.0
 10
9.7227011544
 20
20.6619432577
 30
0.0
 10
9.7195910538
 20
20.6675600105
 30
0.0
 10
9.7160858443
 20
20.6721622865
 30
0.0
 10
9.7123413838
 20
20.6757382356
 30
0.0
 10
9.7084709199
 20
20.6782833842
 30
0.0
 10
9.7051271544
 20
20.6795484181
 30
0.0
 10
9.7025138139
 20
20.6799602611
 30
0.0
 10
9.7006174303
 20
20.6799802867
 30
0.0
 10
9.6987572464
 20
20.6797103797
 30
0.0
 10
9.697561761
 20
20.6793373575
 30
0.0
 10
9.6969802457
 20
20.6791054051
 30
0.0
  0
SPLINE
  5
417
100
AcDbEntity
  8
0
100
AcDbSpline
 62
9
  6
CONTINUOUS
 70
0
 71
3
 72
10
 73
6
 74
0
 42
0.0000001
 43
0.0000001
 44
0.0000000001
 40
0.0
 40
0.0
 40
0.0
 40
0.0
 40
0.2065573299
 40
0.4446891605
 40
1.0
 40
1.0
 40
1.0
 40
1.0
 10
9.7219901162
 20
20.6270960123
 30
0.0
 10
9.7221679458
 20
20.6269235469
 30
0.0
 10
9.7225729329
 20
20.6265748932
 30
0.0
 10
9.7235463894
 20
20.625872953
 30
0.0
 10
9.724382071
 20
20.6254082947
 30
0.0
 10
9.7249834906
 20
20.625122231
 30
0.0
  0
SPLINE
  5
418
100
AcDbEntity
  8
0
100
AcDbSpline
 62
9
  6
CONTINUOUS
 70
0
 71
3
 72
17
 73
13
 74
0
 42
0.0000001
 43
0.0000001
 44
0.0000000001
 40
0.0
 40
0.0
 40
0.0
 40
0.0
 40
0.17366758
 40
0.3315376043
 40
0.4734008462
 40
0.5999864549
 40
0.7127125487
 40
0.8139347028
 40
0.8614861464
 40
0.9077973772
 40
0.953678041
 40
1.0
 40
1.0
 40
1.0
 40
1.0
 10
9.7249834891
 20
20.6251222267
 30
0.0
 10
9.724301639
 20
20.622874902
 30
0.0
 10
9.722700221
 20
20.6186678691
 30
0.0
 10
9.7195886349
 20
20.6130495166
 30
0.0
 10
9.7160817824
 20
20.6084464213
 30
0.0
 10
9.7123356372
 20
20.6048704361
 30
0.0
 10
9.7084635089
 20
20.6023260532
 30
0.0
 10
9.7051184036
 20
20.6010624756
 30
0.0
 10
9.7025042137
 20
20.6006522958
 30
0.0
 10
9.7006072192
 20
20.6006337609
 30
0.0
 10
9.6987464944
 20
20.6009054525
 30
0.0
 10
9.6975507888
 20
20.6012797947
 30
0.0
 10
9.6969691831
 20
20.6015124311
 30
0.0
  0
SPLINE
  5
419
100
AcDbEntity
  8
0
100
AcDbSpline
 62
9
  6
CONTINUOUS
 70
0
 71
3
 72
33
 73
29
 74
0
 42
0.0000001
 43
0.0000001
 44
0.0000000001
 40
0.0
 40
0.0
 40
0.0
 40
0.0
 40
0.0729780516
 40
0.106878041
 40
0.138984071
 40
0.1693724086
 40
0.1981783053
 40
0.2255166289
 40
0.2515119686
 40
0.3000868809
 40
0.3231990596
 40
0.345851583
 40
0.3683540595
 40
0.3910444097
 40
0.4142902627
 40
0.4384767626
 40
0.4910056589
 40
0.5508998731
 40
0.5840036398
 40
0.6190893585
 40
0.6560073624
 40
0.6945172727
 40
0.7341469632
 40
0.7743736281
 40
0.8544860537
 40
0.9307156689
 40
0.9663296521
 40
1.0
 40
1.0
 40
1.0
 40
1.0
 10
9.7219900868
 20
20.6270959327
 30
0.0
 10
9.7212007034
 20
20.6248763712
 30
0.0
 10
9.7197418133
 20
20.6217198452
 30
0.0
 10
9.7172975261
 20
20.6179524766
 30
0.0
 10
9.7153677775
 20
20.6155053353
 30
0.0
 10
9.71332915
 20
20.6133707237
 30
0.0
 10
9.7112093624
 20
20.6115449701
 30
0.0
 10
9.7090338078
 20
20.6100202684
 30
0.0
 10
9.7061540751
 20
20.6084223156
 30
0.0
 10
9.7031429196
 20
20.6073638618
 30
0.0
 10
9.7001173111
 20
20.6069514289
 30
0.0
 10
9.6979059033
 20
20.606961287
 30
0.0
 10
9.6957327134
 20
20.6072899211
 30
0.0
 10
9.6936129694
 20
20.6079402891
 30
0.0
 10
9.691562846
 20
20.6089189515
 30
0.0
 10
9.6888712307
 20
20.6107166651
 30
0.0
 10
9.6857584641
 20
20.6139125806
 30
0.0
 10
9.683308251
 20
20.6179592236
 30
0.0
 10
9.681660805
 20
20.6217553406
 30
0.0
 10
9.6805742071
 20
20.6249738183
 30
0.0
 10
9.679698942
 20
20.6284356089
 30
0.0
 10
9.6790539006
 20
20.6320963645
 30
0.0
 10
9.6786448434
 20
20.6358981497
 30
0.0
 10
9.6784282767
 20
20.6410606604
 30
0.0
 10
9.6787848977
 20
20.6474142834
 30
0.0
 10
9.6799389669
 20
20.6535256327
 30
0.0
 10
9.6813464566
 20
20.6580115266
 30
0.0
 10
9.682189889
 20
20.6600865378
 30
0.0
 10
9.6826456527
 20
20.6610732536
 30
0.0
  0
SPLINE
  5
41A
100
AcDbEntity
  8
0
100
AcDbSpline
 62
9
  6
CONTINUOUS
 70
0
 71
3
 72
11
 73
7
 74
0
 42
0.0000001
 43
0.0000001
 44
0.0000000001
 40
0.0
 40
0.0
 40
0.0
 40
0.0
 40
0.24515634
 40
0.5000013237
 40
0.754845402
 40
1.0
 40
1.0
 40
1.0
 40
1.0
 10
9.7219900531
 20
20.6535173428
 30
0.0
 10
9.7227267196
 20
20.6514459551
 30
0.0
 10
9.7238540095
 20
20.6470813907
 30
0.0
 10
9.724464964
 20
20.6403066373
 30
0.0
 10
9.7238539945
 20
20.6335319007
 30
0.0
 10
9.7227266941
 20
20.6291673635
 30
0.0
 10
9.7219900253
 20
20.6270959932
 30
0.0
  0
SPLINE
  5
41B
100
AcDbEntity
  8
0
100
AcDbSpline
 62
7
  6
CONTINUOUS
 70
0
 71
3
 72
17
 73
13
 74
0
 42
0.0000001
 43
0.0000001
 44
0.0000000001
 40
0.0
 40
0.0
 40
0.0
 40
0.0
 40
0.1538280371
 40
0.3049742318
 40
0.4497431139
 40
0.5846818768
 40
0.7072831354
 40
0.8166582777
 40
0.8665331274
 40
0.9134039307
 40
0.9576755257
 40
1.0
 40
1.0
 40
1.0
 40
1.0
 10
9.6889416915
 20
20.6403067087
 30
0.0
 10
9.6889416915
 20
20.6414039602
 30
0.0
 10
9.6890321705
 20
20.6435804057
 30
0.0
 10
9.6894344873
 20
20.646767031
 30
0.0
 10
9.6900994338
 20
20.6497725036
 30
0.0
 10
9.6910224579
 20
20.6524976515
 30
0.0
 10
9.6922016167
 20
20.6548444733
 30
0.0
 10
9.6933998222
 20
20.6564763995
 30
0.0
 10
9.6944580012
 20
20.6575017307
 30
0.0
 10
9.6952654727
 20
20.6581068328
 30
0.0
 10
9.6961054535
 20
20.6585626552
 30
0.0
 10
9.6966938391
 20
20.658763011
 30
0.0
 10
9.6969874845
 20
20.6588331226
 30
0.0
  0
SPLINE
  5
41C
100
AcDbEntity
  8
0
100
AcDbSpline
 62
7
  6
CONTINUOUS
 70
0
 71
3
 72
9
 73
5
 74
0
 42
0.0000001
 43
0.0000001
 44
0.0000000001
 40
0.0
 40
0.0
 40
0.0
 40
0.0
 40
0.2433935919
 40
1.0
 40
1.0
 40
1.0
 40
1.0
 10
9.7055840748
 20
20.6477218481
 30
0.0
 10
9.7054854279
 20
20.6471260128
 30
0.0
 10
9.7051323248
 20
20.6446695859
 30
0.0
 10
9.7049834891
 20
20.6421841184
 30
0.0
 10
9.7049834891
 20
20.6403067087
 30
0.0
  0
SPLINE
  5
41D
100
AcDbEntity
  8
0
100
AcDbSpline
 62
7
  6
CONTINUOUS
 70
0
 71
3
 72
12
 73
8
 74
0
 42
0.0000001
 43
0.0000001
 44
0.0000000001
 40
0.0
 40
0.0
 40
0.0
 40
0.0
 40
0.2540166457
 40
0.5063408291
 40
0.75537706
 40
0.878319535
 40
1.0
 40
1.0
 40
1.0
 40
1.0
 10
9.7257612104
 20
21.8003067087
 30
0.0
 10
9.7257611222
 20
21.7990190491
 30
0.0
 10
9.7257038757
 20
21.7964520674
 30
0.0
 10
9.7254787303
 20
21.792629039
 30
0.0
 10
9.7252229392
 20
21.7894745837
 30
0.0
 10
9.7250351096
 20
21.7869792831
 30
0.0
 10
9.7249844845
 20
21.7857394513
 30
0.0
 10
9.7249834891
 20
21.7851226302
 30
0.0
  0
SPLINE
  5
41E
100
AcDbEntity
  8
0
100
AcDbSpline
 62
9
  6
CONTINUOUS
 70
0
 71
3
 72
10
 73
6
 74
0
 42
0.0000001
 43
0.0000001
 44
0.0000000001
 40
0.0
 40
0.0
 40
0.0
 40
0.0
 40
0.2200765044
 40
0.4645414442
 40
1.0
 40
1.0
 40
1.0
 40
1.0
 10
9.7219901346
 20
21.8135173799
 30
0.0
 10
9.7221795976
 20
21.8137011404
 30
0.0
 10
9.7226041913
 20
21.8140638027
 30
0.0
 10
9.7235821032
 20
21.8147594626
 30
0.0
 10
9.7244035177
 20
21.8152153926
 30
0.0
 10
9.7249834307
 20
21.815491248
 30
0.0
  0
SPLINE
  5
41F
100
AcDbEntity
  8
0
100
AcDbSpline
 62
7
  6
CONTINUOUS
 70
0
 71
3
 72
13
 73
9
 74
0
 42
0.0000001
 43
0.0000001
 44
0.0000000001
 40
0.0
 40
0.0
 40
0.0
 40
0.0
 40
0.1216798393
 40
0.2446221161
 40
0.3686530546
 40
0.4936595354
 40
0.7459831258
 40
1.0
 40
1.0
 40
1.0
 40
1.0
 10
9.7249834891
 20
21.8154910099
 30
0.0
 10
9.7249845683
 20
21.8148741832
 30
0.0
 10
9.7250353687
 20
21.8136343459
 30
0.0
 10
9.7251755948
 20
21.8117708916
 30
0.0
 10
9.7253236433
 20
21.8098910233
 30
0.0
 10
9.7255153903
 20
21.807356742
 30
0.0
 10
9.7257042336
 20
21.8041614156
 30
0.0
 10
9.7257612987
 20
21.8015943881
 30
0.0
 10
9.7257612104
 20
21.8003067087
 30
0.0
  0
SPLINE
  5
420
100
AcDbEntity
  8
0
100
AcDbSpline
 62
7
  6
CONTINUOUS
 70
0
 71
3
 72
9
 73
5
 74
0
 42
0.0000001
 43
0.0000001
 44
0.0000000001
 40
0.0
 40
0.0
 40
0.0
 40
0.0
 40
0.2433935919
 40
1.0
 40
1.0
 40
1.0
 40
1.0
 10
9.7055840748
 20
20.6328915693
 30
0.0
 10
9.7054854279
 20
20.6334874046
 30
0.0
 10
9.7051323248
 20
20.6359438315
 30
0.0
 10
9.7049834891
 20
20.6384292991
 30
0.0
 10
9.7049834891
 20
20.6403067088
 30
0.0
  0
SPLINE
  5
421
100
AcDbEntity
  8
0
100
AcDbSpline
 62
9
  6
CONTINUOUS
 70
0
 71
3
 72
17
 73
13
 74
0
 42
0.0000001
 43
0.0000001
 44
0.0000000001
 40
0.0
 40
0.0
 40
0.0
 40
0.0
 40
0.1736540633
 40
0.3315185515
 40
0.4733836225
 40
0.5999771363
 40
0.7127149579
 40
0.8139485039
 40
0.8615035481
 40
0.9078147535
 40
0.9536895237
 40
1.0
 40
1.0
 40
1.0
 40
1.0
 10
9.7249834891
 20
21.8154911867
 30
0.0
 10
9.7243018945
 20
21.8177376819
 30
0.0
 10
9.7227011418
 20
21.8219432709
 30
0.0
 10
9.7195910481
 20
21.8275600222
 30
0.0
 10
9.7160858372
 20
21.8321622936
 30
0.0
 10
9.7123413783
 20
21.83573824
 30
0.0
 10
9.7084709155
 20
21.8382833863
 30
0.0
 10
9.7051271513
 20
21.8395484189
 30
0.0
 10
9.7025138118
 20
21.8399602612
 30
0.0
 10
9.700617429
 20
21.8399802866
 30
0.0
 10
9.6987572458
 20
21.8397103795
 30
0.0
 10
9.6975617607
 20
21.8393373574
 30
0.0
 10
9.6969802456
 20
21.8391054051
 30
0.0
  0
SPLINE
  5
422
100
AcDbEntity
  8
0
100
AcDbSpline
 62
7
  6
CONTINUOUS
 70
0
 71
3
 72
13
 73
9
 74
0
 42
0.0000001
 43
0.0000001
 44
0.0000000001
 40
0.0
 40
0.0
 40
0.0
 40
0.0
 40
0.2540171111
 40
0.5063378421
 40
0.6313426063
 40
0.7553716153
 40
0.8783156753
 40
1.0
 40
1.0
 40
1.0
 40
1.0
 10
9.725758997
 20
20.3503067087
 30
0.0
 10
9.7257590065
 20
20.3490190091
 30
0.0
 10
9.7257047943
 20
20.3464519056
 30
0.0
 10
9.7255149682
 20
20.3432565533
 30
0.0
 10
9.7253213904
 20
20.340722412
 30
0.0
 10
9.7251724773
 20
20.3388425932
 30
0.0
 10
9.7250327608
 20
20.3369790455
 30
0.0
 10
9.7249834885
 20
20.3357390673
 30
0.0
 10
9.7249834891
 20
20.3351222078
 30
0.0
  0
SPLINE
  5
423
100
AcDbEntity
  8
0
100
AcDbSpline
 62
9
  6
CONTINUOUS
 70
0
 71
3
 72
10
 73
6
 74
0
 42
0.0000001
 43
0.0000001
 44
0.0000000001
 40
0.0
 40
0.0
 40
0.0
 40
0.0
 40
0.2200745643
 40
0.4645389038
 40
1.0
 40
1.0
 40
1.0
 40
1.0
 10
9.7219901168
 20
20.3635174054
 30
0.0
 10
9.7221795852
 20
20.3637011585
 30
0.0
 10
9.7226041907
 20
20.364063806
 30
0.0
 10
9.7235821289
 20
20.3647594374
 30
0.0
 10
9.7244035628
 20
20.3652153453
 30
0.0
 10
9.7249834892
 20
20.365491186
 30
0.0
  0
SPLINE
  5
424
100
AcDbEntity
  8
0
100
AcDbSpline
 62
7
  6
CONTINUOUS
 70
0
 71
3
 72
13
 73
9
 74
0
 42
0.0000001
 43
0.0000001
 44
0.0000000001
 40
0.0
 40
0.0
 40
0.0
 40
0.0
 40
0.1216843314
 40
0.2446282479
 40
0.3686571636
 40
0.4936619822
 40
0.7459828061
 40
1.0
 40
1.0
 40
1.0
 40
1.0
 10
9.7249834891
 20
20.365491187
 30
0.0
 10
9.7249834991
 20
20.3648743284
 30
0.0
 10
9.7250327825
 20
20.3636343539
 30
0.0
 10
9.7251724613
 20
20.3617708075
 30
0.0
 10
9.7253213833
 20
20.359890993
 30
0.0
 10
9.7255149761
 20
20.3573568565
 30
0.0
 10
9.725704799
 20
20.354161507
 30
0.0
 10
9.7257589876
 20
20.3515944068
 30
0.0
 10
9.725758997
 20
20.3503067087
 30
0.0
  0
SPLINE
  5
425
100
AcDbEntity
  8
0
100
AcDbSpline
 62
9
  6
CONTINUOUS
 70
0
 71
3
 72
17
 73
13
 74
0
 42
0.0000001
 43
0.0000001
 44
0.0000000001
 40
0.0
 40
0.0
 40
0.0
 40
0.0
 40
0.1736540654
 40
0.3315185535
 40
0.4733836244
 40
0.599977138
 40
0.7127149594
 40
0.813948505
 40
0.8615035491
 40
0.9078147543
 40
0.9536895241
 40
1.0
 40
1.0
 40
1.0
 40
1.0
 10
9.7249834891
 20
20.3654911862
 30
0.0
 10
9.7243018944
 20
20.3677376814
 30
0.0
 10
9.7227011421
 20
20.3719432707
 30
0.0
 10
9.7195910482
 20
20.377560022
 30
0.0
 10
9.7160858374
 20
20.3821622934
 30
0.0
 10
9.7123413784
 20
20.38573824
 30
0.0
 10
9.7084709156
 20
20.3882833862
 30
0.0
 10
9.7051271514
 20
20.3895484188
 30
0.0
 10
9.7025138119
 20
20.3899602612
 30
0.0
 10
9.700617429
 20
20.3899802866
 30
0.0
 10
9.6987572458
 20
20.3897103795
 30
0.0
 10
9.6975617608
 20
20.3893373574
 30
0.0
 10
9.6969802457
 20
20.3891054051
 30
0.0
  0
SPLINE
  5
426
100
AcDbEntity
  8
0
100
AcDbSpline
 62
9
  6
CONTINUOUS
 70
0
 71
3
 72
10
 73
6
 74
0
 42
0.0000001
 43
0.0000001
 44
0.0000000001
 40
0.0
 40
0.0
 40
0.0
 40
0.0
 40
0.206557347
 40
0.4446891915
 40
1.0
 40
1.0
 40
1.0
 40
1.0
 10
9.7219901176
 20
20.3370960109
 30
0.0
 10
9.7221679474
 20
20.3369235454
 30
0.0
 10
9.722572935
 20
20.3365748915
 30
0.0
 10
9.7235463925
 20
20.335872951
 30
0.0
 10
9.7243820749
 20
20.3354082926
 30
0.0
 10
9.7249834951
 20
20.3351222288
 30
0.0
  0
SPLINE
  5
427
100
AcDbEntity
  8
0
100
AcDbSpline
 62
9
  6
CONTINUOUS
 70
0
 71
3
 72
17
 73
13
 74
0
 42
0.0000001
 43
0.0000001
 44
0.0000000001
 40
0.0
 40
0.0
 40
0.0
 40
0.0
 40
0.1736675591
 40
0.3315375754
 40
0.4734008142
 40
0.5999864216
 40
0.7127125186
 40
0.8139346797
 40
0.8614861282
 40
0.9077973647
 40
0.9536780346
 40
1.0
 40
1.0
 40
1.0
 40
1.0
 10
9.7249834891
 20
20.3351222092
 30
0.0
 10
9.7243016395
 20
20.3328748857
 30
0.0
 10
9.7227002114
 20
20.328667859
 30
0.0
 10
9.7195886306
 20
20.3230495077
 30
0.0
 10
9.716081777
 20
20.3184464159
 30
0.0
 10
9.712335633
 20
20.3148704327
 30
0.0
 10
9.7084635056
 20
20.3123260517
 30
0.0
 10
9.7051184012
 20
20.311062475
 30
0.0
 10
9.7025042122
 20
20.3106522957
 30
0.0
 10
9.7006072181
 20
20.310633761
 30
0.0
 10
9.6987464939
 20
20.3109054526
 30
0.0
 10
9.6975507887
 20
20.3112797948
 30
0.0
 10
9.6969691831
 20
20.3115124311
 30
0.0
  0
SPLINE
  5
428
100
AcDbEntity
  8
0
100
AcDbSpline
 62
9
  6
CONTINUOUS
 70
0
 71
3
 72
33
 73
29
 74
0
 42
0.0000001
 43
0.0000001
 44
0.0000000001
 40
0.0
 40
0.0
 40
0.0
 40
0.0
 40
0.0729782297
 40
0.1068783119
 40
0.138984437
 40
0.1693728632
 40
0.1981788424
 40
0.2255172435
 40
0.2515126529
 40
0.3000876723
 40
0.3231998823
 40
0.345852419
 40
0.3683548881
 40
0.3910452078
 40
0.4142910052
 40
0.4384774229
 40
0.4910060864
 40
0.5509000046
 40
0.5840036193
 40
0.6190891938
 40
0.656007063
 40
0.6945168638
 40
0.7341464809
 40
0.7743731099
 40
0.8544855788
 40
0.9307153919
 40
0.9663295071
 40
1.0
 40
1.0
 40
1.0
 40
1.0
 10
9.7219901566
 20
20.3370961289
 30
0.0
 10
9.7212007835
 20
20.3348765585
 30
0.0
 10
9.719741907
 20
20.3317200179
 30
0.0
 10
9.7172976344
 20
20.3279526278
 30
0.0
 10
9.7153678942
 20
20.3255054699
 30
0.0
 10
9.7133292737
 20
20.3233708413
 30
0.0
 10
9.7112094916
 20
20.3215450706
 30
0.0
 10
9.7090339409
 20
20.320020352
 30
0.0
 10
9.7061542129
 20
20.3184223765
 30
0.0
 10
9.7031430606
 20
20.3173638978
 30
0.0
 10
9.700117452
 20
20.3169514384
 30
0.0
 10
9.6979060438
 20
20.3169612762
 30
0.0
 10
9.6957328523
 20
20.3172898896
 30
0.0
 10
9.6936131057
 20
20.3179402361
 30
0.0
 10
9.6915629786
 20
20.3189188761
 30
0.0
 10
9.6888713574
 20
20.3207165573
 30
0.0
 10
9.6857585786
 20
20.3239124314
 30
0.0
 10
9.683308349
 20
20.327959037
 30
0.0
 10
9.6816608879
 20
20.331755125
 30
0.0
 10
9.6805742767
 20
20.3349735822
 30
0.0
 10
9.6796989963
 20
20.3384353547
 30
0.0
 10
9.6790539386
 20
20.3420960957
 30
0.0
 10
9.6786448643
 20
20.3458978705
 30
0.0
 10
9.6784282731
 20
20.3510603762
 30
0.0
 10
9.6787848645
 20
20.3574140052
 30
0.0
 10
9.6799389034
 20
20.3635253699
 30
0.0
 10
9.6813463701
 20
20.3680112852
 30
0.0
 10
9.6821897919
 20
20.3700863094
 30
0.0
 10
9.6826455505
 20
20.3710730323
 30
0.0
  0
SPLINE
  5
429
100
AcDbEntity
  8
0
100
AcDbSpline
 62
9
  6
CONTINUOUS
 70
0
 71
3
 72
11
 73
7
 74
0
 42
0.0000001
 43
0.0000001
 44
0.0000000001
 40
0.0
 40
0.0
 40
0.0
 40
0.0
 40
0.245162801
 40
0.4999985539
 40
0.7548363536
 40
1.0
 40
1.0
 40
1.0
 40
1.0
 10
9.7219901237
 20
20.3635174122
 30
0.0
 10
9.7227268131
 20
20.3614459763
 30
0.0
 10
9.7238541199
 20
20.3570814484
 30
0.0
 10
9.7244650111
 20
20.3503067905
 30
0.0
 10
9.7238541519
 20
20.3435321236
 30
0.0
 10
9.7227268654
 20
20.3391675608
 30
0.0
 10
9.7219901649
 20
20.3370961209
 30
0.0
  0
SPLINE
  5
42A
100
AcDbEntity
  8
0
100
AcDbSpline
 62
7
  6
CONTINUOUS
 70
0
 71
3
 72
17
 73
13
 74
0
 42
0.0000001
 43
0.0000001
 44
0.0000000001
 40
0.0
 40
0.0
 40
0.0
 40
0.0
 40
0.1538280371
 40
0.3049742318
 40
0.4497431139
 40
0.5846818768
 40
0.7072831354
 40
0.8166582777
 40
0.8665331274
 40
0.9134039307
 40
0.9576755257
 40
1.0
 40
1.0
 40
1.0
 40
1.0
 10
9.6889416915
 20
20.3503067087
 30
0.0
 10
9.6889416915
 20
20.3514039602
 30
0.0
 10
9.6890321705
 20
20.3535804057
 30
0.0
 10
9.6894344873
 20
20.356767031
 30
0.0
 10
9.6900994338
 20
20.3597725036
 30
0.0
 10
9.6910224579
 20
20.3624976515
 30
0.0
 10
9.6922016167
 20
20.3648444733
 30
0.0
 10
9.6933998222
 20
20.3664763995
 30
0.0
 10
9.6944580012
 20
20.3675017307
 30
0.0
 10
9.6952654727
 20
20.3681068328
 30
0.0
 10
9.6961054535
 20
20.3685626552
 30
0.0
 10
9.6966938391
 20
20.368763011
 30
0.0
 10
9.6969874845
 20
20.3688331226
 30
0.0
  0
SPLINE
  5
42B
100
AcDbEntity
  8
0
100
AcDbSpline
 62
7
  6
CONTINUOUS
 70
0
 71
3
 72
17
 73
13
 74
0
 42
0.0000001
 43
0.0000001
 44
0.0000000001
 40
0.0
 40
0.0
 40
0.0
 40
0.0
 40
0.0423416224
 40
0.0866052909
 40
0.1334577727
 40
0.1833175895
 40
0.2926984467
 40
0.4153112172
 40
0.5502178265
 40
0.69496526
 40
0.8461345126
 40
1.0
 40
1.0
 40
1.0
 40
1.0
 10
9.6969876463
 20
22.6517822454
 30
0.0
 10
9.6966938833
 20
22.6518523605
 30
0.0
 10
9.6961051802
 20
22.6520518087
 30
0.0
 10
9.6952648043
 20
22.6525068352
 30
0.0
 10
9.6944573168
 20
22.6531114031
 30
0.0
 10
9.6933992683
 20
22.6541365764
 30
0.0
 10
9.6922018274
 20
22.6557690566
 30
0.0
 10
9.6910230265
 20
22.6581157761
 30
0.0
 10
9.6900993723
 20
22.660840329
 30
0.0
 10
9.6894346809
 20
22.6638455847
 30
0.0
 10
9.6890322688
 20
22.6670323878
 30
0.0
 10
9.6889416915
 20
22.6692092158
 30
0.0
 10
9.6889416915
 20
22.6703067087
 30
0.0
  0
SPLINE
  5
42C
100
AcDbEntity
  8
0
100
AcDbSpline
 62
7
  6
CONTINUOUS
 70
0
 71
3
 72
9
 73
5
 74
0
 42
0.0000001
 43
0.0000001
 44
0.0000000001
 40
0.0
 40
0.0
 40
0.0
 40
0.0
 40
0.2433935919
 40
1.0
 40
1.0
 40
1.0
 40
1.0
 10
9.7055840748
 20
20.3577218481
 30
0.0
 10
9.7054854279
 20
20.3571260128
 30
0.0
 10
9.7051323248
 20
20.3546695859
 30
0.0
 10
9.7049834891
 20
20.3521841184
 30
0.0
 10
9.7049834891
 20
20.3503067087
 30
0.0
  0
SPLINE
  5
42D
100
AcDbEntity
  8
0
100
AcDbSpline
 62
9
  6
CONTINUOUS
 70
0
 71
3
 72
10
 73
6
 74
0
 42
0.0000001
 43
0.0000001
 44
0.0000000001
 40
0.0
 40
0.0
 40
0.0
 40
0.0
 40
0.2065541235
 40
0.4446850042
 40
1.0
 40
1.0
 40
1.0
 40
1.0
 10
9.7219900097
 20
21.7870961157
 30
0.0
 10
9.72216784
 20
21.7869236418
 30
0.0
 10
9.7225728343
 20
21.7865749701
 30
0.0
 10
9.7235463236
 20
21.7858729906
 30
0.0
 10
9.7243820421
 20
21.7854083085
 30
0.0
 10
9.724983491
 20
21.7851222308
 30
0.0
  0
SPLINE
  5
42E
100
AcDbEntity
  8
0
100
AcDbSpline
 62
9
  6
CONTINUOUS
 70
0
 71
3
 72
17
 73
13
 74
0
 42
0.0000001
 43
0.0000001
 44
0.0000000001
 40
0.0
 40
0.0
 40
0.0
 40
0.0
 40
0.1736675781
 40
0.3315376016
 40
0.4734008432
 40
0.5999864518
 40
0.7127125459
 40
0.8139347007
 40
0.8614861448
 40
0.9077973762
 40
0.9536780404
 40
1.0
 40
1.0
 40
1.0
 40
1.0
 10
9.7249834891
 20
21.785122225
 30
0.0
 10
9.724301639
 20
21.7828749004
 30
0.0
 10
9.7227002201
 20
21.7786678681
 30
0.0
 10
9.7195886345
 20
21.7730495158
 30
0.0
 10
9.7160817819
 20
21.7684464208
 30
0.0
 10
9.7123356368
 20
21.7648704357
 30
0.0
 10
9.7084635086
 20
21.7623260531
 30
0.0
 10
9.7051184034
 20
21.7610624756
 30
0.0
 10
9.7025042136
 20
21.7606522958
 30
0.0
 10
9.7006072191
 20
21.7606337609
 30
0.0
 10
9.6987464943
 20
21.7609054525
 30
0.0
 10
9.6975507888
 20
21.7612797947
 30
0.0
 10
9.6969691831
 20
21.7615124311
 30
0.0
  0
SPLINE
  5
42F
100
AcDbEntity
  8
0
100
AcDbSpline
 62
9
  6
CONTINUOUS
 70
0
 71
3
 72
33
 73
29
 74
0
 42
0.0000001
 43
0.0000001
 44
0.0000000001
 40
0.0
 40
0.0
 40
0.0
 40
0.0
 40
0.0729777468
 40
0.1068775937
 40
0.1389834873
 40
0.1693717074
 40
0.1981775036
 40
0.2255157414
 40
0.251511012
 40
0.3000858398
 40
0.3231980036
 40
0.3458505298
 40
0.3683530257
 40
0.3910434099
 40
0.4142893097
 40
0.4384758658
 40
0.4910048847
 40
0.5508992073
 40
0.5840030155
 40
0.619088767
 40
0.6560067961
 40
0.6945167274
 40
0.7341464397
 40
0.7743731321
 40
0.8544856494
 40
0.9307154338
 40
0.9663295271
 40
1.0
 40
1.0
 40
1.0
 40
1.0
 10
9.7219899512
 20
21.7870955513
 30
0.0
 10
9.7212005524
 20
21.7848760202
 30
0.0
 10
9.7197416461
 20
21.7817195404
 30
0.0
 10
9.7172973498
 20
21.7779522315
 30
0.0
 10
9.7153675994
 20
21.775505131
 30
0.0
 10
9.713328974
 20
21.7733705571
 30
0.0
 10
9.7112091914
 20
21.7715448377
 30
0.0
 10
9.7090336443
 20
21.7700201665
 30
0.0
 10
9.7061539226
 20
21.7684222495
 30
0.0
 10
9.7031427812
 20
21.767363828
 30
0.0
 10
9.7001171903
 20
21.7669514214
 30
0.0
 10
9.6979057953
 20
21.7669612958
 30
0.0
 10
9.6957326185
 20
21.7672899432
 30
0.0
 10
9.6936128878
 20
21.7679403215
 30
0.0
 10
9.6915627777
 20
21.768918991
 30
0.0
 10
9.68887118
 20
21.7707167101
 30
0.0
 10
9.6857584349
 20
21.7739126223
 30
0.0
 10
9.6833082371
 20
21.7779592523
 30
0.0
 10
9.6816608006
 20
21.7817553535
 30
0.0
 10
9.6805742084
 20
21.7849738156
 30
0.0
 10
9.6796989469
 20
21.7884355883
 30
0.0
 10
9.6790539067
 20
21.7920963244
 30
0.0
 10
9.6786448483
 20
21.7958980893
 30
0.0
 10
9.6784282766
 20
21.8010605743
 30
0.0
 10
9.6787848857
 20
21.8074141701
 30
0.0
 10
9.6799389354
 20
21.8135254981
 30
0.0
 10
9.6813464056
 20
21.818011383
 30
0.0
 10
9.6821898274
 20
21.8200863926
 30
0.0
 10
9.6826455857
 20
21.8210731084
 30
0.0
  0
SPLINE
  5
430
100
AcDbEntity
  8
0
100
AcDbSpline
 62
7
  6
CONTINUOUS
 70
0
 71
3
 72
9
 73
5
 74
0
 42
0.0000001
 43
0.0000001
 44
0.0000000001
 40
0.0
 40
0.0
 40
0.0
 40
0.0
 40
0.2433935919
 40
1.0
 40
1.0
 40
1.0
 40
1.0
 10
9.7055840748
 20
20.3428915693
 30
0.0
 10
9.7054854279
 20
20.3434874046
 30
0.0
 10
9.7051323248
 20
20.3459438315
 30
0.0
 10
9.7049834891
 20
20.3484292991
 30
0.0
 10
9.7049834891
 20
20.3503067088
 30
0.0
  0
SPLINE
  5
431
100
AcDbEntity
  8
0
100
AcDbSpline
 62
9
  6
CONTINUOUS
 70
0
 71
3
 72
11
 73
7
 74
0
 42
0.0000001
 43
0.0000001
 44
0.0000000001
 40
0.0
 40
0.0
 40
0.0
 40
0.0
 40
0.2451257452
 40
0.5000033622
 40
0.7548921452
 40
1.0
 40
1.0
 40
1.0
 40
1.0
 10
9.721990298
 20
21.8135175747
 30
0.0
 10
9.7227259465
 20
21.81144612
 30
0.0
 10
9.7238521327
 20
21.8070813673
 30
0.0
 10
9.7244630286
 20
21.8003062209
 30
0.0
 10
9.7238521575
 20
21.7935312501
 30
0.0
 10
9.7227260458
 20
21.7891665122
 30
0.0
 10
9.7219902483
 20
21.7870952808
 30
0.0
  0
SPLINE
  5
432
100
AcDbEntity
  8
0
100
AcDbSpline
 62
7
  6
CONTINUOUS
 70
0
 71
3
 72
17
 73
13
 74
0
 42
0.0000001
 43
0.0000001
 44
0.0000000001
 40
0.0
 40
0.0
 40
0.0
 40
0.0
 40
0.1538280371
 40
0.3049742318
 40
0.4497431139
 40
0.5846818768
 40
0.7072831354
 40
0.8166582777
 40
0.8665331274
 40
0.9134039307
 40
0.9576755257
 40
1.0
 40
1.0
 40
1.0
 40
1.0
 10
9.6889416915
 20
21.8003067087
 30
0.0
 10
9.6889416915
 20
21.8014039602
 30
0.0
 10
9.6890321705
 20
21.8035804057
 30
0.0
 10
9.6894344873
 20
21.806767031
 30
0.0
 10
9.6900994338
 20
21.8097725036
 30
0.0
 10
9.6910224579
 20
21.8124976515
 30
0.0
 10
9.6922016167
 20
21.8148444733
 30
0.0
 10
9.6933998222
 20
21.8164763995
 30
0.0
 10
9.6944580012
 20
21.8175017307
 30
0.0
 10
9.6952654727
 20
21.8181068328
 30
0.0
 10
9.6961054535
 20
21.8185626552
 30
0.0
 10
9.6966938391
 20
21.818763011
 30
0.0
 10
9.6969874845
 20
21.8188331226
 30
0.0
  0
SPLINE
  5
433
100
AcDbEntity
  8
0
100
AcDbSpline
 62
9
  6
CONTINUOUS
 70
0
 71
3
 72
15
 73
11
 74
0
 42
0.0000001
 43
0.0000001
 44
0.0000000001
 40
0.0
 40
0.0
 40
0.0
 40
0.0
 40
0.2059457276
 40
0.3862603732
 40
0.5410062011
 40
0.6706590651
 40
0.7765585657
 40
0.861848802
 40
0.9327858807
 40
1.0
 40
1.0
 40
1.0
 40
1.0
 10
9.6863848976
 20
20.3802776043
 30
0.0
 10
9.6862808878
 20
20.3805862309
 30
0.0
 10
9.6860742354
 20
20.3811613211
 30
0.0
 10
9.6857420645
 20
20.3819503047
 30
0.0
 10
9.685409717
 20
20.3826066349
 30
0.0
 10
9.6850784389
 20
20.3831290263
 30
0.0
 10
9.684747781
 20
20.3835169124
 30
0.0
 10
9.6844147122
 20
20.3837716345
 30
0.0
 10
9.6840695074
 20
20.3838842688
 30
0.0
 10
9.6838447417
 20
20.3838491591
 30
0.0
 10
9.6837454017
 20
20.3838113495
 30
0.0
  0
SPLINE
  5
434
100
AcDbEntity
  8
0
100
AcDbSpline
 62
7
  6
CONTINUOUS
 70
0
 71
3
 72
19
 73
15
 74
0
 42
0.0000001
 43
0.0000001
 44
0.0000000001
 40
0.0
 40
0.0
 40
0.0
 40
0.0
 40
0.0199968702
 40
0.043879722
 40
0.0733980458
 40
0.1092789981
 40
0.1517320512
 40
0.2007320722
 40
0.2561358658
 40
0.3177460937
 40
0.4586618846
 40
0.621480948
 40
0.8032796883
 40
1.0
 40
1.0
 40
1.0
 40
1.0
 10
9.6797120557
 20
21.2020647121
 30
0.0
 10
9.6796291029
 20
21.2020775333
 30
0.0
 10
9.6794532641
 20
21.2021493579
 30
0.0
 10
9.6792214807
 20
21.2023575456
 30
0.0
 10
9.6790012626
 20
21.2026629847
 30
0.0
 10
9.6787896218
 20
21.203064246
 30
0.0
 10
9.6785860682
 20
21.2035590673
 30
0.0
 10
9.6783913383
 20
21.2041443198
 30
0.0
 10
9.6782062238
 20
21.2048163928
 30
0.0
 10
9.6779623846
 20
21.205871495
 30
0.0
 10
9.6776949503
 20
21.2073825293
 30
0.0
 10
9.677435162
 20
21.2094044522
 30
0.0
 10
9.6772277263
 20
21.2116676505
 30
0.0
 10
9.6771269258
 20
21.2132534895
 30
0.0
 10
9.6770839546
 20
21.2140781129
 30
0.0
  0
SPLINE
  5
435
100
AcDbEntity
  8
0
100
AcDbSpline
 62
9
  6
CONTINUOUS
 70
0
 71
3
 72
20
 73
16
 74
0
 42
0.0000001
 43
0.0000001
 44
0.0000000001
 40
0.0
 40
0.0
 40
0.0
 40
0.0
 40
0.1889716864
 40
0.2682334432
 40
0.337501607
 40
0.3972148665
 40
0.4481397665
 40
0.529106823
 40
0.5654626445
 40
0.6038546948
 40
0.6476199574
 40
0.6989911475
 40
0.7593050058
 40
0.8293394142
 40
1.0
 40
1.0
 40
1.0
 40
1.0
 10
9.6824361508
 20
20.3267310944
 30
0.0
 10
9.6822468949
 20
20.3262327802
 30
0.0
 10
9.6819524144
 20
20.3255337486
 30
0.0
 10
9.6814976982
 20
20.3246963986
 30
0.0
 10
9.6811765043
 20
20.3242039554
 30
0.0
 10
9.6808540961
 20
20.3238092376
 30
0.0
 10
9.6804587152
 20
20.3234426994
 30
0.0
 10
9.6800087215
 20
20.3232168304
 30
0.0
 10
9.6795610114
 20
20.3232481663
 30
0.0
 10
9.6792498426
 20
20.3233840385
 30
0.0
 10
9.6789546058
 20
20.323623102
 30
0.0
 10
9.6786721519
 20
20.323960978
 30
0.0
 10
9.6784005116
 20
20.3243970847
 30
0.0
 10
9.6780276541
 20
20.3251610483
 30
0.0
 10
9.6778053272
 20
20.3258052055
 30
0.0
 10
9.6776659181
 20
20.3262659693
 30
0.0
  0
SPLINE
  5
436
100
AcDbEntity
  8
0
100
AcDbSpline
 62
9
  6
CONTINUOUS
 70
0
 71
3
 72
10
 73
6
 74
0
 42
0.0000001
 43
0.0000001
 44
0.0000000001
 40
0.0
 40
0.0
 40
0.0
 40
0.0
 40
0.2077206415
 40
0.4444504055
 40
1.0
 40
1.0
 40
1.0
 40
1.0
 10
9.6776659181
 20
20.3262659693
 30
0.0
 10
9.6775438254
 20
20.3266694999
 30
0.0
 10
9.6773140392
 20
20.327542489
 30
0.0
 10
9.6768963305
 20
20.3295291693
 30
0.0
 10
9.6766607011
 20
20.3311214577
 30
0.0
 10
9.6765204275
 20
20.3322402596
 30
0.0
  0
SPLINE
  5
437
100
AcDbEntity
  8
0
100
AcDbSpline
 62
9
  6
CONTINUOUS
 70
0
 71
3
 72
11
 73
7
 74
0
 42
0.0000001
 43
0.0000001
 44
0.0000000001
 40
0.0
 40
0.0
 40
0.0
 40
0.0
 40
0.2189645478
 40
0.4640168384
 40
0.7275655859
 40
1.0
 40
1.0
 40
1.0
 40
1.0
 10
9.6765204275
 20
20.3322402596
 30
0.0
 10
9.6763560839
 20
20.3335510411
 30
0.0
 10
9.676081995
 20
20.336338121
 30
0.0
 10
9.675806529
 20
20.3407195489
 30
0.0
 10
9.6756419954
 20
20.3454292945
 30
0.0
 10
9.6756055063
 20
20.3486630736
 30
0.0
 10
9.6756054812
 20
20.3503067087
 30
0.0
  0
SPLINE
  5
438
100
AcDbEntity
  8
0
100
AcDbSpline
 62
9
  6
CONTINUOUS
 70
0
 71
3
 72
13
 73
9
 74
0
 42
0.0000001
 43
0.0000001
 44
0.0000000001
 40
0.0
 40
0.0
 40
0.0
 40
0.0
 40
0.2955495817
 40
0.5719767915
 40
0.6971929035
 40
0.8113001029
 40
0.9126232351
 40
1.0
 40
1.0
 40
1.0
 40
1.0
 10
9.675605482
 20
20.3503067087
 30
0.0
 10
9.6756055378
 20
20.3525798219
 30
0.0
 10
9.6756735193
 20
20.3569792099
 30
0.0
 10
9.6759371569
 20
20.3623365533
 30
0.0
 10
9.676274031
 20
20.3662893371
 30
0.0
 10
9.67657197
 20
20.3688928165
 30
0.0
 10
9.6769237006
 20
20.3711956115
 30
0.0
 10
9.6772141802
 20
20.37261868
 30
0.0
 10
9.677373791
 20
20.3732714775
 30
0.0
  0
SPLINE
  5
439
100
AcDbEntity
  8
0
100
AcDbSpline
 62
9
  6
CONTINUOUS
 70
0
 71
3
 72
21
 73
17
 74
0
 42
0.0000001
 43
0.0000001
 44
0.0000000001
 40
0.0
 40
0.0
 40
0.0
 40
0.0
 40
0.1904842969
 40
0.2700495678
 40
0.3392096512
 40
0.3984141887
 40
0.448467091
 40
0.4907842721
 40
0.5277835593
 40
0.5631020418
 40
0.6009035173
 40
0.6445494161
 40
0.6961781898
 40
0.7570151111
 40
0.8277435875
 40
1.0
 40
1.0
 40
1.0
 40
1.0
 10
9.677373791
 20
20.3732714775
 30
0.0
 10
9.67751159
 20
20.373835066
 30
0.0
 10
9.6777324083
 20
20.374629291
 30
0.0
 10
9.6781008675
 20
20.3755953331
 30
0.0
 10
9.6783729859
 20
20.376168168
 30
0.0
 10
9.6786566844
 20
20.3766332084
 30
0.0
 10
9.6789524616
 20
20.376990508
 30
0.0
 10
9.679262655
 20
20.3772395329
 30
0.0
 10
9.67959157
 20
20.3773746004
 30
0.0
 10
9.6799345155
 20
20.3773831526
 30
0.0
 10
9.6802766365
 20
20.3772662392
 30
0.0
 10
9.6806143571
 20
20.3770361136
 30
0.0
 10
9.6809509602
 20
20.3766974626
 30
0.0
 10
9.681287805
 20
20.3762510634
 30
0.0
 10
9.6817686459
 20
20.3754591495
 30
0.0
 10
9.6820756991
 20
20.374782781
 30
0.0
 10
9.6822733336
 20
20.3742967566
 30
0.0
  0
SPLINE
  5
43A
100
AcDbEntity
  8
0
100
AcDbSpline
 62
7
  6
CONTINUOUS
 70
0
 71
3
 72
9
 73
5
 74
0
 42
0.0000001
 43
0.0000001
 44
0.0000000001
 40
0.0
 40
0.0
 40
0.0
 40
0.0
 40
0.2433935919
 40
1.0
 40
1.0
 40
1.0
 40
1.0
 10
9.7055840748
 20
21.8077218481
 30
0.0
 10
9.7054854279
 20
21.8071260128
 30
0.0
 10
9.7051323248
 20
21.8046695859
 30
0.0
 10
9.7049834891
 20
21.8021841184
 30
0.0
 10
9.7049834891
 20
21.8003067087
 30
0.0
  0
SPLINE
  5
43B
100
AcDbEntity
  8
0
100
AcDbSpline
 62
7
  6
CONTINUOUS
 70
0
 71
3
 72
19
 73
15
 74
0
 42
0.0000001
 43
0.0000001
 44
0.0000000001
 40
0.0
 40
0.0
 40
0.0
 40
0.0
 40
0.1965434825
 40
0.378277384
 40
0.5411229987
 40
0.6821374873
 40
0.7438064913
 40
0.7992658851
 40
0.8483140957
 40
0.8908038271
 40
0.926705042
 40
0.9562213996
 40
0.980065507
 40
1.0
 40
1.0
 40
1.0
 40
1.0
 10
9.6770796805
 20
20.3564529437
 30
0.0
 10
9.6771222488
 20
20.3572822851
 30
0.0
 10
9.6772223914
 20
20.3588776276
 30
0.0
 10
9.6774292208
 20
20.3611549969
 30
0.0
 10
9.677688938
 20
20.3631907179
 30
0.0
 10
9.6779566268
 20
20.3647127523
 30
0.0
 10
9.6782009536
 20
20.3657759835
 30
0.0
 10
9.6783865617
 20
20.3664533933
 30
0.0
 10
9.6785819081
 20
20.3670433453
 30
0.0
 10
9.6787861525
 20
20.3675421681
 30
0.0
 10
9.6789985411
 20
20.3679466742
 30
0.0
 10
9.6792194422
 20
20.3682545413
 30
0.0
 10
9.6794519999
 20
20.3684643637
 30
0.0
 10
9.679628772
 20
20.3685362999
 30
0.0
 10
9.679712047
 20
20.3685489275
 30
0.0
  0
SPLINE
  5
43C
100
AcDbEntity
  8
0
100
AcDbSpline
 62
7
  6
CONTINUOUS
 70
0
 71
3
 72
19
 73
15
 74
0
 42
0.0000001
 43
0.0000001
 44
0.0000000001
 40
0.0
 40
0.0
 40
0.0
 40
0.0
 40
0.0199968702
 40
0.043879722
 40
0.0733980458
 40
0.1092789981
 40
0.1517320512
 40
0.2007320722
 40
0.2561358658
 40
0.3177460937
 40
0.4586618846
 40
0.621480948
 40
0.8032796883
 40
1.0
 40
1.0
 40
1.0
 40
1.0
 10
9.6797120557
 20
22.6520647121
 30
0.0
 10
9.6796291029
 20
22.6520775333
 30
0.0
 10
9.6794532641
 20
22.6521493579
 30
0.0
 10
9.6792214807
 20
22.6523575456
 30
0.0
 10
9.6790012626
 20
22.6526629847
 30
0.0
 10
9.6787896218
 20
22.653064246
 30
0.0
 10
9.6785860682
 20
22.6535590673
 30
0.0
 10
9.6783913383
 20
22.6541443198
 30
0.0
 10
9.6782062238
 20
22.6548163928
 30
0.0
 10
9.6779623846
 20
22.655871495
 30
0.0
 10
9.6776949503
 20
22.6573825293
 30
0.0
 10
9.677435162
 20
22.6594044522
 30
0.0
 10
9.6772277263
 20
22.6616676505
 30
0.0
 10
9.6771269258
 20
22.6632534895
 30
0.0
 10
9.6770839546
 20
22.6640781129
 30
0.0
  0
SPLINE
  5
43D
100
AcDbEntity
  8
0
100
AcDbSpline
 62
7
  6
CONTINUOUS
 70
0
 71
3
 72
9
 73
5
 74
0
 42
0.0000001
 43
0.0000001
 44
0.0000000001
 40
0.0
 40
0.0
 40
0.0
 40
0.0
 40
0.2433935919
 40
1.0
 40
1.0
 40
1.0
 40
1.0
 10
9.7055840748
 20
21.7928915693
 30
0.0
 10
9.7054854279
 20
21.7934874046
 30
0.0
 10
9.7051323248
 20
21.7959438315
 30
0.0
 10
9.7049834891
 20
21.7984292991
 30
0.0
 10
9.7049834891
 20
21.8003067088
 30
0.0
  0
SPLINE
  5
43E
100
AcDbEntity
  8
0
100
AcDbSpline
 62
9
  6
CONTINUOUS
 70
0
 71
3
 72
15
 73
11
 74
0
 42
0.0000001
 43
0.0000001
 44
0.0000000001
 40
0.0
 40
0.0
 40
0.0
 40
0.0
 40
0.0688096993
 40
0.1408361384
 40
0.2265910822
 40
0.3323927448
 40
0.4615045805
 40
0.615550448
 40
0.7950566586
 40
1.0
 40
1.0
 40
1.0
 40
1.0
 10
9.6837409828
 20
22.6368037622
 30
0.0
 10
9.6838372677
 20
22.6367664472
 30
0.0
 10
9.6840537888
 20
22.6367297211
 30
0.0
 10
9.6843882561
 20
22.6368300261
 30
0.0
 10
9.6847119385
 20
22.6370654465
 30
0.0
 10
9.6850333826
 20
22.6374265978
 30
0.0
 10
9.6853560299
 20
22.6379146565
 30
0.0
 10
9.6856797439
 20
22.6385297971
 30
0.0
 10
9.6860035628
 20
22.6392707595
 30
0.0
 10
9.686205175
 20
22.6398116128
 30
0.0
 10
9.6863066497
 20
22.640101949
 30
0.0
  0
SPLINE
  5
43F
100
AcDbEntity
  8
0
100
AcDbSpline
 62
7
  6
CONTINUOUS
 70
0
 71
3
 72
12
 73
8
 74
0
 42
0.0000001
 43
0.0000001
 44
0.0000000001
 40
0.0
 40
0.0
 40
0.0
 40
0.0
 40
0.2540166457
 40
0.5063408291
 40
0.75537706
 40
0.878319535
 40
1.0
 40
1.0
 40
1.0
 40
1.0
 10
9.7257612104
 20
21.5103067087
 30
0.0
 10
9.7257611222
 20
21.5090190491
 30
0.0
 10
9.7257038757
 20
21.5064520674
 30
0.0
 10
9.7254787303
 20
21.502629039
 30
0.0
 10
9.7252229392
 20
21.4994745837
 30
0.0
 10
9.7250351096
 20
21.4969792831
 30
0.0
 10
9.7249844845
 20
21.4957394513
 30
0.0
 10
9.7249834891
 20
21.4951226302
 30
0.0
  0
SPLINE
  5
440
100
AcDbEntity
  8
0
100
AcDbSpline
 62
9
  6
CONTINUOUS
 70
0
 71
3
 72
10
 73
6
 74
0
 42
0.0000001
 43
0.0000001
 44
0.0000000001
 40
0.0
 40
0.0
 40
0.0
 40
0.0
 40
0.2200765044
 40
0.4645414442
 40
1.0
 40
1.0
 40
1.0
 40
1.0
 10
9.7219901346
 20
21.5235173799
 30
0.0
 10
9.7221795976
 20
21.5237011404
 30
0.0
 10
9.7226041913
 20
21.5240638027
 30
0.0
 10
9.7235821032
 20
21.5247594626
 30
0.0
 10
9.7244035177
 20
21.5252153926
 30
0.0
 10
9.7249834307
 20
21.525491248
 30
0.0
  0
SPLINE
  5
441
100
AcDbEntity
  8
0
100
AcDbSpline
 62
7
  6
CONTINUOUS
 70
0
 71
3
 72
13
 73
9
 74
0
 42
0.0000001
 43
0.0000001
 44
0.0000000001
 40
0.0
 40
0.0
 40
0.0
 40
0.0
 40
0.1216798393
 40
0.2446221161
 40
0.3686530546
 40
0.4936595354
 40
0.7459831258
 40
1.0
 40
1.0
 40
1.0
 40
1.0
 10
9.7249834891
 20
21.5254910099
 30
0.0
 10
9.7249845683
 20
21.5248741832
 30
0.0
 10
9.7250353687
 20
21.5236343459
 30
0.0
 10
9.7251755948
 20
21.5217708916
 30
0.0
 10
9.7253236433
 20
21.5198910233
 30
0.0
 10
9.7255153903
 20
21.517356742
 30
0.0
 10
9.7257042336
 20
21.5141614156
 30
0.0
 10
9.7257612987
 20
21.5115943881
 30
0.0
 10
9.7257612104
 20
21.5103067087
 30
0.0
  0
SPLINE
  5
442
100
AcDbEntity
  8
0
100
AcDbSpline
 62
9
  6
CONTINUOUS
 70
0
 71
3
 72
17
 73
13
 74
0
 42
0.0000001
 43
0.0000001
 44
0.0000000001
 40
0.0
 40
0.0
 40
0.0
 40
0.0
 40
0.1736540633
 40
0.3315185516
 40
0.4733836226
 40
0.5999771363
 40
0.7127149579
 40
0.8139485039
 40
0.8615035481
 40
0.9078147535
 40
0.9536895237
 40
1.0
 40
1.0
 40
1.0
 40
1.0
 10
9.7249834891
 20
21.5254911867
 30
0.0
 10
9.7243018945
 20
21.5277376819
 30
0.0
 10
9.7227011418
 20
21.5319432709
 30
0.0
 10
9.7195910481
 20
21.5375600222
 30
0.0
 10
9.7160858372
 20
21.5421622936
 30
0.0
 10
9.7123413783
 20
21.5457382401
 30
0.0
 10
9.7084709155
 20
21.5482833863
 30
0.0
 10
9.7051271513
 20
21.5495484189
 30
0.0
 10
9.7025138118
 20
21.5499602612
 30
0.0
 10
9.700617429
 20
21.5499802866
 30
0.0
 10
9.6987572458
 20
21.5497103795
 30
0.0
 10
9.6975617607
 20
21.5493373574
 30
0.0
 10
9.6969802456
 20
21.5491054051
 30
0.0
  0
SPLINE
  5
443
100
AcDbEntity
  8
0
100
AcDbSpline
 62
9
  6
CONTINUOUS
 70
0
 71
3
 72
10
 73
6
 74
0
 42
0.0000001
 43
0.0000001
 44
0.0000000001
 40
0.0
 40
0.0
 40
0.0
 40
0.0
 40
0.2065541235
 40
0.4446850042
 40
1.0
 40
1.0
 40
1.0
 40
1.0
 10
9.7219900097
 20
21.4970961157
 30
0.0
 10
9.72216784
 20
21.4969236418
 30
0.0
 10
9.7225728343
 20
21.4965749701
 30
0.0
 10
9.7235463236
 20
21.4958729906
 30
0.0
 10
9.7243820421
 20
21.4954083085
 30
0.0
 10
9.724983491
 20
21.4951222308
 30
0.0
  0
SPLINE
  5
444
100
AcDbEntity
  8
0
100
AcDbSpline
 62
9
  6
CONTINUOUS
 70
0
 71
3
 72
17
 73
13
 74
0
 42
0.0000001
 43
0.0000001
 44
0.0000000001
 40
0.0
 40
0.0
 40
0.0
 40
0.0
 40
0.1736675781
 40
0.3315376016
 40
0.4734008432
 40
0.5999864518
 40
0.7127125459
 40
0.8139347007
 40
0.8614861448
 40
0.9077973762
 40
0.9536780404
 40
1.0
 40
1.0
 40
1.0
 40
1.0
 10
9.7249834891
 20
21.495122225
 30
0.0
 10
9.724301639
 20
21.4928749004
 30
0.0
 10
9.7227002201
 20
21.4886678681
 30
0.0
 10
9.7195886345
 20
21.4830495158
 30
0.0
 10
9.7160817819
 20
21.4784464208
 30
0.0
 10
9.7123356368
 20
21.4748704357
 30
0.0
 10
9.7084635086
 20
21.4723260531
 30
0.0
 10
9.7051184034
 20
21.4710624756
 30
0.0
 10
9.7025042136
 20
21.4706522958
 30
0.0
 10
9.7006072191
 20
21.4706337609
 30
0.0
 10
9.6987464943
 20
21.4709054525
 30
0.0
 10
9.6975507888
 20
21.4712797947
 30
0.0
 10
9.6969691831
 20
21.4715124311
 30
0.0
  0
SPLINE
  5
445
100
AcDbEntity
  8
0
100
AcDbSpline
 62
9
  6
CONTINUOUS
 70
0
 71
3
 72
33
 73
29
 74
0
 42
0.0000001
 43
0.0000001
 44
0.0000000001
 40
0.0
 40
0.0
 40
0.0
 40
0.0
 40
0.0729777467
 40
0.1068775935
 40
0.1389834869
 40
0.1693717069
 40
0.1981775028
 40
0.2255157405
 40
0.2515110109
 40
0.3000858383
 40
0.3231980019
 40
0.345850528
 40
0.3683530239
 40
0.3910434083
 40
0.4142893082
 40
0.4384758646
 40
0.4910048845
 40
0.5508992085
 40
0.5840030176
 40
0.6190887697
 40
0.6560067996
 40
0.6945167315
 40
0.7341464441
 40
0.7743731367
 40
0.8544856534
 40
0.9307154362
 40
0.9663295284
 40
1.0
 40
1.0
 40
1.0
 40
1.0
 10
9.7219899512
 20
21.4970955513
 30
0.0
 10
9.7212005524
 20
21.4948760202
 30
0.0
 10
9.719741646
 20
21.4917195403
 30
0.0
 10
9.7172973497
 20
21.4879522313
 30
0.0
 10
9.7153675993
 20
21.4855051308
 30
0.0
 10
9.7133289738
 20
21.4833705569
 30
0.0
 10
9.7112091912
 20
21.4815448375
 30
0.0
 10
9.709033644
 20
21.4800201663
 30
0.0
 10
9.7061539222
 20
21.4784222493
 30
0.0
 10
9.7031427808
 20
21.4773638279
 30
0.0
 10
9.7001171898
 20
21.4769514214
 30
0.0
 10
9.6979057948
 20
21.4769612958
 30
0.0
 10
9.6957326179
 20
21.4772899433
 30
0.0
 10
9.6936128872
 20
21.4779403217
 30
0.0
 10
9.6915627771
 20
21.4789189914
 30
0.0
 10
9.6888711794
 20
21.4807167106
 30
0.0
 10
9.6857584343
 20
21.4839126231
 30
0.0
 10
9.6833082366
 20
21.4879592533
 30
0.0
 10
9.6816608001
 20
21.4917553548
 30
0.0
 10
9.680574208
 20
21.494973817
 30
0.0
 10
9.6796989465
 20
21.4984355899
 30
0.0
 10
9.6790539064
 20
21.5020963261
 30
0.0
 10
9.6786448482
 20
21.5058980911
 30
0.0
 10
9.6784282766
 20
21.5110605762
 30
0.0
 10
9.6787848859
 20
21.517414172
 30
0.0
 10
9.6799389359
 20
21.5235255001
 30
0.0
 10
9.6813464063
 20
21.5280113849
 30
0.0
 10
9.6821898282
 20
21.5300863944
 30
0.0
 10
9.6826455865
 20
21.5310731102
 30
0.0
  0
SPLINE
  5
446
100
AcDbEntity
  8
0
100
AcDbSpline
 62
9
  6
CONTINUOUS
 70
0
 71
3
 72
11
 73
7
 74
0
 42
0.0000001
 43
0.0000001
 44
0.0000000001
 40
0.0
 40
0.0
 40
0.0
 40
0.0
 40
0.2451257451
 40
0.5000033622
 40
0.7548921452
 40
1.0
 40
1.0
 40
1.0
 40
1.0
 10
9.721990298
 20
21.5235175747
 30
0.0
 10
9.7227259465
 20
21.52144612
 30
0.0
 10
9.7238521327
 20
21.5170813673
 30
0.0
 10
9.7244630286
 20
21.5103062209
 30
0.0
 10
9.7238521575
 20
21.5035312501
 30
0.0
 10
9.7227260458
 20
21.4991665122
 30
0.0
 10
9.7219902483
 20
21.4970952808
 30
0.0
  0
SPLINE
  5
447
100
AcDbEntity
  8
0
100
AcDbSpline
 62
7
  6
CONTINUOUS
 70
0
 71
3
 72
17
 73
13
 74
0
 42
0.0000001
 43
0.0000001
 44
0.0000000001
 40
0.0
 40
0.0
 40
0.0
 40
0.0
 40
0.1538280371
 40
0.3049742318
 40
0.4497431139
 40
0.5846818768
 40
0.7072831354
 40
0.8166582777
 40
0.8665331274
 40
0.9134039307
 40
0.9576755257
 40
1.0
 40
1.0
 40
1.0
 40
1.0
 10
9.6889416915
 20
21.5103067087
 30
0.0
 10
9.6889416915
 20
21.5114039602
 30
0.0
 10
9.6890321705
 20
21.5135804057
 30
0.0
 10
9.6894344873
 20
21.516767031
 30
0.0
 10
9.6900994338
 20
21.5197725036
 30
0.0
 10
9.6910224579
 20
21.5224976515
 30
0.0
 10
9.6922016167
 20
21.5248444733
 30
0.0
 10
9.6933998222
 20
21.5264763995
 30
0.0
 10
9.6944580012
 20
21.5275017307
 30
0.0
 10
9.6952654727
 20
21.5281068328
 30
0.0
 10
9.6961054535
 20
21.5285626552
 30
0.0
 10
9.6966938391
 20
21.528763011
 30
0.0
 10
9.6969874845
 20
21.5288331226
 30
0.0
  0
SPLINE
  5
448
100
AcDbEntity
  8
0
100
AcDbSpline
 62
7
  6
CONTINUOUS
 70
0
 71
3
 72
9
 73
5
 74
0
 42
0.0000001
 43
0.0000001
 44
0.0000000001
 40
0.0
 40
0.0
 40
0.0
 40
0.0
 40
0.2433935919
 40
1.0
 40
1.0
 40
1.0
 40
1.0
 10
9.7055840748
 20
21.5177218481
 30
0.0
 10
9.7054854279
 20
21.5171260128
 30
0.0
 10
9.7051323248
 20
21.5146695859
 30
0.0
 10
9.7049834891
 20
21.5121841184
 30
0.0
 10
9.7049834891
 20
21.5103067087
 30
0.0
  0
SPLINE
  5
449
100
AcDbEntity
  8
0
100
AcDbSpline
 62
7
  6
CONTINUOUS
 70
0
 71
3
 72
9
 73
5
 74
0
 42
0.0000001
 43
0.0000001
 44
0.0000000001
 40
0.0
 40
0.0
 40
0.0
 40
0.0
 40
0.2433935919
 40
1.0
 40
1.0
 40
1.0
 40
1.0
 10
9.7055840748
 20
21.5028915693
 30
0.0
 10
9.7054854279
 20
21.5034874046
 30
0.0
 10
9.7051323248
 20
21.5059438315
 30
0.0
 10
9.7049834891
 20
21.5084292991
 30
0.0
 10
9.7049834891
 20
21.5103067088
 30
0.0
  0
SPLINE
  5
44A
100
AcDbEntity
  8
0
100
AcDbSpline
 62
9
  6
CONTINUOUS
 70
0
 71
3
 72
15
 73
11
 74
0
 42
0.0000001
 43
0.0000001
 44
0.0000000001
 40
0.0
 40
0.0
 40
0.0
 40
0.0
 40
0.2059457419
 40
0.3862603995
 40
0.5410062366
 40
0.6706591058
 40
0.7765586064
 40
0.8618488358
 40
0.9327859001
 40
1.0
 40
1.0
 40
1.0
 40
1.0
 10
9.6863848986
 20
21.5402776014
 30
0.0
 10
9.6862808888
 20
21.5405862281
 30
0.0
 10
9.6860742363
 20
21.5411613188
 30
0.0
 10
9.6857420653
 20
21.541950303
 30
0.0
 10
9.6854097177
 20
21.5426066338
 30
0.0
 10
9.6850784394
 20
21.5431290256
 30
0.0
 10
9.6847477814
 20
21.543516912
 30
0.0
 10
9.6844147125
 20
21.5437716344
 30
0.0
 10
9.6840695075
 20
21.5438842688
 30
0.0
 10
9.6838447417
 20
21.5438491592
 30
0.0
 10
9.6837454017
 20
21.5438113495
 30
0.0
  0
SPLINE
  5
44B
100
AcDbEntity
  8
0
100
AcDbSpline
 62
9
  6
CONTINUOUS
 70
0
 71
3
 72
15
 73
11
 74
0
 42
0.0000001
 43
0.0000001
 44
0.0000000001
 40
0.0
 40
0.0
 40
0.0
 40
0.0
 40
0.0688096795
 40
0.1408361037
 40
0.2265910401
 40
0.3323927023
 40
0.4615045434
 40
0.6155504207
 40
0.7950566439
 40
1.0
 40
1.0
 40
1.0
 40
1.0
 10
9.6837409828
 20
21.1868037622
 30
0.0
 10
9.6838372678
 20
21.1867664472
 30
0.0
 10
9.6840537889
 20
21.1867297211
 30
0.0
 10
9.6843882564
 20
21.1868300262
 30
0.0
 10
9.6847119389
 20
21.1870654469
 30
0.0
 10
9.6850333831
 20
21.1874265984
 30
0.0
 10
9.6853560305
 20
21.1879146576
 30
0.0
 10
9.6856797446
 20
21.1885297986
 30
0.0
 10
9.6860035637
 20
21.1892707617
 30
0.0
 10
9.6862051759
 20
21.1898116154
 30
0.0
 10
9.6863066507
 20
21.1901019518
 30
0.0
  0
SPLINE
  5
44C
100
AcDbEntity
  8
0
100
AcDbSpline
 62
9
  6
CONTINUOUS
 70
0
 71
3
 72
20
 73
16
 74
0
 42
0.0000001
 43
0.0000001
 44
0.0000000001
 40
0.0
 40
0.0
 40
0.0
 40
0.0
 40
0.1889717087
 40
0.268233476
 40
0.3375016494
 40
0.3972149172
 40
0.4481398238
 40
0.5291068855
 40
0.5654627037
 40
0.6038547477
 40
0.6476200019
 40
0.6989911829
 40
0.759305032
 40
0.8293394313
 40
1.0
 40
1.0
 40
1.0
 40
1.0
 10
9.6824361514
 20
21.4867310961
 30
0.0
 10
9.6822468956
 20
21.4862327816
 30
0.0
 10
9.681952415
 20
21.4855337498
 30
0.0
 10
9.6814976988
 20
21.4846963994
 30
0.0
 10
9.6811765048
 20
21.484203956
 30
0.0
 10
9.6808540965
 20
21.4838092381
 30
0.0
 10
9.6804587156
 20
21.4834426997
 30
0.0
 10
9.6800087218
 20
21.4832168304
 30
0.0
 10
9.6795610117
 20
21.4832481662
 30
0.0
 10
9.6792498428
 20
21.4833840384
 30
0.0
 10
9.6789546059
 20
21.4836231019
 30
0.0
 10
9.678672152
 20
21.4839609778
 30
0.0
 10
9.6784005117
 20
21.4843970845
 30
0.0
 10
9.6780276542
 20
21.4851610481
 30
0.0
 10
9.6778053273
 20
21.4858052055
 30
0.0
 10
9.6776659181
 20
21.4862659693
 30
0.0
  0
SPLINE
  5
44D
100
AcDbEntity
  8
0
100
AcDbSpline
 62
9
  6
CONTINUOUS
 70
0
 71
3
 72
10
 73
6
 74
0
 42
0.0000001
 43
0.0000001
 44
0.0000000001
 40
0.0
 40
0.0
 40
0.0
 40
0.0
 40
0.2077206415
 40
0.4444504055
 40
1.0
 40
1.0
 40
1.0
 40
1.0
 10
9.6776659181
 20
21.4862659693
 30
0.0
 10
9.6775438254
 20
21.4866694999
 30
0.0
 10
9.6773140392
 20
21.487542489
 30
0.0
 10
9.6768963305
 20
21.4895291693
 30
0.0
 10
9.6766607011
 20
21.4911214577
 30
0.0
 10
9.6765204275
 20
21.4922402596
 30
0.0
  0
SPLINE
  5
44E
100
AcDbEntity
  8
0
100
AcDbSpline
 62
9
  6
CONTINUOUS
 70
0
 71
3
 72
11
 73
7
 74
0
 42
0.0000001
 43
0.0000001
 44
0.0000000001
 40
0.0
 40
0.0
 40
0.0
 40
0.0
 40
0.2189645478
 40
0.4640168384
 40
0.7275655859
 40
1.0
 40
1.0
 40
1.0
 40
1.0
 10
9.6765204275
 20
21.4922402596
 30
0.0
 10
9.6763560839
 20
21.4935510411
 30
0.0
 10
9.676081995
 20
21.496338121
 30
0.0
 10
9.675806529
 20
21.5007195489
 30
0.0
 10
9.6756419954
 20
21.5054292945
 30
0.0
 10
9.6756055063
 20
21.5086630736
 30
0.0
 10
9.6756054812
 20
21.5103067087
 30
0.0
  0
SPLINE
  5
44F
100
AcDbEntity
  8
0
100
AcDbSpline
 62
9
  6
CONTINUOUS
 70
0
 71
3
 72
13
 73
9
 74
0
 42
0.0000001
 43
0.0000001
 44
0.0000000001
 40
0.0
 40
0.0
 40
0.0
 40
0.0
 40
0.2955495816
 40
0.5719767915
 40
0.6971929035
 40
0.8113001029
 40
0.9126232351
 40
1.0
 40
1.0
 40
1.0
 40
1.0
 10
9.675605482
 20
21.5103067087
 30
0.0
 10
9.6756055378
 20
21.5125798219
 30
0.0
 10
9.6756735193
 20
21.5169792099
 30
0.0
 10
9.6759371569
 20
21.5223365533
 30
0.0
 10
9.676274031
 20
21.5262893371
 30
0.0
 10
9.67657197
 20
21.5288928165
 30
0.0
 10
9.6769237006
 20
21.5311956115
 30
0.0
 10
9.6772141802
 20
21.53261868
 30
0.0
 10
9.677373791
 20
21.5332714775
 30
0.0
  0
SPLINE
  5
450
100
AcDbEntity
  8
0
100
AcDbSpline
 62
9
  6
CONTINUOUS
 70
0
 71
3
 72
21
 73
17
 74
0
 42
0.0000001
 43
0.0000001
 44
0.0000000001
 40
0.0
 40
0.0
 40
0.0
 40
0.0
 40
0.1904842968
 40
0.2700495678
 40
0.3392096511
 40
0.3984141887
 40
0.448467091
 40
0.490784272
 40
0.5277835592
 40
0.5631020417
 40
0.6009035172
 40
0.644549416
 40
0.6961781898
 40
0.7570151111
 40
0.8277435874
 40
1.0
 40
1.0
 40
1.0
 40
1.0
 10
9.677373791
 20
21.5332714775
 30
0.0
 10
9.67751159
 20
21.533835066
 30
0.0
 10
9.6777324083
 20
21.534629291
 30
0.0
 10
9.6781008675
 20
21.5355953331
 30
0.0
 10
9.6783729859
 20
21.536168168
 30
0.0
 10
9.6786566844
 20
21.5366332084
 30
0.0
 10
9.6789524616
 20
21.536990508
 30
0.0
 10
9.679262655
 20
21.5372395329
 30
0.0
 10
9.67959157
 20
21.5373746004
 30
0.0
 10
9.6799345155
 20
21.5373831526
 30
0.0
 10
9.6802766365
 20
21.5372662392
 30
0.0
 10
9.6806143571
 20
21.5370361136
 30
0.0
 10
9.6809509602
 20
21.5366974626
 30
0.0
 10
9.681287805
 20
21.5362510634
 30
0.0
 10
9.6817686459
 20
21.5354591495
 30
0.0
 10
9.6820756991
 20
21.534782781
 30
0.0
 10
9.6822733336
 20
21.5342967566
 30
0.0
  0
SPLINE
  5
451
100
AcDbEntity
  8
0
100
AcDbSpline
 62
7
  6
CONTINUOUS
 70
0
 71
3
 72
19
 73
15
 74
0
 42
0.0000001
 43
0.0000001
 44
0.0000000001
 40
0.0
 40
0.0
 40
0.0
 40
0.0
 40
0.1965434825
 40
0.378277384
 40
0.5411229987
 40
0.6821374873
 40
0.7438064913
 40
0.7992658851
 40
0.8483140957
 40
0.8908038271
 40
0.926705042
 40
0.9562213996
 40
0.980065507
 40
1.0
 40
1.0
 40
1.0
 40
1.0
 10
9.6770796805
 20
21.5164529437
 30
0.0
 10
9.6771222488
 20
21.5172822851
 30
0.0
 10
9.6772223914
 20
21.5188776276
 30
0.0
 10
9.6774292208
 20
21.5211549969
 30
0.0
 10
9.677688938
 20
21.5231907179
 30
0.0
 10
9.6779566268
 20
21.5247127523
 30
0.0
 10
9.6782009536
 20
21.5257759835
 30
0.0
 10
9.6783865617
 20
21.5264533933
 30
0.0
 10
9.6785819081
 20
21.5270433453
 30
0.0
 10
9.6787861525
 20
21.5275421681
 30
0.0
 10
9.6789985411
 20
21.5279466742
 30
0.0
 10
9.6792194422
 20
21.5282545413
 30
0.0
 10
9.6794519999
 20
21.5284643637
 30
0.0
 10
9.679628772
 20
21.5285362999
 30
0.0
 10
9.679712047
 20
21.5285489275
 30
0.0
  0
SPLINE
  5
452
100
AcDbEntity
  8
0
100
AcDbSpline
 62
9
  6
CONTINUOUS
 70
0
 71
3
 72
15
 73
11
 74
0
 42
0.0000001
 43
0.0000001
 44
0.0000000001
 40
0.0
 40
0.0
 40
0.0
 40
0.0
 40
0.2059457276
 40
0.3862603731
 40
0.5410062011
 40
0.670659065
 40
0.7765585657
 40
0.861848802
 40
0.9327858807
 40
1.0
 40
1.0
 40
1.0
 40
1.0
 10
9.6863848976
 20
20.0902776043
 30
0.0
 10
9.6862808878
 20
20.0905862309
 30
0.0
 10
9.6860742354
 20
20.0911613211
 30
0.0
 10
9.6857420645
 20
20.0919503047
 30
0.0
 10
9.685409717
 20
20.0926066349
 30
0.0
 10
9.6850784389
 20
20.0931290263
 30
0.0
 10
9.684747781
 20
20.0935169124
 30
0.0
 10
9.6844147122
 20
20.0937716345
 30
0.0
 10
9.6840695074
 20
20.0938842688
 30
0.0
 10
9.6838447417
 20
20.0938491591
 30
0.0
 10
9.6837454017
 20
20.0938113495
 30
0.0
  0
SPLINE
  5
453
100
AcDbEntity
  8
0
100
AcDbSpline
 62
9
  6
CONTINUOUS
 70
0
 71
3
 72
20
 73
16
 74
0
 42
0.0000001
 43
0.0000001
 44
0.0000000001
 40
0.0
 40
0.0
 40
0.0
 40
0.0
 40
0.1889716864
 40
0.268233443
 40
0.3375016069
 40
0.3972148663
 40
0.4481397663
 40
0.5291068228
 40
0.5654626443
 40
0.6038546947
 40
0.6476199573
 40
0.6989911474
 40
0.7593050057
 40
0.8293394141
 40
1.0
 40
1.0
 40
1.0
 40
1.0
 10
9.6824361508
 20
20.0367310944
 30
0.0
 10
9.6822468949
 20
20.0362327801
 30
0.0
 10
9.6819524144
 20
20.0355337486
 30
0.0
 10
9.6814976982
 20
20.0346963985
 30
0.0
 10
9.6811765043
 20
20.0342039554
 30
0.0
 10
9.6808540961
 20
20.0338092376
 30
0.0
 10
9.6804587152
 20
20.0334426994
 30
0.0
 10
9.6800087215
 20
20.0332168304
 30
0.0
 10
9.6795610114
 20
20.0332481663
 30
0.0
 10
9.6792498426
 20
20.0333840385
 30
0.0
 10
9.6789546058
 20
20.033623102
 30
0.0
 10
9.6786721519
 20
20.033960978
 30
0.0
 10
9.6784005116
 20
20.0343970847
 30
0.0
 10
9.6780276541
 20
20.0351610483
 30
0.0
 10
9.6778053272
 20
20.0358052055
 30
0.0
 10
9.6776659181
 20
20.0362659693
 30
0.0
  0
SPLINE
  5
454
100
AcDbEntity
  8
0
100
AcDbSpline
 62
9
  6
CONTINUOUS
 70
0
 71
3
 72
10
 73
6
 74
0
 42
0.0000001
 43
0.0000001
 44
0.0000000001
 40
0.0
 40
0.0
 40
0.0
 40
0.0
 40
0.2077206415
 40
0.4444504055
 40
1.0
 40
1.0
 40
1.0
 40
1.0
 10
9.6776659181
 20
20.0362659693
 30
0.0
 10
9.6775438254
 20
20.0366694999
 30
0.0
 10
9.6773140392
 20
20.037542489
 30
0.0
 10
9.6768963305
 20
20.0395291693
 30
0.0
 10
9.6766607011
 20
20.0411214577
 30
0.0
 10
9.6765204275
 20
20.0422402596
 30
0.0
  0
SPLINE
  5
455
100
AcDbEntity
  8
0
100
AcDbSpline
 62
9
  6
CONTINUOUS
 70
0
 71
3
 72
11
 73
7
 74
0
 42
0.0000001
 43
0.0000001
 44
0.0000000001
 40
0.0
 40
0.0
 40
0.0
 40
0.0
 40
0.2189645478
 40
0.4640168384
 40
0.7275655859
 40
1.0
 40
1.0
 40
1.0
 40
1.0
 10
9.6765204275
 20
20.0422402596
 30
0.0
 10
9.6763560839
 20
20.0435510411
 30
0.0
 10
9.676081995
 20
20.046338121
 30
0.0
 10
9.675806529
 20
20.0507195489
 30
0.0
 10
9.6756419954
 20
20.0554292945
 30
0.0
 10
9.6756055063
 20
20.0586630736
 30
0.0
 10
9.6756054812
 20
20.0603067087
 30
0.0
  0
SPLINE
  5
456
100
AcDbEntity
  8
0
100
AcDbSpline
 62
9
  6
CONTINUOUS
 70
0
 71
3
 72
13
 73
9
 74
0
 42
0.0000001
 43
0.0000001
 44
0.0000000001
 40
0.0
 40
0.0
 40
0.0
 40
0.0
 40
0.2955495817
 40
0.5719767915
 40
0.6971929035
 40
0.8113001029
 40
0.9126232351
 40
1.0
 40
1.0
 40
1.0
 40
1.0
 10
9.675605482
 20
20.0603067087
 30
0.0
 10
9.6756055378
 20
20.0625798219
 30
0.0
 10
9.6756735193
 20
20.0669792099
 30
0.0
 10
9.6759371569
 20
20.0723365533
 30
0.0
 10
9.676274031
 20
20.0762893371
 30
0.0
 10
9.67657197
 20
20.0788928165
 30
0.0
 10
9.6769237006
 20
20.0811956115
 30
0.0
 10
9.6772141802
 20
20.08261868
 30
0.0
 10
9.677373791
 20
20.0832714775
 30
0.0
  0
SPLINE
  5
457
100
AcDbEntity
  8
0
100
AcDbSpline
 62
9
  6
CONTINUOUS
 70
0
 71
3
 72
21
 73
17
 74
0
 42
0.0000001
 43
0.0000001
 44
0.0000000001
 40
0.0
 40
0.0
 40
0.0
 40
0.0
 40
0.1904842969
 40
0.2700495678
 40
0.3392096512
 40
0.3984141887
 40
0.448467091
 40
0.4907842721
 40
0.5277835593
 40
0.5631020418
 40
0.6009035173
 40
0.6445494161
 40
0.6961781898
 40
0.7570151111
 40
0.8277435875
 40
1.0
 40
1.0
 40
1.0
 40
1.0
 10
9.677373791
 20
20.0832714775
 30
0.0
 10
9.67751159
 20
20.083835066
 30
0.0
 10
9.6777324083
 20
20.084629291
 30
0.0
 10
9.6781008675
 20
20.0855953331
 30
0.0
 10
9.6783729859
 20
20.086168168
 30
0.0
 10
9.6786566844
 20
20.0866332084
 30
0.0
 10
9.6789524616
 20
20.086990508
 30
0.0
 10
9.679262655
 20
20.0872395329
 30
0.0
 10
9.67959157
 20
20.0873746004
 30
0.0
 10
9.6799345155
 20
20.0873831526
 30
0.0
 10
9.6802766365
 20
20.0872662392
 30
0.0
 10
9.6806143571
 20
20.0870361136
 30
0.0
 10
9.6809509602
 20
20.0866974626
 30
0.0
 10
9.681287805
 20
20.0862510634
 30
0.0
 10
9.6817686459
 20
20.0854591495
 30
0.0
 10
9.6820756991
 20
20.084782781
 30
0.0
 10
9.6822733336
 20
20.0842967566
 30
0.0
  0
SPLINE
  5
458
100
AcDbEntity
  8
0
100
AcDbSpline
 62
7
  6
CONTINUOUS
 70
0
 71
3
 72
19
 73
15
 74
0
 42
0.0000001
 43
0.0000001
 44
0.0000000001
 40
0.0
 40
0.0
 40
0.0
 40
0.0
 40
0.1965434825
 40
0.378277384
 40
0.5411229987
 40
0.6821374873
 40
0.7438064913
 40
0.7992658851
 40
0.8483140957
 40
0.8908038271
 40
0.926705042
 40
0.9562213996
 40
0.980065507
 40
1.0
 40
1.0
 40
1.0
 40
1.0
 10
9.6770796805
 20
20.0664529437
 30
0.0
 10
9.6771222488
 20
20.0672822851
 30
0.0
 10
9.6772223914
 20
20.0688776276
 30
0.0
 10
9.6774292208
 20
20.0711549969
 30
0.0
 10
9.677688938
 20
20.0731907179
 30
0.0
 10
9.6779566268
 20
20.0747127523
 30
0.0
 10
9.6782009536
 20
20.0757759835
 30
0.0
 10
9.6783865617
 20
20.0764533933
 30
0.0
 10
9.6785819081
 20
20.0770433453
 30
0.0
 10
9.6787861525
 20
20.0775421681
 30
0.0
 10
9.6789985411
 20
20.0779466742
 30
0.0
 10
9.6792194422
 20
20.0782545413
 30
0.0
 10
9.6794519999
 20
20.0784643637
 30
0.0
 10
9.679628772
 20
20.0785362999
 30
0.0
 10
9.679712047
 20
20.0785489275
 30
0.0
  0
SPLINE
  5
459
100
AcDbEntity
  8
0
100
AcDbSpline
 62
7
  6
CONTINUOUS
 70
0
 71
3
 72
13
 73
9
 74
0
 42
0.0000001
 43
0.0000001
 44
0.0000000001
 40
0.0
 40
0.0
 40
0.0
 40
0.0
 40
0.2540170897
 40
0.5063378294
 40
0.6313425958
 40
0.7553716117
 40
0.8783156742
 40
1.0
 40
1.0
 40
1.0
 40
1.0
 10
9.725759008
 20
20.0603067087
 30
0.0
 10
9.7257590039
 20
20.059019011
 30
0.0
 10
9.7257047807
 20
20.0564519119
 30
0.0
 10
9.7255149804
 20
20.0532565626
 30
0.0
 10
9.7253214064
 20
20.0507224243
 30
0.0
 10
9.7251724863
 20
20.0488426086
 30
0.0
 10
9.7250327675
 20
20.0469790635
 30
0.0
 10
9.7249834935
 20
20.0457390872
 30
0.0
 10
9.7249834891
 20
20.0451222286
 30
0.0
  0
SPLINE
  5
45A
100
AcDbEntity
  8
0
100
AcDbSpline
 62
9
  6
CONTINUOUS
 70
0
 71
3
 72
10
 73
6
 74
0
 42
0.0000001
 43
0.0000001
 44
0.0000000001
 40
0.0
 40
0.0
 40
0.0
 40
0.0
 40
0.2200745797
 40
0.4645389204
 40
1.0
 40
1.0
 40
1.0
 40
1.0
 10
9.7219901154
 20
20.073517409
 30
0.0
 10
9.7221795842
 20
20.0737011613
 30
0.0
 10
9.7226041903
 20
20.074063807
 30
0.0
 10
9.7235821291
 20
20.0747594349
 30
0.0
 10
9.7244035628
 20
20.0752153404
 30
0.0
 10
9.7249834889
 20
20.0754911797
 30
0.0
  0
SPLINE
  5
45B
100
AcDbEntity
  8
0
100
AcDbSpline
 62
7
  6
CONTINUOUS
 70
0
 71
3
 72
13
 73
9
 74
0
 42
0.0000001
 43
0.0000001
 44
0.0000000001
 40
0.0
 40
0.0
 40
0.0
 40
0.0
 40
0.1216843156
 40
0.2446282588
 40
0.3686571818
 40
0.4936619838
 40
0.7459828438
 40
1.0
 40
1.0
 40
1.0
 40
1.0
 10
9.7249834891
 20
20.0754911662
 30
0.0
 10
9.7249834869
 20
20.0748743086
 30
0.0
 10
9.7250327798
 20
20.0736343351
 30
0.0
 10
9.7251724897
 20
20.0717707938
 30
0.0
 10
9.7253214081
 20
20.0698909815
 30
0.0
 10
9.7255149763
 20
20.0673568464
 30
0.0
 10
9.7257047758
 20
20.064161501
 30
0.0
 10
9.7257590121
 20
20.0615944049
 30
0.0
 10
9.725759008
 20
20.0603067087
 30
0.0
  0
SPLINE
  5
45C
100
AcDbEntity
  8
0
100
AcDbSpline
 62
9
  6
CONTINUOUS
 70
0
 71
3
 72
17
 73
13
 74
0
 42
0.0000001
 43
0.0000001
 44
0.0000000001
 40
0.0
 40
0.0
 40
0.0
 40
0.0
 40
0.173654152
 40
0.3315186716
 40
0.4733837547
 40
0.5999772727
 40
0.7127150812
 40
0.8139485985
 40
0.8615036227
 40
0.907814805
 40
0.9536895499
 40
1.0
 40
1.0
 40
1.0
 40
1.0
 10
9.7249834891
 20
20.0754911157
 30
0.0
 10
9.7243018922
 20
20.0777376155
 30
0.0
 10
9.7227011809
 20
20.08194323
 30
0.0
 10
9.7195910656
 20
20.0875599859
 30
0.0
 10
9.716085859
 20
20.0921622718
 30
0.0
 10
9.7123413953
 20
20.0957382264
 30
0.0
 10
9.7084709289
 20
20.0982833798
 30
0.0
 10
9.7051271608
 20
20.0995484165
 30
0.0
 10
9.7025138182
 20
20.0999602608
 30
0.0
 10
9.7006174331
 20
20.099980287
 30
0.0
 10
9.6987572478
 20
20.09971038
 30
0.0
 10
9.6975617614
 20
20.0993373576
 30
0.0
 10
9.6969802457
 20
20.0991054051
 30
0.0
  0
SPLINE
  5
45D
100
AcDbEntity
  8
0
100
AcDbSpline
 62
7
  6
CONTINUOUS
 70
0
 71
3
 72
13
 73
9
 74
0
 42
0.0000001
 43
0.0000001
 44
0.0000000001
 40
0.0
 40
0.0
 40
0.0
 40
0.0
 40
0.2540170897
 40
0.5063378294
 40
0.6313425958
 40
0.7553716117
 40
0.8783156742
 40
1.0
 40
1.0
 40
1.0
 40
1.0
 10
9.725759008
 20
22.9603067087
 30
0.0
 10
9.7257590039
 20
22.959019011
 30
0.0
 10
9.7257047807
 20
22.9564519119
 30
0.0
 10
9.7255149804
 20
22.9532565626
 30
0.0
 10
9.7253214064
 20
22.9507224243
 30
0.0
 10
9.7251724863
 20
22.9488426086
 30
0.0
 10
9.7250327675
 20
22.9469790635
 30
0.0
 10
9.7249834935
 20
22.9457390872
 30
0.0
 10
9.7249834891
 20
22.9451222286
 30
0.0
  0
SPLINE
  5
45E
100
AcDbEntity
  8
0
100
AcDbSpline
 62
9
  6
CONTINUOUS
 70
0
 71
3
 72
10
 73
6
 74
0
 42
0.0000001
 43
0.0000001
 44
0.0000000001
 40
0.0
 40
0.0
 40
0.0
 40
0.0
 40
0.220074579
 40
0.4645389202
 40
1.0
 40
1.0
 40
1.0
 40
1.0
 10
9.7219901154
 20
22.973517409
 30
0.0
 10
9.7221795843
 20
22.9737011613
 30
0.0
 10
9.7226041903
 20
22.974063807
 30
0.0
 10
9.7235821292
 20
22.974759435
 30
0.0
 10
9.724403563
 20
22.9752153405
 30
0.0
 10
9.7249834891
 20
22.9754911798
 30
0.0
  0
SPLINE
  5
45F
100
AcDbEntity
  8
0
100
AcDbSpline
 62
7
  6
CONTINUOUS
 70
0
 71
3
 72
13
 73
9
 74
0
 42
0.0000001
 43
0.0000001
 44
0.0000000001
 40
0.0
 40
0.0
 40
0.0
 40
0.0
 40
0.1216843133
 40
0.2446282533
 40
0.3686571697
 40
0.4936619659
 40
0.7459828296
 40
1.0
 40
1.0
 40
1.0
 40
1.0
 10
9.7249834891
 20
22.9754911702
 30
0.0
 10
9.724983487
 20
22.9748743124
 30
0.0
 10
9.7250327795
 20
22.9736343386
 30
0.0
 10
9.7251724894
 20
22.9717707969
 30
0.0
 10
9.725321408
 20
22.9698909842
 30
0.0
 10
9.725514976
 20
22.9673568484
 30
0.0
 10
9.7257047757
 20
22.9641615022
 30
0.0
 10
9.7257590121
 20
22.9615944053
 30
0.0
 10
9.725759008
 20
22.9603067087
 30
0.0
  0
SPLINE
  5
460
100
AcDbEntity
  8
0
100
AcDbSpline
 62
9
  6
CONTINUOUS
 70
0
 71
3
 72
10
 73
6
 74
0
 42
0.0000001
 43
0.0000001
 44
0.0000000001
 40
0.0
 40
0.0
 40
0.0
 40
0.0
 40
0.2065577131
 40
0.4446896265
 40
1.0
 40
1.0
 40
1.0
 40
1.0
 10
9.7219901259
 20
20.0470960029
 30
0.0
 10
9.7221679547
 20
20.046923539
 30
0.0
 10
9.7225729392
 20
20.0465748884
 30
0.0
 10
9.7235463876
 20
20.0458729546
 30
0.0
 10
9.7243820613
 20
20.0454083001
 30
0.0
 10
9.7249834749
 20
20.0451222384
 30
0.0
  0
SPLINE
  5
461
100
AcDbEntity
  8
0
100
AcDbSpline
 62
9
  6
CONTINUOUS
 70
0
 71
3
 72
17
 73
13
 74
0
 42
0.0000001
 43
0.0000001
 44
0.0000000001
 40
0.0
 40
0.0
 40
0.0
 40
0.0
 40
0.1736676532
 40
0.3315377051
 40
0.473400958
 40
0.5999865707
 40
0.7127126535
 40
0.8139347833
 40
0.8614862098
 40
0.907797421
 40
0.9536780633
 40
1.0
 40
1.0
 40
1.0
 40
1.0
 10
9.7249834891
 20
20.0451222876
 30
0.0
 10
9.7243016371
 20
20.042874959
 30
0.0
 10
9.7227002546
 20
20.0386679043
 30
0.0
 10
9.7195886501
 20
20.0330495478
 30
0.0
 10
9.7160818011
 20
20.02844644
 30
0.0
 10
9.7123356518
 20
20.0248704478
 30
0.0
 10
9.7084635204
 20
20.0223260588
 30
0.0
 10
9.7051184117
 20
20.0210624777
 30
0.0
 10
9.7025042192
 20
20.0206522962
 30
0.0
 10
9.7006072227
 20
20.0206337606
 30
0.0
 10
9.6987464961
 20
20.020905452
 30
0.0
 10
9.6975507894
 20
20.0212797945
 30
0.0
 10
9.6969691831
 20
20.0215124311
 30
0.0
  0
SPLINE
  5
462
100
AcDbEntity
  8
0
100
AcDbSpline
 62
9
  6
CONTINUOUS
 70
0
 71
3
 72
33
 73
29
 74
0
 42
0.0000001
 43
0.0000001
 44
0.0000000001
 40
0.0
 40
0.0
 40
0.0
 40
0.0
 40
0.0729781548
 40
0.1068781991
 40
0.138984286
 40
0.1693726772
 40
0.1981786246
 40
0.2255169963
 40
0.2515123799
 40
0.3000873611
 40
0.3231995607
 40
0.3458520935
 40
0.3683545662
 40
0.3910448975
 40
0.4142907149
 40
0.4384771613
 40
0.4910059035
 40
0.5508999186
 40
0.5840035819
 40
0.6190892022
 40
0.6560071138
 40
0.6945169491
 40
0.7341465898
 40
0.7743732316
 40
0.8544856938
 40
0.9307154591
 40
0.9663295421
 40
1.0
 40
1.0
 40
1.0
 40
1.0
 10
9.7219901261
 20
20.0470960431
 30
0.0
 10
9.7212007488
 20
20.0448764776
 30
0.0
 10
9.7197418671
 20
20.0417199446
 30
0.0
 10
9.7172975895
 20
20.0379525651
 30
0.0
 10
9.7153678466
 20
20.0355054151
 30
0.0
 10
9.7133292241
 20
20.0333707943
 30
0.0
 10
9.7112094407
 20
20.0315450311
 30
0.0
 10
9.7090338894
 20
20.0300203197
 30
0.0
 10
9.7061541607
 20
20.0284223535
 30
0.0
 10
9.7031430084
 20
20.0273638846
 30
0.0
 10
9.7001174011
 20
20.026951435
 30
0.0
 10
9.6979059939
 20
20.0269612801
 30
0.0
 10
9.6957328038
 20
20.0272899006
 30
0.0
 10
9.6936130589
 20
20.0279402543
 30
0.0
 10
9.6915629339
 20
20.0289189016
 30
0.0
 10
9.6888713157
 20
20.030716593
 30
0.0
 10
9.685758542
 20
20.0339124793
 30
0.0
 10
9.6833083185
 20
20.0379590953
 30
0.0
 10
9.6816608626
 20
20.0417551909
 30
0.0
 10
9.6805742558
 20
20.0449736532
 30
0.0
 10
9.6796989803
 20
20.04843543
 30
0.0
 10
9.6790539276
 20
20.0520961739
 30
0.0
 10
9.6786448584
 20
20.0558979505
 30
0.0
 10
9.6784282742
 20
20.0610604559
 30
0.0
 10
9.6787848736
 20
20.0674140812
 30
0.0
 10
9.6799389203
 20
20.0735254398
 30
0.0
 10
9.6813463926
 20
20.078011348
 30
0.0
 10
9.6821898169
 20
20.0800863681
 30
0.0
 10
9.6826455767
 20
20.0810730889
 30
0.0
  0
SPLINE
  5
463
100
AcDbEntity
  8
0
100
AcDbSpline
 62
9
  6
CONTINUOUS
 70
0
 71
3
 72
11
 73
7
 74
0
 42
0.0000001
 43
0.0000001
 44
0.0000000001
 40
0.0
 40
0.0
 40
0.0
 40
0.0
 40
0.245161201
 40
0.4999996034
 40
0.7548376467
 40
1.0
 40
1.0
 40
1.0
 40
1.0
 10
9.7219901294
 20
20.0735174179
 30
0.0
 10
9.722726825
 20
20.0714459908
 30
0.0
 10
9.7238541236
 20
20.0670814329
 30
0.0
 10
9.7244650185
 20
20.0603067389
 30
0.0
 10
9.7238541307
 20
20.053532033
 30
0.0
 10
9.7227268304
 20
20.0491674691
 30
0.0
 10
9.7219901402
 20
20.0470960292
 30
0.0
  0
SPLINE
  5
464
100
AcDbEntity
  8
0
100
AcDbSpline
 62
9
  6
CONTINUOUS
 70
0
 71
3
 72
17
 73
13
 74
0
 42
0.0000001
 43
0.0000001
 44
0.0000000001
 40
0.0
 40
0.0
 40
0.0
 40
0.0
 40
0.1736541456
 40
0.3315186638
 40
0.4733837465
 40
0.5999772646
 40
0.7127150739
 40
0.813948593
 40
0.8615036184
 40
0.9078148021
 40
0.9536895484
 40
1.0
 40
1.0
 40
1.0
 40
1.0
 10
9.7249834891
 20
22.9754911197
 30
0.0
 10
9.7243018924
 20
22.9777376192
 30
0.0
 10
9.7227011787
 20
22.9819432322
 30
0.0
 10
9.7195910647
 20
22.9875599879
 30
0.0
 10
9.7160858578
 20
22.992162273
 30
0.0
 10
9.7123413944
 20
22.9957382271
 30
0.0
 10
9.7084709282
 20
22.9982833802
 30
0.0
 10
9.7051271603
 20
22.9995484166
 30
0.0
 10
9.7025138178
 20
22.9999602608
 30
0.0
 10
9.7006174329
 20
22.999980287
 30
0.0
 10
9.6987572477
 20
22.99971038
 30
0.0
 10
9.6975617614
 20
22.9993373576
 30
0.0
 10
9.6969802457
 20
22.9991054051
 30
0.0
  0
SPLINE
  5
465
100
AcDbEntity
  8
0
100
AcDbSpline
 62
7
  6
CONTINUOUS
 70
0
 71
3
 72
17
 73
13
 74
0
 42
0.0000001
 43
0.0000001
 44
0.0000000001
 40
0.0
 40
0.0
 40
0.0
 40
0.0
 40
0.1538280371
 40
0.3049742318
 40
0.4497431139
 40
0.5846818768
 40
0.7072831354
 40
0.8166582777
 40
0.8665331274
 40
0.9134039307
 40
0.9576755257
 40
1.0
 40
1.0
 40
1.0
 40
1.0
 10
9.6889416915
 20
20.0603067087
 30
0.0
 10
9.6889416915
 20
20.0614039602
 30
0.0
 10
9.6890321705
 20
20.0635804057
 30
0.0
 10
9.6894344873
 20
20.066767031
 30
0.0
 10
9.6900994338
 20
20.0697725036
 30
0.0
 10
9.6910224579
 20
20.0724976515
 30
0.0
 10
9.6922016167
 20
20.0748444733
 30
0.0
 10
9.6933998222
 20
20.0764763995
 30
0.0
 10
9.6944580012
 20
20.0775017307
 30
0.0
 10
9.6952654727
 20
20.0781068328
 30
0.0
 10
9.6961054535
 20
20.0785626552
 30
0.0
 10
9.6966938391
 20
20.078763011
 30
0.0
 10
9.6969874845
 20
20.0788331226
 30
0.0
  0
SPLINE
  5
466
100
AcDbEntity
  8
0
100
AcDbSpline
 62
7
  6
CONTINUOUS
 70
0
 71
3
 72
9
 73
5
 74
0
 42
0.0000001
 43
0.0000001
 44
0.0000000001
 40
0.0
 40
0.0
 40
0.0
 40
0.0
 40
0.2433935919
 40
1.0
 40
1.0
 40
1.0
 40
1.0
 10
9.7055840748
 20
20.0677218481
 30
0.0
 10
9.7054854279
 20
20.0671260128
 30
0.0
 10
9.7051323248
 20
20.0646695859
 30
0.0
 10
9.7049834891
 20
20.0621841184
 30
0.0
 10
9.7049834891
 20
20.0603067087
 30
0.0
  0
SPLINE
  5
467
100
AcDbEntity
  8
0
100
AcDbSpline
 62
9
  6
CONTINUOUS
 70
0
 71
3
 72
10
 73
6
 74
0
 42
0.0000001
 43
0.0000001
 44
0.0000000001
 40
0.0
 40
0.0
 40
0.0
 40
0.0
 40
0.2065577131
 40
0.4446896265
 40
1.0
 40
1.0
 40
1.0
 40
1.0
 10
9.7219901259
 20
22.9470960029
 30
0.0
 10
9.7221679547
 20
22.946923539
 30
0.0
 10
9.7225729392
 20
22.9465748884
 30
0.0
 10
9.7235463876
 20
22.9458729546
 30
0.0
 10
9.7243820613
 20
22.9454083001
 30
0.0
 10
9.7249834749
 20
22.9451222384
 30
0.0
  0
SPLINE
  5
468
100
AcDbEntity
  8
0
100
AcDbSpline
 62
7
  6
CONTINUOUS
 70
0
 71
3
 72
9
 73
5
 74
0
 42
0.0000001
 43
0.0000001
 44
0.0000000001
 40
0.0
 40
0.0
 40
0.0
 40
0.0
 40
0.2433935919
 40
1.0
 40
1.0
 40
1.0
 40
1.0
 10
9.7055840748
 20
20.0528915693
 30
0.0
 10
9.7054854279
 20
20.0534874046
 30
0.0
 10
9.7051323248
 20
20.0559438315
 30
0.0
 10
9.7049834891
 20
20.0584292991
 30
0.0
 10
9.7049834891
 20
20.0603067088
 30
0.0
  0
SPLINE
  5
469
100
AcDbEntity
  8
0
100
AcDbSpline
 62
9
  6
CONTINUOUS
 70
0
 71
3
 72
17
 73
13
 74
0
 42
0.0000001
 43
0.0000001
 44
0.0000000001
 40
0.0
 40
0.0
 40
0.0
 40
0.0
 40
0.1736676531
 40
0.3315377051
 40
0.473400958
 40
0.5999865707
 40
0.7127126535
 40
0.8139347833
 40
0.8614862098
 40
0.907797421
 40
0.9536780633
 40
1.0
 40
1.0
 40
1.0
 40
1.0
 10
9.7249834891
 20
22.9451222876
 30
0.0
 10
9.7243016371
 20
22.942874959
 30
0.0
 10
9.7227002546
 20
22.9386679043
 30
0.0
 10
9.7195886501
 20
22.9330495478
 30
0.0
 10
9.7160818011
 20
22.92844644
 30
0.0
 10
9.7123356518
 20
22.9248704478
 30
0.0
 10
9.7084635204
 20
22.9223260588
 30
0.0
 10
9.7051184117
 20
22.9210624777
 30
0.0
 10
9.7025042192
 20
22.9206522962
 30
0.0
 10
9.7006072227
 20
22.9206337606
 30
0.0
 10
9.6987464961
 20
22.920905452
 30
0.0
 10
9.6975507894
 20
22.9212797945
 30
0.0
 10
9.6969691831
 20
22.9215124311
 30
0.0
  0
SPLINE
  5
46A
100
AcDbEntity
  8
0
100
AcDbSpline
 62
9
  6
CONTINUOUS
 70
0
 71
3
 72
33
 73
29
 74
0
 42
0.0000001
 43
0.0000001
 44
0.0000000001
 40
0.0
 40
0.0
 40
0.0
 40
0.0
 40
0.0729781548
 40
0.106878199
 40
0.1389842859
 40
0.1693726771
 40
0.1981786244
 40
0.2255169961
 40
0.2515123796
 40
0.3000873607
 40
0.3231995602
 40
0.345852093
 40
0.3683545657
 40
0.391044897
 40
0.4142907145
 40
0.438477161
 40
0.4910059035
 40
0.5508999189
 40
0.5840035825
 40
0.619089203
 40
0.6560071147
 40
0.6945169502
 40
0.734146591
 40
0.7743732328
 40
0.8544856949
 40
0.9307154597
 40
0.9663295424
 40
1.0
 40
1.0
 40
1.0
 40
1.0
 10
9.7219901261
 20
22.9470960431
 30
0.0
 10
9.7212007488
 20
22.9448764776
 30
0.0
 10
9.7197418671
 20
22.9417199445
 30
0.0
 10
9.7172975894
 20
22.9379525651
 30
0.0
 10
9.7153678466
 20
22.935505415
 30
0.0
 10
9.7133292241
 20
22.9333707942
 30
0.0
 10
9.7112094407
 20
22.931545031
 30
0.0
 10
9.7090338893
 20
22.9300203196
 30
0.0
 10
9.7061541607
 20
22.9284223535
 30
0.0
 10
9.7031430083
 20
22.9273638846
 30
0.0
 10
9.700117401
 20
22.926951435
 30
0.0
 10
9.6979059938
 20
22.9269612801
 30
0.0
 10
9.6957328037
 20
22.9272899006
 30
0.0
 10
9.6936130588
 20
22.9279402544
 30
0.0
 10
9.6915629337
 20
22.9289189017
 30
0.0
 10
9.6888713155
 20
22.9307165931
 30
0.0
 10
9.6857585419
 20
22.9339124795
 30
0.0
 10
9.6833083183
 20
22.9379590956
 30
0.0
 10
9.6816608625
 20
22.9417551913
 30
0.0
 10
9.6805742557
 20
22.9449736536
 30
0.0
 10
9.6796989802
 20
22.9484354304
 30
0.0
 10
9.6790539275
 20
22.9520961744
 30
0.0
 10
9.6786448583
 20
22.9558979509
 30
0.0
 10
9.6784282742
 20
22.9610604564
 30
0.0
 10
9.6787848737
 20
22.9674140817
 30
0.0
 10
9.6799389204
 20
22.9735254403
 30
0.0
 10
9.6813463928
 20
22.9780113484
 30
0.0
 10
9.6821898171
 20
22.9800863686
 30
0.0
 10
9.6826455769
 20
22.9810730894
 30
0.0
  0
SPLINE
  5
46B
100
AcDbEntity
  8
0
100
AcDbSpline
 62
9
  6
CONTINUOUS
 70
0
 71
3
 72
11
 73
7
 74
0
 42
0.0000001
 43
0.0000001
 44
0.0000000001
 40
0.0
 40
0.0
 40
0.0
 40
0.0
 40
0.245161201
 40
0.4999996034
 40
0.7548376467
 40
1.0
 40
1.0
 40
1.0
 40
1.0
 10
9.7219901294
 20
22.9735174179
 30
0.0
 10
9.722726825
 20
22.9714459908
 30
0.0
 10
9.7238541236
 20
22.9670814329
 30
0.0
 10
9.7244650185
 20
22.9603067389
 30
0.0
 10
9.7238541307
 20
22.953532033
 30
0.0
 10
9.7227268304
 20
22.9491674691
 30
0.0
 10
9.7219901402
 20
22.9470960292
 30
0.0
  0
SPLINE
  5
46C
100
AcDbEntity
  8
0
100
AcDbSpline
 62
7
  6
CONTINUOUS
 70
0
 71
3
 72
17
 73
13
 74
0
 42
0.0000001
 43
0.0000001
 44
0.0000000001
 40
0.0
 40
0.0
 40
0.0
 40
0.0
 40
0.1538280371
 40
0.3049742318
 40
0.4497431139
 40
0.5846818768
 40
0.7072831354
 40
0.8166582777
 40
0.8665331274
 40
0.9134039307
 40
0.9576755257
 40
1.0
 40
1.0
 40
1.0
 40
1.0
 10
9.6889416915
 20
22.9603067087
 30
0.0
 10
9.6889416915
 20
22.9614039602
 30
0.0
 10
9.6890321705
 20
22.9635804057
 30
0.0
 10
9.6894344873
 20
22.966767031
 30
0.0
 10
9.6900994338
 20
22.9697725036
 30
0.0
 10
9.6910224579
 20
22.9724976515
 30
0.0
 10
9.6922016167
 20
22.9748444733
 30
0.0
 10
9.6933998222
 20
22.9764763995
 30
0.0
 10
9.6944580012
 20
22.9775017307
 30
0.0
 10
9.6952654727
 20
22.9781068328
 30
0.0
 10
9.6961054535
 20
22.9785626552
 30
0.0
 10
9.6966938391
 20
22.978763011
 30
0.0
 10
9.6969874845
 20
22.9788331226
 30
0.0
  0
SPLINE
  5
46D
100
AcDbEntity
  8
0
100
AcDbSpline
 62
7
  6
CONTINUOUS
 70
0
 71
3
 72
19
 73
15
 74
0
 42
0.0000001
 43
0.0000001
 44
0.0000000001
 40
0.0
 40
0.0
 40
0.0
 40
0.0
 40
0.0199968702
 40
0.043879722
 40
0.0733980458
 40
0.1092789981
 40
0.1517320512
 40
0.2007320722
 40
0.2561358658
 40
0.3177460937
 40
0.4586618846
 40
0.621480948
 40
0.8032796883
 40
1.0
 40
1.0
 40
1.0
 40
1.0
 10
9.6797120557
 20
22.9420647121
 30
0.0
 10
9.6796291029
 20
22.9420775333
 30
0.0
 10
9.6794532641
 20
22.9421493579
 30
0.0
 10
9.6792214807
 20
22.9423575456
 30
0.0
 10
9.6790012626
 20
22.9426629847
 30
0.0
 10
9.6787896218
 20
22.943064246
 30
0.0
 10
9.6785860682
 20
22.9435590673
 30
0.0
 10
9.6783913383
 20
22.9441443198
 30
0.0
 10
9.6782062238
 20
22.9448163928
 30
0.0
 10
9.6779623846
 20
22.945871495
 30
0.0
 10
9.6776949503
 20
22.9473825293
 30
0.0
 10
9.677435162
 20
22.9494044522
 30
0.0
 10
9.6772277263
 20
22.9516676505
 30
0.0
 10
9.6771269258
 20
22.9532534895
 30
0.0
 10
9.6770839546
 20
22.9540781129
 30
0.0
  0
SPLINE
  5
46E
100
AcDbEntity
  8
0
100
AcDbSpline
 62
7
  6
CONTINUOUS
 70
0
 71
3
 72
9
 73
5
 74
0
 42
0.0000001
 43
0.0000001
 44
0.0000000001
 40
0.0
 40
0.0
 40
0.0
 40
0.0
 40
0.2433935919
 40
1.0
 40
1.0
 40
1.0
 40
1.0
 10
9.7055840748
 20
22.9677218481
 30
0.0
 10
9.7054854279
 20
22.9671260128
 30
0.0
 10
9.7051323248
 20
22.9646695859
 30
0.0
 10
9.7049834891
 20
22.9621841184
 30
0.0
 10
9.7049834891
 20
22.9603067087
 30
0.0
  0
SPLINE
  5
46F
100
AcDbEntity
  8
0
100
AcDbSpline
 62
9
  6
CONTINUOUS
 70
0
 71
3
 72
15
 73
11
 74
0
 42
0.0000001
 43
0.0000001
 44
0.0000000001
 40
0.0
 40
0.0
 40
0.0
 40
0.0
 40
0.0688096993
 40
0.1408361384
 40
0.2265910822
 40
0.3323927448
 40
0.4615045805
 40
0.615550448
 40
0.7950566586
 40
1.0
 40
1.0
 40
1.0
 40
1.0
 10
9.6837409828
 20
22.9268037622
 30
0.0
 10
9.6838372677
 20
22.9267664472
 30
0.0
 10
9.6840537888
 20
22.9267297211
 30
0.0
 10
9.6843882561
 20
22.9268300261
 30
0.0
 10
9.6847119385
 20
22.9270654465
 30
0.0
 10
9.6850333826
 20
22.9274265978
 30
0.0
 10
9.6853560299
 20
22.9279146565
 30
0.0
 10
9.6856797439
 20
22.9285297971
 30
0.0
 10
9.6860035628
 20
22.9292707595
 30
0.0
 10
9.686205175
 20
22.9298116128
 30
0.0
 10
9.6863066497
 20
22.930101949
 30
0.0
  0
SPLINE
  5
470
100
AcDbEntity
  8
0
100
AcDbSpline
 62
7
  6
CONTINUOUS
 70
0
 71
3
 72
9
 73
5
 74
0
 42
0.0000001
 43
0.0000001
 44
0.0000000001
 40
0.0
 40
0.0
 40
0.0
 40
0.0
 40
0.2433935919
 40
1.0
 40
1.0
 40
1.0
 40
1.0
 10
9.7055840748
 20
22.9528915693
 30
0.0
 10
9.7054854279
 20
22.9534874046
 30
0.0
 10
9.7051323248
 20
22.9559438315
 30
0.0
 10
9.7049834891
 20
22.9584292991
 30
0.0
 10
9.7049834891
 20
22.9603067088
 30
0.0
  0
SPLINE
  5
471
100
AcDbEntity
  8
0
100
AcDbSpline
 62
7
  6
CONTINUOUS
 70
0
 71
3
 72
17
 73
13
 74
0
 42
0.0000001
 43
0.0000001
 44
0.0000000001
 40
0.0
 40
0.0
 40
0.0
 40
0.0
 40
0.0423416224
 40
0.0866052909
 40
0.1334577727
 40
0.1833175895
 40
0.2926984467
 40
0.4153112172
 40
0.5502178265
 40
0.69496526
 40
0.8461345126
 40
1.0
 40
1.0
 40
1.0
 40
1.0
 10
9.6969876463
 20
22.9417822454
 30
0.0
 10
9.6966938833
 20
22.9418523605
 30
0.0
 10
9.6961051802
 20
22.9420518087
 30
0.0
 10
9.6952648043
 20
22.9425068352
 30
0.0
 10
9.6944573168
 20
22.9431114031
 30
0.0
 10
9.6933992683
 20
22.9441365764
 30
0.0
 10
9.6922018274
 20
22.9457690566
 30
0.0
 10
9.6910230265
 20
22.9481157761
 30
0.0
 10
9.6900993723
 20
22.950840329
 30
0.0
 10
9.6894346809
 20
22.9538455847
 30
0.0
 10
9.6890322688
 20
22.9570323878
 30
0.0
 10
9.6889416915
 20
22.9592092158
 30
0.0
 10
9.6889416915
 20
22.9603067087
 30
0.0
  0
SPLINE
  5
472
100
AcDbEntity
  8
0
100
AcDbSpline
 62
9
  6
CONTINUOUS
 70
0
 71
3
 72
15
 73
11
 74
0
 42
0.0000001
 43
0.0000001
 44
0.0000000001
 40
0.0
 40
0.0
 40
0.0
 40
0.0
 40
0.2059457276
 40
0.3862603731
 40
0.541006201
 40
0.670659065
 40
0.7765585656
 40
0.8618488019
 40
0.9327858807
 40
1.0
 40
1.0
 40
1.0
 40
1.0
 10
9.6863848976
 20
22.9902776043
 30
0.0
 10
9.6862808878
 20
22.9905862309
 30
0.0
 10
9.6860742354
 20
22.9911613211
 30
0.0
 10
9.6857420645
 20
22.9919503047
 30
0.0
 10
9.685409717
 20
22.9926066349
 30
0.0
 10
9.6850784389
 20
22.9931290263
 30
0.0
 10
9.684747781
 20
22.9935169124
 30
0.0
 10
9.6844147122
 20
22.9937716345
 30
0.0
 10
9.6840695074
 20
22.9938842688
 30
0.0
 10
9.6838447417
 20
22.9938491591
 30
0.0
 10
9.6837454017
 20
22.9938113495
 30
0.0
  0
SPLINE
  5
473
100
AcDbEntity
  8
0
100
AcDbSpline
 62
9
  6
CONTINUOUS
 70
0
 71
3
 72
20
 73
16
 74
0
 42
0.0000001
 43
0.0000001
 44
0.0000000001
 40
0.0
 40
0.0
 40
0.0
 40
0.0
 40
0.1889716864
 40
0.2682334431
 40
0.3375016069
 40
0.3972148664
 40
0.4481397663
 40
0.5291068229
 40
0.5654626443
 40
0.6038546947
 40
0.6476199573
 40
0.6989911474
 40
0.7593050058
 40
0.8293394141
 40
1.0
 40
1.0
 40
1.0
 40
1.0
 10
9.6824361508
 20
22.9367310944
 30
0.0
 10
9.6822468949
 20
22.9362327802
 30
0.0
 10
9.6819524144
 20
22.9355337486
 30
0.0
 10
9.6814976982
 20
22.9346963985
 30
0.0
 10
9.6811765043
 20
22.9342039554
 30
0.0
 10
9.6808540961
 20
22.9338092376
 30
0.0
 10
9.6804587152
 20
22.9334426994
 30
0.0
 10
9.6800087215
 20
22.9332168304
 30
0.0
 10
9.6795610114
 20
22.9332481663
 30
0.0
 10
9.6792498426
 20
22.9333840385
 30
0.0
 10
9.6789546058
 20
22.933623102
 30
0.0
 10
9.6786721519
 20
22.933960978
 30
0.0
 10
9.6784005116
 20
22.9343970847
 30
0.0
 10
9.6780276541
 20
22.9351610483
 30
0.0
 10
9.6778053272
 20
22.9358052055
 30
0.0
 10
9.6776659181
 20
22.9362659693
 30
0.0
  0
SPLINE
  5
474
100
AcDbEntity
  8
0
100
AcDbSpline
 62
9
  6
CONTINUOUS
 70
0
 71
3
 72
10
 73
6
 74
0
 42
0.0000001
 43
0.0000001
 44
0.0000000001
 40
0.0
 40
0.0
 40
0.0
 40
0.0
 40
0.2077206415
 40
0.4444504055
 40
1.0
 40
1.0
 40
1.0
 40
1.0
 10
9.6776659181
 20
22.9362659693
 30
0.0
 10
9.6775438254
 20
22.9366694999
 30
0.0
 10
9.6773140392
 20
22.937542489
 30
0.0
 10
9.6768963305
 20
22.9395291693
 30
0.0
 10
9.6766607011
 20
22.9411214577
 30
0.0
 10
9.6765204275
 20
22.9422402596
 30
0.0
  0
SPLINE
  5
475
100
AcDbEntity
  8
0
100
AcDbSpline
 62
9
  6
CONTINUOUS
 70
0
 71
3
 72
11
 73
7
 74
0
 42
0.0000001
 43
0.0000001
 44
0.0000000001
 40
0.0
 40
0.0
 40
0.0
 40
0.0
 40
0.2189645478
 40
0.4640168384
 40
0.7275655859
 40
1.0
 40
1.0
 40
1.0
 40
1.0
 10
9.6765204275
 20
22.9422402596
 30
0.0
 10
9.6763560839
 20
22.9435510411
 30
0.0
 10
9.676081995
 20
22.946338121
 30
0.0
 10
9.675806529
 20
22.9507195489
 30
0.0
 10
9.6756419954
 20
22.9554292945
 30
0.0
 10
9.6756055063
 20
22.9586630736
 30
0.0
 10
9.6756054812
 20
22.9603067087
 30
0.0
  0
SPLINE
  5
476
100
AcDbEntity
  8
0
100
AcDbSpline
 62
9
  6
CONTINUOUS
 70
0
 71
3
 72
13
 73
9
 74
0
 42
0.0000001
 43
0.0000001
 44
0.0000000001
 40
0.0
 40
0.0
 40
0.0
 40
0.0
 40
0.2955495817
 40
0.5719767915
 40
0.6971929035
 40
0.8113001029
 40
0.9126232351
 40
1.0
 40
1.0
 40
1.0
 40
1.0
 10
9.675605482
 20
22.9603067087
 30
0.0
 10
9.6756055378
 20
22.9625798219
 30
0.0
 10
9.6756735193
 20
22.9669792099
 30
0.0
 10
9.6759371569
 20
22.9723365533
 30
0.0
 10
9.676274031
 20
22.9762893371
 30
0.0
 10
9.67657197
 20
22.9788928165
 30
0.0
 10
9.6769237006
 20
22.9811956115
 30
0.0
 10
9.6772141802
 20
22.98261868
 30
0.0
 10
9.677373791
 20
22.9832714775
 30
0.0
  0
SPLINE
  5
477
100
AcDbEntity
  8
0
100
AcDbSpline
 62
9
  6
CONTINUOUS
 70
0
 71
3
 72
21
 73
17
 74
0
 42
0.0000001
 43
0.0000001
 44
0.0000000001
 40
0.0
 40
0.0
 40
0.0
 40
0.0
 40
0.1904842969
 40
0.2700495678
 40
0.3392096512
 40
0.3984141887
 40
0.448467091
 40
0.4907842721
 40
0.5277835593
 40
0.5631020418
 40
0.6009035173
 40
0.6445494161
 40
0.6961781898
 40
0.7570151111
 40
0.8277435875
 40
1.0
 40
1.0
 40
1.0
 40
1.0
 10
9.677373791
 20
22.9832714775
 30
0.0
 10
9.67751159
 20
22.983835066
 30
0.0
 10
9.6777324083
 20
22.984629291
 30
0.0
 10
9.6781008675
 20
22.9855953331
 30
0.0
 10
9.6783729859
 20
22.986168168
 30
0.0
 10
9.6786566844
 20
22.9866332084
 30
0.0
 10
9.6789524616
 20
22.986990508
 30
0.0
 10
9.679262655
 20
22.9872395329
 30
0.0
 10
9.67959157
 20
22.9873746004
 30
0.0
 10
9.6799345155
 20
22.9873831526
 30
0.0
 10
9.6802766365
 20
22.9872662392
 30
0.0
 10
9.6806143571
 20
22.9870361136
 30
0.0
 10
9.6809509602
 20
22.9866974626
 30
0.0
 10
9.681287805
 20
22.9862510634
 30
0.0
 10
9.6817686459
 20
22.9854591495
 30
0.0
 10
9.6820756991
 20
22.984782781
 30
0.0
 10
9.6822733336
 20
22.9842967566
 30
0.0
  0
SPLINE
  5
478
100
AcDbEntity
  8
0
100
AcDbSpline
 62
7
  6
CONTINUOUS
 70
0
 71
3
 72
19
 73
15
 74
0
 42
0.0000001
 43
0.0000001
 44
0.0000000001
 40
0.0
 40
0.0
 40
0.0
 40
0.0
 40
0.1965434825
 40
0.378277384
 40
0.5411229987
 40
0.6821374873
 40
0.7438064913
 40
0.7992658851
 40
0.8483140957
 40
0.8908038271
 40
0.926705042
 40
0.9562213996
 40
0.980065507
 40
1.0
 40
1.0
 40
1.0
 40
1.0
 10
9.6770796805
 20
22.9664529437
 30
0.0
 10
9.6771222488
 20
22.9672822851
 30
0.0
 10
9.6772223914
 20
22.9688776276
 30
0.0
 10
9.6774292208
 20
22.9711549969
 30
0.0
 10
9.677688938
 20
22.9731907179
 30
0.0
 10
9.6779566268
 20
22.9747127523
 30
0.0
 10
9.6782009536
 20
22.9757759835
 30
0.0
 10
9.6783865617
 20
22.9764533933
 30
0.0
 10
9.6785819081
 20
22.9770433453
 30
0.0
 10
9.6787861525
 20
22.9775421681
 30
0.0
 10
9.6789985411
 20
22.9779466742
 30
0.0
 10
9.6792194422
 20
22.9782545413
 30
0.0
 10
9.6794519999
 20
22.9784643637
 30
0.0
 10
9.679628772
 20
22.9785362999
 30
0.0
 10
9.679712047
 20
22.9785489275
 30
0.0
  0
SPLINE
  5
479
100
AcDbEntity
  8
0
100
AcDbSpline
 62
9
  6
CONTINUOUS
 70
0
 71
3
 72
15
 73
11
 74
0
 42
0.0000001
 43
0.0000001
 44
0.0000000001
 40
0.0
 40
0.0
 40
0.0
 40
0.0
 40
0.2059457276
 40
0.3862603731
 40
0.5410062011
 40
0.670659065
 40
0.7765585657
 40
0.8618488019
 40
0.9327858807
 40
1.0
 40
1.0
 40
1.0
 40
1.0
 10
9.6863848976
 20
22.1202776043
 30
0.0
 10
9.6862808878
 20
22.1205862309
 30
0.0
 10
9.6860742354
 20
22.1211613211
 30
0.0
 10
9.6857420645
 20
22.1219503047
 30
0.0
 10
9.685409717
 20
22.1226066349
 30
0.0
 10
9.6850784389
 20
22.1231290263
 30
0.0
 10
9.684747781
 20
22.1235169124
 30
0.0
 10
9.6844147122
 20
22.1237716345
 30
0.0
 10
9.6840695074
 20
22.1238842688
 30
0.0
 10
9.6838447417
 20
22.1238491591
 30
0.0
 10
9.6837454017
 20
22.1238113495
 30
0.0
  0
SPLINE
  5
47A
100
AcDbEntity
  8
0
100
AcDbSpline
 62
7
  6
CONTINUOUS
 70
0
 71
3
 72
19
 73
15
 74
0
 42
0.0000001
 43
0.0000001
 44
0.0000000001
 40
0.0
 40
0.0
 40
0.0
 40
0.0
 40
0.0199968702
 40
0.043879722
 40
0.0733980458
 40
0.1092789981
 40
0.1517320512
 40
0.2007320722
 40
0.2561358658
 40
0.3177460937
 40
0.4586618846
 40
0.621480948
 40
0.8032796883
 40
1.0
 40
1.0
 40
1.0
 40
1.0
 10
9.6797120557
 20
21.4920647121
 30
0.0
 10
9.6796291029
 20
21.4920775333
 30
0.0
 10
9.6794532641
 20
21.4921493579
 30
0.0
 10
9.6792214807
 20
21.4923575456
 30
0.0
 10
9.6790012626
 20
21.4926629847
 30
0.0
 10
9.6787896218
 20
21.493064246
 30
0.0
 10
9.6785860682
 20
21.4935590673
 30
0.0
 10
9.6783913383
 20
21.4941443198
 30
0.0
 10
9.6782062238
 20
21.4948163928
 30
0.0
 10
9.6779623846
 20
21.495871495
 30
0.0
 10
9.6776949503
 20
21.4973825293
 30
0.0
 10
9.677435162
 20
21.4994044522
 30
0.0
 10
9.6772277263
 20
21.5016676505
 30
0.0
 10
9.6771269258
 20
21.5032534895
 30
0.0
 10
9.6770839546
 20
21.5040781129
 30
0.0
  0
SPLINE
  5
47B
100
AcDbEntity
  8
0
100
AcDbSpline
 62
9
  6
CONTINUOUS
 70
0
 71
3
 72
15
 73
11
 74
0
 42
0.0000001
 43
0.0000001
 44
0.0000000001
 40
0.0
 40
0.0
 40
0.0
 40
0.0
 40
0.0688096795
 40
0.1408361037
 40
0.2265910401
 40
0.3323927023
 40
0.4615045434
 40
0.6155504207
 40
0.7950566439
 40
1.0
 40
1.0
 40
1.0
 40
1.0
 10
9.6837409828
 20
21.4768037622
 30
0.0
 10
9.6838372678
 20
21.4767664472
 30
0.0
 10
9.6840537889
 20
21.4767297211
 30
0.0
 10
9.6843882564
 20
21.4768300262
 30
0.0
 10
9.6847119389
 20
21.4770654469
 30
0.0
 10
9.6850333831
 20
21.4774265984
 30
0.0
 10
9.6853560305
 20
21.4779146576
 30
0.0
 10
9.6856797446
 20
21.4785297986
 30
0.0
 10
9.6860035637
 20
21.4792707617
 30
0.0
 10
9.6862051759
 20
21.4798116154
 30
0.0
 10
9.6863066507
 20
21.4801019518
 30
0.0
  0
SPLINE
  5
47C
100
AcDbEntity
  8
0
100
AcDbSpline
 62
9
  6
CONTINUOUS
 70
0
 71
3
 72
15
 73
11
 74
0
 42
0.0000001
 43
0.0000001
 44
0.0000000001
 40
0.0
 40
0.0
 40
0.0
 40
0.0
 40
0.2059457419
 40
0.3862603995
 40
0.5410062366
 40
0.6706591058
 40
0.7765586064
 40
0.8618488358
 40
0.9327859001
 40
1.0
 40
1.0
 40
1.0
 40
1.0
 10
9.6863848986
 20
21.2502776014
 30
0.0
 10
9.6862808888
 20
21.2505862281
 30
0.0
 10
9.6860742363
 20
21.2511613188
 30
0.0
 10
9.6857420653
 20
21.251950303
 30
0.0
 10
9.6854097177
 20
21.2526066338
 30
0.0
 10
9.6850784394
 20
21.2531290256
 30
0.0
 10
9.6847477814
 20
21.253516912
 30
0.0
 10
9.6844147125
 20
21.2537716344
 30
0.0
 10
9.6840695075
 20
21.2538842688
 30
0.0
 10
9.6838447417
 20
21.2538491592
 30
0.0
 10
9.6837454017
 20
21.2538113495
 30
0.0
  0
SPLINE
  5
47D
100
AcDbEntity
  8
0
100
AcDbSpline
 62
9
  6
CONTINUOUS
 70
0
 71
3
 72
20
 73
16
 74
0
 42
0.0000001
 43
0.0000001
 44
0.0000000001
 40
0.0
 40
0.0
 40
0.0
 40
0.0
 40
0.1889717087
 40
0.268233476
 40
0.3375016494
 40
0.3972149173
 40
0.4481398239
 40
0.5291068855
 40
0.5654627038
 40
0.6038547477
 40
0.647620002
 40
0.6989911829
 40
0.759305032
 40
0.8293394313
 40
1.0
 40
1.0
 40
1.0
 40
1.0
 10
9.6824361514
 20
21.1967310961
 30
0.0
 10
9.6822468956
 20
21.1962327816
 30
0.0
 10
9.681952415
 20
21.1955337498
 30
0.0
 10
9.6814976988
 20
21.1946963994
 30
0.0
 10
9.6811765048
 20
21.194203956
 30
0.0
 10
9.6808540965
 20
21.1938092381
 30
0.0
 10
9.6804587156
 20
21.1934426997
 30
0.0
 10
9.6800087218
 20
21.1932168304
 30
0.0
 10
9.6795610117
 20
21.1932481662
 30
0.0
 10
9.6792498428
 20
21.1933840384
 30
0.0
 10
9.6789546059
 20
21.1936231019
 30
0.0
 10
9.678672152
 20
21.1939609778
 30
0.0
 10
9.6784005117
 20
21.1943970845
 30
0.0
 10
9.6780276542
 20
21.1951610481
 30
0.0
 10
9.6778053273
 20
21.1958052055
 30
0.0
 10
9.6776659181
 20
21.1962659693
 30
0.0
  0
SPLINE
  5
47E
100
AcDbEntity
  8
0
100
AcDbSpline
 62
9
  6
CONTINUOUS
 70
0
 71
3
 72
10
 73
6
 74
0
 42
0.0000001
 43
0.0000001
 44
0.0000000001
 40
0.0
 40
0.0
 40
0.0
 40
0.0
 40
0.2077206415
 40
0.4444504055
 40
1.0
 40
1.0
 40
1.0
 40
1.0
 10
9.6776659181
 20
21.1962659693
 30
0.0
 10
9.6775438254
 20
21.1966694999
 30
0.0
 10
9.6773140392
 20
21.197542489
 30
0.0
 10
9.6768963305
 20
21.1995291693
 30
0.0
 10
9.6766607011
 20
21.2011214577
 30
0.0
 10
9.6765204275
 20
21.2022402596
 30
0.0
  0
SPLINE
  5
47F
100
AcDbEntity
  8
0
100
AcDbSpline
 62
9
  6
CONTINUOUS
 70
0
 71
3
 72
11
 73
7
 74
0
 42
0.0000001
 43
0.0000001
 44
0.0000000001
 40
0.0
 40
0.0
 40
0.0
 40
0.0
 40
0.2189645478
 40
0.4640168384
 40
0.7275655859
 40
1.0
 40
1.0
 40
1.0
 40
1.0
 10
9.6765204275
 20
21.2022402596
 30
0.0
 10
9.6763560839
 20
21.2035510411
 30
0.0
 10
9.676081995
 20
21.206338121
 30
0.0
 10
9.675806529
 20
21.2107195489
 30
0.0
 10
9.6756419954
 20
21.2154292945
 30
0.0
 10
9.6756055063
 20
21.2186630736
 30
0.0
 10
9.6756054812
 20
21.2203067087
 30
0.0
  0
SPLINE
  5
480
100
AcDbEntity
  8
0
100
AcDbSpline
 62
9
  6
CONTINUOUS
 70
0
 71
3
 72
13
 73
9
 74
0
 42
0.0000001
 43
0.0000001
 44
0.0000000001
 40
0.0
 40
0.0
 40
0.0
 40
0.0
 40
0.2955495816
 40
0.5719767915
 40
0.6971929035
 40
0.8113001029
 40
0.9126232351
 40
1.0
 40
1.0
 40
1.0
 40
1.0
 10
9.675605482
 20
21.2203067087
 30
0.0
 10
9.6756055378
 20
21.2225798219
 30
0.0
 10
9.6756735193
 20
21.2269792099
 30
0.0
 10
9.6759371569
 20
21.2323365533
 30
0.0
 10
9.676274031
 20
21.2362893371
 30
0.0
 10
9.67657197
 20
21.2388928165
 30
0.0
 10
9.6769237006
 20
21.2411956115
 30
0.0
 10
9.6772141802
 20
21.24261868
 30
0.0
 10
9.677373791
 20
21.2432714775
 30
0.0
  0
SPLINE
  5
481
100
AcDbEntity
  8
0
100
AcDbSpline
 62
9
  6
CONTINUOUS
 70
0
 71
3
 72
21
 73
17
 74
0
 42
0.0000001
 43
0.0000001
 44
0.0000000001
 40
0.0
 40
0.0
 40
0.0
 40
0.0
 40
0.1904842968
 40
0.2700495678
 40
0.3392096511
 40
0.3984141887
 40
0.448467091
 40
0.490784272
 40
0.5277835592
 40
0.5631020417
 40
0.6009035172
 40
0.644549416
 40
0.6961781898
 40
0.7570151111
 40
0.8277435874
 40
1.0
 40
1.0
 40
1.0
 40
1.0
 10
9.677373791
 20
21.2432714775
 30
0.0
 10
9.67751159
 20
21.243835066
 30
0.0
 10
9.6777324083
 20
21.244629291
 30
0.0
 10
9.6781008675
 20
21.2455953331
 30
0.0
 10
9.6783729859
 20
21.246168168
 30
0.0
 10
9.6786566844
 20
21.2466332084
 30
0.0
 10
9.6789524616
 20
21.246990508
 30
0.0
 10
9.679262655
 20
21.2472395329
 30
0.0
 10
9.67959157
 20
21.2473746004
 30
0.0
 10
9.6799345155
 20
21.2473831526
 30
0.0
 10
9.6802766365
 20
21.2472662392
 30
0.0
 10
9.6806143571
 20
21.2470361136
 30
0.0
 10
9.6809509602
 20
21.2466974626
 30
0.0
 10
9.681287805
 20
21.2462510634
 30
0.0
 10
9.6817686459
 20
21.2454591495
 30
0.0
 10
9.6820756991
 20
21.244782781
 30
0.0
 10
9.6822733336
 20
21.2442967566
 30
0.0
  0
SPLINE
  5
482
100
AcDbEntity
  8
0
100
AcDbSpline
 62
7
  6
CONTINUOUS
 70
0
 71
3
 72
19
 73
15
 74
0
 42
0.0000001
 43
0.0000001
 44
0.0000000001
 40
0.0
 40
0.0
 40
0.0
 40
0.0
 40
0.1965434825
 40
0.378277384
 40
0.5411229987
 40
0.6821374873
 40
0.7438064913
 40
0.7992658851
 40
0.8483140957
 40
0.8908038271
 40
0.926705042
 40
0.9562213996
 40
0.980065507
 40
1.0
 40
1.0
 40
1.0
 40
1.0
 10
9.6770796805
 20
21.2264529437
 30
0.0
 10
9.6771222488
 20
21.2272822851
 30
0.0
 10
9.6772223914
 20
21.2288776276
 30
0.0
 10
9.6774292208
 20
21.2311549969
 30
0.0
 10
9.677688938
 20
21.2331907179
 30
0.0
 10
9.6779566268
 20
21.2347127523
 30
0.0
 10
9.6782009536
 20
21.2357759835
 30
0.0
 10
9.6783865617
 20
21.2364533933
 30
0.0
 10
9.6785819081
 20
21.2370433453
 30
0.0
 10
9.6787861525
 20
21.2375421681
 30
0.0
 10
9.6789985411
 20
21.2379466742
 30
0.0
 10
9.6792194422
 20
21.2382545413
 30
0.0
 10
9.6794519999
 20
21.2384643637
 30
0.0
 10
9.679628772
 20
21.2385362999
 30
0.0
 10
9.679712047
 20
21.2385489275
 30
0.0
  0
SPLINE
  5
483
100
AcDbEntity
  8
0
100
AcDbSpline
 62
9
  6
CONTINUOUS
 70
0
 71
3
 72
20
 73
16
 74
0
 42
0.0000001
 43
0.0000001
 44
0.0000000001
 40
0.0
 40
0.0
 40
0.0
 40
0.0
 40
0.1889716864
 40
0.268233443
 40
0.3375016068
 40
0.3972148663
 40
0.4481397662
 40
0.5291068228
 40
0.5654626442
 40
0.6038546946
 40
0.6476199572
 40
0.6989911474
 40
0.7593050057
 40
0.8293394141
 40
1.0
 40
1.0
 40
1.0
 40
1.0
 10
9.6824361508
 20
22.0667310944
 30
0.0
 10
9.6822468949
 20
22.0662327801
 30
0.0
 10
9.6819524144
 20
22.0655337486
 30
0.0
 10
9.6814976982
 20
22.0646963985
 30
0.0
 10
9.6811765043
 20
22.0642039554
 30
0.0
 10
9.6808540961
 20
22.0638092376
 30
0.0
 10
9.6804587152
 20
22.0634426994
 30
0.0
 10
9.6800087215
 20
22.0632168304
 30
0.0
 10
9.6795610114
 20
22.0632481663
 30
0.0
 10
9.6792498426
 20
22.0633840385
 30
0.0
 10
9.6789546058
 20
22.063623102
 30
0.0
 10
9.6786721519
 20
22.063960978
 30
0.0
 10
9.6784005116
 20
22.0643970847
 30
0.0
 10
9.6780276541
 20
22.0651610483
 30
0.0
 10
9.6778053272
 20
22.0658052055
 30
0.0
 10
9.6776659181
 20
22.0662659693
 30
0.0
  0
SPLINE
  5
484
100
AcDbEntity
  8
0
100
AcDbSpline
 62
9
  6
CONTINUOUS
 70
0
 71
3
 72
10
 73
6
 74
0
 42
0.0000001
 43
0.0000001
 44
0.0000000001
 40
0.0
 40
0.0
 40
0.0
 40
0.0
 40
0.2077206415
 40
0.4444504055
 40
1.0
 40
1.0
 40
1.0
 40
1.0
 10
9.6776659181
 20
22.0662659693
 30
0.0
 10
9.6775438254
 20
22.0666694999
 30
0.0
 10
9.6773140392
 20
22.067542489
 30
0.0
 10
9.6768963305
 20
22.0695291693
 30
0.0
 10
9.6766607011
 20
22.0711214577
 30
0.0
 10
9.6765204275
 20
22.0722402596
 30
0.0
  0
SPLINE
  5
485
100
AcDbEntity
  8
0
100
AcDbSpline
 62
9
  6
CONTINUOUS
 70
0
 71
3
 72
11
 73
7
 74
0
 42
0.0000001
 43
0.0000001
 44
0.0000000001
 40
0.0
 40
0.0
 40
0.0
 40
0.0
 40
0.2189645478
 40
0.4640168384
 40
0.7275655859
 40
1.0
 40
1.0
 40
1.0
 40
1.0
 10
9.6765204275
 20
22.0722402596
 30
0.0
 10
9.6763560839
 20
22.0735510411
 30
0.0
 10
9.676081995
 20
22.076338121
 30
0.0
 10
9.675806529
 20
22.0807195489
 30
0.0
 10
9.6756419954
 20
22.0854292945
 30
0.0
 10
9.6756055063
 20
22.0886630736
 30
0.0
 10
9.6756054812
 20
22.0903067087
 30
0.0
  0
SPLINE
  5
486
100
AcDbEntity
  8
0
100
AcDbSpline
 62
9
  6
CONTINUOUS
 70
0
 71
3
 72
13
 73
9
 74
0
 42
0.0000001
 43
0.0000001
 44
0.0000000001
 40
0.0
 40
0.0
 40
0.0
 40
0.0
 40
0.2955495816
 40
0.5719767915
 40
0.6971929035
 40
0.8113001029
 40
0.9126232351
 40
1.0
 40
1.0
 40
1.0
 40
1.0
 10
9.675605482
 20
22.0903067087
 30
0.0
 10
9.6756055378
 20
22.0925798219
 30
0.0
 10
9.6756735193
 20
22.0969792099
 30
0.0
 10
9.6759371569
 20
22.1023365533
 30
0.0
 10
9.676274031
 20
22.1062893371
 30
0.0
 10
9.67657197
 20
22.1088928165
 30
0.0
 10
9.6769237006
 20
22.1111956115
 30
0.0
 10
9.6772141802
 20
22.11261868
 30
0.0
 10
9.677373791
 20
22.1132714775
 30
0.0
  0
SPLINE
  5
487
100
AcDbEntity
  8
0
100
AcDbSpline
 62
9
  6
CONTINUOUS
 70
0
 71
3
 72
21
 73
17
 74
0
 42
0.0000001
 43
0.0000001
 44
0.0000000001
 40
0.0
 40
0.0
 40
0.0
 40
0.0
 40
0.1904842968
 40
0.2700495678
 40
0.3392096511
 40
0.3984141887
 40
0.448467091
 40
0.490784272
 40
0.5277835592
 40
0.5631020417
 40
0.6009035172
 40
0.644549416
 40
0.6961781898
 40
0.7570151111
 40
0.8277435874
 40
1.0
 40
1.0
 40
1.0
 40
1.0
 10
9.677373791
 20
22.1132714775
 30
0.0
 10
9.67751159
 20
22.113835066
 30
0.0
 10
9.6777324083
 20
22.114629291
 30
0.0
 10
9.6781008675
 20
22.1155953331
 30
0.0
 10
9.6783729859
 20
22.116168168
 30
0.0
 10
9.6786566844
 20
22.1166332084
 30
0.0
 10
9.6789524616
 20
22.116990508
 30
0.0
 10
9.679262655
 20
22.1172395329
 30
0.0
 10
9.67959157
 20
22.1173746004
 30
0.0
 10
9.6799345155
 20
22.1173831526
 30
0.0
 10
9.6802766365
 20
22.1172662392
 30
0.0
 10
9.6806143571
 20
22.1170361136
 30
0.0
 10
9.6809509602
 20
22.1166974626
 30
0.0
 10
9.681287805
 20
22.1162510634
 30
0.0
 10
9.6817686459
 20
22.1154591495
 30
0.0
 10
9.6820756991
 20
22.114782781
 30
0.0
 10
9.6822733336
 20
22.1142967566
 30
0.0
  0
SPLINE
  5
488
100
AcDbEntity
  8
0
100
AcDbSpline
 62
7
  6
CONTINUOUS
 70
0
 71
3
 72
12
 73
8
 74
0
 42
0.0000001
 43
0.0000001
 44
0.0000000001
 40
0.0
 40
0.0
 40
0.0
 40
0.0
 40
0.2540166457
 40
0.5063408291
 40
0.75537706
 40
0.878319535
 40
1.0
 40
1.0
 40
1.0
 40
1.0
 10
9.7257612104
 20
21.2203067087
 30
0.0
 10
9.7257611222
 20
21.2190190491
 30
0.0
 10
9.7257038757
 20
21.2164520674
 30
0.0
 10
9.7254787303
 20
21.212629039
 30
0.0
 10
9.7252229392
 20
21.2094745837
 30
0.0
 10
9.7250351096
 20
21.2069792831
 30
0.0
 10
9.7249844845
 20
21.2057394513
 30
0.0
 10
9.7249834891
 20
21.2051226302
 30
0.0
  0
SPLINE
  5
489
100
AcDbEntity
  8
0
100
AcDbSpline
 62
9
  6
CONTINUOUS
 70
0
 71
3
 72
10
 73
6
 74
0
 42
0.0000001
 43
0.0000001
 44
0.0000000001
 40
0.0
 40
0.0
 40
0.0
 40
0.0
 40
0.2200765044
 40
0.4645414442
 40
1.0
 40
1.0
 40
1.0
 40
1.0
 10
9.7219901346
 20
21.2335173799
 30
0.0
 10
9.7221795976
 20
21.2337011404
 30
0.0
 10
9.7226041913
 20
21.2340638027
 30
0.0
 10
9.7235821032
 20
21.2347594626
 30
0.0
 10
9.7244035177
 20
21.2352153926
 30
0.0
 10
9.7249834307
 20
21.235491248
 30
0.0
  0
SPLINE
  5
48A
100
AcDbEntity
  8
0
100
AcDbSpline
 62
7
  6
CONTINUOUS
 70
0
 71
3
 72
13
 73
9
 74
0
 42
0.0000001
 43
0.0000001
 44
0.0000000001
 40
0.0
 40
0.0
 40
0.0
 40
0.0
 40
0.1216798393
 40
0.2446221161
 40
0.3686530546
 40
0.4936595354
 40
0.7459831258
 40
1.0
 40
1.0
 40
1.0
 40
1.0
 10
9.7249834891
 20
21.2354910099
 30
0.0
 10
9.7249845683
 20
21.2348741832
 30
0.0
 10
9.7250353687
 20
21.2336343459
 30
0.0
 10
9.7251755948
 20
21.2317708916
 30
0.0
 10
9.7253236433
 20
21.2298910233
 30
0.0
 10
9.7255153903
 20
21.227356742
 30
0.0
 10
9.7257042336
 20
21.2241614156
 30
0.0
 10
9.7257612987
 20
21.2215943881
 30
0.0
 10
9.7257612104
 20
21.2203067087
 30
0.0
  0
SPLINE
  5
48B
100
AcDbEntity
  8
0
100
AcDbSpline
 62
9
  6
CONTINUOUS
 70
0
 71
3
 72
17
 73
13
 74
0
 42
0.0000001
 43
0.0000001
 44
0.0000000001
 40
0.0
 40
0.0
 40
0.0
 40
0.0
 40
0.1736540633
 40
0.3315185515
 40
0.4733836225
 40
0.5999771363
 40
0.7127149579
 40
0.8139485039
 40
0.8615035481
 40
0.9078147535
 40
0.9536895237
 40
1.0
 40
1.0
 40
1.0
 40
1.0
 10
9.7249834891
 20
21.2354911867
 30
0.0
 10
9.7243018945
 20
21.2377376819
 30
0.0
 10
9.7227011418
 20
21.2419432709
 30
0.0
 10
9.7195910481
 20
21.2475600222
 30
0.0
 10
9.7160858372
 20
21.2521622936
 30
0.0
 10
9.7123413783
 20
21.25573824
 30
0.0
 10
9.7084709155
 20
21.2582833863
 30
0.0
 10
9.7051271513
 20
21.2595484189
 30
0.0
 10
9.7025138118
 20
21.2599602612
 30
0.0
 10
9.700617429
 20
21.2599802866
 30
0.0
 10
9.6987572458
 20
21.2597103795
 30
0.0
 10
9.6975617607
 20
21.2593373574
 30
0.0
 10
9.6969802456
 20
21.2591054051
 30
0.0
  0
SPLINE
  5
48C
100
AcDbEntity
  8
0
100
AcDbSpline
 62
9
  6
CONTINUOUS
 70
0
 71
3
 72
10
 73
6
 74
0
 42
0.0000001
 43
0.0000001
 44
0.0000000001
 40
0.0
 40
0.0
 40
0.0
 40
0.0
 40
0.2065541235
 40
0.4446850042
 40
1.0
 40
1.0
 40
1.0
 40
1.0
 10
9.7219900097
 20
21.2070961157
 30
0.0
 10
9.72216784
 20
21.2069236418
 30
0.0
 10
9.7225728343
 20
21.2065749701
 30
0.0
 10
9.7235463236
 20
21.2058729906
 30
0.0
 10
9.7243820421
 20
21.2054083085
 30
0.0
 10
9.724983491
 20
21.2051222308
 30
0.0
  0
SPLINE
  5
48D
100
AcDbEntity
  8
0
100
AcDbSpline
 62
9
  6
CONTINUOUS
 70
0
 71
3
 72
17
 73
13
 74
0
 42
0.0000001
 43
0.0000001
 44
0.0000000001
 40
0.0
 40
0.0
 40
0.0
 40
0.0
 40
0.1736675781
 40
0.3315376016
 40
0.4734008432
 40
0.5999864518
 40
0.7127125459
 40
0.8139347007
 40
0.8614861448
 40
0.9077973762
 40
0.9536780404
 40
1.0
 40
1.0
 40
1.0
 40
1.0
 10
9.7249834891
 20
21.205122225
 30
0.0
 10
9.724301639
 20
21.2028749004
 30
0.0
 10
9.7227002201
 20
21.1986678681
 30
0.0
 10
9.7195886345
 20
21.1930495158
 30
0.0
 10
9.7160817819
 20
21.1884464208
 30
0.0
 10
9.7123356368
 20
21.1848704357
 30
0.0
 10
9.7084635086
 20
21.1823260531
 30
0.0
 10
9.7051184034
 20
21.1810624756
 30
0.0
 10
9.7025042136
 20
21.1806522958
 30
0.0
 10
9.7006072191
 20
21.1806337609
 30
0.0
 10
9.6987464943
 20
21.1809054525
 30
0.0
 10
9.6975507888
 20
21.1812797947
 30
0.0
 10
9.6969691831
 20
21.1815124311
 30
0.0
  0
SPLINE
  5
48E
100
AcDbEntity
  8
0
100
AcDbSpline
 62
9
  6
CONTINUOUS
 70
0
 71
3
 72
33
 73
29
 74
0
 42
0.0000001
 43
0.0000001
 44
0.0000000001
 40
0.0
 40
0.0
 40
0.0
 40
0.0
 40
0.0729777468
 40
0.1068775937
 40
0.1389834873
 40
0.1693717074
 40
0.1981775036
 40
0.2255157414
 40
0.251511012
 40
0.3000858399
 40
0.3231980036
 40
0.3458505298
 40
0.3683530257
 40
0.39104341
 40
0.4142893098
 40
0.4384758658
 40
0.4910048847
 40
0.5508992072
 40
0.5840030155
 40
0.6190887669
 40
0.656006796
 40
0.6945167273
 40
0.7341464396
 40
0.7743731321
 40
0.8544856493
 40
0.9307154338
 40
0.9663295271
 40
1.0
 40
1.0
 40
1.0
 40
1.0
 10
9.7219899512
 20
21.2070955513
 30
0.0
 10
9.7212005524
 20
21.2048760202
 30
0.0
 10
9.7197416461
 20
21.2017195404
 30
0.0
 10
9.7172973498
 20
21.1979522315
 30
0.0
 10
9.7153675994
 20
21.195505131
 30
0.0
 10
9.713328974
 20
21.1933705571
 30
0.0
 10
9.7112091914
 20
21.1915448377
 30
0.0
 10
9.7090336443
 20
21.1900201665
 30
0.0
 10
9.7061539226
 20
21.1884222495
 30
0.0
 10
9.7031427812
 20
21.187363828
 30
0.0
 10
9.7001171903
 20
21.1869514214
 30
0.0
 10
9.6979057953
 20
21.1869612958
 30
0.0
 10
9.6957326185
 20
21.1872899432
 30
0.0
 10
9.6936128878
 20
21.1879403215
 30
0.0
 10
9.6915627777
 20
21.188918991
 30
0.0
 10
9.68887118
 20
21.1907167101
 30
0.0
 10
9.6857584349
 20
21.1939126223
 30
0.0
 10
9.6833082371
 20
21.1979592523
 30
0.0
 10
9.6816608006
 20
21.2017553535
 30
0.0
 10
9.6805742084
 20
21.2049738156
 30
0.0
 10
9.6796989469
 20
21.2084355883
 30
0.0
 10
9.6790539067
 20
21.2120963243
 30
0.0
 10
9.6786448483
 20
21.2158980893
 30
0.0
 10
9.6784282766
 20
21.2210605742
 30
0.0
 10
9.6787848857
 20
21.22741417
 30
0.0
 10
9.6799389354
 20
21.2335254981
 30
0.0
 10
9.6813464056
 20
21.238011383
 30
0.0
 10
9.6821898274
 20
21.2400863926
 30
0.0
 10
9.6826455857
 20
21.2410731084
 30
0.0
  0
SPLINE
  5
48F
100
AcDbEntity
  8
0
100
AcDbSpline
 62
9
  6
CONTINUOUS
 70
0
 71
3
 72
11
 73
7
 74
0
 42
0.0000001
 43
0.0000001
 44
0.0000000001
 40
0.0
 40
0.0
 40
0.0
 40
0.0
 40
0.2451257452
 40
0.5000033622
 40
0.7548921452
 40
1.0
 40
1.0
 40
1.0
 40
1.0
 10
9.721990298
 20
21.2335175747
 30
0.0
 10
9.7227259465
 20
21.23144612
 30
0.0
 10
9.7238521327
 20
21.2270813673
 30
0.0
 10
9.7244630286
 20
21.2203062209
 30
0.0
 10
9.7238521575
 20
21.2135312501
 30
0.0
 10
9.7227260458
 20
21.2091665122
 30
0.0
 10
9.7219902483
 20
21.2070952808
 30
0.0
  0
SPLINE
  5
490
100
AcDbEntity
  8
0
100
AcDbSpline
 62
7
  6
CONTINUOUS
 70
0
 71
3
 72
17
 73
13
 74
0
 42
0.0000001
 43
0.0000001
 44
0.0000000001
 40
0.0
 40
0.0
 40
0.0
 40
0.0
 40
0.1538280371
 40
0.3049742318
 40
0.4497431139
 40
0.5846818768
 40
0.7072831354
 40
0.8166582777
 40
0.8665331274
 40
0.9134039307
 40
0.9576755257
 40
1.0
 40
1.0
 40
1.0
 40
1.0
 10
9.6889416915
 20
21.2203067087
 30
0.0
 10
9.6889416915
 20
21.2214039602
 30
0.0
 10
9.6890321705
 20
21.2235804057
 30
0.0
 10
9.6894344873
 20
21.226767031
 30
0.0
 10
9.6900994338
 20
21.2297725036
 30
0.0
 10
9.6910224579
 20
21.2324976515
 30
0.0
 10
9.6922016167
 20
21.2348444733
 30
0.0
 10
9.6933998222
 20
21.2364763995
 30
0.0
 10
9.6944580012
 20
21.2375017307
 30
0.0
 10
9.6952654727
 20
21.2381068328
 30
0.0
 10
9.6961054535
 20
21.2385626552
 30
0.0
 10
9.6966938391
 20
21.238763011
 30
0.0
 10
9.6969874845
 20
21.2388331226
 30
0.0
  0
SPLINE
  5
491
100
AcDbEntity
  8
0
100
AcDbSpline
 62
7
  6
CONTINUOUS
 70
0
 71
3
 72
17
 73
13
 74
0
 42
0.0000001
 43
0.0000001
 44
0.0000000001
 40
0.0
 40
0.0
 40
0.0
 40
0.0
 40
0.0423416224
 40
0.0866052909
 40
0.1334577727
 40
0.1833175896
 40
0.2926984467
 40
0.4153112173
 40
0.5502178265
 40
0.69496526
 40
0.8461345126
 40
1.0
 40
1.0
 40
1.0
 40
1.0
 10
9.6969876463
 20
21.4917822454
 30
0.0
 10
9.6966938833
 20
21.4918523605
 30
0.0
 10
9.6961051802
 20
21.4920518087
 30
0.0
 10
9.6952648043
 20
21.4925068352
 30
0.0
 10
9.6944573168
 20
21.4931114031
 30
0.0
 10
9.6933992683
 20
21.4941365764
 30
0.0
 10
9.6922018274
 20
21.4957690566
 30
0.0
 10
9.6910230265
 20
21.4981157761
 30
0.0
 10
9.6900993723
 20
21.500840329
 30
0.0
 10
9.6894346809
 20
21.5038455847
 30
0.0
 10
9.6890322688
 20
21.5070323878
 30
0.0
 10
9.6889416915
 20
21.5092092158
 30
0.0
 10
9.6889416915
 20
21.5103067087
 30
0.0
  0
SPLINE
  5
492
100
AcDbEntity
  8
0
100
AcDbSpline
 62
7
  6
CONTINUOUS
 70
0
 71
3
 72
9
 73
5
 74
0
 42
0.0000001
 43
0.0000001
 44
0.0000000001
 40
0.0
 40
0.0
 40
0.0
 40
0.0
 40
0.2433935919
 40
1.0
 40
1.0
 40
1.0
 40
1.0
 10
9.7055840748
 20
21.2277218481
 30
0.0
 10
9.7054854279
 20
21.2271260128
 30
0.0
 10
9.7051323248
 20
21.2246695859
 30
0.0
 10
9.7049834891
 20
21.2221841184
 30
0.0
 10
9.7049834891
 20
21.2203067087
 30
0.0
  0
SPLINE
  5
493
100
AcDbEntity
  8
0
100
AcDbSpline
 62
7
  6
CONTINUOUS
 70
0
 71
3
 72
19
 73
15
 74
0
 42
0.0000001
 43
0.0000001
 44
0.0000000001
 40
0.0
 40
0.0
 40
0.0
 40
0.0
 40
0.1965434825
 40
0.378277384
 40
0.5411229987
 40
0.6821374873
 40
0.7438064913
 40
0.7992658851
 40
0.8483140957
 40
0.8908038271
 40
0.926705042
 40
0.9562213996
 40
0.980065507
 40
1.0
 40
1.0
 40
1.0
 40
1.0
 10
9.6770796805
 20
22.0964529437
 30
0.0
 10
9.6771222488
 20
22.0972822851
 30
0.0
 10
9.6772223914
 20
22.0988776276
 30
0.0
 10
9.6774292208
 20
22.1011549969
 30
0.0
 10
9.677688938
 20
22.1031907179
 30
0.0
 10
9.6779566268
 20
22.1047127523
 30
0.0
 10
9.6782009536
 20
22.1057759835
 30
0.0
 10
9.6783865617
 20
22.1064533933
 30
0.0
 10
9.6785819081
 20
22.1070433453
 30
0.0
 10
9.6787861525
 20
22.1075421681
 30
0.0
 10
9.6789985411
 20
22.1079466742
 30
0.0
 10
9.6792194422
 20
22.1082545413
 30
0.0
 10
9.6794519999
 20
22.1084643637
 30
0.0
 10
9.679628772
 20
22.1085362999
 30
0.0
 10
9.679712047
 20
22.1085489275
 30
0.0
  0
SPLINE
  5
494
100
AcDbEntity
  8
0
100
AcDbSpline
 62
7
  6
CONTINUOUS
 70
0
 71
3
 72
9
 73
5
 74
0
 42
0.0000001
 43
0.0000001
 44
0.0000000001
 40
0.0
 40
0.0
 40
0.0
 40
0.0
 40
0.2433935919
 40
1.0
 40
1.0
 40
1.0
 40
1.0
 10
9.7055840748
 20
21.2128915693
 30
0.0
 10
9.7054854279
 20
21.2134874046
 30
0.0
 10
9.7051323248
 20
21.2159438315
 30
0.0
 10
9.7049834891
 20
21.2184292991
 30
0.0
 10
9.7049834891
 20
21.2203067088
 30
0.0
  0
SPLINE
  5
495
100
AcDbEntity
  8
0
100
AcDbSpline
 62
7
  6
CONTINUOUS
 70
0
 71
3
 72
19
 73
15
 74
0
 42
0.0000001
 43
0.0000001
 44
0.0000000001
 40
0.0
 40
0.0
 40
0.0
 40
0.0
 40
0.0199968702
 40
0.043879722
 40
0.0733980458
 40
0.1092789981
 40
0.1517320512
 40
0.2007320722
 40
0.2561358658
 40
0.3177460937
 40
0.4586618846
 40
0.621480948
 40
0.8032796883
 40
1.0
 40
1.0
 40
1.0
 40
1.0
 10
9.6797120557
 20
20.3320647121
 30
0.0
 10
9.6796291029
 20
20.3320775333
 30
0.0
 10
9.6794532641
 20
20.3321493579
 30
0.0
 10
9.6792214807
 20
20.3323575456
 30
0.0
 10
9.6790012626
 20
20.3326629847
 30
0.0
 10
9.6787896218
 20
20.333064246
 30
0.0
 10
9.6785860682
 20
20.3335590673
 30
0.0
 10
9.6783913383
 20
20.3341443198
 30
0.0
 10
9.6782062238
 20
20.3348163928
 30
0.0
 10
9.6779623846
 20
20.335871495
 30
0.0
 10
9.6776949503
 20
20.3373825293
 30
0.0
 10
9.677435162
 20
20.3394044522
 30
0.0
 10
9.6772277263
 20
20.3416676505
 30
0.0
 10
9.6771269258
 20
20.3432534895
 30
0.0
 10
9.6770839546
 20
20.3440781129
 30
0.0
  0
SPLINE
  5
496
100
AcDbEntity
  8
0
100
AcDbSpline
 62
7
  6
CONTINUOUS
 70
0
 71
3
 72
12
 73
8
 74
0
 42
0.0000001
 43
0.0000001
 44
0.0000000001
 40
0.0
 40
0.0
 40
0.0
 40
0.0
 40
0.2540167066
 40
0.5063407376
 40
0.7553771661
 40
0.8783196547
 40
1.0
 40
1.0
 40
1.0
 40
1.0
 10
9.7257612444
 20
20.9303067087
 30
0.0
 10
9.7257611933
 20
20.9290190443
 30
0.0
 10
9.725703965
 20
20.9264520501
 30
0.0
 10
9.7254785528
 20
20.922629025
 30
0.0
 10
9.7252229526
 20
20.9194745443
 30
0.0
 10
9.7250351582
 20
20.9169792324
 30
0.0
 10
9.7249844975
 20
20.9157393987
 30
0.0
 10
9.7249834891
 20
20.9151225761
 30
0.0
  0
SPLINE
  5
497
100
AcDbEntity
  8
0
100
AcDbSpline
 62
9
  6
CONTINUOUS
 70
0
 71
3
 72
10
 73
6
 74
0
 42
0.0000001
 43
0.0000001
 44
0.0000000001
 40
0.0
 40
0.0
 40
0.0
 40
0.0
 40
0.2200765603
 40
0.46454147
 40
1.0
 40
1.0
 40
1.0
 40
1.0
 10
9.7219901382
 20
20.9435173753
 30
0.0
 10
9.7221795998
 20
20.9437011369
 30
0.0
 10
9.7226041908
 20
20.9440638017
 30
0.0
 10
9.723582097
 20
20.9447594672
 30
0.0
 10
9.7244035079
 20
20.9452154018
 30
0.0
 10
9.7249834186
 20
20.9454912604
 30
0.0
  0
SPLINE
  5
498
100
AcDbEntity
  8
0
100
AcDbSpline
 62
7
  6
CONTINUOUS
 70
0
 71
3
 72
13
 73
9
 74
0
 42
0.0000001
 43
0.0000001
 44
0.0000000001
 40
0.0
 40
0.0
 40
0.0
 40
0.0
 40
0.1216799057
 40
0.2446221777
 40
0.3686530513
 40
0.4936594878
 40
0.7459831997
 40
1.0
 40
1.0
 40
1.0
 40
1.0
 10
9.7249834891
 20
20.9454909722
 30
0.0
 10
9.72498456
 20
20.9448741467
 30
0.0
 10
9.7250353427
 20
20.943634311
 30
0.0
 10
9.7251755846
 20
20.941770862
 30
0.0
 10
9.7253237009
 20
20.9398910043
 30
0.0
 10
9.7255154519
 20
20.9373567288
 30
0.0
 10
9.7257041525
 20
20.9341614023
 30
0.0
 10
9.7257612956
 20
20.9315943846
 30
0.0
 10
9.7257612444
 20
20.9303067087
 30
0.0
  0
SPLINE
  5
499
100
AcDbEntity
  8
0
100
AcDbSpline
 62
9
  6
CONTINUOUS
 70
0
 71
3
 72
17
 73
13
 74
0
 42
0.0000001
 43
0.0000001
 44
0.0000000001
 40
0.0
 40
0.0
 40
0.0
 40
0.0
 40
0.1736540638
 40
0.3315185519
 40
0.4733836229
 40
0.5999771365
 40
0.7127149581
 40
0.813948504
 40
0.8615035482
 40
0.9078147536
 40
0.9536895237
 40
1.0
 40
1.0
 40
1.0
 40
1.0
 10
9.7249834891
 20
20.9454911867
 30
0.0
 10
9.7243018945
 20
20.9477376819
 30
0.0
 10
9.7227011418
 20
20.9519432709
 30
0.0
 10
9.7195910481
 20
20.9575600222
 30
0.0
 10
9.7160858372
 20
20.9621622936
 30
0.0
 10
9.7123413783
 20
20.9657382401
 30
0.0
 10
9.7084709155
 20
20.9682833863
 30
0.0
 10
9.7051271513
 20
20.9695484189
 30
0.0
 10
9.7025138118
 20
20.9699602612
 30
0.0
 10
9.700617429
 20
20.9699802866
 30
0.0
 10
9.6987572458
 20
20.9697103795
 30
0.0
 10
9.6975617607
 20
20.9693373574
 30
0.0
 10
9.6969802456
 20
20.9691054051
 30
0.0
  0
SPLINE
  5
49A
100
AcDbEntity
  8
0
100
AcDbSpline
 62
9
  6
CONTINUOUS
 70
0
 71
3
 72
10
 73
6
 74
0
 42
0.0000001
 43
0.0000001
 44
0.0000000001
 40
0.0
 40
0.0
 40
0.0
 40
0.0
 40
0.2065538363
 40
0.4446846319
 40
1.0
 40
1.0
 40
1.0
 40
1.0
 10
9.7219900001
 20
20.9170961249
 30
0.0
 10
9.7221678305
 20
20.9169236503
 30
0.0
 10
9.7225728254
 20
20.916574977
 30
0.0
 10
9.7235463176
 20
20.915872994
 30
0.0
 10
9.7243820395
 20
20.9154083097
 30
0.0
 10
9.724983491
 20
20.9151222308
 30
0.0
  0
SPLINE
  5
49B
100
AcDbEntity
  8
0
100
AcDbSpline
 62
9
  6
CONTINUOUS
 70
0
 71
3
 72
17
 73
13
 74
0
 42
0.0000001
 43
0.0000001
 44
0.0000000001
 40
0.0
 40
0.0
 40
0.0
 40
0.0
 40
0.1736675781
 40
0.3315376016
 40
0.4734008432
 40
0.5999864517
 40
0.7127125459
 40
0.8139347006
 40
0.8614861447
 40
0.9077973761
 40
0.9536780404
 40
1.0
 40
1.0
 40
1.0
 40
1.0
 10
9.7249834891
 20
20.915122225
 30
0.0
 10
9.724301639
 20
20.9128749004
 30
0.0
 10
9.7227002201
 20
20.9086678681
 30
0.0
 10
9.7195886345
 20
20.9030495158
 30
0.0
 10
9.7160817819
 20
20.8984464208
 30
0.0
 10
9.7123356368
 20
20.8948704357
 30
0.0
 10
9.7084635086
 20
20.8923260531
 30
0.0
 10
9.7051184034
 20
20.8910624756
 30
0.0
 10
9.7025042136
 20
20.8906522958
 30
0.0
 10
9.7006072191
 20
20.8906337609
 30
0.0
 10
9.6987464943
 20
20.8909054525
 30
0.0
 10
9.6975507888
 20
20.8912797947
 30
0.0
 10
9.6969691831
 20
20.8915124311
 30
0.0
  0
SPLINE
  5
49C
100
AcDbEntity
  8
0
100
AcDbSpline
 62
9
  6
CONTINUOUS
 70
0
 71
3
 72
33
 73
29
 74
0
 42
0.0000001
 43
0.0000001
 44
0.0000000001
 40
0.0
 40
0.0
 40
0.0
 40
0.0
 40
0.0729775419
 40
0.1068772866
 40
0.1389830786
 40
0.1693712073
 40
0.198176921
 40
0.2255150842
 40
0.2515102901
 40
0.3000850254
 40
0.3231971651
 40
0.345849684
 40
0.3683521905
 40
0.3910426042
 40
0.414288553
 40
0.4384751774
 40
0.4910043787
 40
0.550898918
 40
0.5840028334
 40
0.6190886841
 40
0.6560068044
 40
0.69451681
 40
0.7341465745
 40
0.7743732978
 40
0.8544858168
 40
0.9307155317
 40
0.9663295778
 40
1.0
 40
1.0
 40
1.0
 40
1.0
 10
9.7219898657
 20
20.9170953108
 30
0.0
 10
9.7212004557
 20
20.9148757947
 30
0.0
 10
9.7197415359
 20
20.9117193384
 30
0.0
 10
9.7172972278
 20
20.9079520614
 30
0.0
 10
9.7153674716
 20
20.905504984
 30
0.0
 10
9.7133288425
 20
20.9033704324
 30
0.0
 10
9.7112090581
 20
20.9015447342
 30
0.0
 10
9.7090335109
 20
20.900020083
 30
0.0
 10
9.7061537897
 20
20.8984221911
 30
0.0
 10
9.7031426508
 20
20.8973637951
 30
0.0
 10
9.7001170654
 20
20.8969514132
 30
0.0
 10
9.6979056747
 20
20.8969613052
 30
0.0
 10
9.6957325029
 20
20.8972899696
 30
0.0
 10
9.693612778
 20
20.8979403644
 30
0.0
 10
9.6915626743
 20
20.89891905
 30
0.0
 10
9.6888710858
 20
20.9007167909
 30
0.0
 10
9.6857583549
 20
20.9039127276
 30
0.0
 10
9.6833081722
 20
20.9079593767
 30
0.0
 10
9.6816607479
 20
20.9117554909
 30
0.0
 10
9.6805741658
 20
20.9149739608
 30
0.0
 10
9.6796989148
 20
20.9184357391
 30
0.0
 10
9.6790538851
 20
20.9220964781
 30
0.0
 10
9.6786448369
 20
20.9258982431
 30
0.0
 10
9.6784282787
 20
20.9310607232
 30
0.0
 10
9.6787849025
 20
20.9374143067
 30
0.0
 10
9.6799389649
 20
20.9435256186
 30
0.0
 10
9.6813464432
 20
20.9480114875
 30
0.0
 10
9.6821898683
 20
20.9500864885
 30
0.0
 10
9.6826456279
 20
20.9510731999
 30
0.0
  0
SPLINE
  5
49D
100
AcDbEntity
  8
0
100
AcDbSpline
 62
9
  6
CONTINUOUS
 70
0
 71
3
 72
11
 73
7
 74
0
 42
0.0000001
 43
0.0000001
 44
0.0000000001
 40
0.0
 40
0.0
 40
0.0
 40
0.0
 40
0.2451242252
 40
0.5000055367
 40
0.7548919854
 40
1.0
 40
1.0
 40
1.0
 40
1.0
 10
9.7219903125
 20
20.9435175869
 30
0.0
 10
9.7227259841
 20
20.9414461352
 30
0.0
 10
9.7238521389
 20
20.9370813096
 30
0.0
 10
9.7244629927
 20
20.9303061062
 30
0.0
 10
9.7238520684
 20
20.9235310658
 30
0.0
 10
9.7227259154
 20
20.9191663246
 30
0.0
 10
9.7219901332
 20
20.9170950664
 30
0.0
  0
SPLINE
  5
49E
100
AcDbEntity
  8
0
100
AcDbSpline
 62
7
  6
CONTINUOUS
 70
0
 71
3
 72
17
 73
13
 74
0
 42
0.0000001
 43
0.0000001
 44
0.0000000001
 40
0.0
 40
0.0
 40
0.0
 40
0.0
 40
0.1538280371
 40
0.3049742318
 40
0.4497431139
 40
0.5846818768
 40
0.7072831354
 40
0.8166582777
 40
0.8665331274
 40
0.9134039307
 40
0.9576755257
 40
1.0
 40
1.0
 40
1.0
 40
1.0
 10
9.6889416915
 20
20.9303067087
 30
0.0
 10
9.6889416915
 20
20.9314039602
 30
0.0
 10
9.6890321705
 20
20.9335804057
 30
0.0
 10
9.6894344873
 20
20.936767031
 30
0.0
 10
9.6900994338
 20
20.9397725036
 30
0.0
 10
9.6910224579
 20
20.9424976515
 30
0.0
 10
9.6922016167
 20
20.9448444733
 30
0.0
 10
9.6933998222
 20
20.9464763995
 30
0.0
 10
9.6944580012
 20
20.9475017307
 30
0.0
 10
9.6952654727
 20
20.9481068328
 30
0.0
 10
9.6961054535
 20
20.9485626552
 30
0.0
 10
9.6966938391
 20
20.948763011
 30
0.0
 10
9.6969874845
 20
20.9488331226
 30
0.0
  0
SPLINE
  5
49F
100
AcDbEntity
  8
0
100
AcDbSpline
 62
7
  6
CONTINUOUS
 70
0
 71
3
 72
9
 73
5
 74
0
 42
0.0000001
 43
0.0000001
 44
0.0000000001
 40
0.0
 40
0.0
 40
0.0
 40
0.0
 40
0.2433935919
 40
1.0
 40
1.0
 40
1.0
 40
1.0
 10
9.7055840748
 20
20.9377218481
 30
0.0
 10
9.7054854279
 20
20.9371260128
 30
0.0
 10
9.7051323248
 20
20.9346695859
 30
0.0
 10
9.7049834891
 20
20.9321841184
 30
0.0
 10
9.7049834891
 20
20.9303067087
 30
0.0
  0
SPLINE
  5
4A0
100
AcDbEntity
  8
0
100
AcDbSpline
 62
7
  6
CONTINUOUS
 70
0
 71
3
 72
17
 73
13
 74
0
 42
0.0000001
 43
0.0000001
 44
0.0000000001
 40
0.0
 40
0.0
 40
0.0
 40
0.0
 40
0.0423416224
 40
0.0866052909
 40
0.1334577727
 40
0.1833175896
 40
0.2926984467
 40
0.4153112173
 40
0.5502178265
 40
0.69496526
 40
0.8461345126
 40
1.0
 40
1.0
 40
1.0
 40
1.0
 10
9.6969876463
 20
21.2017822454
 30
0.0
 10
9.6966938833
 20
21.2018523605
 30
0.0
 10
9.6961051802
 20
21.2020518087
 30
0.0
 10
9.6952648043
 20
21.2025068352
 30
0.0
 10
9.6944573168
 20
21.2031114031
 30
0.0
 10
9.6933992683
 20
21.2041365764
 30
0.0
 10
9.6922018274
 20
21.2057690566
 30
0.0
 10
9.6910230265
 20
21.2081157761
 30
0.0
 10
9.6900993723
 20
21.210840329
 30
0.0
 10
9.6894346809
 20
21.2138455847
 30
0.0
 10
9.6890322688
 20
21.2170323878
 30
0.0
 10
9.6889416915
 20
21.2192092158
 30
0.0
 10
9.6889416915
 20
21.2203067087
 30
0.0
  0
SPLINE
  5
4A1
100
AcDbEntity
  8
0
100
AcDbSpline
 62
9
  6
CONTINUOUS
 70
0
 71
3
 72
15
 73
11
 74
0
 42
0.0000001
 43
0.0000001
 44
0.0000000001
 40
0.0
 40
0.0
 40
0.0
 40
0.0
 40
0.0688096993
 40
0.1408361385
 40
0.2265910823
 40
0.3323927448
 40
0.4615045806
 40
0.615550448
 40
0.7950566586
 40
1.0
 40
1.0
 40
1.0
 40
1.0
 10
9.6837409828
 20
20.3168037622
 30
0.0
 10
9.6838372677
 20
20.3167664472
 30
0.0
 10
9.6840537888
 20
20.3167297211
 30
0.0
 10
9.6843882561
 20
20.3168300261
 30
0.0
 10
9.6847119385
 20
20.3170654465
 30
0.0
 10
9.6850333826
 20
20.3174265978
 30
0.0
 10
9.6853560299
 20
20.3179146565
 30
0.0
 10
9.6856797439
 20
20.3185297971
 30
0.0
 10
9.6860035628
 20
20.3192707595
 30
0.0
 10
9.686205175
 20
20.3198116128
 30
0.0
 10
9.6863066497
 20
20.320101949
 30
0.0
  0
SPLINE
  5
4A2
100
AcDbEntity
  8
0
100
AcDbSpline
 62
7
  6
CONTINUOUS
 70
0
 71
3
 72
9
 73
5
 74
0
 42
0.0000001
 43
0.0000001
 44
0.0000000001
 40
0.0
 40
0.0
 40
0.0
 40
0.0
 40
0.2433935919
 40
1.0
 40
1.0
 40
1.0
 40
1.0
 10
9.7055840748
 20
20.9228915693
 30
0.0
 10
9.7054854279
 20
20.9234874046
 30
0.0
 10
9.7051323248
 20
20.9259438315
 30
0.0
 10
9.7049834891
 20
20.9284292991
 30
0.0
 10
9.7049834891
 20
20.9303067088
 30
0.0
  0
SPLINE
  5
4A3
100
AcDbEntity
  8
0
100
AcDbSpline
 62
7
  6
CONTINUOUS
 70
0
 71
3
 72
17
 73
13
 74
0
 42
0.0000001
 43
0.0000001
 44
0.0000000001
 40
0.0
 40
0.0
 40
0.0
 40
0.0
 40
0.0423416224
 40
0.0866052909
 40
0.1334577727
 40
0.1833175896
 40
0.2926984467
 40
0.4153112173
 40
0.5502178265
 40
0.69496526
 40
0.8461345126
 40
1.0
 40
1.0
 40
1.0
 40
1.0
 10
9.6969876463
 20
21.7817822454
 30
0.0
 10
9.6966938833
 20
21.7818523605
 30
0.0
 10
9.6961051802
 20
21.7820518087
 30
0.0
 10
9.6952648043
 20
21.7825068352
 30
0.0
 10
9.6944573168
 20
21.7831114031
 30
0.0
 10
9.6933992683
 20
21.7841365764
 30
0.0
 10
9.6922018274
 20
21.7857690566
 30
0.0
 10
9.6910230265
 20
21.7881157761
 30
0.0
 10
9.6900993723
 20
21.790840329
 30
0.0
 10
9.6894346809
 20
21.7938455847
 30
0.0
 10
9.6890322688
 20
21.7970323878
 30
0.0
 10
9.6889416915
 20
21.7992092158
 30
0.0
 10
9.6889416915
 20
21.8003067087
 30
0.0
  0
SPLINE
  5
4A4
100
AcDbEntity
  8
0
100
AcDbSpline
 62
9
  6
CONTINUOUS
 70
0
 71
3
 72
15
 73
11
 74
0
 42
0.0000001
 43
0.0000001
 44
0.0000000001
 40
0.0
 40
0.0
 40
0.0
 40
0.0
 40
0.2059457435
 40
0.3862604025
 40
0.5410062406
 40
0.6706591104
 40
0.7765586111
 40
0.8618488396
 40
0.9327859023
 40
1.0
 40
1.0
 40
1.0
 40
1.0
 10
9.6863848987
 20
20.960277601
 30
0.0
 10
9.6862808889
 20
20.9605862278
 30
0.0
 10
9.6860742364
 20
20.9611613186
 30
0.0
 10
9.6857420654
 20
20.9619503029
 30
0.0
 10
9.6854097178
 20
20.9626066337
 30
0.0
 10
9.6850784395
 20
20.9631290255
 30
0.0
 10
9.6847477814
 20
20.963516912
 30
0.0
 10
9.6844147125
 20
20.9637716344
 30
0.0
 10
9.6840695075
 20
20.9638842688
 30
0.0
 10
9.6838447417
 20
20.9638491592
 30
0.0
 10
9.6837454017
 20
20.9638113495
 30
0.0
  0
SPLINE
  5
4A5
100
AcDbEntity
  8
0
100
AcDbSpline
 62
9
  6
CONTINUOUS
 70
0
 71
3
 72
20
 73
16
 74
0
 42
0.0000001
 43
0.0000001
 44
0.0000000001
 40
0.0
 40
0.0
 40
0.0
 40
0.0
 40
0.1889717115
 40
0.26823348
 40
0.3375016547
 40
0.3972149235
 40
0.4481398309
 40
0.5291068932
 40
0.5654627111
 40
0.6038547542
 40
0.6476200075
 40
0.6989911873
 40
0.7593050352
 40
0.8293394334
 40
1.0
 40
1.0
 40
1.0
 40
1.0
 10
9.6824361515
 20
20.9067310963
 30
0.0
 10
9.6822468956
 20
20.9062327818
 30
0.0
 10
9.6819524151
 20
20.90553375
 30
0.0
 10
9.6814976988
 20
20.9046963996
 30
0.0
 10
9.6811765049
 20
20.9042039561
 30
0.0
 10
9.6808540966
 20
20.9038092382
 30
0.0
 10
9.6804587156
 20
20.9034426998
 30
0.0
 10
9.6800087219
 20
20.9032168304
 30
0.0
 10
9.6795610117
 20
20.9032481662
 30
0.0
 10
9.6792498428
 20
20.9033840384
 30
0.0
 10
9.678954606
 20
20.9036231018
 30
0.0
 10
9.6786721521
 20
20.9039609777
 30
0.0
 10
9.6784005117
 20
20.9043970845
 30
0.0
 10
9.6780276542
 20
20.9051610481
 30
0.0
 10
9.6778053273
 20
20.9058052055
 30
0.0
 10
9.6776659181
 20
20.9062659693
 30
0.0
  0
SPLINE
  5
4A6
100
AcDbEntity
  8
0
100
AcDbSpline
 62
9
  6
CONTINUOUS
 70
0
 71
3
 72
10
 73
6
 74
0
 42
0.0000001
 43
0.0000001
 44
0.0000000001
 40
0.0
 40
0.0
 40
0.0
 40
0.0
 40
0.2077206415
 40
0.4444504055
 40
1.0
 40
1.0
 40
1.0
 40
1.0
 10
9.6776659181
 20
20.9062659693
 30
0.0
 10
9.6775438254
 20
20.9066694999
 30
0.0
 10
9.6773140392
 20
20.907542489
 30
0.0
 10
9.6768963305
 20
20.9095291693
 30
0.0
 10
9.6766607011
 20
20.9111214577
 30
0.0
 10
9.6765204275
 20
20.9122402596
 30
0.0
  0
SPLINE
  5
4A7
100
AcDbEntity
  8
0
100
AcDbSpline
 62
9
  6
CONTINUOUS
 70
0
 71
3
 72
11
 73
7
 74
0
 42
0.0000001
 43
0.0000001
 44
0.0000000001
 40
0.0
 40
0.0
 40
0.0
 40
0.0
 40
0.2189645478
 40
0.4640168384
 40
0.7275655859
 40
1.0
 40
1.0
 40
1.0
 40
1.0
 10
9.6765204275
 20
20.9122402596
 30
0.0
 10
9.6763560839
 20
20.9135510411
 30
0.0
 10
9.676081995
 20
20.916338121
 30
0.0
 10
9.675806529
 20
20.9207195489
 30
0.0
 10
9.6756419954
 20
20.9254292945
 30
0.0
 10
9.6756055063
 20
20.9286630736
 30
0.0
 10
9.6756054812
 20
20.9303067087
 30
0.0
  0
SPLINE
  5
4A8
100
AcDbEntity
  8
0
100
AcDbSpline
 62
9
  6
CONTINUOUS
 70
0
 71
3
 72
13
 73
9
 74
0
 42
0.0000001
 43
0.0000001
 44
0.0000000001
 40
0.0
 40
0.0
 40
0.0
 40
0.0
 40
0.2955495816
 40
0.5719767915
 40
0.6971929035
 40
0.8113001029
 40
0.9126232351
 40
1.0
 40
1.0
 40
1.0
 40
1.0
 10
9.675605482
 20
20.9303067087
 30
0.0
 10
9.6756055378
 20
20.9325798219
 30
0.0
 10
9.6756735193
 20
20.9369792099
 30
0.0
 10
9.6759371569
 20
20.9423365533
 30
0.0
 10
9.676274031
 20
20.9462893371
 30
0.0
 10
9.67657197
 20
20.9488928165
 30
0.0
 10
9.6769237006
 20
20.9511956115
 30
0.0
 10
9.6772141802
 20
20.95261868
 30
0.0
 10
9.677373791
 20
20.9532714775
 30
0.0
  0
SPLINE
  5
4A9
100
AcDbEntity
  8
0
100
AcDbSpline
 62
9
  6
CONTINUOUS
 70
0
 71
3
 72
21
 73
17
 74
0
 42
0.0000001
 43
0.0000001
 44
0.0000000001
 40
0.0
 40
0.0
 40
0.0
 40
0.0
 40
0.1904842968
 40
0.2700495678
 40
0.3392096511
 40
0.3984141887
 40
0.448467091
 40
0.490784272
 40
0.5277835592
 40
0.5631020417
 40
0.6009035172
 40
0.644549416
 40
0.6961781898
 40
0.7570151111
 40
0.8277435874
 40
1.0
 40
1.0
 40
1.0
 40
1.0
 10
9.677373791
 20
20.9532714775
 30
0.0
 10
9.67751159
 20
20.953835066
 30
0.0
 10
9.6777324083
 20
20.954629291
 30
0.0
 10
9.6781008675
 20
20.9555953331
 30
0.0
 10
9.6783729859
 20
20.956168168
 30
0.0
 10
9.6786566844
 20
20.9566332084
 30
0.0
 10
9.6789524616
 20
20.956990508
 30
0.0
 10
9.679262655
 20
20.9572395329
 30
0.0
 10
9.67959157
 20
20.9573746004
 30
0.0
 10
9.6799345155
 20
20.9573831526
 30
0.0
 10
9.6802766365
 20
20.9572662392
 30
0.0
 10
9.6806143571
 20
20.9570361136
 30
0.0
 10
9.6809509602
 20
20.9566974626
 30
0.0
 10
9.681287805
 20
20.9562510634
 30
0.0
 10
9.6817686459
 20
20.9554591495
 30
0.0
 10
9.6820756991
 20
20.954782781
 30
0.0
 10
9.6822733336
 20
20.9542967566
 30
0.0
  0
SPLINE
  5
4AA
100
AcDbEntity
  8
0
100
AcDbSpline
 62
7
  6
CONTINUOUS
 70
0
 71
3
 72
19
 73
15
 74
0
 42
0.0000001
 43
0.0000001
 44
0.0000000001
 40
0.0
 40
0.0
 40
0.0
 40
0.0
 40
0.1965434825
 40
0.378277384
 40
0.5411229987
 40
0.6821374873
 40
0.7438064913
 40
0.7992658851
 40
0.8483140957
 40
0.8908038271
 40
0.926705042
 40
0.9562213996
 40
0.980065507
 40
1.0
 40
1.0
 40
1.0
 40
1.0
 10
9.6770796805
 20
20.9364529437
 30
0.0
 10
9.6771222488
 20
20.9372822851
 30
0.0
 10
9.6772223914
 20
20.9388776276
 30
0.0
 10
9.6774292208
 20
20.9411549969
 30
0.0
 10
9.677688938
 20
20.9431907179
 30
0.0
 10
9.6779566268
 20
20.9447127523
 30
0.0
 10
9.6782009536
 20
20.9457759835
 30
0.0
 10
9.6783865617
 20
20.9464533933
 30
0.0
 10
9.6785819081
 20
20.9470433453
 30
0.0
 10
9.6787861525
 20
20.9475421681
 30
0.0
 10
9.6789985411
 20
20.9479466742
 30
0.0
 10
9.6792194422
 20
20.9482545413
 30
0.0
 10
9.6794519999
 20
20.9484643637
 30
0.0
 10
9.679628772
 20
20.9485362999
 30
0.0
 10
9.679712047
 20
20.9485489275
 30
0.0
  0
SPLINE
  5
4AB
100
AcDbEntity
  8
0
100
AcDbSpline
 62
7
  6
CONTINUOUS
 70
0
 71
3
 72
13
 73
9
 74
0
 42
0.0000001
 43
0.0000001
 44
0.0000000001
 40
0.0
 40
0.0
 40
0.0
 40
0.0
 40
0.2540171123
 40
0.5063378308
 40
0.6313425988
 40
0.7553716097
 40
0.8783156595
 40
1.0
 40
1.0
 40
1.0
 40
1.0
 10
9.7257589963
 20
22.0903067087
 30
0.0
 10
9.7257590006
 20
22.0890190095
 30
0.0
 10
9.7257048034
 20
22.0864519068
 30
0.0
 10
9.7255149836
 20
22.0832565547
 30
0.0
 10
9.7253213907
 20
22.0807224153
 30
0.0
 10
9.7251724651
 20
22.078842598
 30
0.0
 10
9.7250327657
 20
22.0769790492
 30
0.0
 10
9.7249835
 20
22.0757390718
 30
0.0
 10
9.7249834891
 20
22.0751222125
 30
0.0
  0
SPLINE
  5
4AC
100
AcDbEntity
  8
0
100
AcDbSpline
 62
9
  6
CONTINUOUS
 70
0
 71
3
 72
10
 73
6
 74
0
 42
0.0000001
 43
0.0000001
 44
0.0000000001
 40
0.0
 40
0.0
 40
0.0
 40
0.0
 40
0.2200745588
 40
0.4645388943
 40
1.0
 40
1.0
 40
1.0
 40
1.0
 10
9.7219901165
 20
22.103517406
 30
0.0
 10
9.7221795849
 20
22.103701159
 30
0.0
 10
9.7226041905
 20
22.104063806
 30
0.0
 10
9.7235821287
 20
22.1047594366
 30
0.0
 10
9.7244035625
 20
22.105215344
 30
0.0
 10
9.7249834888
 20
22.1054911844
 30
0.0
  0
SPLINE
  5
4AD
100
AcDbEntity
  8
0
100
AcDbSpline
 62
7
  6
CONTINUOUS
 70
0
 71
3
 72
13
 73
9
 74
0
 42
0.0000001
 43
0.0000001
 44
0.0000000001
 40
0.0
 40
0.0
 40
0.0
 40
0.0
 40
0.121684334
 40
0.2446282574
 40
0.3686571778
 40
0.4936619917
 40
0.7459828164
 40
1.0
 40
1.0
 40
1.0
 40
1.0
 10
9.7249834891
 20
22.1054911804
 30
0.0
 10
9.7249835003
 20
22.1048743221
 30
0.0
 10
9.7250327831
 20
22.103634348
 30
0.0
 10
9.7251724652
 20
22.1017708025
 30
0.0
 10
9.725321393
 20
22.0998909893
 30
0.0
 10
9.7255149876
 20
22.0973568539
 30
0.0
 10
9.7257048022
 20
22.0941615054
 30
0.0
 10
9.7257589921
 20
22.0915944062
 30
0.0
 10
9.7257589963
 20
22.0903067087
 30
0.0
  0
SPLINE
  5
4AE
100
AcDbEntity
  8
0
100
AcDbSpline
 62
7
  6
CONTINUOUS
 70
0
 71
3
 72
19
 73
15
 74
0
 42
0.0000001
 43
0.0000001
 44
0.0000000001
 40
0.0
 40
0.0
 40
0.0
 40
0.0
 40
0.0199968702
 40
0.043879722
 40
0.0733980458
 40
0.1092789981
 40
0.1517320512
 40
0.2007320722
 40
0.2561358658
 40
0.3177460937
 40
0.4586618846
 40
0.621480948
 40
0.8032796883
 40
1.0
 40
1.0
 40
1.0
 40
1.0
 10
9.6797120557
 20
21.7820647121
 30
0.0
 10
9.6796291029
 20
21.7820775333
 30
0.0
 10
9.6794532641
 20
21.7821493579
 30
0.0
 10
9.6792214807
 20
21.7823575456
 30
0.0
 10
9.6790012626
 20
21.7826629847
 30
0.0
 10
9.6787896218
 20
21.783064246
 30
0.0
 10
9.6785860682
 20
21.7835590673
 30
0.0
 10
9.6783913383
 20
21.7841443198
 30
0.0
 10
9.6782062238
 20
21.7848163928
 30
0.0
 10
9.6779623846
 20
21.785871495
 30
0.0
 10
9.6776949503
 20
21.7873825293
 30
0.0
 10
9.677435162
 20
21.7894044522
 30
0.0
 10
9.6772277263
 20
21.7916676505
 30
0.0
 10
9.6771269258
 20
21.7932534895
 30
0.0
 10
9.6770839546
 20
21.7940781129
 30
0.0
  0
SPLINE
  5
4AF
100
AcDbEntity
  8
0
100
AcDbSpline
 62
9
  6
CONTINUOUS
 70
0
 71
3
 72
17
 73
13
 74
0
 42
0.0000001
 43
0.0000001
 44
0.0000000001
 40
0.0
 40
0.0
 40
0.0
 40
0.0
 40
0.1736540909
 40
0.3315185895
 40
0.4733836647
 40
0.59997718
 40
0.7127149976
 40
0.8139485344
 40
0.8615035723
 40
0.9078147703
 40
0.9536895322
 40
1.0
 40
1.0
 40
1.0
 40
1.0
 10
9.7249834891
 20
22.1054911638
 30
0.0
 10
9.7243018939
 20
22.1077376605
 30
0.0
 10
9.7227011544
 20
22.1119432577
 30
0.0
 10
9.7195910538
 20
22.1175600104
 30
0.0
 10
9.7160858443
 20
22.1221622865
 30
0.0
 10
9.7123413838
 20
22.1257382356
 30
0.0
 10
9.7084709199
 20
22.1282833842
 30
0.0
 10
9.7051271544
 20
22.1295484181
 30
0.0
 10
9.7025138139
 20
22.1299602611
 30
0.0
 10
9.7006174303
 20
22.1299802867
 30
0.0
 10
9.6987572464
 20
22.1297103797
 30
0.0
 10
9.697561761
 20
22.1293373575
 30
0.0
 10
9.6969802457
 20
22.1291054051
 30
0.0
  0
SPLINE
  5
4B0
100
AcDbEntity
  8
0
100
AcDbSpline
 62
9
  6
CONTINUOUS
 70
0
 71
3
 72
15
 73
11
 74
0
 42
0.0000001
 43
0.0000001
 44
0.0000000001
 40
0.0
 40
0.0
 40
0.0
 40
0.0
 40
0.0688096795
 40
0.1408361037
 40
0.2265910401
 40
0.3323927023
 40
0.4615045434
 40
0.6155504207
 40
0.7950566439
 40
1.0
 40
1.0
 40
1.0
 40
1.0
 10
9.6837409828
 20
21.7668037622
 30
0.0
 10
9.6838372678
 20
21.7667664472
 30
0.0
 10
9.6840537889
 20
21.7667297211
 30
0.0
 10
9.6843882564
 20
21.7668300262
 30
0.0
 10
9.6847119389
 20
21.7670654469
 30
0.0
 10
9.6850333831
 20
21.7674265984
 30
0.0
 10
9.6853560305
 20
21.7679146576
 30
0.0
 10
9.6856797446
 20
21.7685297986
 30
0.0
 10
9.6860035637
 20
21.7692707617
 30
0.0
 10
9.6862051759
 20
21.7698116154
 30
0.0
 10
9.6863066507
 20
21.7701019518
 30
0.0
  0
SPLINE
  5
4B1
100
AcDbEntity
  8
0
100
AcDbSpline
 62
7
  6
CONTINUOUS
 70
0
 71
3
 72
17
 73
13
 74
0
 42
0.0000001
 43
0.0000001
 44
0.0000000001
 40
0.0
 40
0.0
 40
0.0
 40
0.0
 40
0.0423416224
 40
0.0866052909
 40
0.1334577727
 40
0.1833175895
 40
0.2926984467
 40
0.4153112172
 40
0.5502178265
 40
0.69496526
 40
0.8461345126
 40
1.0
 40
1.0
 40
1.0
 40
1.0
 10
9.6969876463
 20
20.3317822454
 30
0.0
 10
9.6966938833
 20
20.3318523605
 30
0.0
 10
9.6961051802
 20
20.3320518087
 30
0.0
 10
9.6952648043
 20
20.3325068352
 30
0.0
 10
9.6944573168
 20
20.3331114031
 30
0.0
 10
9.6933992683
 20
20.3341365764
 30
0.0
 10
9.6922018274
 20
20.3357690566
 30
0.0
 10
9.6910230265
 20
20.3381157761
 30
0.0
 10
9.6900993723
 20
20.340840329
 30
0.0
 10
9.6894346809
 20
20.3438455847
 30
0.0
 10
9.6890322688
 20
20.3470323878
 30
0.0
 10
9.6889416915
 20
20.3492092158
 30
0.0
 10
9.6889416915
 20
20.3503067087
 30
0.0
  0
SPLINE
  5
4B2
100
AcDbEntity
  8
0
100
AcDbSpline
 62
7
  6
CONTINUOUS
 70
0
 71
3
 72
17
 73
13
 74
0
 42
0.0000001
 43
0.0000001
 44
0.0000000001
 40
0.0
 40
0.0
 40
0.0
 40
0.0
 40
0.0423416224
 40
0.0866052909
 40
0.1334577727
 40
0.1833175895
 40
0.2926984467
 40
0.4153112172
 40
0.5502178265
 40
0.69496526
 40
0.8461345126
 40
1.0
 40
1.0
 40
1.0
 40
1.0
 10
9.6969876463
 20
20.0417822454
 30
0.0
 10
9.6966938833
 20
20.0418523605
 30
0.0
 10
9.6961051802
 20
20.0420518087
 30
0.0
 10
9.6952648043
 20
20.0425068352
 30
0.0
 10
9.6944573168
 20
20.0431114031
 30
0.0
 10
9.6933992683
 20
20.0441365764
 30
0.0
 10
9.6922018274
 20
20.0457690566
 30
0.0
 10
9.6910230265
 20
20.0481157761
 30
0.0
 10
9.6900993723
 20
20.050840329
 30
0.0
 10
9.6894346809
 20
20.0538455847
 30
0.0
 10
9.6890322688
 20
20.0570323878
 30
0.0
 10
9.6889416915
 20
20.0592092158
 30
0.0
 10
9.6889416915
 20
20.0603067087
 30
0.0
  0
SPLINE
  5
4B3
100
AcDbEntity
  8
0
100
AcDbSpline
 62
9
  6
CONTINUOUS
 70
0
 71
3
 72
10
 73
6
 74
0
 42
0.0000001
 43
0.0000001
 44
0.0000000001
 40
0.0
 40
0.0
 40
0.0
 40
0.0
 40
0.2065573299
 40
0.4446891605
 40
1.0
 40
1.0
 40
1.0
 40
1.0
 10
9.7219901162
 20
22.0770960123
 30
0.0
 10
9.7221679458
 20
22.0769235469
 30
0.0
 10
9.7225729329
 20
22.0765748932
 30
0.0
 10
9.7235463894
 20
22.075872953
 30
0.0
 10
9.724382071
 20
22.0754082947
 30
0.0
 10
9.7249834906
 20
22.075122231
 30
0.0
  0
SPLINE
  5
4B4
100
AcDbEntity
  8
0
100
AcDbSpline
 62
9
  6
CONTINUOUS
 70
0
 71
3
 72
17
 73
13
 74
0
 42
0.0000001
 43
0.0000001
 44
0.0000000001
 40
0.0
 40
0.0
 40
0.0
 40
0.0
 40
0.17366758
 40
0.3315376043
 40
0.4734008462
 40
0.5999864549
 40
0.7127125487
 40
0.8139347028
 40
0.8614861464
 40
0.9077973772
 40
0.953678041
 40
1.0
 40
1.0
 40
1.0
 40
1.0
 10
9.7249834891
 20
22.0751222267
 30
0.0
 10
9.724301639
 20
22.072874902
 30
0.0
 10
9.722700221
 20
22.0686678691
 30
0.0
 10
9.7195886349
 20
22.0630495166
 30
0.0
 10
9.7160817824
 20
22.0584464213
 30
0.0
 10
9.7123356372
 20
22.0548704361
 30
0.0
 10
9.7084635089
 20
22.0523260532
 30
0.0
 10
9.7051184036
 20
22.0510624756
 30
0.0
 10
9.7025042137
 20
22.0506522958
 30
0.0
 10
9.7006072192
 20
22.0506337609
 30
0.0
 10
9.6987464944
 20
22.0509054525
 30
0.0
 10
9.6975507888
 20
22.0512797947
 30
0.0
 10
9.6969691831
 20
22.0515124311
 30
0.0
  0
SPLINE
  5
4B5
100
AcDbEntity
  8
0
100
AcDbSpline
 62
9
  6
CONTINUOUS
 70
0
 71
3
 72
33
 73
29
 74
0
 42
0.0000001
 43
0.0000001
 44
0.0000000001
 40
0.0
 40
0.0
 40
0.0
 40
0.0
 40
0.0729780516
 40
0.106878041
 40
0.138984071
 40
0.1693724086
 40
0.1981783053
 40
0.2255166289
 40
0.2515119687
 40
0.300086881
 40
0.3231990597
 40
0.3458515831
 40
0.3683540596
 40
0.3910444097
 40
0.4142902628
 40
0.4384767626
 40
0.4910056589
 40
0.550899873
 40
0.5840036397
 40
0.6190893584
 40
0.6560073622
 40
0.6945172726
 40
0.734146963
 40
0.7743736279
 40
0.8544860535
 40
0.9307156688
 40
0.966329652
 40
1.0
 40
1.0
 40
1.0
 40
1.0
 10
9.7219900868
 20
22.0770959327
 30
0.0
 10
9.7212007034
 20
22.0748763712
 30
0.0
 10
9.7197418133
 20
22.0717198452
 30
0.0
 10
9.7172975261
 20
22.0679524766
 30
0.0
 10
9.7153677775
 20
22.0655053353
 30
0.0
 10
9.71332915
 20
22.0633707238
 30
0.0
 10
9.7112093624
 20
22.0615449701
 30
0.0
 10
9.7090338078
 20
22.0600202684
 30
0.0
 10
9.7061540751
 20
22.0584223156
 30
0.0
 10
9.7031429196
 20
22.0573638618
 30
0.0
 10
9.7001173111
 20
22.0569514289
 30
0.0
 10
9.6979059034
 20
22.0569612869
 30
0.0
 10
9.6957327134
 20
22.0572899211
 30
0.0
 10
9.6936129694
 20
22.0579402891
 30
0.0
 10
9.691562846
 20
22.0589189515
 30
0.0
 10
9.6888712307
 20
22.0607166651
 30
0.0
 10
9.6857584641
 20
22.0639125806
 30
0.0
 10
9.6833082511
 20
22.0679592236
 30
0.0
 10
9.681660805
 20
22.0717553406
 30
0.0
 10
9.6805742071
 20
22.0749738182
 30
0.0
 10
9.679698942
 20
22.0784356089
 30
0.0
 10
9.6790539006
 20
22.0820963644
 30
0.0
 10
9.6786448434
 20
22.0858981496
 30
0.0
 10
9.6784282767
 20
22.0910606603
 30
0.0
 10
9.6787848977
 20
22.0974142833
 30
0.0
 10
9.6799389669
 20
22.1035256327
 30
0.0
 10
9.6813464566
 20
22.1080115265
 30
0.0
 10
9.682189889
 20
22.1100865377
 30
0.0
 10
9.6826456527
 20
22.1110732535
 30
0.0
  0
SPLINE
  5
4B6
100
AcDbEntity
  8
0
100
AcDbSpline
 62
9
  6
CONTINUOUS
 70
0
 71
3
 72
11
 73
7
 74
0
 42
0.0000001
 43
0.0000001
 44
0.0000000001
 40
0.0
 40
0.0
 40
0.0
 40
0.0
 40
0.24515634
 40
0.5000013237
 40
0.754845402
 40
1.0
 40
1.0
 40
1.0
 40
1.0
 10
9.7219900531
 20
22.1035173428
 30
0.0
 10
9.7227267196
 20
22.1014459551
 30
0.0
 10
9.7238540095
 20
22.0970813907
 30
0.0
 10
9.724464964
 20
22.0903066373
 30
0.0
 10
9.7238539945
 20
22.0835319007
 30
0.0
 10
9.7227266941
 20
22.0791673635
 30
0.0
 10
9.7219900253
 20
22.0770959932
 30
0.0
  0
SPLINE
  5
4B7
100
AcDbEntity
  8
0
100
AcDbSpline
 62
7
  6
CONTINUOUS
 70
0
 71
3
 72
17
 73
13
 74
0
 42
0.0000001
 43
0.0000001
 44
0.0000000001
 40
0.0
 40
0.0
 40
0.0
 40
0.0
 40
0.1538280371
 40
0.3049742318
 40
0.4497431139
 40
0.5846818768
 40
0.7072831354
 40
0.8166582777
 40
0.8665331274
 40
0.9134039307
 40
0.9576755257
 40
1.0
 40
1.0
 40
1.0
 40
1.0
 10
9.6889416915
 20
22.0903067087
 30
0.0
 10
9.6889416915
 20
22.0914039602
 30
0.0
 10
9.6890321705
 20
22.0935804057
 30
0.0
 10
9.6894344873
 20
22.096767031
 30
0.0
 10
9.6900994338
 20
22.0997725036
 30
0.0
 10
9.6910224579
 20
22.1024976515
 30
0.0
 10
9.6922016167
 20
22.1048444733
 30
0.0
 10
9.6933998222
 20
22.1064763995
 30
0.0
 10
9.6944580012
 20
22.1075017307
 30
0.0
 10
9.6952654727
 20
22.1081068328
 30
0.0
 10
9.6961054535
 20
22.1085626552
 30
0.0
 10
9.6966938391
 20
22.108763011
 30
0.0
 10
9.6969874845
 20
22.1088331226
 30
0.0
  0
SPLINE
  5
4B8
100
AcDbEntity
  8
0
100
AcDbSpline
 62
7
  6
CONTINUOUS
 70
0
 71
3
 72
9
 73
5
 74
0
 42
0.0000001
 43
0.0000001
 44
0.0000000001
 40
0.0
 40
0.0
 40
0.0
 40
0.0
 40
0.2433935919
 40
1.0
 40
1.0
 40
1.0
 40
1.0
 10
9.7055840748
 20
22.0977218481
 30
0.0
 10
9.7054854279
 20
22.0971260128
 30
0.0
 10
9.7051323248
 20
22.0946695859
 30
0.0
 10
9.7049834891
 20
22.0921841184
 30
0.0
 10
9.7049834891
 20
22.0903067087
 30
0.0
  0
SPLINE
  5
4B9
100
AcDbEntity
  8
0
100
AcDbSpline
 62
7
  6
CONTINUOUS
 70
0
 71
3
 72
17
 73
13
 74
0
 42
0.0000001
 43
0.0000001
 44
0.0000000001
 40
0.0
 40
0.0
 40
0.0
 40
0.0
 40
0.0423416224
 40
0.0866052909
 40
0.1334577727
 40
0.1833175896
 40
0.2926984467
 40
0.4153112173
 40
0.5502178265
 40
0.69496526
 40
0.8461345126
 40
1.0
 40
1.0
 40
1.0
 40
1.0
 10
9.6969876463
 20
20.6217822454
 30
0.0
 10
9.6966938833
 20
20.6218523605
 30
0.0
 10
9.6961051802
 20
20.6220518087
 30
0.0
 10
9.6952648043
 20
20.6225068352
 30
0.0
 10
9.6944573168
 20
20.6231114031
 30
0.0
 10
9.6933992683
 20
20.6241365764
 30
0.0
 10
9.6922018274
 20
20.6257690566
 30
0.0
 10
9.6910230265
 20
20.6281157761
 30
0.0
 10
9.6900993723
 20
20.630840329
 30
0.0
 10
9.6894346809
 20
20.6338455847
 30
0.0
 10
9.6890322688
 20
20.6370323878
 30
0.0
 10
9.6889416915
 20
20.6392092158
 30
0.0
 10
9.6889416915
 20
20.6403067087
 30
0.0
  0
SPLINE
  5
4BA
100
AcDbEntity
  8
0
100
AcDbSpline
 62
7
  6
CONTINUOUS
 70
0
 71
3
 72
9
 73
5
 74
0
 42
0.0000001
 43
0.0000001
 44
0.0000000001
 40
0.0
 40
0.0
 40
0.0
 40
0.0
 40
0.2433935919
 40
1.0
 40
1.0
 40
1.0
 40
1.0
 10
9.7055840748
 20
22.0828915693
 30
0.0
 10
9.7054854279
 20
22.0834874046
 30
0.0
 10
9.7051323248
 20
22.0859438315
 30
0.0
 10
9.7049834891
 20
22.0884292991
 30
0.0
 10
9.7049834891
 20
22.0903067088
 30
0.0
  0
SPLINE
  5
4BB
100
AcDbEntity
  8
0
100
AcDbSpline
 62
7
  6
CONTINUOUS
 70
0
 71
3
 72
17
 73
13
 74
0
 42
0.0000001
 43
0.0000001
 44
0.0000000001
 40
0.0
 40
0.0
 40
0.0
 40
0.0
 40
0.0423416224
 40
0.0866052909
 40
0.1334577727
 40
0.1833175896
 40
0.2926984467
 40
0.4153112173
 40
0.5502178265
 40
0.69496526
 40
0.8461345126
 40
1.0
 40
1.0
 40
1.0
 40
1.0
 10
9.6969876463
 20
22.0717822454
 30
0.0
 10
9.6966938833
 20
22.0718523605
 30
0.0
 10
9.6961051802
 20
22.0720518087
 30
0.0
 10
9.6952648043
 20
22.0725068352
 30
0.0
 10
9.6944573168
 20
22.0731114031
 30
0.0
 10
9.6933992683
 20
22.0741365764
 30
0.0
 10
9.6922018274
 20
22.0757690566
 30
0.0
 10
9.6910230265
 20
22.0781157761
 30
0.0
 10
9.6900993723
 20
22.080840329
 30
0.0
 10
9.6894346809
 20
22.0838455847
 30
0.0
 10
9.6890322688
 20
22.0870323878
 30
0.0
 10
9.6889416915
 20
22.0892092158
 30
0.0
 10
9.6889416915
 20
22.0903067087
 30
0.0
  0
SPLINE
  5
4BC
100
AcDbEntity
  8
0
100
AcDbSpline
 62
7
  6
CONTINUOUS
 70
0
 71
3
 72
17
 73
13
 74
0
 42
0.0000001
 43
0.0000001
 44
0.0000000001
 40
0.0
 40
0.0
 40
0.0
 40
0.0
 40
0.0423416224
 40
0.0866052909
 40
0.1334577727
 40
0.1833175896
 40
0.2926984467
 40
0.4153112173
 40
0.5502178265
 40
0.69496526
 40
0.8461345126
 40
1.0
 40
1.0
 40
1.0
 40
1.0
 10
9.6969876463
 20
20.9117822454
 30
0.0
 10
9.6966938833
 20
20.9118523605
 30
0.0
 10
9.6961051802
 20
20.9120518087
 30
0.0
 10
9.6952648043
 20
20.9125068352
 30
0.0
 10
9.6944573168
 20
20.9131114031
 30
0.0
 10
9.6933992683
 20
20.9141365764
 30
0.0
 10
9.6922018274
 20
20.9157690566
 30
0.0
 10
9.6910230265
 20
20.9181157761
 30
0.0
 10
9.6900993723
 20
20.920840329
 30
0.0
 10
9.6894346809
 20
20.9238455847
 30
0.0
 10
9.6890322688
 20
20.9270323878
 30
0.0
 10
9.6889416915
 20
20.9292092158
 30
0.0
 10
9.6889416915
 20
20.9303067087
 30
0.0
  0
SPLINE
  5
4BD
100
AcDbEntity
  8
0
100
AcDbSpline
 62
7
  6
CONTINUOUS
 70
0
 71
3
 72
19
 73
15
 74
0
 42
0.0000001
 43
0.0000001
 44
0.0000000001
 40
0.0
 40
0.0
 40
0.0
 40
0.0
 40
0.0199968702
 40
0.043879722
 40
0.0733980458
 40
0.1092789981
 40
0.1517320512
 40
0.2007320722
 40
0.2561358658
 40
0.3177460937
 40
0.4586618846
 40
0.621480948
 40
0.8032796883
 40
1.0
 40
1.0
 40
1.0
 40
1.0
 10
9.6797120557
 20
20.9120647121
 30
0.0
 10
9.6796291029
 20
20.9120775333
 30
0.0
 10
9.6794532641
 20
20.9121493579
 30
0.0
 10
9.6792214807
 20
20.9123575456
 30
0.0
 10
9.6790012626
 20
20.9126629847
 30
0.0
 10
9.6787896218
 20
20.913064246
 30
0.0
 10
9.6785860682
 20
20.9135590673
 30
0.0
 10
9.6783913383
 20
20.9141443198
 30
0.0
 10
9.6782062238
 20
20.9148163928
 30
0.0
 10
9.6779623846
 20
20.915871495
 30
0.0
 10
9.6776949503
 20
20.9173825293
 30
0.0
 10
9.677435162
 20
20.9194044522
 30
0.0
 10
9.6772277263
 20
20.9216676505
 30
0.0
 10
9.6771269258
 20
20.9232534895
 30
0.0
 10
9.6770839546
 20
20.9240781129
 30
0.0
  0
SPLINE
  5
4BE
100
AcDbEntity
  8
0
100
AcDbSpline
 62
7
  6
CONTINUOUS
 70
0
 71
3
 72
19
 73
15
 74
0
 42
0.0000001
 43
0.0000001
 44
0.0000000001
 40
0.0
 40
0.0
 40
0.0
 40
0.0
 40
0.0199968702
 40
0.043879722
 40
0.0733980458
 40
0.1092789981
 40
0.1517320512
 40
0.2007320722
 40
0.2561358658
 40
0.3177460937
 40
0.4586618846
 40
0.621480948
 40
0.8032796883
 40
1.0
 40
1.0
 40
1.0
 40
1.0
 10
9.6797120557
 20
20.6220647121
 30
0.0
 10
9.6796291029
 20
20.6220775333
 30
0.0
 10
9.6794532641
 20
20.6221493579
 30
0.0
 10
9.6792214807
 20
20.6223575456
 30
0.0
 10
9.6790012626
 20
20.6226629847
 30
0.0
 10
9.6787896218
 20
20.623064246
 30
0.0
 10
9.6785860682
 20
20.6235590673
 30
0.0
 10
9.6783913383
 20
20.6241443198
 30
0.0
 10
9.6782062238
 20
20.6248163928
 30
0.0
 10
9.6779623846
 20
20.625871495
 30
0.0
 10
9.6776949503
 20
20.6273825293
 30
0.0
 10
9.677435162
 20
20.6294044522
 30
0.0
 10
9.6772277263
 20
20.6316676505
 30
0.0
 10
9.6771269258
 20
20.6332534895
 30
0.0
 10
9.6770839546
 20
20.6340781129
 30
0.0
  0
SPLINE
  5
4BF
100
AcDbEntity
  8
0
100
AcDbSpline
 62
7
  6
CONTINUOUS
 70
0
 71
3
 72
19
 73
15
 74
0
 42
0.0000001
 43
0.0000001
 44
0.0000000001
 40
0.0
 40
0.0
 40
0.0
 40
0.0
 40
0.0199968702
 40
0.043879722
 40
0.0733980458
 40
0.1092789981
 40
0.1517320512
 40
0.2007320722
 40
0.2561358658
 40
0.3177460937
 40
0.4586618846
 40
0.621480948
 40
0.8032796883
 40
1.0
 40
1.0
 40
1.0
 40
1.0
 10
9.6797120557
 20
22.0720647121
 30
0.0
 10
9.6796291029
 20
22.0720775333
 30
0.0
 10
9.6794532641
 20
22.0721493579
 30
0.0
 10
9.6792214807
 20
22.0723575456
 30
0.0
 10
9.6790012626
 20
22.0726629847
 30
0.0
 10
9.6787896218
 20
22.073064246
 30
0.0
 10
9.6785860682
 20
22.0735590673
 30
0.0
 10
9.6783913383
 20
22.0741443198
 30
0.0
 10
9.6782062238
 20
22.0748163928
 30
0.0
 10
9.6779623846
 20
22.075871495
 30
0.0
 10
9.6776949503
 20
22.0773825293
 30
0.0
 10
9.677435162
 20
22.0794044522
 30
0.0
 10
9.6772277263
 20
22.0816676505
 30
0.0
 10
9.6771269258
 20
22.0832534895
 30
0.0
 10
9.6770839546
 20
22.0840781129
 30
0.0
  0
SPLINE
  5
4C0
100
AcDbEntity
  8
0
100
AcDbSpline
 62
9
  6
CONTINUOUS
 70
0
 71
3
 72
15
 73
11
 74
0
 42
0.0000001
 43
0.0000001
 44
0.0000000001
 40
0.0
 40
0.0
 40
0.0
 40
0.0
 40
0.0688096993
 40
0.1408361384
 40
0.2265910822
 40
0.3323927448
 40
0.4615045805
 40
0.615550448
 40
0.7950566586
 40
1.0
 40
1.0
 40
1.0
 40
1.0
 10
9.6837409828
 20
20.6068037622
 30
0.0
 10
9.6838372677
 20
20.6067664472
 30
0.0
 10
9.6840537888
 20
20.6067297211
 30
0.0
 10
9.6843882561
 20
20.6068300261
 30
0.0
 10
9.6847119385
 20
20.6070654465
 30
0.0
 10
9.6850333826
 20
20.6074265978
 30
0.0
 10
9.6853560299
 20
20.6079146565
 30
0.0
 10
9.6856797439
 20
20.6085297971
 30
0.0
 10
9.6860035628
 20
20.6092707595
 30
0.0
 10
9.686205175
 20
20.6098116128
 30
0.0
 10
9.6863066497
 20
20.610101949
 30
0.0
  0
SPLINE
  5
4C1
100
AcDbEntity
  8
0
100
AcDbSpline
 62
9
  6
CONTINUOUS
 70
0
 71
3
 72
15
 73
11
 74
0
 42
0.0000001
 43
0.0000001
 44
0.0000000001
 40
0.0
 40
0.0
 40
0.0
 40
0.0
 40
0.2059457276
 40
0.3862603731
 40
0.541006201
 40
0.670659065
 40
0.7765585656
 40
0.8618488019
 40
0.9327858807
 40
1.0
 40
1.0
 40
1.0
 40
1.0
 10
9.6863848976
 20
22.7002776043
 30
0.0
 10
9.6862808878
 20
22.7005862309
 30
0.0
 10
9.6860742354
 20
22.7011613211
 30
0.0
 10
9.6857420645
 20
22.7019503047
 30
0.0
 10
9.685409717
 20
22.7026066349
 30
0.0
 10
9.6850784389
 20
22.7031290263
 30
0.0
 10
9.684747781
 20
22.7035169124
 30
0.0
 10
9.6844147122
 20
22.7037716345
 30
0.0
 10
9.6840695074
 20
22.7038842688
 30
0.0
 10
9.6838447417
 20
22.7038491591
 30
0.0
 10
9.6837454017
 20
22.7038113495
 30
0.0
  0
SPLINE
  5
4C2
100
AcDbEntity
  8
0
100
AcDbSpline
 62
9
  6
CONTINUOUS
 70
0
 71
3
 72
15
 73
11
 74
0
 42
0.0000001
 43
0.0000001
 44
0.0000000001
 40
0.0
 40
0.0
 40
0.0
 40
0.0
 40
0.0688096993
 40
0.1408361384
 40
0.2265910822
 40
0.3323927448
 40
0.4615045805
 40
0.615550448
 40
0.7950566586
 40
1.0
 40
1.0
 40
1.0
 40
1.0
 10
9.6837409828
 20
22.0568037622
 30
0.0
 10
9.6838372677
 20
22.0567664472
 30
0.0
 10
9.6840537888
 20
22.0567297211
 30
0.0
 10
9.6843882561
 20
22.0568300261
 30
0.0
 10
9.6847119385
 20
22.0570654465
 30
0.0
 10
9.6850333826
 20
22.0574265978
 30
0.0
 10
9.6853560299
 20
22.0579146565
 30
0.0
 10
9.6856797439
 20
22.0585297971
 30
0.0
 10
9.6860035628
 20
22.0592707595
 30
0.0
 10
9.686205175
 20
22.0598116128
 30
0.0
 10
9.6863066497
 20
22.060101949
 30
0.0
  0
SPLINE
  5
4C3
100
AcDbEntity
  8
0
100
AcDbSpline
 62
9
  6
CONTINUOUS
 70
0
 71
3
 72
20
 73
16
 74
0
 42
0.0000001
 43
0.0000001
 44
0.0000000001
 40
0.0
 40
0.0
 40
0.0
 40
0.0
 40
0.1889716864
 40
0.268233443
 40
0.3375016069
 40
0.3972148663
 40
0.4481397663
 40
0.5291068228
 40
0.5654626443
 40
0.6038546946
 40
0.6476199573
 40
0.6989911474
 40
0.7593050057
 40
0.8293394141
 40
1.0
 40
1.0
 40
1.0
 40
1.0
 10
9.6824361508
 20
22.6467310944
 30
0.0
 10
9.6822468949
 20
22.6462327801
 30
0.0
 10
9.6819524144
 20
22.6455337486
 30
0.0
 10
9.6814976982
 20
22.6446963985
 30
0.0
 10
9.6811765043
 20
22.6442039554
 30
0.0
 10
9.6808540961
 20
22.6438092376
 30
0.0
 10
9.6804587152
 20
22.6434426994
 30
0.0
 10
9.6800087215
 20
22.6432168304
 30
0.0
 10
9.6795610114
 20
22.6432481663
 30
0.0
 10
9.6792498426
 20
22.6433840385
 30
0.0
 10
9.6789546058
 20
22.643623102
 30
0.0
 10
9.6786721519
 20
22.643960978
 30
0.0
 10
9.6784005116
 20
22.6443970847
 30
0.0
 10
9.6780276541
 20
22.6451610483
 30
0.0
 10
9.6778053272
 20
22.6458052055
 30
0.0
 10
9.6776659181
 20
22.6462659693
 30
0.0
  0
SPLINE
  5
4C4
100
AcDbEntity
  8
0
100
AcDbSpline
 62
9
  6
CONTINUOUS
 70
0
 71
3
 72
10
 73
6
 74
0
 42
0.0000001
 43
0.0000001
 44
0.0000000001
 40
0.0
 40
0.0
 40
0.0
 40
0.0
 40
0.2077206415
 40
0.4444504055
 40
1.0
 40
1.0
 40
1.0
 40
1.0
 10
9.6776659181
 20
22.6462659693
 30
0.0
 10
9.6775438254
 20
22.6466694999
 30
0.0
 10
9.6773140392
 20
22.647542489
 30
0.0
 10
9.6768963305
 20
22.6495291693
 30
0.0
 10
9.6766607011
 20
22.6511214577
 30
0.0
 10
9.6765204275
 20
22.6522402596
 30
0.0
  0
SPLINE
  5
4C5
100
AcDbEntity
  8
0
100
AcDbSpline
 62
9
  6
CONTINUOUS
 70
0
 71
3
 72
11
 73
7
 74
0
 42
0.0000001
 43
0.0000001
 44
0.0000000001
 40
0.0
 40
0.0
 40
0.0
 40
0.0
 40
0.2189645478
 40
0.4640168384
 40
0.7275655859
 40
1.0
 40
1.0
 40
1.0
 40
1.0
 10
9.6765204275
 20
22.6522402596
 30
0.0
 10
9.6763560839
 20
22.6535510411
 30
0.0
 10
9.676081995
 20
22.656338121
 30
0.0
 10
9.675806529
 20
22.6607195489
 30
0.0
 10
9.6756419954
 20
22.6654292945
 30
0.0
 10
9.6756055063
 20
22.6686630736
 30
0.0
 10
9.6756054812
 20
22.6703067087
 30
0.0
  0
SPLINE
  5
4C6
100
AcDbEntity
  8
0
100
AcDbSpline
 62
9
  6
CONTINUOUS
 70
0
 71
3
 72
13
 73
9
 74
0
 42
0.0000001
 43
0.0000001
 44
0.0000000001
 40
0.0
 40
0.0
 40
0.0
 40
0.0
 40
0.2955495817
 40
0.5719767915
 40
0.6971929035
 40
0.8113001029
 40
0.9126232351
 40
1.0
 40
1.0
 40
1.0
 40
1.0
 10
9.675605482
 20
22.6703067087
 30
0.0
 10
9.6756055378
 20
22.6725798219
 30
0.0
 10
9.6756735193
 20
22.6769792099
 30
0.0
 10
9.6759371569
 20
22.6823365533
 30
0.0
 10
9.676274031
 20
22.6862893371
 30
0.0
 10
9.67657197
 20
22.6888928165
 30
0.0
 10
9.6769237006
 20
22.6911956115
 30
0.0
 10
9.6772141802
 20
22.69261868
 30
0.0
 10
9.677373791
 20
22.6932714775
 30
0.0
  0
SPLINE
  5
4C7
100
AcDbEntity
  8
0
100
AcDbSpline
 62
9
  6
CONTINUOUS
 70
0
 71
3
 72
21
 73
17
 74
0
 42
0.0000001
 43
0.0000001
 44
0.0000000001
 40
0.0
 40
0.0
 40
0.0
 40
0.0
 40
0.1904842969
 40
0.2700495678
 40
0.3392096512
 40
0.3984141887
 40
0.448467091
 40
0.4907842721
 40
0.5277835593
 40
0.5631020418
 40
0.6009035173
 40
0.6445494161
 40
0.6961781898
 40
0.7570151111
 40
0.8277435875
 40
1.0
 40
1.0
 40
1.0
 40
1.0
 10
9.677373791
 20
22.6932714775
 30
0.0
 10
9.67751159
 20
22.693835066
 30
0.0
 10
9.6777324083
 20
22.694629291
 30
0.0
 10
9.6781008675
 20
22.6955953331
 30
0.0
 10
9.6783729859
 20
22.696168168
 30
0.0
 10
9.6786566844
 20
22.6966332084
 30
0.0
 10
9.6789524616
 20
22.696990508
 30
0.0
 10
9.679262655
 20
22.6972395329
 30
0.0
 10
9.67959157
 20
22.6973746004
 30
0.0
 10
9.6799345155
 20
22.6973831526
 30
0.0
 10
9.6802766365
 20
22.6972662392
 30
0.0
 10
9.6806143571
 20
22.6970361136
 30
0.0
 10
9.6809509602
 20
22.6966974626
 30
0.0
 10
9.681287805
 20
22.6962510634
 30
0.0
 10
9.6817686459
 20
22.6954591495
 30
0.0
 10
9.6820756991
 20
22.694782781
 30
0.0
 10
9.6822733336
 20
22.6942967566
 30
0.0
  0
SPLINE
  5
4C8
100
AcDbEntity
  8
0
100
AcDbSpline
 62
7
  6
CONTINUOUS
 70
0
 71
3
 72
19
 73
15
 74
0
 42
0.0000001
 43
0.0000001
 44
0.0000000001
 40
0.0
 40
0.0
 40
0.0
 40
0.0
 40
0.0199968702
 40
0.043879722
 40
0.0733980458
 40
0.1092789981
 40
0.1517320512
 40
0.2007320722
 40
0.2561358658
 40
0.3177460937
 40
0.4586618846
 40
0.621480948
 40
0.8032796883
 40
1.0
 40
1.0
 40
1.0
 40
1.0
 10
9.6797120557
 20
20.0420647121
 30
0.0
 10
9.6796291029
 20
20.0420775333
 30
0.0
 10
9.6794532641
 20
20.0421493579
 30
0.0
 10
9.6792214807
 20
20.0423575456
 30
0.0
 10
9.6790012626
 20
20.0426629847
 30
0.0
 10
9.6787896218
 20
20.043064246
 30
0.0
 10
9.6785860682
 20
20.0435590673
 30
0.0
 10
9.6783913383
 20
20.0441443198
 30
0.0
 10
9.6782062238
 20
20.0448163928
 30
0.0
 10
9.6779623846
 20
20.045871495
 30
0.0
 10
9.6776949503
 20
20.0473825293
 30
0.0
 10
9.677435162
 20
20.0494044522
 30
0.0
 10
9.6772277263
 20
20.0516676505
 30
0.0
 10
9.6771269258
 20
20.0532534895
 30
0.0
 10
9.6770839546
 20
20.0540781129
 30
0.0
  0
SPLINE
  5
4C9
100
AcDbEntity
  8
0
100
AcDbSpline
 62
7
  6
CONTINUOUS
 70
0
 71
3
 72
19
 73
15
 74
0
 42
0.0000001
 43
0.0000001
 44
0.0000000001
 40
0.0
 40
0.0
 40
0.0
 40
0.0
 40
0.1965434825
 40
0.378277384
 40
0.5411229987
 40
0.6821374873
 40
0.7438064913
 40
0.7992658851
 40
0.8483140957
 40
0.8908038271
 40
0.926705042
 40
0.9562213996
 40
0.980065507
 40
1.0
 40
1.0
 40
1.0
 40
1.0
 10
9.6770796805
 20
22.6764529437
 30
0.0
 10
9.6771222488
 20
22.6772822851
 30
0.0
 10
9.6772223914
 20
22.6788776276
 30
0.0
 10
9.6774292208
 20
22.6811549969
 30
0.0
 10
9.677688938
 20
22.6831907179
 30
0.0
 10
9.6779566268
 20
22.6847127523
 30
0.0
 10
9.6782009536
 20
22.6857759835
 30
0.0
 10
9.6783865617
 20
22.6864533933
 30
0.0
 10
9.6785819081
 20
22.6870433453
 30
0.0
 10
9.6787861525
 20
22.6875421681
 30
0.0
 10
9.6789985411
 20
22.6879466742
 30
0.0
 10
9.6792194422
 20
22.6882545413
 30
0.0
 10
9.6794519999
 20
22.6884643637
 30
0.0
 10
9.679628772
 20
22.6885362999
 30
0.0
 10
9.679712047
 20
22.6885489275
 30
0.0
  0
SPLINE
  5
4CA
100
AcDbEntity
  8
0
100
AcDbSpline
 62
7
  6
CONTINUOUS
 70
0
 71
3
 72
13
 73
9
 74
0
 42
0.0000001
 43
0.0000001
 44
0.0000000001
 40
0.0
 40
0.0
 40
0.0
 40
0.0
 40
0.2540171111
 40
0.5063378421
 40
0.6313426063
 40
0.7553716153
 40
0.8783156753
 40
1.0
 40
1.0
 40
1.0
 40
1.0
 10
9.725758997
 20
22.6703067087
 30
0.0
 10
9.7257590065
 20
22.6690190091
 30
0.0
 10
9.7257047943
 20
22.6664519056
 30
0.0
 10
9.7255149682
 20
22.6632565533
 30
0.0
 10
9.7253213904
 20
22.660722412
 30
0.0
 10
9.7251724773
 20
22.6588425932
 30
0.0
 10
9.7250327608
 20
22.6569790455
 30
0.0
 10
9.7249834885
 20
22.6557390673
 30
0.0
 10
9.7249834891
 20
22.6551222078
 30
0.0
  0
SPLINE
  5
4CB
100
AcDbEntity
  8
0
100
AcDbSpline
 62
9
  6
CONTINUOUS
 70
0
 71
3
 72
10
 73
6
 74
0
 42
0.0000001
 43
0.0000001
 44
0.0000000001
 40
0.0
 40
0.0
 40
0.0
 40
0.0
 40
0.2200745643
 40
0.4645389038
 40
1.0
 40
1.0
 40
1.0
 40
1.0
 10
9.7219901168
 20
22.6835174054
 30
0.0
 10
9.7221795852
 20
22.6837011585
 30
0.0
 10
9.7226041907
 20
22.684063806
 30
0.0
 10
9.7235821289
 20
22.6847594374
 30
0.0
 10
9.7244035628
 20
22.6852153453
 30
0.0
 10
9.7249834892
 20
22.685491186
 30
0.0
  0
SPLINE
  5
4CC
100
AcDbEntity
  8
0
100
AcDbSpline
 62
7
  6
CONTINUOUS
 70
0
 71
3
 72
13
 73
9
 74
0
 42
0.0000001
 43
0.0000001
 44
0.0000000001
 40
0.0
 40
0.0
 40
0.0
 40
0.0
 40
0.1216843314
 40
0.2446282479
 40
0.3686571636
 40
0.4936619822
 40
0.7459828061
 40
1.0
 40
1.0
 40
1.0
 40
1.0
 10
9.7249834891
 20
22.685491187
 30
0.0
 10
9.7249834991
 20
22.6848743284
 30
0.0
 10
9.7250327825
 20
22.6836343539
 30
0.0
 10
9.7251724613
 20
22.6817708075
 30
0.0
 10
9.7253213833
 20
22.679890993
 30
0.0
 10
9.7255149761
 20
22.6773568565
 30
0.0
 10
9.725704799
 20
22.674161507
 30
0.0
 10
9.7257589876
 20
22.6715944068
 30
0.0
 10
9.725758997
 20
22.6703067087
 30
0.0
  0
SPLINE
  5
4CD
100
AcDbEntity
  8
0
100
AcDbSpline
 62
9
  6
CONTINUOUS
 70
0
 71
3
 72
17
 73
13
 74
0
 42
0.0000001
 43
0.0000001
 44
0.0000000001
 40
0.0
 40
0.0
 40
0.0
 40
0.0
 40
0.1736540658
 40
0.3315185538
 40
0.4733836246
 40
0.5999771381
 40
0.7127149595
 40
0.8139485051
 40
0.8615035492
 40
0.9078147543
 40
0.9536895241
 40
1.0
 40
1.0
 40
1.0
 40
1.0
 10
9.7249834891
 20
22.6854911862
 30
0.0
 10
9.7243018945
 20
22.6877376815
 30
0.0
 10
9.7227011421
 20
22.6919432707
 30
0.0
 10
9.7195910482
 20
22.697560022
 30
0.0
 10
9.7160858374
 20
22.7021622934
 30
0.0
 10
9.7123413784
 20
22.70573824
 30
0.0
 10
9.7084709156
 20
22.7082833862
 30
0.0
 10
9.7051271514
 20
22.7095484188
 30
0.0
 10
9.7025138119
 20
22.7099602612
 30
0.0
 10
9.700617429
 20
22.7099802866
 30
0.0
 10
9.6987572458
 20
22.7097103795
 30
0.0
 10
9.6975617608
 20
22.7093373574
 30
0.0
 10
9.6969802457
 20
22.7091054051
 30
0.0
  0
SPLINE
  5
4CE
100
AcDbEntity
  8
0
100
AcDbSpline
 62
9
  6
CONTINUOUS
 70
0
 71
3
 72
10
 73
6
 74
0
 42
0.0000001
 43
0.0000001
 44
0.0000000001
 40
0.0
 40
0.0
 40
0.0
 40
0.0
 40
0.206557347
 40
0.4446891915
 40
1.0
 40
1.0
 40
1.0
 40
1.0
 10
9.7219901176
 20
22.6570960109
 30
0.0
 10
9.7221679474
 20
22.6569235454
 30
0.0
 10
9.722572935
 20
22.6565748915
 30
0.0
 10
9.7235463925
 20
22.655872951
 30
0.0
 10
9.7243820749
 20
22.6554082926
 30
0.0
 10
9.7249834951
 20
22.6551222288
 30
0.0
  0
SPLINE
  5
4CF
100
AcDbEntity
  8
0
100
AcDbSpline
 62
9
  6
CONTINUOUS
 70
0
 71
3
 72
17
 73
13
 74
0
 42
0.0000001
 43
0.0000001
 44
0.0000000001
 40
0.0
 40
0.0
 40
0.0
 40
0.0
 40
0.1736675591
 40
0.3315375754
 40
0.4734008142
 40
0.5999864216
 40
0.7127125186
 40
0.8139346797
 40
0.8614861282
 40
0.9077973647
 40
0.9536780346
 40
1.0
 40
1.0
 40
1.0
 40
1.0
 10
9.7249834891
 20
22.6551222092
 30
0.0
 10
9.7243016395
 20
22.6528748857
 30
0.0
 10
9.7227002114
 20
22.648667859
 30
0.0
 10
9.7195886306
 20
22.6430495077
 30
0.0
 10
9.716081777
 20
22.6384464159
 30
0.0
 10
9.712335633
 20
22.6348704327
 30
0.0
 10
9.7084635056
 20
22.6323260517
 30
0.0
 10
9.7051184012
 20
22.631062475
 30
0.0
 10
9.7025042122
 20
22.6306522957
 30
0.0
 10
9.7006072181
 20
22.630633761
 30
0.0
 10
9.6987464939
 20
22.6309054526
 30
0.0
 10
9.6975507887
 20
22.6312797948
 30
0.0
 10
9.6969691831
 20
22.6315124311
 30
0.0
  0
SPLINE
  5
4D0
100
AcDbEntity
  8
0
100
AcDbSpline
 62
9
  6
CONTINUOUS
 70
0
 71
3
 72
33
 73
29
 74
0
 42
0.0000001
 43
0.0000001
 44
0.0000000001
 40
0.0
 40
0.0
 40
0.0
 40
0.0
 40
0.0729782297
 40
0.1068783119
 40
0.1389844369
 40
0.169372863
 40
0.1981788422
 40
0.2255172433
 40
0.2515126526
 40
0.3000876719
 40
0.3231998819
 40
0.3458524185
 40
0.3683548876
 40
0.3910452074
 40
0.4142910048
 40
0.4384774226
 40
0.4910060863
 40
0.5509000049
 40
0.5840036198
 40
0.6190891945
 40
0.6560070639
 40
0.6945168649
 40
0.734146482
 40
0.774373111
 40
0.8544855798
 40
0.9307153925
 40
0.9663295074
 40
1.0
 40
1.0
 40
1.0
 40
1.0
 10
9.7219901566
 20
22.6570961289
 30
0.0
 10
9.7212007835
 20
22.6548765585
 30
0.0
 10
9.719741907
 20
22.6517200179
 30
0.0
 10
9.7172976344
 20
22.6479526278
 30
0.0
 10
9.7153678942
 20
22.6455054699
 30
0.0
 10
9.7133292737
 20
22.6433708413
 30
0.0
 10
9.7112094915
 20
22.6415450706
 30
0.0
 10
9.7090339409
 20
22.6400203519
 30
0.0
 10
9.7061542129
 20
22.6384223765
 30
0.0
 10
9.7031430605
 20
22.6373638978
 30
0.0
 10
9.7001174519
 20
22.6369514384
 30
0.0
 10
9.6979060436
 20
22.6369612762
 30
0.0
 10
9.6957328522
 20
22.6372898896
 30
0.0
 10
9.6936131056
 20
22.6379402361
 30
0.0
 10
9.6915629785
 20
22.6389188762
 30
0.0
 10
9.6888713573
 20
22.6407165574
 30
0.0
 10
9.6857585785
 20
22.6439124316
 30
0.0
 10
9.6833083488
 20
22.6479590373
 30
0.0
 10
9.6816608878
 20
22.6517551253
 30
0.0
 10
9.6805742766
 20
22.6549735826
 30
0.0
 10
9.6796989962
 20
22.6584353551
 30
0.0
 10
9.6790539386
 20
22.6620960961
 30
0.0
 10
9.6786448643
 20
22.665897871
 30
0.0
 10
9.6784282731
 20
22.6710603767
 30
0.0
 10
9.6787848645
 20
22.6774140057
 30
0.0
 10
9.6799389035
 20
22.6835253704
 30
0.0
 10
9.6813463703
 20
22.6880112856
 30
0.0
 10
9.6821897921
 20
22.6900863098
 30
0.0
 10
9.6826455507
 20
22.6910730327
 30
0.0
  0
SPLINE
  5
4D1
100
AcDbEntity
  8
0
100
AcDbSpline
 62
9
  6
CONTINUOUS
 70
0
 71
3
 72
11
 73
7
 74
0
 42
0.0000001
 43
0.0000001
 44
0.0000000001
 40
0.0
 40
0.0
 40
0.0
 40
0.0
 40
0.245162801
 40
0.4999985539
 40
0.7548363536
 40
1.0
 40
1.0
 40
1.0
 40
1.0
 10
9.7219901237
 20
22.6835174122
 30
0.0
 10
9.7227268131
 20
22.6814459763
 30
0.0
 10
9.7238541199
 20
22.6770814484
 30
0.0
 10
9.7244650111
 20
22.6703067905
 30
0.0
 10
9.7238541519
 20
22.6635321236
 30
0.0
 10
9.7227268654
 20
22.6591675608
 30
0.0
 10
9.7219901649
 20
22.6570961209
 30
0.0
  0
SPLINE
  5
4D2
100
AcDbEntity
  8
0
100
AcDbSpline
 62
9
  6
CONTINUOUS
 70
0
 71
3
 72
15
 73
11
 74
0
 42
0.0000001
 43
0.0000001
 44
0.0000000001
 40
0.0
 40
0.0
 40
0.0
 40
0.0
 40
0.0688096993
 40
0.1408361384
 40
0.2265910822
 40
0.3323927448
 40
0.4615045805
 40
0.615550448
 40
0.7950566586
 40
1.0
 40
1.0
 40
1.0
 40
1.0
 10
9.6837409828
 20
20.0268037622
 30
0.0
 10
9.6838372677
 20
20.0267664472
 30
0.0
 10
9.6840537888
 20
20.0267297211
 30
0.0
 10
9.6843882561
 20
20.0268300261
 30
0.0
 10
9.6847119385
 20
20.0270654465
 30
0.0
 10
9.6850333826
 20
20.0274265978
 30
0.0
 10
9.6853560299
 20
20.0279146565
 30
0.0
 10
9.6856797439
 20
20.0285297971
 30
0.0
 10
9.6860035628
 20
20.0292707595
 30
0.0
 10
9.686205175
 20
20.0298116128
 30
0.0
 10
9.6863066497
 20
20.030101949
 30
0.0
  0
SPLINE
  5
4D3
100
AcDbEntity
  8
0
100
AcDbSpline
 62
7
  6
CONTINUOUS
 70
0
 71
3
 72
17
 73
13
 74
0
 42
0.0000001
 43
0.0000001
 44
0.0000000001
 40
0.0
 40
0.0
 40
0.0
 40
0.0
 40
0.1538280371
 40
0.3049742318
 40
0.4497431139
 40
0.5846818768
 40
0.7072831354
 40
0.8166582777
 40
0.8665331274
 40
0.9134039307
 40
0.9576755257
 40
1.0
 40
1.0
 40
1.0
 40
1.0
 10
9.6889416915
 20
22.6703067087
 30
0.0
 10
9.6889416915
 20
22.6714039602
 30
0.0
 10
9.6890321705
 20
22.6735804057
 30
0.0
 10
9.6894344873
 20
22.676767031
 30
0.0
 10
9.6900994338
 20
22.6797725036
 30
0.0
 10
9.6910224579
 20
22.6824976515
 30
0.0
 10
9.6922016167
 20
22.6848444733
 30
0.0
 10
9.6933998222
 20
22.6864763995
 30
0.0
 10
9.6944580012
 20
22.6875017307
 30
0.0
 10
9.6952654727
 20
22.6881068328
 30
0.0
 10
9.6961054535
 20
22.6885626552
 30
0.0
 10
9.6966938391
 20
22.688763011
 30
0.0
 10
9.6969874845
 20
22.6888331226
 30
0.0
  0
SPLINE
  5
4D4
100
AcDbEntity
  8
0
100
AcDbSpline
 62
9
  6
CONTINUOUS
 70
0
 71
3
 72
22
 73
18
 74
0
 42
0.0000001
 43
0.0000001
 44
0.0000000001
 40
0.0
 40
0.0
 40
0.0
 40
0.0
 40
0.0708513235
 40
0.1358692582
 40
0.1957546362
 40
0.251417994
 40
0.3041532321
 40
0.3553613391
 40
0.4063570615
 40
0.4583220968
 40
0.5122914985
 40
0.5691306989
 40
0.6295403989
 40
0.6940464455
 40
0.763068384
 40
0.8370760648
 40
1.0
 40
1.0
 40
1.0
 40
1.0
 10
9.6826456527
 20
22.1110732535
 30
0.0
 10
9.6831823929
 20
22.112235281
 30
0.0
 10
9.6843362892
 20
22.1144100199
 30
0.0
 10
9.6863959191
 20
22.1172983862
 30
0.0
 10
9.6886687987
 20
22.1196570704
 30
0.0
 10
9.6911244637
 20
22.1214755073
 30
0.0
 10
9.6937277054
 20
22.1227533889
 30
0.0
 10
9.6964424181
 20
22.1235004686
 30
0.0
 10
9.6992342173
 20
22.1237282437
 30
0.0
 10
9.7020697367
 20
22.1234440262
 30
0.0
 10
9.7049167277
 20
22.1226576424
 30
0.0
 10
9.7077453154
 20
22.1213783287
 30
0.0
 10
9.7105270382
 20
22.1196155936
 30
0.0
 10
9.7132314182
 20
22.1173739844
 30
0.0
 10
9.7158072754
 20
22.1146359957
 30
0.0
 10
9.7190965584
 20
22.1101828528
 30
0.0
 10
9.7210038311
 20
22.1062906227
 30
0.0
 10
9.7219901158
 20
22.1035174044
 30
0.0
  0
SPLINE
  5
4D5
100
AcDbEntity
  8
0
100
AcDbSpline
 62
9
  6
CONTINUOUS
 70
0
 71
3
 72
22
 73
18
 74
0
 42
0.0000001
 43
0.0000001
 44
0.0000000001
 40
0.0
 40
0.0
 40
0.0
 40
0.0
 40
0.0708515252
 40
0.1358696299
 40
0.1957551398
 40
0.2514185853
 40
0.3041538632
 40
0.3553619691
 40
0.406357658
 40
0.4583226361
 40
0.5122919662
 40
0.5691310901
 40
0.6295407166
 40
0.6940466956
 40
0.7630685585
 40
0.8370761408
 40
1.0
 40
1.0
 40
1.0
 40
1.0
 10
9.6826455857
 20
21.8210731084
 30
0.0
 10
9.6831823236
 20
21.8222351451
 30
0.0
 10
9.684336216
 20
21.8244099018
 30
0.0
 10
9.6863958427
 20
21.8272982945
 30
0.0
 10
9.6886687214
 20
21.8296570027
 30
0.0
 10
9.6911243874
 20
21.8314754612
 30
0.0
 10
9.6937276321
 20
21.8327533615
 30
0.0
 10
9.6964423492
 20
21.8335004569
 30
0.0
 10
9.699234154
 20
21.8337282451
 30
0.0
 10
9.7020696801
 20
21.8334440378
 30
0.0
 10
9.7049166783
 20
21.8326576613
 30
0.0
 10
9.7077452738
 20
21.8313783521
 30
0.0
 10
9.7105270045
 20
21.8296156185
 30
0.0
 10
9.7132313924
 20
21.8273740086
 30
0.0
 10
9.715807257
 20
21.8246360178
 30
0.0
 10
9.7190965512
 20
21.8201828684
 30
0.0
 10
9.7210038287
 20
21.8162906296
 30
0.0
 10
9.7219901158
 20
21.8135174044
 30
0.0
  0
SPLINE
  5
4D6
100
AcDbEntity
  8
0
100
AcDbSpline
 62
9
  6
CONTINUOUS
 70
0
 71
3
 72
22
 73
18
 74
0
 42
0.0000001
 43
0.0000001
 44
0.0000000001
 40
0.0
 40
0.0
 40
0.0
 40
0.0
 40
0.0708515227
 40
0.1358696254
 40
0.1957551337
 40
0.2514185782
 40
0.3041538556
 40
0.3553619614
 40
0.4063576508
 40
0.4583226295
 40
0.5122919605
 40
0.5691310853
 40
0.6295407128
 40
0.6940466927
 40
0.7630685565
 40
0.8370761396
 40
1.0
 40
1.0
 40
1.0
 40
1.0
 10
9.6826455865
 20
21.5310731102
 30
0.0
 10
9.6831823244
 20
21.5322351468
 30
0.0
 10
9.6843362169
 20
21.5344099032
 30
0.0
 10
9.6863958436
 20
21.5372982956
 30
0.0
 10
9.6886687223
 20
21.5396570035
 30
0.0
 10
9.6911243883
 20
21.5414754618
 30
0.0
 10
9.6937276329
 20
21.5427533618
 30
0.0
 10
9.69644235
 20
21.5435004571
 30
0.0
 10
9.6992341548
 20
21.5437282451
 30
0.0
 10
9.7020696808
 20
21.5434440376
 30
0.0
 10
9.7049166789
 20
21.542657661
 30
0.0
 10
9.7077452743
 20
21.5413783518
 30
0.0
 10
9.7105270049
 20
21.5396156182
 30
0.0
 10
9.7132313927
 20
21.5373740083
 30
0.0
 10
9.7158072573
 20
21.5346360175
 30
0.0
 10
9.7190965513
 20
21.5301828682
 30
0.0
 10
9.7210038287
 20
21.5262906295
 30
0.0
 10
9.7219901158
 20
21.5235174044
 30
0.0
  0
SPLINE
  5
4D7
100
AcDbEntity
  8
0
100
AcDbSpline
 62
9
  6
CONTINUOUS
 70
0
 71
3
 72
22
 73
18
 74
0
 42
0.0000001
 43
0.0000001
 44
0.0000000001
 40
0.0
 40
0.0
 40
0.0
 40
0.0
 40
0.0708515519
 40
0.1358696791
 40
0.1957552067
 40
0.2514186643
 40
0.3041539477
 40
0.3553620537
 40
0.4063577394
 40
0.458322712
 40
0.5122920341
 40
0.569131146
 40
0.629540755
 40
0.6940467138
 40
0.7630685705
 40
0.8370761789
 40
1.0
 40
1.0
 40
1.0
 40
1.0
 10
9.6826455769
 20
22.9810730894
 30
0.0
 10
9.6831823145
 20
22.9822351273
 30
0.0
 10
9.6843362064
 20
22.9844098863
 30
0.0
 10
9.6863958326
 20
22.9872982825
 30
0.0
 10
9.6886687112
 20
22.9896569938
 30
0.0
 10
9.6911243773
 20
22.9914754552
 30
0.0
 10
9.6937276224
 20
22.9927533579
 30
0.0
 10
9.6964423402
 20
22.9935004554
 30
0.0
 10
9.6992341458
 20
22.993728245
 30
0.0
 10
9.7020696728
 20
22.9934440388
 30
0.0
 10
9.704916672
 20
22.9926576631
 30
0.0
 10
9.7077452684
 20
22.9913783547
 30
0.0
 10
9.710527
 20
22.9896156219
 30
0.0
 10
9.713231389
 20
22.9873740125
 30
0.0
 10
9.715807255
 20
22.9846360209
 30
0.0
 10
9.7190965496
 20
22.9801828697
 30
0.0
 10
9.7210038284
 20
22.9762906299
 30
0.0
 10
9.7219901158
 20
22.9735174044
 30
0.0
  0
SPLINE
  5
4D8
100
AcDbEntity
  8
0
100
AcDbSpline
 62
9
  6
CONTINUOUS
 70
0
 71
3
 72
22
 73
18
 74
0
 42
0.0000001
 43
0.0000001
 44
0.0000000001
 40
0.0
 40
0.0
 40
0.0
 40
0.0
 40
0.0708516306
 40
0.1358698242
 40
0.1957554034
 40
0.2514188954
 40
0.3041541944
 40
0.3553623001
 40
0.4063579732
 40
0.4583229242
 40
0.5122922188
 40
0.5691313002
 40
0.6295408779
 40
0.6940468066
 40
0.763068635
 40
0.8370762178
 40
1.0
 40
1.0
 40
1.0
 40
1.0
 10
9.6826455507
 20
22.6910730327
 30
0.0
 10
9.6831822875
 20
22.6922350742
 30
0.0
 10
9.6843361778
 20
22.6944098402
 30
0.0
 10
9.6863958028
 20
22.6972982467
 30
0.0
 10
9.688668681
 20
22.6996569674
 30
0.0
 10
9.6911243475
 20
22.7014754372
 30
0.0
 10
9.6937275938
 20
22.7027533473
 30
0.0
 10
9.6964423133
 20
22.7035004508
 30
0.0
 10
9.6992341212
 20
22.7037282454
 30
0.0
 10
9.7020696507
 20
22.7034440431
 30
0.0
 10
9.7049166528
 20
22.7026576703
 30
0.0
 10
9.7077452521
 20
22.7013783637
 30
0.0
 10
9.7105269868
 20
22.6996156317
 30
0.0
 10
9.7132313789
 20
22.6973740222
 30
0.0
 10
9.715807248
 20
22.6946360296
 30
0.0
 10
9.7190965466
 20
22.6901828755
 30
0.0
 10
9.7210038275
 20
22.6862906325
 30
0.0
 10
9.7219901158
 20
22.6835174044
 30
0.0
  0
SPLINE
  5
4D9
100
AcDbEntity
  8
0
100
AcDbSpline
 62
9
  6
CONTINUOUS
 70
0
 71
3
 72
22
 73
18
 74
0
 42
0.0000001
 43
0.0000001
 44
0.0000000001
 40
0.0
 40
0.0
 40
0.0
 40
0.0
 40
0.0708515336
 40
0.1358696454
 40
0.1957551608
 40
0.25141861
 40
0.3041538895
 40
0.3553619953
 40
0.4063576827
 40
0.4583226582
 40
0.5122919853
 40
0.5691311061
 40
0.6295407301
 40
0.6940467072
 40
0.7630685667
 40
0.837076142
 40
1.0
 40
1.0
 40
1.0
 40
1.0
 10
9.6826455829
 20
22.4010731024
 30
0.0
 10
9.6831823207
 20
22.4022351394
 30
0.0
 10
9.684336213
 20
22.4044098969
 30
0.0
 10
9.6863958395
 20
22.4072982907
 30
0.0
 10
9.6886687181
 20
22.4096569999
 30
0.0
 10
9.6911243842
 20
22.4114754593
 30
0.0
 10
9.693727629
 20
22.4127533603
 30
0.0
 10
9.6964423463
 20
22.4135004564
 30
0.0
 10
9.6992341514
 20
22.4137282451
 30
0.0
 10
9.7020696777
 20
22.4134440383
 30
0.0
 10
9.7049166763
 20
22.4126576621
 30
0.0
 10
9.707745272
 20
22.4113783531
 30
0.0
 10
9.7105270031
 20
22.4096156195
 30
0.0
 10
9.7132313913
 20
22.4073740096
 30
0.0
 10
9.7158072563
 20
22.4046360187
 30
0.0
 10
9.719096551
 20
22.4001828691
 30
0.0
 10
9.7210038285
 20
22.3962906299
 30
0.0
 10
9.7219901158
 20
22.3935174044
 30
0.0
  0
SPLINE
  5
4DA
100
AcDbEntity
  8
0
100
AcDbSpline
 62
9
  6
CONTINUOUS
 70
0
 71
3
 72
22
 73
18
 74
0
 42
0.0000001
 43
0.0000001
 44
0.0000000001
 40
0.0
 40
0.0
 40
0.0
 40
0.0
 40
0.0708513234
 40
0.135869258
 40
0.195754636
 40
0.2514179938
 40
0.3041532318
 40
0.3553613388
 40
0.4063570613
 40
0.4583220966
 40
0.5122914982
 40
0.5691306987
 40
0.6295403988
 40
0.6940464454
 40
0.7630683839
 40
0.8370760647
 40
1.0
 40
1.0
 40
1.0
 40
1.0
 10
9.6826456527
 20
20.6610732536
 30
0.0
 10
9.6831823929
 20
20.6622352811
 30
0.0
 10
9.6843362892
 20
20.6644100199
 30
0.0
 10
9.6863959191
 20
20.6672983863
 30
0.0
 10
9.6886687988
 20
20.6696570704
 30
0.0
 10
9.6911244637
 20
20.6714755073
 30
0.0
 10
9.6937277055
 20
20.6727533889
 30
0.0
 10
9.6964424181
 20
20.6735004686
 30
0.0
 10
9.6992342173
 20
20.6737282437
 30
0.0
 10
9.7020697368
 20
20.6734440262
 30
0.0
 10
9.7049167277
 20
20.6726576424
 30
0.0
 10
9.7077453154
 20
20.6713783287
 30
0.0
 10
9.7105270382
 20
20.6696155936
 30
0.0
 10
9.7132314182
 20
20.6673739844
 30
0.0
 10
9.7158072754
 20
20.6646359957
 30
0.0
 10
9.7190965584
 20
20.6601828528
 30
0.0
 10
9.7210038311
 20
20.6562906227
 30
0.0
 10
9.7219901158
 20
20.6535174044
 30
0.0
  0
SPLINE
  5
4DB
100
AcDbEntity
  8
0
100
AcDbSpline
 62
9
  6
CONTINUOUS
 70
0
 71
3
 72
22
 73
18
 74
0
 42
0.0000001
 43
0.0000001
 44
0.0000000001
 40
0.0
 40
0.0
 40
0.0
 40
0.0
 40
0.0708516313
 40
0.1358698254
 40
0.195755405
 40
0.2514188972
 40
0.3041541963
 40
0.355362302
 40
0.406357975
 40
0.4583229258
 40
0.5122922202
 40
0.5691313014
 40
0.6295408789
 40
0.6940468073
 40
0.7630686355
 40
0.8370762181
 40
1.0
 40
1.0
 40
1.0
 40
1.0
 10
9.6826455505
 20
20.3710730323
 30
0.0
 10
9.6831822873
 20
20.3722350738
 30
0.0
 10
9.6843361776
 20
20.3744098399
 30
0.0
 10
9.6863958026
 20
20.3772982464
 30
0.0
 10
9.6886686808
 20
20.3796569672
 30
0.0
 10
9.6911243473
 20
20.3814754371
 30
0.0
 10
9.6937275935
 20
20.3827533472
 30
0.0
 10
9.6964423131
 20
20.3835004508
 30
0.0
 10
9.699234121
 20
20.3837282454
 30
0.0
 10
9.7020696506
 20
20.3834440431
 30
0.0
 10
9.7049166526
 20
20.3826576703
 30
0.0
 10
9.707745252
 20
20.3813783637
 30
0.0
 10
9.7105269867
 20
20.3796156317
 30
0.0
 10
9.7132313788
 20
20.3773740223
 30
0.0
 10
9.7158072479
 20
20.3746360296
 30
0.0
 10
9.7190965466
 20
20.3701828755
 30
0.0
 10
9.7210038275
 20
20.3662906325
 30
0.0
 10
9.7219901158
 20
20.3635174044
 30
0.0
  0
SPLINE
  5
4DC
100
AcDbEntity
  8
0
100
AcDbSpline
 62
9
  6
CONTINUOUS
 70
0
 71
3
 72
22
 73
18
 74
0
 42
0.0000001
 43
0.0000001
 44
0.0000000001
 40
0.0
 40
0.0
 40
0.0
 40
0.0
 40
0.0708515525
 40
0.1358696802
 40
0.1957552083
 40
0.2514186661
 40
0.3041539496
 40
0.3553620557
 40
0.4063577413
 40
0.4583227137
 40
0.5122920355
 40
0.5691311473
 40
0.629540756
 40
0.6940467146
 40
0.763068571
 40
0.8370761791
 40
1.0
 40
1.0
 40
1.0
 40
1.0
 10
9.6826455767
 20
20.0810730889
 30
0.0
 10
9.6831823143
 20
20.0822351269
 30
0.0
 10
9.6843362062
 20
20.0844098859
 30
0.0
 10
9.6863958324
 20
20.0872982822
 30
0.0
 10
9.688668711
 20
20.0896569936
 30
0.0
 10
9.6911243771
 20
20.091475455
 30
0.0
 10
9.6937276222
 20
20.0927533579
 30
0.0
 10
9.69644234
 20
20.0935004553
 30
0.0
 10
9.6992341456
 20
20.093728245
 30
0.0
 10
9.7020696726
 20
20.0934440388
 30
0.0
 10
9.7049166718
 20
20.0926576632
 30
0.0
 10
9.7077452682
 20
20.0913783548
 30
0.0
 10
9.7105269999
 20
20.089615622
 30
0.0
 10
9.7132313889
 20
20.0873740126
 30
0.0
 10
9.7158072549
 20
20.084636021
 30
0.0
 10
9.7190965496
 20
20.0801828697
 30
0.0
 10
9.7210038284
 20
20.07629063
 30
0.0
 10
9.7219901158
 20
20.0735174044
 30
0.0
  0
SPLINE
  5
4DD
100
AcDbEntity
  8
0
100
AcDbSpline
 62
9
  6
CONTINUOUS
 70
0
 71
3
 72
22
 73
18
 74
0
 42
0.0000001
 43
0.0000001
 44
0.0000000001
 40
0.0
 40
0.0
 40
0.0
 40
0.0
 40
0.0708515252
 40
0.1358696299
 40
0.1957551399
 40
0.2514185854
 40
0.3041538633
 40
0.3553619692
 40
0.4063576581
 40
0.4583226362
 40
0.5122919663
 40
0.5691310901
 40
0.6295407166
 40
0.6940466957
 40
0.7630685586
 40
0.8370761408
 40
1.0
 40
1.0
 40
1.0
 40
1.0
 10
9.6826455857
 20
21.2410731084
 30
0.0
 10
9.6831823236
 20
21.2422351451
 30
0.0
 10
9.684336216
 20
21.2444099018
 30
0.0
 10
9.6863958427
 20
21.2472982945
 30
0.0
 10
9.6886687213
 20
21.2496570027
 30
0.0
 10
9.6911243873
 20
21.2514754612
 30
0.0
 10
9.693727632
 20
21.2527533615
 30
0.0
 10
9.6964423492
 20
21.2535004569
 30
0.0
 10
9.699234154
 20
21.2537282451
 30
0.0
 10
9.7020696801
 20
21.2534440378
 30
0.0
 10
9.7049166783
 20
21.2526576613
 30
0.0
 10
9.7077452738
 20
21.2513783521
 30
0.0
 10
9.7105270045
 20
21.2496156185
 30
0.0
 10
9.7132313924
 20
21.2473740086
 30
0.0
 10
9.715807257
 20
21.2446360178
 30
0.0
 10
9.7190965512
 20
21.2401828684
 30
0.0
 10
9.7210038287
 20
21.2362906296
 30
0.0
 10
9.7219901158
 20
21.2335174044
 30
0.0
  0
SPLINE
  5
4DE
100
AcDbEntity
  8
0
100
AcDbSpline
 62
9
  6
CONTINUOUS
 70
0
 71
3
 72
22
 73
18
 74
0
 42
0.0000001
 43
0.0000001
 44
0.0000000001
 40
0.0
 40
0.0
 40
0.0
 40
0.0
 40
0.0708513978
 40
0.1358693951
 40
0.1957548216
 40
0.2514182115
 40
0.3041534641
 40
0.3553615704
 40
0.4063572795
 40
0.4583222922
 40
0.5122916665
 40
0.56913084
 40
0.6295405185
 40
0.6940465484
 40
0.7630684564
 40
0.8370760727
 40
1.0
 40
1.0
 40
1.0
 40
1.0
 10
9.6826456279
 20
20.9510731999
 30
0.0
 10
9.6831823673
 20
20.9522352309
 30
0.0
 10
9.6843362622
 20
20.9544099763
 30
0.0
 10
9.6863958909
 20
20.9572983524
 30
0.0
 10
9.6886687702
 20
20.9596570454
 30
0.0
 10
9.6911244355
 20
20.9614754902
 30
0.0
 10
9.6937276783
 20
20.9627533787
 30
0.0
 10
9.6964423926
 20
20.9635004643
 30
0.0
 10
9.6992341939
 20
20.9637282444
 30
0.0
 10
9.7020697157
 20
20.9634440309
 30
0.0
 10
9.7049167094
 20
20.9626576498
 30
0.0
 10
9.7077453
 20
20.9613783376
 30
0.0
 10
9.7105270258
 20
20.9596156027
 30
0.0
 10
9.7132314087
 20
20.9573739929
 30
0.0
 10
9.7158072684
 20
20.9546360037
 30
0.0
 10
9.7190965562
 20
20.9501828592
 30
0.0
 10
9.7210038301
 20
20.9462906256
 30
0.0
 10
9.7219901158
 20
20.9435174044
 30
0.0
  0
SPLINE
  5
4DF
100
AcDbEntity
  8
0
100
AcDbSpline
 62
7
  6
CONTINUOUS
 70
0
 71
3
 72
11
 73
7
 74
0
 42
0.0000001
 43
0.0000001
 44
0.0000000001
 40
0.0
 40
0.0
 40
0.0
 40
0.0
 40
0.180216585
 40
0.4011617289
 40
0.6718840172
 40
1.0
 40
1.0
 40
1.0
 40
1.0
 10
10.381861467
 20
14.3169619234
 30
0.0
 10
10.3810956221
 20
14.3163724495
 30
0.0
 10
10.3795613365
 20
14.3148378667
 30
0.0
 10
10.3774920722
 20
14.3118747045
 30
0.0
 10
10.3754439865
 20
14.3079748346
 30
0.0
 10
10.3742196312
 20
14.3050019532
 30
0.0
 10
10.3736011552
 20
14.3033546646
 30
0.0
  0
SPLINE
  5
4E0
100
AcDbEntity
  8
0
100
AcDbSpline
 62
7
  6
CONTINUOUS
 70
0
 71
3
 72
9
 73
5
 74
0
 42
0.0000001
 43
0.0000001
 44
0.0000000001
 40
0.0
 40
0.0
 40
0.0
 40
0.0
 40
0.4279657365
 40
1.0
 40
1.0
 40
1.0
 40
1.0
 10
10.3736011552
 20
14.3033546646
 30
0.0
 10
10.3721832223
 20
14.2995780514
 30
0.0
 10
10.3694948645
 20
14.2905217099
 30
0.0
 10
10.367572672
 20
14.2812872101
 30
0.0
 10
10.3666094197
 20
14.2759819286
 30
0.0
  0
SPLINE
  5
4E1
100
AcDbEntity
  8
0
100
AcDbSpline
 62
7
  6
CONTINUOUS
 70
0
 71
3
 72
11
 73
7
 74
0
 42
0.0000001
 43
0.0000001
 44
0.0000000001
 40
0.0
 40
0.0
 40
0.0
 40
0.0
 40
0.180216585
 40
0.4011617289
 40
0.6718840172
 40
1.0
 40
1.0
 40
1.0
 40
1.0
 10
11.2881055113
 20
14.3169619234
 30
0.0
 10
11.2888713561
 20
14.3163724495
 30
0.0
 10
11.2904056418
 20
14.3148378667
 30
0.0
 10
11.2924749061
 20
14.3118747045
 30
0.0
 10
11.2945229918
 20
14.3079748346
 30
0.0
 10
11.295747347
 20
14.3050019532
 30
0.0
 10
11.2963658231
 20
14.3033546646
 30
0.0
  0
SPLINE
  5
4E2
100
AcDbEntity
  8
0
100
AcDbSpline
 62
7
  6
CONTINUOUS
 70
0
 71
3
 72
9
 73
5
 74
0
 42
0.0000001
 43
0.0000001
 44
0.0000000001
 40
0.0
 40
0.0
 40
0.0
 40
0.0
 40
0.4279657365
 40
1.0
 40
1.0
 40
1.0
 40
1.0
 10
11.2963658231
 20
14.3033546646
 30
0.0
 10
11.2977837559
 20
14.2995780514
 30
0.0
 10
11.3004721138
 20
14.2905217099
 30
0.0
 10
11.3023943062
 20
14.2812872101
 30
0.0
 10
11.3033575586
 20
14.2759819286
 30
0.0
  0
SPLINE
  5
4E3
100
AcDbEntity
  8
0
100
AcDbSpline
 62
7
  6
CONTINUOUS
 70
0
 71
3
 72
13
 73
9
 74
0
 42
0.0000001
 43
0.0000001
 44
0.0000000001
 40
0.0
 40
0.0
 40
0.0
 40
0.0
 40
0.3832444076
 40
0.6645437426
 40
0.7733388601
 40
0.8638869324
 40
0.9385132429
 40
1.0
 40
1.0
 40
1.0
 40
1.0
 10
11.3033575586
 20
13.8706314888
 30
0.0
 10
11.3023449619
 20
13.865054435
 30
0.0
 10
11.3003295392
 20
13.8554270837
 30
0.0
 10
11.2969893134
 20
13.8444570265
 30
0.0
 10
11.2941749118
 20
13.8379213244
 30
0.0
 10
11.2922324021
 20
13.8343561305
 30
0.0
 10
11.2902723701
 20
13.8316243575
 30
0.0
 10
11.288827099
 20
13.8301996907
 30
0.0
 10
11.288105547
 20
13.8296461875
 30
0.0
  0
SPLINE
  5
4E4
100
AcDbEntity
  8
0
100
AcDbSpline
 62
7
  6
CONTINUOUS
 70
0
 71
3
 72
32
 73
28
 74
0
 42
0.0000001
 43
0.0000001
 44
0.0000000001
 40
0.0
 40
0.0
 40
0.0
 40
0.0
 40
0.0852222796
 40
0.17035851
 40
0.2545772035
 40
0.3371564637
 40
0.4173781993
 40
0.4945303087
 40
0.5679508065
 40
0.6370199349
 40
0.7011752347
 40
0.7312560207
 40
0.7599360914
 40
0.8129130335
 40
0.837152891
 40
0.8598678237
 40
0.8810843579
 40
0.9008482638
 40
0.9192221104
 40
0.936298589
 40
0.9522714686
 40
0.9600361356
 40
0.9677845001
 40
0.9756129815
 40
0.9835688759
 40
0.9916827164
 40
1.0
 40
1.0
 40
1.0
 40
1.0
 10
9.9035724979
 20
-0.2715240872
 30
0.0
 10
9.9027156651
 20
-0.3837219142
 30
0.0
 10
9.9020470604
 20
-0.6080135903
 30
0.0
 10
9.9041257859
 20
-0.9431803837
 30
0.0
 10
9.9092767682
 20
-1.2748343844
 30
0.0
 10
9.9174497225
 20
-1.5999555803
 30
0.0
 10
9.9285679021
 20
-1.9156806574
 30
0.0
 10
9.9425406698
 20
-2.2192224976
 30
0.0
 10
9.9592413677
 20
-2.5079211477
 30
0.0
 10
9.9785374634
 20
-2.7793070003
 30
0.0
 10
9.9970179449
 20
-2.9935248318
 30
0.0
 10
10.0131375492
 20
-3.1545503792
 30
0.0
 10
10.0292481528
 20
-3.3007773313
 30
0.0
 10
10.0467211657
 20
-3.4391163101
 30
0.0
 10
10.0659981346
 20
-3.5692679716
 30
0.0
 10
10.080563276
 20
-3.6578351532
 30
0.0
 10
10.0957373006
 20
-3.7403164193
 30
0.0
 10
10.1116130695
 20
-3.8168386251
 30
0.0
 10
10.1283093646
 20
-3.8876006238
 30
0.0
 10
10.1460306214
 20
-3.9529546701
 30
0.0
 10
10.1621472225
 20
-4.0042415335
 30
0.0
 10
10.176372209
 20
-4.0431856599
 30
0.0
 10
10.1879094641
 20
-4.0716752452
 30
0.0
 10
10.2005799469
 20
-4.0999572943
 30
0.0
 10
10.2147469945
 20
-4.1280668481
 30
0.0
 10
10.2308154712
 20
-4.1558859392
 30
0.0
 10
10.2428658363
 20
-4.1738773822
 30
0.0
 10
10.2492880362
 20
-4.1827466617
 30
0.0
  0
SPLINE
  5
4E5
100
AcDbEntity
  8
0
100
AcDbSpline
 62
7
  6
CONTINUOUS
 70
0
 71
3
 72
28
 73
24
 74
0
 42
0.0000001
 43
0.0000001
 44
0.0000000001
 40
0.0
 40
0.0
 40
0.0
 40
0.0
 40
0.2527193848
 40
0.363159256
 40
0.4621702705
 40
0.5491377831
 40
0.6234447089
 40
0.6844722416
 40
0.7316020493
 40
0.7497893561
 40
0.7643524034
 40
0.7752696273
 40
0.7825179331
 40
0.7860727221
 40
0.7864569844
 40
0.7870061184
 40
0.7909182598
 40
0.7986066298
 40
0.8101016957
 40
0.8254353224
 40
0.867751991
 40
0.9258391711
 40
1.0
 40
1.0
 40
1.0
 40
1.0
 10
10.696036925
 20
-3.8332105344
 30
0.0
 10
10.6971306175
 20
-3.8362494647
 30
0.0
 10
10.6987444276
 20
-3.840601504
 30
0.0
 10
10.7008863869
 20
-3.8461060252
 30
0.0
 10
10.7022967751
 20
-3.8496220169
 30
0.0
 10
10.7035682376
 20
-3.8526958441
 30
0.0
 10
10.7046844792
 20
-3.8553087563
 30
0.0
 10
10.7056281687
 20
-3.8574404161
 30
0.0
 10
10.7063065215
 20
-3.8589076993
 30
0.0
 10
10.7067512406
 20
-3.8598238194
 30
0.0
 10
10.7070031453
 20
-3.8603275365
 30
0.0
 10
10.707188484
 20
-3.8606885259
 30
0.0
 10
10.7073298975
 20
-3.8609564573
 30
0.0
 10
10.7073813816
 20
-3.8610513132
 30
0.0
 10
10.7074208869
 20
-3.8611243106
 30
0.0
 10
10.7073702302
 20
-3.8610357677
 30
0.0
 10
10.7073182277
 20
-3.860947724
 30
0.0
 10
10.7071490122
 20
-3.860661931
 30
0.0
 10
10.7069282828
 20
-3.8603007677
 30
0.0
 10
10.7064554705
 20
-3.8595424152
 30
0.0
 10
10.705653855
 20
-3.8583077288
 30
0.0
 10
10.7043988392
 20
-3.8564589326
 30
0.0
 10
10.7034207564
 20
-3.8550816335
 30
0.0
 10
10.7028648998
 20
-3.8543139764
 30
0.0
  0
SPLINE
  5
4E6
100
AcDbEntity
  8
0
100
AcDbSpline
 62
7
  6
CONTINUOUS
 70
0
 71
3
 72
24
 73
20
 74
0
 42
0.0000001
 43
0.0000001
 44
0.0000000001
 40
0.0
 40
0.0
 40
0.0
 40
0.0
 40
0.1674740571
 40
0.3322262565
 40
0.4120364457
 40
0.4893319679
 40
0.563519649
 40
0.6340320297
 40
0.7003162278
 40
0.7618369525
 40
0.8180772814
 40
0.8685322212
 40
0.9126732464
 40
0.9321967952
 40
0.949915356
 40
0.9657158081
 40
0.9794515465
 40
0.9909518812
 40
1.0
 40
1.0
 40
1.0
 40
1.0
 10
10.4635561688
 20
-0.2758005728
 30
0.0
 10
10.4620331734
 20
-0.4752289385
 30
0.0
 10
10.4623144545
 20
-0.8708765712
 30
0.0
 10
10.4708040294
 20
-1.3614964892
 30
0.0
 10
10.482589452
 20
-1.7446000846
 30
0.0
 10
10.4936503623
 20
-2.0198149278
 30
0.0
 10
10.5069383295
 20
-2.2838460261
 30
0.0
 10
10.5223367859
 20
-2.5346270699
 30
0.0
 10
10.5397104815
 20
-2.770157369
 30
0.0
 10
10.5588927395
 20
-2.9884921824
 30
0.0
 10
10.5796780483
 20
-3.1877396911
 30
0.0
 10
10.6018190081
 20
-3.3660037616
 30
0.0
 10
10.6218221637
 20
-3.5004417826
 30
0.0
 10
10.6384444251
 20
-3.5959243037
 30
0.0
 10
10.6504522712
 20
-3.6579419984
 30
0.0
 10
10.6623590632
 20
-3.712945692
 30
0.0
 10
10.6739365554
 20
-3.7604298113
 30
0.0
 10
10.6848741379
 20
-3.7997712739
 30
0.0
 10
10.6923882331
 20
-3.8230722916
 30
0.0
 10
10.696036925
 20
-3.8332105344
 30
0.0
  0
SPLINE
  5
4E7
100
AcDbEntity
  8
0
100
AcDbSpline
 62
7
  6
CONTINUOUS
 70
0
 71
3
 72
13
 73
9
 74
0
 42
0.0000001
 43
0.0000001
 44
0.0000000001
 40
0.0
 40
0.0
 40
0.0
 40
0.0
 40
0.3832444076
 40
0.6645437426
 40
0.7733388601
 40
0.8638869324
 40
0.9385132429
 40
1.0
 40
1.0
 40
1.0
 40
1.0
 10
10.3666094197
 20
13.8706314888
 30
0.0
 10
10.3676220163
 20
13.865054435
 30
0.0
 10
10.3696374391
 20
13.8554270837
 30
0.0
 10
10.3729776649
 20
13.8444570265
 30
0.0
 10
10.3757920665
 20
13.8379213244
 30
0.0
 10
10.3777345761
 20
13.8343561305
 30
0.0
 10
10.3796946082
 20
13.8316243575
 30
0.0
 10
10.3811398793
 20
13.8301996907
 30
0.0
 10
10.3818614312
 20
13.8296461875
 30
0.0
  0
SPLINE
  5
4E8
100
AcDbEntity
  8
0
100
AcDbSpline
 62
9
  6
CONTINUOUS
 70
0
 71
3
 72
24
 73
20
 74
0
 42
0.0000001
 43
0.0000001
 44
0.0000000001
 40
0.0
 40
0.0
 40
0.0
 40
0.0
 40
0.1877906171
 40
0.3715682505
 40
0.5429104618
 40
0.6947007458
 40
0.7612227963
 40
0.8204777755
 40
0.8718902691
 40
0.9149462675
 40
0.9331930757
 40
0.949205414
 40
0.962969819
 40
0.9744844837
 40
0.9837708961
 40
0.9909033634
 40
0.9937254102
 40
0.9961173975
 40
1.0
 40
1.0
 40
1.0
 40
1.0
 10
10.2815157029
 20
8.9972798665
 30
0.0
 10
10.2621059888
 20
8.9972798665
 30
0.0
 10
10.2237006854
 20
8.9975962145
 30
0.0
 10
10.1676004294
 20
8.9989635551
 30
0.0
 10
10.1152508284
 20
9.0011721266
 30
0.0
 10
10.0750523871
 20
9.0037155101
 30
0.0
 10
10.0464670867
 20
9.006164257
 30
0.0
 10
10.0282497374
 20
9.0080567666
 30
0.0
 10
10.0124866606
 20
9.0100609191
 30
0.0
 10
10.0009764773
 20
9.0118831641
 30
0.0
 10
9.9931342485
 20
9.0134233853
 30
0.0
 10
9.9882939421
 20
9.0145277654
 30
0.0
 10
9.9841727864
 20
9.0156414821
 30
0.0
 10
9.9807762127
 20
9.016759397
 30
0.0
 10
9.9781123967
 20
9.0178791992
 30
0.0
 10
9.9763754835
 20
9.0188715661
 30
0.0
 10
9.9753995975
 20
9.0197030026
 30
0.0
 10
9.9747892033
 20
9.0204175675
 30
0.0
 10
9.9745424855
 20
9.0210684812
 30
0.0
 10
9.9745466903
 20
9.0214697583
 30
0.0
  0
SPLINE
  5
4E9
100
AcDbEntity
  8
0
100
AcDbSpline
 62
9
  6
CONTINUOUS
 70
0
 71
3
 72
24
 73
20
 74
0
 42
0.0000001
 43
0.0000001
 44
0.0000000001
 40
0.0
 40
0.0
 40
0.0
 40
0.0
 40
0.1976023574
 40
0.3854229012
 40
0.5564759365
 40
0.6339750603
 40
0.705258905
 40
0.7697719508
 40
0.8269753431
 40
0.8763578325
 40
0.9175749943
 40
0.9350469756
 40
0.9503939224
 40
0.9635999584
 40
0.9746652635
 40
0.9836353685
 40
0.9906232812
 40
0.995880385
 40
1.0
 40
1.0
 40
1.0
 40
1.0
 10
10.2105469288
 20
-0.2957140204
 30
0.0
 10
10.2273940852
 20
-0.2957140204
 30
0.0
 10
10.2602550228
 20
-0.2954780195
 30
0.0
 10
10.307688872
 20
-0.2944142535
 30
0.0
 10
10.3448660125
 20
-0.2929228347
 30
0.0
 10
10.3720905077
 20
-0.2913629213
 30
0.0
 10
10.3902312496
 20
-0.2900835366
 30
0.0
 10
10.40662602
 20
-0.288670579
 30
0.0
 10
10.4211342059
 20
-0.2871389891
 30
0.0
 10
10.4336298742
 20
-0.2854995135
 30
0.0
 10
10.4427228026
 20
-0.283990737
 30
0.0
 10
10.4489038191
 20
-0.2827063164
 30
0.0
 10
10.4527177698
 20
-0.2817797976
 30
0.0
 10
10.4559636518
 20
-0.2808395712
 30
0.0
 10
10.4586350215
 20
-0.2798868911
 30
0.0
 10
10.4607343643
 20
-0.2789257119
 30
0.0
 10
10.4622660523
 20
-0.2779507429
 30
0.0
 10
10.4632668226
 20
-0.2769480661
 30
0.0
 10
10.4635470704
 20
-0.2761517417
 30
0.0
 10
10.4635507505
 20
-0.2758005313
 30
0.0
  0
SPLINE
  5
4EA
100
AcDbEntity
  8
0
100
AcDbSpline
 62
9
  6
CONTINUOUS
 70
0
 71
3
 72
20
 73
16
 74
0
 42
0.0000001
 43
0.0000001
 44
0.0000000001
 40
0.0
 40
0.0
 40
0.0
 40
0.0
 40
0.125074489
 40
0.1879357968
 40
0.2507931283
 40
0.3136615316
 40
0.3765363626
 40
0.4393682853
 40
0.5021277003
 40
0.5647928387
 40
0.6273483491
 40
0.6897913979
 40
0.7521165533
 40
0.8761780327
 40
1.0
 40
1.0
 40
1.0
 40
1.0
 10
10.4796580927
 20
-3.7409925703
 30
0.0
 10
10.4541084128
 20
-3.7409925703
 30
0.0
 10
10.4154565945
 20
-3.7463484324
 30
0.0
 10
10.3670877419
 20
-3.7635535461
 30
0.0
 10
10.3327616458
 20
-3.7813232851
 30
0.0
 10
10.3011717339
 20
-3.8035801191
 30
0.0
 10
10.2728914991
 20
-3.8299097989
 30
0.0
 10
10.2484342389
 20
-3.8597969255
 30
0.0
 10
10.2283180653
 20
-3.8927122258
 30
0.0
 10
10.2128617239
 20
-3.9279952049
 30
0.0
 10
10.2024219305
 20
-3.9650059872
 30
0.0
 10
10.1971396338
 20
-4.003032048
 30
0.0
 10
10.1971553543
 20
-4.0540001095
 30
0.0
 10
10.2103765145
 20
-4.1168448415
 30
0.0
 10
10.2344514702
 20
-4.1622612121
 30
0.0
 10
10.2492881281
 20
-4.1827465951
 30
0.0
  0
SPLINE
  5
4EB
100
AcDbEntity
  8
0
100
AcDbSpline
 62
7
  6
CONTINUOUS
 70
0
 71
3
 72
20
 73
16
 74
0
 42
0.0000001
 43
0.0000001
 44
0.0000000001
 40
0.0
 40
0.0
 40
0.0
 40
0.0
 40
0.0644316244
 40
0.1280953166
 40
0.1911631657
 40
0.2536666164
 40
0.3157598776
 40
0.3776144029
 40
0.4393331661
 40
0.5009761765
 40
0.6242289687
 40
0.7478831603
 40
0.8101236376
 40
0.8728578399
 40
1.0
 40
1.0
 40
1.0
 40
1.0
 10
10.9331694272
 20
13.8706314888
 30
0.0
 10
10.9391184633
 20
13.8667386954
 30
0.0
 10
10.9513545108
 20
13.8596079726
 30
0.0
 10
10.9705235914
 20
13.8507436488
 30
0.0
 10
10.9901628539
 20
13.8435887244
 30
0.0
 10
11.0100988618
 20
13.8379298124
 30
0.0
 10
11.030236107
 20
13.8336468581
 30
0.0
 10
11.0505102694
 20
13.8306245273
 30
0.0
 10
11.0708687497
 20
13.8287265113
 30
0.0
 10
11.0980681763
 20
13.8276039492
 30
0.0
 10
11.132152218
 20
13.8288722515
 30
0.0
 10
11.1660033752
 20
13.8336876506
 30
0.0
 10
11.192691011
 20
13.8401387205
 30
0.0
 10
11.2192276194
 20
13.8485218629
 30
0.0
 10
11.2384638412
 20
13.8571770537
 30
0.0
 10
11.2506333788
 20
13.8641568324
 30
0.0
  0
SPLINE
  5
4EC
100
AcDbEntity
  8
0
100
AcDbSpline
 62
9
  6
CONTINUOUS
 70
0
 71
3
 72
13
 73
9
 74
0
 42
0.0000001
 43
0.0000001
 44
0.0000000001
 40
0.0
 40
0.0
 40
0.0
 40
0.0
 40
0.2490140322
 40
0.3738185701
 40
0.4987458574
 40
0.6238915806
 40
0.749340093
 40
1.0
 40
1.0
 40
1.0
 40
1.0
 10
10.702864808
 20
-3.8543140429
 30
0.0
 10
10.6902300506
 20
-3.8368688847
 30
0.0
 10
10.6680125612
 20
-3.8128271202
 30
0.0
 10
10.6335454755
 20
-3.7867655155
 30
0.0
 10
10.6054768676
 20
-3.7703673125
 30
0.0
 10
10.5756244812
 20
-3.7573588381
 30
0.0
 10
10.5340385656
 20
-3.744845178
 30
0.0
 10
10.5013404403
 20
-3.7409925703
 30
0.0
 10
10.4796580927
 20
-3.7409925703
 30
0.0
  0
SPLINE
  5
4ED
100
AcDbEntity
  8
0
100
AcDbSpline
 62
7
  6
CONTINUOUS
 70
0
 71
3
 72
21
 73
17
 74
0
 42
0.0000001
 43
0.0000001
 44
0.0000000001
 40
0.0
 40
0.0
 40
0.0
 40
0.0
 40
0.0643325525
 40
0.1278767858
 40
0.1908010258
 40
0.2531516367
 40
0.3151183341
 40
0.3768670288
 40
0.4999994276
 40
0.6231311286
 40
0.6848788956
 40
0.7468451329
 40
0.8091967046
 40
0.8721223763
 40
0.9356672289
 40
1.0
 40
1.0
 40
1.0
 40
1.0
 10
11.2611970748
 20
14.2759819286
 30
0.0
 10
11.2550343361
 20
14.2800145599
 30
0.0
 10
11.2423452099
 20
14.2873773764
 30
0.0
 10
11.2224481413
 20
14.2964592532
 30
0.0
 10
11.202064513
 20
14.3037242856
 30
0.0
 10
11.1813755449
 20
14.3094002928
 30
0.0
 10
11.1604786329
 20
14.3136122719
 30
0.0
 10
11.1324672695
 20
14.3174510364
 30
0.0
 10
11.097183451
 20
14.3193466626
 30
0.0
 10
11.0618998095
 20
14.3174505495
 30
0.0
 10
11.0338886163
 20
14.3136123397
 30
0.0
 10
11.0129916861
 20
14.309400707
 30
0.0
 10
10.9923023582
 20
14.3037251751
 30
0.0
 10
10.971918343
 20
14.2964601408
 30
0.0
 10
10.9520212595
 20
14.2873776434
 30
0.0
 10
10.9393321869
 20
14.2800145736
 30
0.0
 10
10.9331694272
 20
14.2759819286
 30
0.0
  0
SPLINE
  5
4EE
100
AcDbEntity
  8
0
100
AcDbSpline
 62
9
  6
CONTINUOUS
 70
0
 71
3
 72
20
 73
16
 74
0
 42
0.0000001
 43
0.0000001
 44
0.0000000001
 40
0.0
 40
0.0
 40
0.0
 40
0.0
 40
0.0590862784
 40
0.1196161711
 40
0.1815516063
 40
0.2446136602
 40
0.3727962862
 40
0.4375115872
 40
0.5023541963
 40
0.5671928141
 40
0.6318287074
 40
0.7592781361
 40
0.8215644529
 40
0.8824760937
 40
1.0
 40
1.0
 40
1.0
 40
1.0
 10
11.0912003645
 20
-5.3454643223
 30
0.0
 10
11.086853593
 20
-5.3394542924
 30
0.0
 10
11.0785495533
 20
-5.3269191058
 30
0.0
 10
11.0676233571
 20
-5.3068872568
 30
0.0
 10
11.0582911868
 20
-5.2855151603
 30
0.0
 10
11.0480588166
 20
-5.2553970033
 30
0.0
 10
11.0415929315
 20
-5.2237317709
 30
0.0
 10
11.0393047321
 20
-5.1914232531
 30
0.0
 10
11.039856865
 20
-5.1669892127
 30
0.0
 10
11.0426467104
 20
-5.1427223631
 30
0.0
 10
11.049087941
 20
-5.1110903427
 30
0.0
 10
11.059350054
 20
-5.0806681273
 30
0.0
 10
11.0730585653
 20
-5.0523121859
 30
0.0
 10
11.0885177085
 20
-5.0263142038
 30
0.0
 10
11.1023057387
 20
-5.0085077837
 30
0.0
 10
11.1122079707
 20
-4.9975717815
 30
0.0
  0
SPLINE
  5
4EF
100
AcDbEntity
  8
0
100
AcDbSpline
 62
9
  6
CONTINUOUS
 70
0
 71
3
 72
9
 73
5
 74
0
 42
0.0000001
 43
0.0000001
 44
0.0000000001
 40
0.0
 40
0.0
 40
0.0
 40
0.0
 40
0.5200550996
 40
1.0
 40
1.0
 40
1.0
 40
1.0
 10
11.1122079707
 20
-4.9975717815
 30
0.0
 10
11.1227937064
 20
-4.9858809195
 30
0.0
 10
11.1450259364
 20
-4.9650258834
 30
0.0
 10
11.1702698905
 20
-4.9479789164
 30
0.0
 10
11.18293546
 20
-4.9408075236
 30
0.0
  0
SPLINE
  5
4F0
100
AcDbEntity
  8
0
100
AcDbSpline
 62
9
  6
CONTINUOUS
 70
0
 71
3
 72
24
 73
20
 74
0
 42
0.0000001
 43
0.0000001
 44
0.0000000001
 40
0.0
 40
0.0
 40
0.0
 40
0.0
 40
0.0038826025
 40
0.0062745898
 40
0.0090966366
 40
0.0162291039
 40
0.0255155163
 40
0.037030181
 40
0.050794586
 40
0.0668069243
 40
0.0850537325
 40
0.1281097309
 40
0.1795222245
 40
0.2387772037
 40
0.3052992542
 40
0.4570895382
 40
0.6284317495
 40
0.8122093829
 40
1.0
 40
1.0
 40
1.0
 40
1.0
 10
9.9035779162
 20
-0.2715241287
 30
0.0
 10
9.9035737114
 20
-0.2719254057
 30
0.0
 10
9.9038204293
 20
-0.2725763194
 30
0.0
 10
9.9044308234
 20
-0.2732908844
 30
0.0
 10
9.9054067094
 20
-0.2741223208
 30
0.0
 10
9.9071436226
 20
-0.2751146878
 30
0.0
 10
9.9098074386
 20
-0.2762344899
 30
0.0
 10
9.9132040123
 20
-0.2773524048
 30
0.0
 10
9.917325168
 20
-0.2784661215
 30
0.0
 10
9.9221654744
 20
-0.2795705017
 30
0.0
 10
9.9300077032
 20
-0.2811107229
 30
0.0
 10
9.9415178865
 20
-0.2829329679
 30
0.0
 10
9.9572809634
 20
-0.2849371203
 30
0.0
 10
9.9754983126
 20
-0.2868296299
 30
0.0
 10
10.0040836131
 20
-0.2892783768
 30
0.0
 10
10.0442820543
 20
-0.2918217604
 30
0.0
 10
10.0966316553
 20
-0.2940303319
 30
0.0
 10
10.1527319113
 20
-0.2953976725
 30
0.0
 10
10.1911372147
 20
-0.2957140204
 30
0.0
 10
10.2105469288
 20
-0.2957140204
 30
0.0
  0
SPLINE
  5
4F1
100
AcDbEntity
  8
0
100
AcDbSpline
 62
7
  6
CONTINUOUS
 70
0
 71
3
 72
21
 73
17
 74
0
 42
0.0000001
 43
0.0000001
 44
0.0000000001
 40
0.0
 40
0.0
 40
0.0
 40
0.0
 40
0.0632226067
 40
0.1261943883
 40
0.1889418429
 40
0.2513938796
 40
0.3136552264
 40
0.3758262542
 40
0.4999999778
 40
0.624173868
 40
0.6863448887
 40
0.7486060948
 40
0.8110579742
 40
0.8738054057
 40
0.936777289
 40
1.0
 40
1.0
 40
1.0
 40
1.0
 10
10.8317953802
 20
14.2759819286
 30
0.0
 10
10.8248661693
 20
14.2800346141
 30
0.0
 10
10.8106123845
 20
14.287418921
 30
0.0
 10
10.7883726017
 20
14.2964846146
 30
0.0
 10
10.7655857977
 20
14.3037386874
 30
0.0
 10
10.7424524877
 20
14.3094084039
 30
0.0
 10
10.7190853091
 20
14.3136168626
 30
0.0
 10
10.6877416568
 20
14.317454733
 30
0.0
 10
10.6482953493
 20
14.3193451047
 30
0.0
 10
10.6088491538
 20
14.3174536018
 30
0.0
 10
10.5775054498
 20
14.3136162399
 30
0.0
 10
10.5541382033
 20
14.3094083822
 30
0.0
 10
10.5310048097
 20
14.3037391436
 30
0.0
 10
10.5082180187
 20
14.2964850257
 30
0.0
 10
10.4859783223
 20
14.2874190519
 30
0.0
 10
10.4717245801
 20
14.2800346208
 30
0.0
 10
10.4647953578
 20
14.2759819286
 30
0.0
  0
SPLINE
  5
4F2
100
AcDbEntity
  8
0
100
AcDbSpline
 62
7
  6
CONTINUOUS
 70
0
 71
3
 72
9
 73
5
 74
0
 42
0.0000001
 43
0.0000001
 44
0.0000000001
 40
0.0
 40
0.0
 40
0.0
 40
0.0
 40
0.5720198885
 40
1.0
 40
1.0
 40
1.0
 40
1.0
 10
10.4055817945
 20
14.2759819286
 30
0.0
 10
10.4046186911
 20
14.2812863895
 30
0.0
 10
10.4026967425
 20
14.290519697
 30
0.0
 10
10.4000088093
 20
14.2995748687
 30
0.0
 10
10.3985912097
 20
14.3033511934
 30
0.0
  0
SPLINE
  5
4F3
100
AcDbEntity
  8
0
100
AcDbSpline
 62
7
  6
CONTINUOUS
 70
0
 71
3
 72
9
 73
5
 74
0
 42
0.0000001
 43
0.0000001
 44
0.0000000001
 40
0.0
 40
0.0
 40
0.0
 40
0.0
 40
0.5703146066
 40
1.0
 40
1.0
 40
1.0
 40
1.0
 10
10.3985912097
 20
14.3033511934
 30
0.0
 10
10.3977386488
 20
14.3056223193
 30
0.0
 10
10.3960760414
 20
14.309545274
 30
0.0
 10
10.393840344
 20
14.3132026577
 30
0.0
 10
10.3926863633
 20
14.3146199832
 30
0.0
  0
LINE
  5
4F4
100
AcDbEntity
  8
0
100
AcDbLine
 62
7
  6
CONTINUOUS
 10
10.3926863633
 20
14.3146199832
 11
10.3903861913
 21
14.3169190646
  0
SPLINE
  5
4F5
100
AcDbEntity
  8
0
100
AcDbSpline
 62
7
  6
CONTINUOUS
 70
0
 71
3
 72
11
 73
7
 74
0
 42
0.0000001
 43
0.0000001
 44
0.0000000001
 40
0.0
 40
0.0
 40
0.0
 40
0.0
 40
0.266247881
 40
0.5007941551
 40
0.7349082178
 40
1.0
 40
1.0
 40
1.0
 40
1.0
 10
10.3903861913
 20
14.3169190646
 30
0.0
 10
10.3897375247
 20
14.3174250093
 30
0.0
 10
10.3884018538
 20
14.3182546351
 30
0.0
 10
10.3861260834
 20
14.3187398597
 30
0.0
 10
10.3838486466
 20
14.318278674
 30
0.0
 10
10.3825105371
 20
14.3174615153
 30
0.0
 10
10.381861467
 20
14.3169619234
 30
0.0
  0
SPLINE
  5
4F6
100
AcDbEntity
  8
0
100
AcDbSpline
 62
9
  6
CONTINUOUS
 70
0
 71
3
 72
24
 73
20
 74
0
 42
0.0000001
 43
0.0000001
 44
0.0000000001
 40
0.0
 40
0.0
 40
0.0
 40
0.0
 40
0.004119615
 40
0.0093767188
 40
0.0163646315
 40
0.0253347365
 40
0.0364000416
 40
0.0496060776
 40
0.0649530244
 40
0.0824250057
 40
0.1236421675
 40
0.1730246569
 40
0.2302280492
 40
0.294741095
 40
0.3660249397
 40
0.4435240635
 40
0.6145770988
 40
0.8023976426
 40
1.0
 40
1.0
 40
1.0
 40
1.0
 10
10.5345195246
 20
9.0171933556
 30
0.0
 10
10.5345158444
 20
9.0168421453
 30
0.0
 10
10.5342355967
 20
9.0160458209
 30
0.0
 10
10.5332348264
 20
9.015043144
 30
0.0
 10
10.5317031384
 20
9.014068175
 30
0.0
 10
10.5296037956
 20
9.0131069958
 30
0.0
 10
10.5269324259
 20
9.0121543158
 30
0.0
 10
10.5236865439
 20
9.0112140894
 30
0.0
 10
10.5198725932
 20
9.0102875705
 30
0.0
 10
10.5136915766
 20
9.00900315
 30
0.0
 10
10.5045986482
 20
9.0074943734
 30
0.0
 10
10.49210298
 20
9.0058548979
 30
0.0
 10
10.4775947941
 20
9.004323308
 30
0.0
 10
10.4612000237
 20
9.0029103503
 30
0.0
 10
10.4430592818
 20
9.0016309657
 30
0.0
 10
10.4158347866
 20
9.0000710522
 30
0.0
 10
10.3786576461
 20
8.9985796334
 30
0.0
 10
10.3312237969
 20
8.9975158674
 30
0.0
 10
10.2983628593
 20
8.9972798665
 30
0.0
 10
10.2815157029
 20
8.9972798665
 30
0.0
  0
SPLINE
  5
4F7
100
AcDbEntity
  8
0
100
AcDbSpline
 62
7
  6
CONTINUOUS
 70
0
 71
3
 72
20
 73
16
 74
0
 42
0.0000001
 43
0.0000001
 44
0.0000000001
 40
0.0
 40
0.0
 40
0.0
 40
0.0
 40
0.1260928623
 40
0.1888865814
 40
0.2513878664
 40
0.3136552376
 40
0.3758126529
 40
0.4379250468
 40
0.5000176923
 40
0.6241873588
 40
0.6863453657
 40
0.7486130325
 40
0.8111139718
 40
0.8739073217
 40
1.0
 40
1.0
 40
1.0
 40
1.0
 10
10.4647953578
 20
13.8706314888
 30
0.0
 10
10.4786121932
 20
13.8625504404
 30
0.0
 10
10.50059212
 20
13.8525421192
 30
0.0
 10
10.531013313
 20
13.8428687078
 30
0.0
 10
10.5541590872
 20
13.8372020535
 30
0.0
 10
10.5775241163
 20
13.8329890319
 30
0.0
 10
10.6010387096
 20
13.8301068105
 30
0.0
 10
10.6246445633
 20
13.8284062766
 30
0.0
 10
10.6561734123
 20
13.8276478903
 30
0.0
 10
10.6877316
 20
13.8291506257
 30
0.0
 10
10.7190665072
 20
13.8329880648
 30
0.0
 10
10.7424321374
 20
13.8372018529
 30
0.0
 10
10.7655776504
 20
13.8428685788
 30
0.0
 10
10.7959987132
 20
13.8525422179
 30
0.0
 10
10.8179785648
 20
13.8625504522
 30
0.0
 10
10.8317953802
 20
13.8706314888
 30
0.0
  0
SPLINE
  5
4F8
100
AcDbEntity
  8
0
100
AcDbSpline
 62
9
  6
CONTINUOUS
 70
0
 71
3
 72
33
 73
29
 74
0
 42
0.0000001
 43
0.0000001
 44
0.0000000001
 40
0.0
 40
0.0
 40
0.0
 40
0.0
 40
0.029462857
 40
0.0603630075
 40
0.0925457193
 40
0.1258612604
 40
0.1953097862
 40
0.2676051996
 40
0.3416831597
 40
0.4165028621
 40
0.4910572176
 40
0.5643469642
 40
0.6353939385
 40
0.7032369835
 40
0.7356673091
 40
0.7669546158
 40
0.7969927232
 40
0.8256797334
 40
0.852936999
 40
0.8786966397
 40
0.9029101
 40
0.9255692876
 40
0.9467044233
 40
0.966332335
 40
0.9755521091
 40
0.9843020446
 40
0.9924884153
 40
1.0
 40
1.0
 40
1.0
 40
1.0
 10
10.8632020374
 20
12.8183067087
 30
0.0
 10
10.8648650178
 20
12.6429944183
 30
0.0
 10
10.869622405
 20
12.2838295702
 30
0.0
 10
10.8803366651
 20
11.7332331947
 30
0.0
 10
10.8945691728
 20
11.1597838912
 30
0.0
 10
10.9182029165
 20
10.3571220379
 30
0.0
 10
10.955139313
 20
9.3160675449
 30
0.0
 10
11.0082092093
 20
8.0329008934
 30
0.0
 10
11.0682777957
 20
6.7180490137
 30
0.0
 10
11.1329803926
 20
5.3899607594
 30
0.0
 10
11.1999169886
 20
4.0666803932
 30
0.0
 10
11.2667121194
 20
2.7658721008
 30
0.0
 10
11.3309847503
 20
1.504922931
 30
0.0
 10
11.3812257647
 20
0.4867103661
 30
0.0
 10
11.4179000203
 20
-0.2952888431
 30
0.0
 10
11.4428660144
 20
-0.8526285977
 30
0.0
 10
11.4654169362
 20
-1.3877777858
 30
0.0
 10
11.4852712919
 20
-1.8990359705
 30
0.0
 10
11.502114868
 20
-2.3849290131
 30
0.0
 10
11.5156429754
 20
-2.8442955526
 30
0.0
 10
11.5255395688
 20
-3.2763879615
 30
0.0
 10
11.5314314705
 20
-3.6810350903
 30
0.0
 10
11.5328159552
 20
-4.0584380344
 30
0.0
 10
11.5296108628
 20
-4.3558632181
 30
0.0
 10
11.5237266058
 20
-4.5795165947
 30
0.0
 10
11.5177392286
 20
-4.7350493864
 30
0.0
 10
11.5099599431
 20
-4.8803255278
 30
0.0
 10
11.5032448532
 20
-4.9735035704
 30
0.0
 10
11.4994892673
 20
-5.0180435699
 30
0.0
  0
LINE
  5
4F9
100
AcDbEntity
  8
0
100
AcDbLine
 62
9
  6
CONTINUOUS
 10
11.4946499705
 20
-5.0720009936
 11
11.4940761238
 21
-5.0779745697
  0
SPLINE
  5
4FA
100
AcDbEntity
  8
0
100
AcDbSpline
 62
9
  6
CONTINUOUS
 70
0
 71
3
 72
21
 73
17
 74
0
 42
0.0000001
 43
0.0000001
 44
0.0000000001
 40
0.0
 40
0.0
 40
0.0
 40
0.0
 40
0.224326485
 40
0.4185172199
 40
0.5041630266
 40
0.582116742
 40
0.652396909
 40
0.7152138077
 40
0.770846355
 40
0.8196135043
 40
0.8618957995
 40
0.8981637702
 40
0.9290150365
 40
0.9553195954
 40
0.9783799126
 40
1.0
 40
1.0
 40
1.0
 40
1.0
 10
11.4940761238
 20
-5.0779745697
 30
0.0
 10
11.4907862631
 20
-5.1119798781
 30
0.0
 10
11.4839172041
 20
-5.1753555459
 30
0.0
 10
11.4732385301
 20
-5.2514115194
 30
0.0
 10
11.4638876392
 20
-5.3050980423
 30
0.0
 10
11.4568869473
 20
-5.3400269543
 30
0.0
 10
11.449610673
 20
-5.3713409146
 30
0.0
 10
11.4420673244
 20
-5.3990845625
 30
0.0
 10
11.4342614973
 20
-5.4233368022
 30
0.0
 10
11.4261949635
 20
-5.4441855092
 30
0.0
 10
11.4178659814
 20
-5.4617205323
 30
0.0
 10
11.4092707993
 20
-5.4760343536
 30
0.0
 10
11.4003702498
 20
-5.4872050151
 30
0.0
 10
11.3910819499
 20
-5.4952825874
 30
0.0
 10
11.3813102945
 20
-5.5002191413
 30
0.0
 10
11.3744578132
 20
-5.5013054234
 30
0.0
 10
11.371165156
 20
-5.5013035691
 30
0.0
  0
SPLINE
  5
4FB
100
AcDbEntity
  8
0
100
AcDbSpline
 62
7
  6
CONTINUOUS
 70
0
 71
3
 72
15
 73
11
 74
0
 42
0.0000001
 43
0.0000001
 44
0.0000000001
 40
0.0
 40
0.0
 40
0.0
 40
0.0
 40
0.0993109531
 40
0.1872212693
 40
0.2741071478
 40
0.3706723778
 40
0.485203121
 40
0.6245828818
 40
0.7945886518
 40
1.0
 40
1.0
 40
1.0
 40
1.0
 10
10.3818614312
 20
13.8296461875
 30
0.0
 10
10.382480674
 20
13.8291711658
 30
0.0
 10
10.3837526715
 20
13.8283901885
 30
0.0
 10
10.385896718
 20
13.8278948128
 30
0.0
 10
10.3880515984
 20
13.8282391075
 30
0.0
 10
10.3901371151
 20
13.8293748185
 30
0.0
 10
10.3921787753
 20
13.8312521131
 30
0.0
 10
10.3941886462
 20
13.8339258953
 30
0.0
 10
10.396176145
 20
13.8374588746
 30
0.0
 10
10.3973680665
 20
13.8401620611
 30
0.0
 10
10.3979701658
 20
13.8416598328
 30
0.0
  0
SPLINE
  5
4FC
100
AcDbEntity
  8
0
100
AcDbSpline
 62
7
  6
CONTINUOUS
 70
0
 71
3
 72
9
 73
5
 74
0
 42
0.0000001
 43
0.0000001
 44
0.0000000001
 40
0.0
 40
0.0
 40
0.0
 40
0.0
 40
0.4212746838
 40
1.0
 40
1.0
 40
1.0
 40
1.0
 10
10.3979701658
 20
13.8416598328
 30
0.0
 10
10.3995409511
 20
13.8455672915
 30
0.0
 10
10.402495004
 20
13.8551482044
 30
0.0
 10
10.4045482748
 20
13.8649391978
 30
0.0
 10
10.4055817945
 20
13.8706314888
 30
0.0
  0
ENDSEC
  0
SECTION
  2
OBJECTS
  0
DICTIONARY
  5
C
100
AcDbDictionary
280
0
281
1
  3
ACAD_GROUP
350
D
  3
ACAD_MLINESTYLE
350
17
  3
ACAD_LAYOUT
350
1A
  3
ACAD_PLOTSETTINGS
350
19
  3
ACAD_PLOTSTYLENAME
350
E
  0
DICTIONARY
  5
D
102
{ACAD_REACTORS
330
C
102
}
100
AcDbDictionary
280
0
281
1
  0
ACDBDICTIONARYWDFLT
  5
E
102
{ACAD_REACTORS
330
C
102
}
100
AcDbDictionary
281
1
  3
Normal
350
F
100
AcDbDictionaryWithDefault
340
F
  0
DICTIONARY
  5
17
102
{ACAD_REACTORS
330
C
102
}
100
AcDbDictionary
280
0
281
1
  3
Standard
350
18
  0
DICTIONARY
  5
19
102
{ACAD_REACTORS
330
C
102
}
100
AcDbDictionary
281
1
  0
DICTIONARY
  5
1A
102
{ACAD_REACTORS
330
C
102
}
100
AcDbDictionary
281
1
  3
Model
350
4FD
  3
Layout1
350
4FE
  0
ACDBPLACEHOLDER
  5
F
102
{ACAD_REACTORS
330
E
102
}
  0
MLINESTYLE
  5
18
102
{ACAD_REACTORS
330
17
102
}
100
AcDbMlineStyle
  2
STANDARD
 70
0
  3

 62
256
 51
90.0
 52
90.0
 71
2
 49
0.5
 62
256
  6
BYLAYER
 49
-0.5
 62
256
  6
BYLAYER
  0
LAYOUT
  5
4FD
102
{ACAD_REACTORS
330
1A
102
}
100
AcDbPlotSettings
  1

  2
none_device
  4
ANSI_C_(22.00_x_17.00_Inches)
  6

 40
0.0
 41
0.0
 42
0.0
 43
0.0
 44
558.8
 45
431.8
 46
0.0
 47
0.0
 48
0.0
 49
0.0
140
0.0
141
0.0
142
1.0
143
1.0
 70
1024
 72
0
 73
0
 74
0
  7

 75
0
147
1.0
148
0.0
149
0.0
100
AcDbLayout
  1
Model
 70
0
 71
0
 10
0.0
 20
0.0
 11
22.0
 21
17.0
 12
0.0
 22
0.0
 32
0.0
 14
0.0
 24
0.0
 34
0.0
 15
0.0
 25
0.0
 35
0.0
146
0.0
 13
0.0
 23
0.0
 33
0.0
 16
1.0
 26
0.0
 36
0.0
 17
0.0
 27
1.0
 37
0.0
 76
0
330
202
345
0
346
0
  0
LAYOUT
  5
4FE
102
{ACAD_REACTORS
330
1A
102
}
100
AcDbPlotSettings
  1

  2
none_device
  4
ANSI_C_(22.00_x_17.00_Inches)
  6

 40
0.0
 41
0.0
 42
0.0
 43
0.0
 44
558.8
 45
431.8
 46
0.0
 47
0.0
 48
0.0
 49
0.0
140
0.0
141
0.0
142
1.0
143
1.0
 70
0
 72
0
 73
0
 74
0
  7

 75
0
147
1.0
148
0.0
149
0.0
100
AcDbLayout
  1
Layout1
 70
0
 71
1
 10
0.0
 20
0.0
 11
22.0
 21
17.0
 12
0.0
 22
0.0
 32
0.0
 14
0.0
 24
0.0
 34
0.0
 15
0.0
 25
0.0
 35
0.0
146
0.0
 13
0.0
 23
0.0
 33
0.0
 16
1.0
 26
0.0
 36
0.0
 17
0.0
 27
1.0
 37
0.0
 76
0
330
203
345
0
346
0
  0
ENDSEC
  0
EOF
