999
DXF file: E:\BT Custom\CADOUTPUT\_TOP.dxf
999
Pro/ENGINEER 2018400 by Parametric Technology Corporation
  0
SECTION
  2
HEADER
  9
$ACADVER
  1
AC1018
  9
$DWGCODEPAGE
  3
ANSI_1252
  9
$EXTMAX
 10
22.0
 20
17.0
 30
0.0
  9
$EXTMIN
 10
0.0
 20
0.0
 30
0.0
  9
$LIMMIN
 10
0.0
 20
0.0
  9
$LIMMAX
 10
22.0
 20
17.0
  9
$VIEWCTR
 10
11.0
 20
8.5
  9
$VIEWSIZE
 40
17.0
  9
$CLAYER
  8
0
  9
$LTSCALE
 40
1.21
  9
$CELTYPE
  6
BYLAYER
  9
$DIMSCALE
 40
1.0
  9
$DIMASZ
 40
0.1
  9
$DIMEXO
 40
0.0625
  9
$DIMDLI
 40
0.836
  9
$DIMEXE
 40
0.125
  9
$DIMCEN
 40
0.198
  9
$DIMLFAC
 40
1.0
  9
$DIMBLK
  1
_FILLED
  9
$DIMALT
 70
1
  9
$DIMALTD
 70
2
  9
$DIMALTTD
 70
2
  9
$DIMALTF
 40
25.4
  9
$DIMTXT
 40
0.08
  9
$DIMTOL
 70
1
  9
$DIMLIM
 70
0
  9
$DIMTFAC
 40
1.0
  9
$DIMTP
 40
0.001
  9
$DIMTM
 40
0.001
  9
$DIMGAP
 40
0.09
  9
$DIMDSEP
 70
46
  9
$AUNITS
 70
0
  9
$PDMODE
 70
3
  9
$PDSIZE
 40
0.06
  9
$HANDSEED
  5
398
  9
$TILEMODE
 70
1
  9
$MEASUREMENT
 70
0
  9
$INSUNITS
 70
1
  0
ENDSEC
  0
SECTION
  2
CLASSES
  0
CLASS
  1
ACDBDICTIONARYWDFLT
  2
AcDbDictionaryWithDefault
  3
AutoCAD 2000
 90
0
 91
1
280
0
281
0
  0
CLASS
  1
ACDBPLACEHOLDER
  2
AcDbPlaceHolder
  3
AutoCAD 2000
 90
0
 91
1
280
0
281
0
  0
CLASS
  1
LAYOUT
  2
AcDbLayout
  3
AutoCAD 2000
 90
0
 91
0
280
0
281
0
  0
ENDSEC
  0
SECTION
  2
TABLES
  0
TABLE
  2
VPORT
  5
8
100
AcDbSymbolTable
 70
2
  0
VPORT
  5
1F4
100
AcDbSymbolTableRecord
100
AcDbViewportTableRecord
  2
*ACTIVE
 70
0
 10
0.0
 20
0.0
 11
1.0
 21
1.0
 12
11.0
 22
8.5
 13
0.0
 23
0.0
 14
1.0
 24
1.0
 15
0.0
 25
0.0
 16
0.0
 26
0.0
 36
1.0
 17
0.0
 27
0.0
 37
0.0
 40
17.0
 41
1.2941176471
 42
50.0
 43
0.0
 44
0.0
 50
0.0
 51
0.0
 71
0
 72
100
 73
1
 74
1
 75
0
 76
0
 77
0
 78
0
  0
ENDTAB
  0
TABLE
  2
LTYPE
  5
5
100
AcDbSymbolTable
 70
6
  0
LTYPE
  5
14
100
AcDbSymbolTableRecord
100
AcDbLinetypeTableRecord
  2
BYBLOCK
 70
0
  3

 72
65
 73
0
 40
0.0
  0
LTYPE
  5
15
100
AcDbSymbolTableRecord
100
AcDbLinetypeTableRecord
  2
BYLAYER
 70
0
  3

 72
65
 73
0
 40
0.0
  0
LTYPE
  5
16
100
AcDbSymbolTableRecord
100
AcDbLinetypeTableRecord
  2
CONTINUOUS
 70
64
  3
Solid line
 72
65
 73
0
 40
0.0
  0
LTYPE
  5
1F5
100
AcDbSymbolTableRecord
100
AcDbLinetypeTableRecord
  2
CENTER
 70
64
  3
____ _ ____ _ ____ _ ____ _ ____ _ ____ _ ____
 72
65
 73
4
 40
0.6
 49
0.375
 74
0
 49
-0.075
 74
0
 49
0.075
 74
0
 49
-0.075
 74
0
  0
LTYPE
  5
1F6
100
AcDbSymbolTableRecord
100
AcDbLinetypeTableRecord
  2
HIDDEN
 70
64
  3
- - - - - - - - - - - - - - - - - - - -
 72
65
 73
2
 40
0.2
 49
0.1
 74
0
 49
-0.1
 74
0
  0
LTYPE
  5
1F7
100
AcDbSymbolTableRecord
100
AcDbLinetypeTableRecord
  2
PHANTOM
 70
64
  3
_____ _ _ _____ _ _ _____ _ _ _____
 72
65
 73
6
 40
0.8
 49
0.45
 74
0
 49
-0.05
 74
0
 49
0.1
 74
0
 49
-0.05
 74
0
 49
0.1
 74
0
 49
-0.05
 74
0
  0
LTYPE
  5
1F8
100
AcDbSymbolTableRecord
100
AcDbLinetypeTableRecord
  2
DOT
 70
64
  3
. . . . . . . . . . . . . . . . . . . .
 72
65
 73
2
 40
0.2
 49
0.1
 74
0
 49
-0.1
 74
0
  0
LTYPE
  5
1F9
100
AcDbSymbolTableRecord
100
AcDbLinetypeTableRecord
  2
DASHED
 70
64
  3
- - - - - - - - - - - - - - - - - - - -
 72
65
 73
2
 40
0.2
 49
0.1
 74
0
 49
-0.1
 74
0
  0
ENDTAB
  0
TABLE
  2
LAYER
  5
2
100
AcDbSymbolTable
 70
36
  0
LAYER
  5
10
100
AcDbSymbolTableRecord
100
AcDbLayerTableRecord
  2
0
 70
0
 62
7
  6
CONTINUOUS
370
-3
390
F
  0
LAYER
  5
1FA
100
AcDbSymbolTableRecord
100
AcDbLayerTableRecord
  2
DEFAULT_1
 70
0
 62
7
  6
CENTER
370
-3
390
F
  0
LAYER
  5
1FB
100
AcDbSymbolTableRecord
100
AcDbLayerTableRecord
  2
DEFAULT_2
 70
0
 62
8
  6
HIDDEN
370
-3
390
F
  0
LAYER
  5
1FC
100
AcDbSymbolTableRecord
100
AcDbLayerTableRecord
  2
DEFAULT_3
 70
0
 62
7
  6
PHANTOM
370
-3
390
F
  0
LAYER
  5
1FD
100
AcDbSymbolTableRecord
100
AcDbLayerTableRecord
  2
ALL_FEATURES
 70
0
 62
7
  6
CONTINUOUS
370
-3
390
F
  0
LAYER
  5
1FE
100
AcDbSymbolTableRecord
100
AcDbLayerTableRecord
  2
AXES_FEATURES
 70
0
 62
7
  6
CONTINUOUS
370
-3
390
F
  0
LAYER
  5
1FF
100
AcDbSymbolTableRecord
100
AcDbLayerTableRecord
  2
DIMENSIONS
 70
0
 62
7
  6
CONTINUOUS
370
-3
390
F
  0
ENDTAB
  0
TABLE
  2
STYLE
  5
3
100
AcDbSymbolTable
 70
1
  0
STYLE
  5
11
100
AcDbSymbolTableRecord
100
AcDbTextStyleTableRecord
  2
STANDARD
 70
0
 40
0.0
 41
0.8
 50
0.0
 71
0
 42
0.2
  3
txt
  4

  0
STYLE
  5
200
100
AcDbSymbolTableRecord
100
AcDbTextStyleTableRecord
  2
TEXTSTYLE_1
 70
0
 40
0.0
 41
0.8
 50
0.0
 71
0
 42
0.2
  3
gdt
  4

  0
ENDTAB
  0
TABLE
  2
VIEW
  5
6
100
AcDbSymbolTable
 70
0
  0
ENDTAB
  0
TABLE
  2
UCS
  5
7
100
AcDbSymbolTable
 70
0
  0
ENDTAB
  0
TABLE
  2
APPID
  5
9
100
AcDbSymbolTable
 70
1
  0
APPID
  5
201
100
AcDbSymbolTableRecord
100
AcDbRegAppTableRecord
  2
ACAD
 70
0
  0
ENDTAB
  0
TABLE
  2
BLOCK_RECORD
  5
1
100
AcDbSymbolTable
 70
0
  0
BLOCK_RECORD
  5
202
100
AcDbSymbolTableRecord
100
AcDbBlockTableRecord
  2
*Model_Space
  0
BLOCK_RECORD
  5
203
100
AcDbSymbolTableRecord
100
AcDbBlockTableRecord
  2
*Paper_Space
  0
BLOCK_RECORD
  5
204
100
AcDbSymbolTableRecord
100
AcDbBlockTableRecord
  2
_FILLED
  0
ENDTAB
  0
TABLE
  2
DIMSTYLE
  5
A
100
AcDbSymbolTable
 70
1
100
AcDbDimStyleTable
 71
0
  0
DIMSTYLE
105
205
100
AcDbSymbolTableRecord
100
AcDbDimStyleTableRecord
  2
STANDARD
 70
0
  3

  4

 40
1.0
 41
0.1
 42
0.0625
 43
0.38
 44
0.125
 45
0.0
 46
0.0
 47
0.001
 48
0.001
140
0.08
141
0.09
142
0.0
143
25.4
144
1.0
145
0.0
146
1.0
147
0.09
 71
1.0
 72
0.0
 73
1
 74
1
 75
0
 76
0
 77
0
 78
4
 79
1
170
1
171
2
172
0
173
0
174
0
175
0
176
0
177
0
178
0
270
2
179
3
271
3
272
3
273
2
274
2
275
0
280
0
281
0
282
0
283
1
284
4
285
0
286
0
287
3
288
0
340
11
278
46
341
204
342
204
343
204
344
204
  0
ENDTAB
  0
ENDSEC
  0
SECTION
  2
BLOCKS
  0
BLOCK
  5
20
100
AcDbEntity
  8
0
100
AcDbBlockBegin
  2
*Model_Space
 70
0
 10
0.0
 20
0.0
 30
0.0
  3
*Model_Space
  1

  0
ENDBLK
  5
21
100
AcDbEntity
  8
0
100
AcDbBlockEnd
  0
BLOCK
  5
1C
100
AcDbEntity
  8
0
100
AcDbBlockBegin
  2
*Paper_Space
 70
0
 10
0.0
 20
0.0
 30
0.0
  3
*Paper_Space
  1

  0
ENDBLK
  5
1D
100
AcDbEntity
  8
0
100
AcDbBlockEnd
  0
BLOCK
  5
206
100
AcDbEntity
  8
0
100
AcDbBlockBegin
  2
_FILLED
 70
64
 10
0.0
 20
0.0
  3
_FILLED
  1

  0
SOLID
  5
207
100
AcDbEntity
  8
0
  6
BYBLOCK
 62
0
100
AcDbTrace
 10
0.0
 20
0.0
 11
-1.0
 21
0.2
 12
-1.0
 22
-0.2
 13
-1.0
 23
-0.2
  0
ENDBLK
  5
208
100
AcDbEntity
  8
0
  6
BYBLOCK
 62
0
100
AcDbBlockEnd
  0
ENDSEC
  0
SECTION
  2
ENTITIES
  0
LINE
  5
209
100
AcDbEntity
  8
0
100
AcDbLine
 62
7
  6
CONTINUOUS
 10
4.4849375113
 20
6.5923318597
 11
4.4849375113
 21
7.4623318607
  0
LINE
  5
20A
100
AcDbEntity
  8
0
100
AcDbLine
 62
9
  6
CONTINUOUS
 10
4.4949375113
 20
7.4623318604
 11
4.4949375113
 21
6.5923318604
  0
LINE
  5
20B
100
AcDbEntity
  8
0
100
AcDbLine
 62
7
  6
CONTINUOUS
 10
4.5149375113
 20
6.6223318604
 11
4.5149375113
 21
7.4323318604
  0
LINE
  5
20C
100
AcDbEntity
  8
0
100
AcDbLine
 62
7
  6
CONTINUOUS
 10
4.5214375113
 20
6.6438318604
 11
4.5214375113
 21
7.4108318604
  0
LINE
  5
20D
100
AcDbEntity
  8
0
100
AcDbLine
 62
9
  6
CONTINUOUS
 10
4.5314375113
 20
7.4108318604
 11
4.5314375113
 21
6.6438318604
  0
LINE
  5
20E
100
AcDbEntity
  8
0
100
AcDbLine
 62
7
  6
CONTINUOUS
 10
4.5349375113
 20
7.4773318604
 11
4.5349375113
 21
7.4552988869
  0
LINE
  5
20F
100
AcDbEntity
  8
0
100
AcDbLine
 62
7
  6
CONTINUOUS
 10
4.5349375113
 20
6.5993648339
 11
4.5349375113
 21
6.5773318604
  0
LINE
  5
210
100
AcDbEntity
  8
0
100
AcDbLine
 62
9
  6
CONTINUOUS
 10
4.5499375113
 20
7.5273318604
 11
4.5499375113
 21
7.5173318604
  0
LINE
  5
211
100
AcDbEntity
  8
0
100
AcDbLine
 62
9
  6
CONTINUOUS
 10
4.5499375113
 20
6.5373318604
 11
4.5499375113
 21
6.5273318604
  0
LINE
  5
212
100
AcDbEntity
  8
0
100
AcDbLine
 62
9
  6
CONTINUOUS
 10
4.6014375113
 20
7.4908318604
 11
4.6014375113
 21
7.4808318604
  0
LINE
  5
213
100
AcDbEntity
  8
0
100
AcDbLine
 62
9
  6
CONTINUOUS
 10
4.6014375113
 20
6.5738318604
 11
4.6014375113
 21
6.5638318604
  0
LINE
  5
214
100
AcDbEntity
  8
0
100
AcDbLine
 62
7
  6
CONTINUOUS
 10
4.6798405713
 20
6.49810738
 11
4.6761875113
 21
6.5273318604
  0
LINE
  5
215
100
AcDbEntity
  8
0
100
AcDbLine
 62
7
  6
CONTINUOUS
 10
4.7799375113
 20
6.4973318604
 11
4.7836875113
 21
6.5273318604
  0
LINE
  5
216
100
AcDbEntity
  8
0
100
AcDbLine
 62
7
  6
CONTINUOUS
 10
4.9499375113
 20
6.4973318604
 11
4.9536875113
 21
6.5273318604
  0
LINE
  5
217
100
AcDbEntity
  8
0
100
AcDbLine
 62
7
  6
CONTINUOUS
 10
4.8499375113
 20
6.4973318604
 11
4.8640052041
 21
6.4621626283
  0
LINE
  5
218
100
AcDbEntity
  8
0
100
AcDbLine
 62
7
  6
CONTINUOUS
 10
5.0199375113
 20
6.4973318604
 11
5.0379490819
 21
6.4523029337
  0
LINE
  5
219
100
AcDbEntity
  8
0
100
AcDbLine
 62
7
  6
CONTINUOUS
 10
4.8499375113
 20
6.4973318604
 11
4.8461875113
 21
6.5273318604
  0
LINE
  5
21A
100
AcDbEntity
  8
0
100
AcDbLine
 62
7
  6
CONTINUOUS
 10
5.0199375113
 20
6.4973318604
 11
5.0161875113
 21
6.5273318604
  0
LINE
  5
21B
100
AcDbEntity
  8
0
100
AcDbLine
 62
7
  6
CONTINUOUS
 10
5.1899375113
 20
6.4973318604
 11
5.1861875113
 21
6.5273318604
  0
LINE
  5
21C
100
AcDbEntity
  8
0
100
AcDbLine
 62
9
  6
CONTINUOUS
 10
5.3684375113
 20
6.5638318604
 11
5.3684375113
 21
6.5738318604
  0
LINE
  5
21D
100
AcDbEntity
  8
0
100
AcDbLine
 62
9
  6
CONTINUOUS
 10
5.3684375113
 20
7.4808318604
 11
5.3684375113
 21
7.4908318604
  0
LINE
  5
21E
100
AcDbEntity
  8
0
100
AcDbLine
 62
9
  6
CONTINUOUS
 10
5.4199375113
 20
6.5273318604
 11
5.4199375113
 21
6.5373318604
  0
LINE
  5
21F
100
AcDbEntity
  8
0
100
AcDbLine
 62
9
  6
CONTINUOUS
 10
5.4199375113
 20
7.5173318604
 11
5.4199375113
 21
7.5273318604
  0
LINE
  5
220
100
AcDbEntity
  8
0
100
AcDbLine
 62
7
  6
CONTINUOUS
 10
5.4349375113
 20
6.5773318604
 11
5.4349375113
 21
6.5993648339
  0
LINE
  5
221
100
AcDbEntity
  8
0
100
AcDbLine
 62
7
  6
CONTINUOUS
 10
5.4349375113
 20
7.4552988869
 11
5.4349375113
 21
7.4773318604
  0
LINE
  5
222
100
AcDbEntity
  8
0
100
AcDbLine
 62
9
  6
CONTINUOUS
 10
5.4384375113
 20
6.6438318604
 11
5.4384375113
 21
7.4108318604
  0
LINE
  5
223
100
AcDbEntity
  8
0
100
AcDbLine
 62
7
  6
CONTINUOUS
 10
5.4484375113
 20
7.4108318604
 11
5.4484375113
 21
6.6438318604
  0
LINE
  5
224
100
AcDbEntity
  8
0
100
AcDbLine
 62
7
  6
CONTINUOUS
 10
5.4549375113
 20
7.4323318604
 11
5.4549375113
 21
6.6223318604
  0
LINE
  5
225
100
AcDbEntity
  8
0
100
AcDbLine
 62
9
  6
CONTINUOUS
 10
5.4749375113
 20
6.5923318604
 11
5.4749375113
 21
7.4623318604
  0
LINE
  5
226
100
AcDbEntity
  8
0
100
AcDbLine
 62
7
  6
CONTINUOUS
 10
5.4849375113
 20
7.4623318611
 11
5.4849375113
 21
6.5923318601
  0
LINE
  5
227
100
AcDbEntity
  8
0
100
AcDbLine
 62
7
  6
CONTINUOUS
 10
5.1199375113
 20
6.4973318604
 11
5.1236875113
 21
6.5273318604
  0
LINE
  5
228
100
AcDbEntity
  8
0
100
AcDbLine
 62
7
  6
CONTINUOUS
 10
5.2900344511
 20
6.4981073792
 11
5.2936875113
 21
6.5273318604
  0
LINE
  5
229
100
AcDbEntity
  8
0
100
AcDbLine
 62
7
  6
CONTINUOUS
 10
4.7627938146
 20
6.4544726188
 11
4.7799375113
 21
6.4973318604
  0
LWPOLYLINE
  5
22A
100
AcDbEntity
  8
0
100
AcDbPolyline
 62
7
  6
CONTINUOUS
 90
3
 70
0
 10
5.2070818306
 20
6.4544728687
 10
5.2083369562
 20
6.45243596
 10
5.2108284122
 20
6.4506365179
  0
LINE
  5
22B
100
AcDbEntity
  8
0
100
AcDbLine
 62
7
  6
CONTINUOUS
 10
5.2070812078
 20
6.454472619
 11
5.1899375113
 21
6.4973318604
  0
LINE
  5
22C
100
AcDbEntity
  8
0
100
AcDbLine
 62
7
  6
CONTINUOUS
 10
5.7453599208
 20
6.7573318604
 11
5.7453599208
 21
7.2973318604
  0
LINE
  5
22D
100
AcDbEntity
  8
0
100
AcDbLine
 62
7
  6
CONTINUOUS
 10
5.7633599208
 20
7.3642135136
 11
5.7633599208
 21
6.690449547
  0
LINE
  5
22E
100
AcDbEntity
  8
0
100
AcDbLine
 62
9
  6
CONTINUOUS
 10
5.7792943252
 20
7.3907124571
 11
5.7792943252
 21
6.6639512637
  0
LINE
  5
22F
100
AcDbEntity
  8
0
100
AcDbLine
 62
9
  6
CONTINUOUS
 10
5.8153599208
 20
6.6378885934
 11
5.8153599208
 21
7.4167751274
  0
LINE
  5
230
100
AcDbEntity
  8
0
100
AcDbLine
 62
9
  6
CONTINUOUS
 10
5.8433599208
 20
6.6063740394
 11
5.8433599208
 21
7.4482896814
  0
LINE
  5
231
100
AcDbEntity
  8
0
100
AcDbLine
 62
9
  6
CONTINUOUS
 10
5.8913599208
 20
6.5264019442
 11
5.8913599208
 21
7.5282617766
  0
LINE
  5
232
100
AcDbEntity
  8
0
100
AcDbLine
 62
9
  6
CONTINUOUS
 10
5.9418454411
 20
7.6565978457
 11
5.9418454411
 21
6.3980658751
  0
LINE
  5
233
100
AcDbEntity
  8
0
100
AcDbLine
 62
9
  6
CONTINUOUS
 10
5.9703786063
 20
7.6773318604
 11
5.9703786063
 21
6.3773318604
  0
LINE
  5
234
100
AcDbEntity
  8
0
100
AcDbLine
 62
9
  6
CONTINUOUS
 10
6.1583599208
 20
6.3773318604
 11
6.1583599208
 21
7.6773318604
  0
LINE
  5
235
100
AcDbEntity
  8
0
100
AcDbLine
 62
7
  6
CONTINUOUS
 10
6.1733599208
 20
6.3923372829
 11
6.1733599208
 21
7.6623264379
  0
LINE
  5
236
100
AcDbEntity
  8
0
100
AcDbLine
 62
7
  6
CONTINUOUS
 10
4.9499375113
 20
6.4973318604
 11
4.9319259406
 21
6.4523029337
  0
LINE
  5
237
100
AcDbEntity
  8
0
100
AcDbLine
 62
7
  6
CONTINUOUS
 10
5.1199375113
 20
6.4973318604
 11
5.1058698184
 21
6.4621626283
  0
LINE
  5
238
100
AcDbEntity
  8
0
100
AcDbLine
 62
7
  6
CONTINUOUS
 10
4.6798405714
 20
6.4981073792
 11
4.6812910544
 21
6.4966071288
  0
LINE
  5
239
100
AcDbEntity
  8
0
100
AcDbLine
 62
7
  6
CONTINUOUS
 10
6.2558599208
 20
7.9573318604
 11
6.2558599208
 21
7.8773318604
  0
LINE
  5
23A
100
AcDbEntity
  8
0
100
AcDbLine
 62
7
  6
CONTINUOUS
 10
6.2558599208
 20
7.8373318604
 11
6.2558599208
 21
7.6748319111
  0
LINE
  5
23B
100
AcDbEntity
  8
0
100
AcDbLine
 62
9
  6
CONTINUOUS
 10
6.5058599208
 20
7.9773318604
 11
6.5058599208
 21
7.5396905584
  0
LINE
  5
23C
100
AcDbEntity
  8
0
100
AcDbLine
 62
9
  6
CONTINUOUS
 10
6.5958599208
 20
7.8373318604
 11
6.5958599208
 21
7.8573318604
  0
LINE
  5
23D
100
AcDbEntity
  8
0
100
AcDbLine
 62
9
  6
CONTINUOUS
 10
6.6158599208
 20
7.8573318604
 11
6.6158599208
 21
7.8773318604
  0
LINE
  5
23E
100
AcDbEntity
  8
0
100
AcDbLine
 62
9
  6
CONTINUOUS
 10
6.6358599208
 20
7.0273318604
 11
6.6358599208
 21
7.4913631094
  0
LINE
  5
23F
100
AcDbEntity
  8
0
100
AcDbLine
 62
9
  6
CONTINUOUS
 10
6.6358599208
 20
7.5110706717
 11
6.6358599208
 21
7.7973318604
  0
LINE
  5
240
100
AcDbEntity
  8
0
100
AcDbLine
 62
7
  6
CONTINUOUS
 10
6.6558599208
 20
7.0273318604
 11
6.6558599208
 21
7.7973318603
  0
LINE
  5
241
100
AcDbEntity
  8
0
100
AcDbLine
 62
7
  6
CONTINUOUS
 10
6.6733599208
 20
7.0273318604
 11
6.6733599208
 21
7.21152673
  0
LINE
  5
242
100
AcDbEntity
  8
0
100
AcDbLine
 62
7
  6
CONTINUOUS
 10
6.6758599208
 20
7.3044599896
 11
6.6758599208
 21
7.7973318604
  0
LWPOLYLINE
  5
243
100
AcDbEntity
  8
0
100
AcDbPolyline
 62
7
  6
CONTINUOUS
 90
7
 70
0
 10
6.2558613828
 20
7.6748319109
 10
6.2544403567
 20
7.6615802153
 10
6.2481739521
 20
7.6448013987
 10
6.2373983546
 20
7.6304809232
 10
6.2230017527
 20
7.6198069285
 10
6.206178951
 20
7.6136595314
 10
6.1933600154
 20
7.6123308118
  0
LINE
  5
244
100
AcDbEntity
  8
0
100
AcDbLine
 62
7
  6
CONTINUOUS
 10
5.8433599208
 20
6.6063740394
 11
5.8153599208
 21
6.6378885934
  0
LINE
  5
245
100
AcDbEntity
  8
0
100
AcDbLine
 62
9
  6
CONTINUOUS
 10
6.6958599208
 20
7.7973318606
 11
6.6958599208
 21
7.6048264493
  0
LINE
  5
246
100
AcDbEntity
  8
0
100
AcDbLine
 62
9
  6
CONTINUOUS
 10
6.6958599208
 20
7.5678177529
 11
6.6958599208
 21
7.3044599896
  0
LINE
  5
247
100
AcDbEntity
  8
0
100
AcDbLine
 62
7
  6
CONTINUOUS
 10
5.8433599208
 20
7.4482896814
 11
5.8153599208
 21
7.4167751274
  0
LINE
  5
248
100
AcDbEntity
  8
0
100
AcDbLine
 62
7
  6
CONTINUOUS
 10
5.2885839681
 20
6.4966071288
 11
5.2900344511
 21
6.4981073792
  0
LINE
  5
249
100
AcDbEntity
  8
0
100
AcDbLine
 62
9
  6
CONTINUOUS
 10
7.9158599208
 20
7.3044599896
 11
7.9158599208
 21
7.5678177529
  0
LINE
  5
24A
100
AcDbEntity
  8
0
100
AcDbLine
 62
9
  6
CONTINUOUS
 10
7.9158599208
 20
7.6048264491
 11
7.9158599208
 21
7.7973318606
  0
LINE
  5
24B
100
AcDbEntity
  8
0
100
AcDbLine
 62
7
  6
CONTINUOUS
 10
7.9358599208
 20
7.3044599896
 11
7.9358599208
 21
7.7973318604
  0
LINE
  5
24C
100
AcDbEntity
  8
0
100
AcDbLine
 62
7
  6
CONTINUOUS
 10
7.9383599208
 20
7.21152673
 11
7.9383599208
 21
7.0273318604
  0
LINE
  5
24D
100
AcDbEntity
  8
0
100
AcDbLine
 62
7
  6
CONTINUOUS
 10
7.9558599208
 20
7.0273318604
 11
7.9558599208
 21
7.7973318603
  0
LINE
  5
24E
100
AcDbEntity
  8
0
100
AcDbLine
 62
9
  6
CONTINUOUS
 10
7.9758599208
 20
7.7973318604
 11
7.9758599208
 21
7.53812169
  0
LINE
  5
24F
100
AcDbEntity
  8
0
100
AcDbLine
 62
9
  6
CONTINUOUS
 10
7.9758599208
 20
7.4913631094
 11
7.9758599208
 21
7.0273318604
  0
LINE
  5
250
100
AcDbEntity
  8
0
100
AcDbLine
 62
9
  6
CONTINUOUS
 10
7.9958599208
 20
7.8773318604
 11
7.9958599208
 21
7.8573318604
  0
LINE
  5
251
100
AcDbEntity
  8
0
100
AcDbLine
 62
9
  6
CONTINUOUS
 10
8.0158599208
 20
7.8573318604
 11
8.0158599208
 21
7.8373318604
  0
LINE
  5
252
100
AcDbEntity
  8
0
100
AcDbLine
 62
9
  6
CONTINUOUS
 10
8.1015710807
 20
7.3041892244
 11
8.1015710807
 21
7.2796051962
  0
LINE
  5
253
100
AcDbEntity
  8
0
100
AcDbLine
 62
9
  6
CONTINUOUS
 10
8.1058598915
 20
7.2633778623
 11
8.1058599208
 21
7.9773318604
  0
LINE
  5
254
100
AcDbEntity
  8
0
100
AcDbLine
 62
7
  6
CONTINUOUS
 10
8.3558599208
 20
7.9573318604
 11
8.3558599208
 21
7.8773318604
  0
LINE
  5
255
100
AcDbEntity
  8
0
100
AcDbLine
 62
7
  6
CONTINUOUS
 10
8.3558599208
 20
7.8373318604
 11
8.3558599208
 21
7.444831929
  0
LINE
  5
256
100
AcDbEntity
  8
0
100
AcDbLine
 62
9
  6
CONTINUOUS
 10
8.4758599208
 20
6.6723318604
 11
8.4758599208
 21
7.3823318604
  0
LINE
  5
257
100
AcDbEntity
  8
0
100
AcDbLine
 62
7
  6
CONTINUOUS
 10
8.4958599208
 20
6.6923405875
 11
8.4958599208
 21
7.3623231333
  0
LINE
  5
258
100
AcDbEntity
  8
0
100
AcDbLine
 62
7
  6
CONTINUOUS
 10
8.5488599208
 20
7.3523312517
 11
8.5488599208
 21
6.7023324691
  0
LWPOLYLINE
  5
259
100
AcDbEntity
  8
0
100
AcDbPolyline
 62
7
  6
CONTINUOUS
 90
3
 70
0
 10
4.7590466387
 20
6.4506365262
 10
4.7615380844
 20
6.4524359729
 10
4.7627931969
 20
6.4544728665
  0
LWPOLYLINE
  5
25A
100
AcDbEntity
  8
0
100
AcDbPolyline
 62
7
  6
CONTINUOUS
 90
3
 70
0
 10
4.7530498134
 20
6.4508696818
 10
4.7560266567
 20
6.4500776254
 10
4.7590466386
 20
6.4506365262
  0
LINE
  5
25B
100
AcDbEntity
  8
0
100
AcDbLine
 62
9
  6
CONTINUOUS
 10
6.619418203
 20
7.5027503793
 11
6.6358599208
 21
7.4913631094
  0
LINE
  5
25C
100
AcDbEntity
  8
0
100
AcDbLine
 62
9
  6
CONTINUOUS
 10
6.6808905957
 20
7.5810812104
 11
6.6958599208
 21
7.5678177529
  0
LINE
  5
25D
100
AcDbEntity
  8
0
100
AcDbLine
 62
9
  6
CONTINUOUS
 10
7.930829246
 20
7.5810812104
 11
7.9158599208
 21
7.5678177529
  0
LINE
  5
25E
100
AcDbEntity
  8
0
100
AcDbLine
 62
7
  6
CONTINUOUS
 10
9.7188599208
 20
5.4573318604
 11
9.3288599208
 21
5.4573318604
  0
LINE
  5
25F
100
AcDbEntity
  8
0
100
AcDbLine
 62
9
  6
CONTINUOUS
 10
9.2988599208
 20
5.4873318604
 11
9.7488599208
 21
5.4873318604
  0
LINE
  5
260
100
AcDbEntity
  8
0
100
AcDbLine
 62
7
  6
CONTINUOUS
 10
5.2108284121
 20
6.4506365179
 11
5.2138484009
 21
6.4500776281
  0
LINE
  5
261
100
AcDbEntity
  8
0
100
AcDbLine
 62
9
  6
CONTINUOUS
 10
6.714068876
 20
7.2961875081
 11
6.6958599208
 21
7.3044599896
  0
LINE
  5
262
100
AcDbEntity
  8
0
100
AcDbLine
 62
9
  6
CONTINUOUS
 10
9.2688599208
 20
6.7023318604
 11
9.2688599208
 21
7.3523318604
  0
LINE
  5
263
100
AcDbEntity
  8
0
100
AcDbLine
 62
7
  6
CONTINUOUS
 10
9.2988599208
 20
5.4873318604
 11
9.2988599208
 21
8.5673318604
  0
LINE
  5
264
100
AcDbEntity
  8
0
100
AcDbLine
 62
9
  6
CONTINUOUS
 10
9.3288599208
 20
8.5973318604
 11
9.3288599208
 21
5.4573318604
  0
LINE
  5
265
100
AcDbEntity
  8
0
100
AcDbLine
 62
9
  6
CONTINUOUS
 10
7.9758599208
 20
7.4913631094
 11
7.9923016386
 21
7.5027503793
  0
LINE
  5
266
100
AcDbEntity
  8
0
100
AcDbLine
 62
9
  6
CONTINUOUS
 10
9.7188599208
 20
5.4573318604
 11
9.7188599208
 21
8.5973318604
  0
LINE
  5
267
100
AcDbEntity
  8
0
100
AcDbLine
 62
7
  6
CONTINUOUS
 10
9.7488599208
 20
5.4873318604
 11
9.7488599208
 21
8.5673318604
  0
LINE
  5
268
100
AcDbEntity
  8
0
100
AcDbLine
 62
7
  6
CONTINUOUS
 10
9.9068383812
 20
9.2273318604
 11
9.9068383812
 21
9.5073318604
  0
LINE
  5
269
100
AcDbEntity
  8
0
100
AcDbLine
 62
9
  6
CONTINUOUS
 10
9.9468383812
 20
9.5073318604
 11
9.9468383812
 21
9.1873318604
  0
LINE
  5
26A
100
AcDbEntity
  8
0
100
AcDbLine
 62
9
  6
CONTINUOUS
 10
7.8976509656
 20
7.2961875081
 11
7.9158599208
 21
7.3044599896
  0
LWPOLYLINE
  5
26B
100
AcDbEntity
  8
0
100
AcDbPolyline
 62
7
  6
CONTINUOUS
 90
7
 70
0
 10
17.8826553922
 20
7.9986418101
 10
17.9566958298
 20
8.0161458353
 10
18.0232513242
 20
8.0529017143
 10
18.0774309211
 20
8.1061590493
 10
18.1154263516
 20
8.1723286612
 10
18.1341103686
 20
8.245960679
 10
18.1345670512
 20
8.3044436711
  0
LINE
  5
26C
100
AcDbEntity
  8
0
100
AcDbLine
 62
7
  6
CONTINUOUS
 10
5.9703786063
 20
6.3773318604
 11
6.1583599208
 21
6.3773318604
  0
LINE
  5
26D
100
AcDbEntity
  8
0
100
AcDbLine
 62
7
  6
CONTINUOUS
 10
6.7130002801
 20
6.4423318604
 11
6.1733599208
 21
6.4423318604
  0
LINE
  5
26E
100
AcDbEntity
  8
0
100
AcDbLine
 62
9
  6
CONTINUOUS
 10
9.7488599208
 20
6.4923318604
 11
9.2988599208
 21
6.4923318604
  0
LINE
  5
26F
100
AcDbEntity
  8
0
100
AcDbLine
 62
7
  6
CONTINUOUS
 10
4.6822989412
 20
6.4973318604
 11
4.7799375113
 21
6.4973318604
  0
LINE
  5
270
100
AcDbEntity
  8
0
100
AcDbLine
 62
7
  6
CONTINUOUS
 10
4.8499375113
 20
6.4973318604
 11
4.9499375113
 21
6.4973318604
  0
LINE
  5
271
100
AcDbEntity
  8
0
100
AcDbLine
 62
7
  6
CONTINUOUS
 10
5.0199375113
 20
6.4973318604
 11
5.1199375113
 21
6.4973318604
  0
LINE
  5
272
100
AcDbEntity
  8
0
100
AcDbLine
 62
7
  6
CONTINUOUS
 10
5.1899375113
 20
6.4973318604
 11
5.2875760845
 21
6.4973318604
  0
LINE
  5
273
100
AcDbEntity
  8
0
100
AcDbLine
 62
7
  6
CONTINUOUS
 10
5.419937512
 20
6.5273318604
 11
4.5499375109
 21
6.5273318604
  0
LINE
  5
274
100
AcDbEntity
  8
0
100
AcDbLine
 62
9
  6
CONTINUOUS
 10
4.5499375113
 20
6.5373318604
 11
5.4199375113
 21
6.5373318604
  0
LINE
  5
275
100
AcDbEntity
  8
0
100
AcDbLine
 62
7
  6
CONTINUOUS
 10
5.3899375113
 20
6.5573318604
 11
4.5799375113
 21
6.5573318604
  0
LINE
  5
276
100
AcDbEntity
  8
0
100
AcDbLine
 62
7
  6
CONTINUOUS
 10
5.3684375113
 20
6.5638318604
 11
4.6014375113
 21
6.5638318604
  0
LINE
  5
277
100
AcDbEntity
  8
0
100
AcDbLine
 62
7
  6
CONTINUOUS
 10
10.2793383812
 20
7.0223318605
 11
10.2793383812
 21
9.1773318604
  0
LINE
  5
278
100
AcDbEntity
  8
0
100
AcDbLine
 62
7
  6
CONTINUOUS
 10
10.3068383812
 20
9.1773318604
 11
10.3068383812
 21
9.1873318604
  0
LINE
  5
279
100
AcDbEntity
  8
0
100
AcDbLine
 62
9
  6
CONTINUOUS
 10
10.3193383812
 20
9.1773318604
 11
10.3193383812
 21
6.9823318604
  0
LINE
  5
27A
100
AcDbEntity
  8
0
100
AcDbLine
 62
9
  6
CONTINUOUS
 10
10.4768383812
 20
9.1873318604
 11
10.4768383812
 21
9.1773318604
  0
LINE
  5
27B
100
AcDbEntity
  8
0
100
AcDbLine
 62
9
  6
CONTINUOUS
 10
8.0929811395
 20
7.3012004659
 11
8.1015699548
 21
7.3041888327
  0
LINE
  5
27C
100
AcDbEntity
  8
0
100
AcDbLine
 62
9
  6
CONTINUOUS
 10
4.6014375113
 20
6.5738318604
 11
5.3684375113
 21
6.5738318604
  0
LINE
  5
27D
100
AcDbEntity
  8
0
100
AcDbLine
 62
7
  6
CONTINUOUS
 10
4.5349375113
 20
6.5773318604
 11
4.5569704848
 21
6.5773318604
  0
LINE
  5
27E
100
AcDbEntity
  8
0
100
AcDbLine
 62
7
  6
CONTINUOUS
 10
5.4129045378
 20
6.5773318604
 11
5.4349375113
 21
6.5773318604
  0
LINE
  5
27F
100
AcDbEntity
  8
0
100
AcDbLine
 62
9
  6
CONTINUOUS
 10
4.4849375113
 20
6.5923318604
 11
4.4949375113
 21
6.5923318604
  0
LINE
  5
280
100
AcDbEntity
  8
0
100
AcDbLine
 62
9
  6
CONTINUOUS
 10
5.4749375113
 20
6.5923318604
 11
5.4849375113
 21
6.5923318604
  0
LINE
  5
281
100
AcDbEntity
  8
0
100
AcDbLine
 62
9
  6
CONTINUOUS
 10
4.5214375113
 20
6.6438318604
 11
4.5314375113
 21
6.6438318604
  0
LINE
  5
282
100
AcDbEntity
  8
0
100
AcDbLine
 62
9
  6
CONTINUOUS
 10
5.4384375113
 20
6.6438318604
 11
5.4484375113
 21
6.6438318604
  0
LINE
  5
283
100
AcDbEntity
  8
0
100
AcDbLine
 62
9
  6
CONTINUOUS
 10
4.3708562356
 20
6.6577428193
 11
4.4849375113
 21
6.6577456031
  0
LINE
  5
284
100
AcDbEntity
  8
0
100
AcDbLine
 62
7
  6
CONTINUOUS
 10
8.0609783454
 20
6.6723318604
 11
8.4758599208
 21
6.6723318604
  0
LINE
  5
285
100
AcDbEntity
  8
0
100
AcDbLine
 62
7
  6
CONTINUOUS
 10
4.4849375113
 20
6.7023318604
 11
4.3970702357
 21
6.7023318604
  0
LINE
  5
286
100
AcDbEntity
  8
0
100
AcDbLine
 62
7
  6
CONTINUOUS
 10
8.5488599208
 20
6.7023318604
 11
9.2688599208
 21
6.7023318604
  0
LINE
  5
287
100
AcDbEntity
  8
0
100
AcDbLine
 62
7
  6
CONTINUOUS
 10
9.7188599208
 20
6.7423318604
 11
9.3288599208
 21
6.7423318604
  0
LINE
  5
288
100
AcDbEntity
  8
0
100
AcDbLine
 62
9
  6
CONTINUOUS
 10
9.2988599208
 20
6.7723318604
 11
9.7488599208
 21
6.7723318604
  0
LINE
  5
289
100
AcDbEntity
  8
0
100
AcDbLine
 62
7
  6
CONTINUOUS
 10
5.7453599208
 20
6.7798318604
 11
5.7633599208
 21
6.7798318604
  0
LINE
  5
28A
100
AcDbEntity
  8
0
100
AcDbLine
 62
7
  6
CONTINUOUS
 10
8.4958599208
 20
6.8382037314
 11
8.5488599208
 21
6.8382037314
  0
LINE
  5
28B
100
AcDbEntity
  8
0
100
AcDbLine
 62
7
  6
CONTINUOUS
 10
11.5943383811
 20
6.9823318604
 11
10.3193383812
 21
6.9823318604
  0
LINE
  5
28C
100
AcDbEntity
  8
0
100
AcDbLine
 62
9
  6
CONTINUOUS
 10
10.2793383812
 20
7.0223318604
 11
11.6343383812
 21
7.0223318604
  0
LINE
  5
28D
100
AcDbEntity
  8
0
100
AcDbLine
 62
9
  6
CONTINUOUS
 10
8.148360026
 20
7.0273318603
 11
8.1408599208
 21
7.0273318603
  0
LINE
  5
28E
100
AcDbEntity
  8
0
100
AcDbLine
 62
9
  6
CONTINUOUS
 10
6.4658599208
 20
7.0273318634
 11
6.4708599208
 21
7.0273318634
  0
LINE
  5
28F
100
AcDbEntity
  8
0
100
AcDbLine
 62
9
  6
CONTINUOUS
 10
6.6358599208
 20
7.0273318604
 11
6.6558599208
 21
7.0273318604
  0
LINE
  5
290
100
AcDbEntity
  8
0
100
AcDbLine
 62
9
  6
CONTINUOUS
 10
7.9558599208
 20
7.0273318604
 11
7.9758599208
 21
7.0273318604
  0
LINE
  5
291
100
AcDbEntity
  8
0
100
AcDbLine
 62
7
  6
CONTINUOUS
 10
4.3709109504
 20
6.6863792141
 11
4.276645353
 21
6.6772239974
  0
LINE
  5
292
100
AcDbEntity
  8
0
100
AcDbLine
 62
7
  6
CONTINUOUS
 10
6.6854828489
 20
6.9111739202
 11
7.9378284959
 21
7.0328036142
  0
LINE
  5
293
100
AcDbEntity
  8
0
100
AcDbLine
 62
7
  6
CONTINUOUS
 10
9.7488599208
 20
7.2086937117
 11
10.2793383812
 21
7.2602145781
  0
LINE
  5
294
100
AcDbEntity
  8
0
100
AcDbLine
 62
7
  6
CONTINUOUS
 10
11.6343383812
 20
7.3918142174
 11
11.8594874414
 21
7.4136810329
  0
LINE
  5
295
100
AcDbEntity
  8
0
100
AcDbLine
 62
7
  6
CONTINUOUS
 10
12.0819368889
 20
7.435279749
 11
15.9856270268
 21
7.8144184942
  0
LINE
  5
296
100
AcDbEntity
  8
0
100
AcDbLine
 62
7
  6
CONTINUOUS
 10
11.6343383812
 20
7.3918201981
 11
12.0819368889
 21
7.435279749
  0
LINE
  5
297
100
AcDbEntity
  8
0
100
AcDbLine
 62
7
  6
CONTINUOUS
 10
15.9604891169
 20
7.8119764875
 11
16.6123203949
 21
7.8752783632
  0
LINE
  5
298
100
AcDbEntity
  8
0
100
AcDbLine
 62
7
  6
CONTINUOUS
 10
17.2791890079
 20
7.9400490775
 11
17.8344866806
 21
7.9939834229
  0
LWPOLYLINE
  5
299
100
AcDbEntity
  8
0
100
AcDbPolyline
 62
7
  6
CONTINUOUS
 90
4
 70
0
 10
16.3565411112
 20
7.8504401908
 10
16.6974293965
 20
7.883543114
 10
17.0058216218
 20
7.9134942799
 10
17.2791890079
 20
7.9400490775
  0
LINE
  5
29A
100
AcDbEntity
  8
0
100
AcDbLine
 62
7
  6
CONTINUOUS
 10
17.8344866806
 20
7.9939834229
 11
17.8826553922
 21
7.9986418101
  0
LINE
  5
29B
100
AcDbEntity
  8
0
100
AcDbLine
 62
7
  6
CONTINUOUS
 10
8.4958599208
 20
7.2164599894
 11
8.5488599208
 21
7.2164599894
  0
LINE
  5
29C
100
AcDbEntity
  8
0
100
AcDbLine
 62
7
  6
CONTINUOUS
 10
5.7453599208
 20
7.2748318604
 11
5.7633599208
 21
7.2748318604
  0
LINE
  5
29D
100
AcDbEntity
  8
0
100
AcDbLine
 62
9
  6
CONTINUOUS
 10
9.7488599208
 20
7.2823318604
 11
9.2988599208
 21
7.2823318604
  0
LINE
  5
29E
100
AcDbEntity
  8
0
100
AcDbLine
 62
9
  6
CONTINUOUS
 10
8.1015728116
 20
7.3041892244
 11
8.1058599208
 21
7.3041892244
  0
LINE
  5
29F
100
AcDbEntity
  8
0
100
AcDbLine
 62
9
  6
CONTINUOUS
 10
6.6758599208
 20
7.3044599896
 11
6.6958599208
 21
7.3044599896
  0
LINE
  5
2A0
100
AcDbEntity
  8
0
100
AcDbLine
 62
9
  6
CONTINUOUS
 10
7.9158599208
 20
7.3044599896
 11
7.9358599208
 21
7.3044599896
  0
LINE
  5
2A1
100
AcDbEntity
  8
0
100
AcDbLine
 62
7
  6
CONTINUOUS
 10
9.3288599208
 20
7.3123318604
 11
9.7188599208
 21
7.3123318604
  0
LINE
  5
2A2
100
AcDbEntity
  8
0
100
AcDbLine
 62
7
  6
CONTINUOUS
 10
4.3970702357
 20
7.3523318604
 11
4.4849375113
 21
7.3523318604
  0
LINE
  5
2A3
100
AcDbEntity
  8
0
100
AcDbLine
 62
7
  6
CONTINUOUS
 10
8.5488599208
 20
7.3523318604
 11
9.2688599208
 21
7.3523318604
  0
LINE
  5
2A4
100
AcDbEntity
  8
0
100
AcDbLine
 62
7
  6
CONTINUOUS
 10
8.4183599317
 20
7.3823318604
 11
8.4758599208
 21
7.3823318604
  0
LINE
  5
2A5
100
AcDbEntity
  8
0
100
AcDbLine
 62
9
  6
CONTINUOUS
 10
4.4849375113
 20
7.3969182226
 11
4.3708562356
 21
7.3969209015
  0
LINE
  5
2A6
100
AcDbEntity
  8
0
100
AcDbLine
 62
9
  6
CONTINUOUS
 10
5.4484375113
 20
7.4108318604
 11
5.4384375113
 21
7.4108318604
  0
LINE
  5
2A7
100
AcDbEntity
  8
0
100
AcDbLine
 62
9
  6
CONTINUOUS
 10
4.5314375113
 20
7.4108318604
 11
4.5214375113
 21
7.4108318604
  0
LINE
  5
2A8
100
AcDbEntity
  8
0
100
AcDbLine
 62
9
  6
CONTINUOUS
 10
5.4849375113
 20
7.4623318604
 11
5.4749375113
 21
7.4623318604
  0
LINE
  5
2A9
100
AcDbEntity
  8
0
100
AcDbLine
 62
9
  6
CONTINUOUS
 10
4.4949375113
 20
7.4623318604
 11
4.4849375113
 21
7.4623318604
  0
LINE
  5
2AA
100
AcDbEntity
  8
0
100
AcDbLine
 62
7
  6
CONTINUOUS
 10
5.4349375113
 20
7.4773318604
 11
5.4129045378
 21
7.4773318604
  0
LINE
  5
2AB
100
AcDbEntity
  8
0
100
AcDbLine
 62
7
  6
CONTINUOUS
 10
4.5569704848
 20
7.4773318604
 11
4.5349375113
 21
7.4773318604
  0
LINE
  5
2AC
100
AcDbEntity
  8
0
100
AcDbLine
 62
9
  6
CONTINUOUS
 10
5.3684375113
 20
7.4808318604
 11
4.6014375113
 21
7.4808318604
  0
LINE
  5
2AD
100
AcDbEntity
  8
0
100
AcDbLine
 62
7
  6
CONTINUOUS
 10
4.6014375113
 20
7.4908318604
 11
5.3684375113
 21
7.4908318604
  0
LINE
  5
2AE
100
AcDbEntity
  8
0
100
AcDbLine
 62
9
  6
CONTINUOUS
 10
7.9758599208
 20
7.4913631094
 11
7.9558599208
 21
7.4913631094
  0
LINE
  5
2AF
100
AcDbEntity
  8
0
100
AcDbLine
 62
9
  6
CONTINUOUS
 10
6.6558599208
 20
7.4913631094
 11
6.6358599208
 21
7.4913631094
  0
LINE
  5
2B0
100
AcDbEntity
  8
0
100
AcDbLine
 62
7
  6
CONTINUOUS
 10
4.5799375113
 20
7.4973318604
 11
5.3899375113
 21
7.4973318604
  0
LINE
  5
2B1
100
AcDbEntity
  8
0
100
AcDbLine
 62
9
  6
CONTINUOUS
 10
5.4199375113
 20
7.5173318604
 11
4.5499375113
 21
7.5173318604
  0
LINE
  5
2B2
100
AcDbEntity
  8
0
100
AcDbLine
 62
7
  6
CONTINUOUS
 10
4.5499375105
 20
7.5273318604
 11
5.4199375116
 21
7.5273318604
  0
LINE
  5
2B3
100
AcDbEntity
  8
0
100
AcDbLine
 62
9
  6
CONTINUOUS
 10
7.9558599208
 20
7.538121679
 11
7.9758599208
 21
7.538121679
  0
LINE
  5
2B4
100
AcDbEntity
  8
0
100
AcDbLine
 62
9
  6
CONTINUOUS
 10
6.6358599208
 20
7.5396905584
 11
6.5058599208
 21
7.5396905584
  0
LWPOLYLINE
  5
2B5
100
AcDbEntity
  8
0
100
AcDbPolyline
 62
7
  6
CONTINUOUS
 90
7
 70
0
 10
8.4183599314
 20
7.3823308903
 10
8.4055344096
 20
7.3836609816
 10
8.3887126492
 20
7.3898099305
 10
8.3743174077
 20
7.4004849561
 10
8.3635432938
 20
7.4148059014
 10
8.3572783291
 20
7.4315846129
 10
8.3558582358
 20
7.4448319287
  0
LINE
  5
2B6
100
AcDbEntity
  8
0
100
AcDbLine
 62
9
  6
CONTINUOUS
 10
11.4368383812
 20
9.1773318604
 11
11.4368383812
 21
9.1873318604
  0
LINE
  5
2B7
100
AcDbEntity
  8
0
100
AcDbLine
 62
9
  6
CONTINUOUS
 10
11.5943383812
 20
6.9823318604
 11
11.5943383812
 21
9.1773318604
  0
LINE
  5
2B8
100
AcDbEntity
  8
0
100
AcDbLine
 62
7
  6
CONTINUOUS
 10
5.2138484009
 20
6.4500776281
 11
5.2168252448
 21
6.4508697001
  0
LINE
  5
2B9
100
AcDbEntity
  8
0
100
AcDbLine
 62
7
  6
CONTINUOUS
 10
17.8285249199
 20
8.5560562265
 11
17.780351183
 21
8.5513576836
  0
LINE
  5
2BA
100
AcDbEntity
  8
0
100
AcDbLine
 62
7
  6
CONTINUOUS
 10
12.0277665905
 20
7.9926653913
 11
11.6343383812
 21
7.9544445998
  0
LINE
  5
2BB
100
AcDbEntity
  8
0
100
AcDbLine
 62
9
  6
CONTINUOUS
 10
11.6343383812
 20
7.67313168
 11
18.1345670512
 21
8.3044436711
  0
LINE
  5
2BC
100
AcDbEntity
  8
0
100
AcDbLine
 62
7
  6
CONTINUOUS
 10
4.4849375113
 20
7.2600885706
 11
4.2225120196
 21
7.2346014119
  0
LINE
  5
2BD
100
AcDbEntity
  8
0
100
AcDbLine
 62
7
  6
CONTINUOUS
 10
5.7082136431
 20
7.3788949895
 11
5.7797671293
 21
7.3858443718
  0
LINE
  5
2BE
100
AcDbEntity
  8
0
100
AcDbLine
 62
7
  6
CONTINUOUS
 10
6.6578256958
 20
7.4711227412
 11
6.6758599208
 21
7.4728742523
  0
LINE
  5
2BF
100
AcDbEntity
  8
0
100
AcDbLine
 62
7
  6
CONTINUOUS
 10
6.8789580283
 20
7.4925994461
 11
7.635668982
 21
7.5660923528
  0
LINE
  5
2C0
100
AcDbEntity
  8
0
100
AcDbLine
 62
7
  6
CONTINUOUS
 10
7.936781564
 20
7.5953368599
 11
7.9558599208
 21
7.5971897786
  0
LINE
  5
2C1
100
AcDbEntity
  8
0
100
AcDbLine
 62
7
  6
CONTINUOUS
 10
8.3558599208
 20
7.6360383806
 11
9.2988599208
 21
7.7276239598
  0
LINE
  5
2C2
100
AcDbEntity
  8
0
100
AcDbLine
 62
7
  6
CONTINUOUS
 10
9.7488599208
 20
7.771328637
 11
10.2793383812
 21
7.8228495035
  0
LINE
  5
2C3
100
AcDbEntity
  8
0
100
AcDbLine
 62
7
  6
CONTINUOUS
 10
16.9516763806
 20
8.4708834854
 11
12.0277665905
 21
7.9926653913
  0
LWPOLYLINE
  5
2C4
100
AcDbEntity
  8
0
100
AcDbPolyline
 62
7
  6
CONTINUOUS
 90
3
 70
0
 10
17.650572126
 20
8.5387570956
 10
17.2250466435
 20
8.4974286712
 10
16.9516763806
 20
8.4708834854
  0
LINE
  5
2C5
100
AcDbEntity
  8
0
100
AcDbLine
 62
7
  6
CONTINUOUS
 10
17.7859149359
 20
8.5519003347
 11
17.650572126
 21
8.5387570956
  0
LINE
  5
2C6
100
AcDbEntity
  8
0
100
AcDbLine
 62
9
  6
CONTINUOUS
 10
9.2988599208
 20
7.5623318604
 11
9.7488599208
 21
7.5623318604
  0
LINE
  5
2C7
100
AcDbEntity
  8
0
100
AcDbLine
 62
9
  6
CONTINUOUS
 10
7.9358599208
 20
7.5678177529
 11
7.9158599208
 21
7.5678177529
  0
LINE
  5
2C8
100
AcDbEntity
  8
0
100
AcDbLine
 62
9
  6
CONTINUOUS
 10
6.6958599208
 20
7.5678177529
 11
6.6758599208
 21
7.5678177529
  0
LINE
  5
2C9
100
AcDbEntity
  8
0
100
AcDbLine
 62
9
  6
CONTINUOUS
 10
6.5058599209
 20
7.5944297356
 11
6.6558599208
 21
7.5944297356
  0
LINE
  5
2CA
100
AcDbEntity
  8
0
100
AcDbLine
 62
9
  6
CONTINUOUS
 10
6.6758599208
 20
7.6048264347
 11
6.6958599208
 21
7.6048264347
  0
LINE
  5
2CB
100
AcDbEntity
  8
0
100
AcDbLine
 62
9
  6
CONTINUOUS
 10
7.9158599208
 20
7.6048264491
 11
7.9358599208
 21
7.6048264491
  0
LINE
  5
2CC
100
AcDbEntity
  8
0
100
AcDbLine
 62
7
  6
CONTINUOUS
 10
6.1933600146
 20
7.6123318604
 11
6.1733599208
 21
7.6123318604
  0
LINE
  5
2CD
100
AcDbEntity
  8
0
100
AcDbLine
 62
7
  6
CONTINUOUS
 10
5.9703786063
 20
7.6773318604
 11
6.1583599208
 21
7.6773318604
  0
LINE
  5
2CE
100
AcDbEntity
  8
0
100
AcDbLine
 62
9
  6
CONTINUOUS
 10
7.9758599208
 20
7.7973318604
 11
7.9558599208
 21
7.7973318604
  0
LINE
  5
2CF
100
AcDbEntity
  8
0
100
AcDbLine
 62
9
  6
CONTINUOUS
 10
7.9358599208
 20
7.7973318604
 11
7.9158599208
 21
7.7973318604
  0
LINE
  5
2D0
100
AcDbEntity
  8
0
100
AcDbLine
 62
9
  6
CONTINUOUS
 10
6.6958599208
 20
7.7973318604
 11
6.6758599208
 21
7.7973318604
  0
LINE
  5
2D1
100
AcDbEntity
  8
0
100
AcDbLine
 62
9
  6
CONTINUOUS
 10
6.6558599208
 20
7.7973318604
 11
6.6358599208
 21
7.7973318604
  0
LINE
  5
2D2
100
AcDbEntity
  8
0
100
AcDbLine
 62
9
  6
CONTINUOUS
 10
8.3558599208
 20
7.8373318604
 11
8.0158599208
 21
7.8373318604
  0
LINE
  5
2D3
100
AcDbEntity
  8
0
100
AcDbLine
 62
9
  6
CONTINUOUS
 10
6.5958599208
 20
7.8373318604
 11
6.2558599208
 21
7.8373318604
  0
LINE
  5
2D4
100
AcDbEntity
  8
0
100
AcDbLine
 62
7
  6
CONTINUOUS
 10
8.3358599208
 20
7.8573318604
 11
7.9958599209
 21
7.8573318604
  0
LINE
  5
2D5
100
AcDbEntity
  8
0
100
AcDbLine
 62
7
  6
CONTINUOUS
 10
6.6158599207
 20
7.8573318604
 11
6.2758599208
 21
7.8573318604
  0
LINE
  5
2D6
100
AcDbEntity
  8
0
100
AcDbLine
 62
9
  6
CONTINUOUS
 10
6.2558599208
 20
7.8773318604
 11
6.6158599209
 21
7.8773318604
  0
LINE
  5
2D7
100
AcDbEntity
  8
0
100
AcDbLine
 62
9
  6
CONTINUOUS
 10
7.9958599207
 20
7.8773318604
 11
8.3558599208
 21
7.8773318604
  0
LINE
  5
2D8
100
AcDbEntity
  8
0
100
AcDbLine
 62
9
  6
CONTINUOUS
 10
8.3558599208
 20
7.9573318604
 11
6.2558599208
 21
7.9573318604
  0
LINE
  5
2D9
100
AcDbEntity
  8
0
100
AcDbLine
 62
7
  6
CONTINUOUS
 10
6.2758604029
 20
7.9773318604
 11
8.3358594387
 21
7.9773318604
  0
LINE
  5
2DA
100
AcDbEntity
  8
0
100
AcDbLine
 62
7
  6
CONTINUOUS
 10
11.6068383812
 20
9.1873318604
 11
11.6068383812
 21
9.1773318604
  0
LINE
  5
2DB
100
AcDbEntity
  8
0
100
AcDbLine
 62
7
  6
CONTINUOUS
 10
11.6343383812
 20
9.1773318604
 11
11.6343383812
 21
7.0223318605
  0
LINE
  5
2DC
100
AcDbEntity
  8
0
100
AcDbLine
 62
9
  6
CONTINUOUS
 10
11.9668383812
 20
9.1873318604
 11
11.9668383812
 21
9.5073318604
  0
LINE
  5
2DD
100
AcDbEntity
  8
0
100
AcDbLine
 62
7
  6
CONTINUOUS
 10
12.0068383812
 20
9.5073318604
 11
12.0068383812
 21
9.2273318604
  0
LINE
  5
2DE
100
AcDbEntity
  8
0
100
AcDbLine
 62
9
  6
CONTINUOUS
 10
9.7488599208
 20
8.5673318604
 11
9.2988599208
 21
8.5673318604
  0
LINE
  5
2DF
100
AcDbEntity
  8
0
100
AcDbLine
 62
7
  6
CONTINUOUS
 10
9.3288599208
 20
8.5973318604
 11
9.7188599208
 21
8.5973318604
  0
LINE
  5
2E0
100
AcDbEntity
  8
0
100
AcDbLine
 62
7
  6
CONTINUOUS
 10
11.6343383812
 20
9.1773318604
 11
10.2793383812
 21
9.1773318604
  0
LINE
  5
2E1
100
AcDbEntity
  8
0
100
AcDbLine
 62
7
  6
CONTINUOUS
 10
11.9668383812
 20
9.1873318604
 11
9.9468383812
 21
9.1873318604
  0
LINE
  5
2E2
100
AcDbEntity
  8
0
100
AcDbLine
 62
9
  6
CONTINUOUS
 10
9.9068383812
 20
9.2273318604
 11
12.0068383812
 21
9.2273318604
  0
LINE
  5
2E3
100
AcDbEntity
  8
0
100
AcDbLine
 62
7
  6
CONTINUOUS
 10
9.9068383812
 20
9.5073318604
 11
12.0068383812
 21
9.5073318604
  0
LWPOLYLINE
  5
2E4
100
AcDbEntity
  8
0
100
AcDbPolyline
 62
7
  6
CONTINUOUS
 90
37
 70
0
 10
18.1345670512
 20
8.3044436711
 10
18.1330135081
 20
8.31732826
 10
18.1302756441
 20
8.3331096875
 10
18.1266848859
 20
8.3485376837
 10
18.122288868
 20
8.3635482348
 10
18.1171382896
 20
8.3780910586
 10
18.1112840444
 20
8.3921291291
 10
18.1047747191
 20
8.405637561
 10
18.0976545675
 20
8.4186020073
 10
18.089962012
 20
8.4310167247
 10
18.0817286802
 20
8.4428824556
 10
18.0729789966
 20
8.4542041997
 10
18.0637618834
 20
8.4649539969
 10
18.0541436122
 20
8.4750933282
 10
18.044174152
 20
8.4846105495
 10
18.0339018953
 20
8.4934993938
 10
18.0233731996
 20
8.5017583562
 10
18.0126320693
 20
8.5093900662
 10
18.0017199643
 20
8.5164006747
 10
17.9906757202
 20
8.5227992752
 10
17.9795355599
 20
8.5285973769
 10
17.9683339571
 20
8.5338080963
 10
17.957115292
 20
8.538441488
 10
17.9459277135
 20
8.5425093023
 10
17.9348169464
 20
8.5460276794
 10
17.923826727
 20
8.5490164541
 10
17.9129986412
 20
8.5514987823
 10
17.9023720696
 20
8.5535007646
 10
17.8919915382
 20
8.5550501345
 10
17.8819143467
 20
8.5561765682
 10
17.8721972151
 20
8.5569146722
 10
17.8628965382
 20
8.5573035995
 10
17.8541050403
 20
8.5573868951
 10
17.8459514898
 20
8.5572174051
 10
17.8386284324
 20
8.5568624364
 10
17.8329855265
 20
8.5564575883
 10
17.830418074
 20
8.5562354663
  0
ARC
  5
2E5
100
AcDbEntity
  8
0
100
AcDbCircle
 62
7
  6
CONTINUOUS
 10
4.8623406914
 20
6.0475027633
 40
1.135
100
AcDbArc
 50
17.9909143882
 51
24.9569771166
  0
ARC
  5
2E6
100
AcDbEntity
  8
0
100
AcDbCircle
 62
7
  6
CONTINUOUS
 10
5.4879118529
 20
6.3386397102
 40
0.445
100
AcDbArc
 50
24.9569771166
 51
36.9881745755
  0
ARC
  5
2E7
100
AcDbEntity
  8
0
100
AcDbCircle
 62
7
  6
CONTINUOUS
 10
5.7033401592
 20
6.5208605069
 40
0.162
100
AcDbArc
 50
46.2526210594
 51
62.0401368612
  0
ARC
  5
2E8
100
AcDbEntity
  8
0
100
AcDbCircle
 62
7
  6
CONTINUOUS
 10
4.6014375113
 20
6.6438318604
 40
0.08
100
AcDbArc
 50
180.0
 51
270.0000000044
  0
ARC
  5
2E9
100
AcDbEntity
  8
0
100
AcDbCircle
 62
7
  6
CONTINUOUS
 10
5.3684375113
 20
6.6438318604
 40
0.08
100
AcDbArc
 50
270.0
 51
360.0
  0
ARC
  5
2EA
100
AcDbEntity
  8
0
100
AcDbCircle
 62
7
  6
CONTINUOUS
 10
5.3699375113
 20
6.6423318604
 40
0.0785
100
AcDbArc
 50
304.0615602456
 51
325.9384397545
  0
ARC
  5
2EB
100
AcDbEntity
  8
0
100
AcDbCircle
 62
7
  6
CONTINUOUS
 10
4.5999375113
 20
6.6423318604
 40
0.0785
100
AcDbArc
 50
214.0615602455
 51
235.9384397544
  0
ARC
  5
2EC
100
AcDbEntity
  8
0
100
AcDbCircle
 62
9
  6
CONTINUOUS
 10
5.3684375113
 20
6.6438318604
 40
0.07
100
AcDbArc
 50
270.0
 51
360.0
  0
ARC
  5
2ED
100
AcDbEntity
  8
0
100
AcDbCircle
 62
9
  6
CONTINUOUS
 10
4.6014375113
 20
6.6438318604
 40
0.07
100
AcDbArc
 50
180.0
 51
270.0
  0
ARC
  5
2EE
100
AcDbEntity
  8
0
100
AcDbCircle
 62
7
  6
CONTINUOUS
 10
4.5499375113
 20
6.5923318604
 40
0.065
100
AcDbArc
 50
180.0000004769
 51
270.0
  0
ARC
  5
2EF
100
AcDbEntity
  8
0
100
AcDbCircle
 62
7
  6
CONTINUOUS
 10
5.4199375113
 20
6.5923318604
 40
0.065
100
AcDbArc
 50
270.0000004769
 51
360.0
  0
ARC
  5
2F0
100
AcDbEntity
  8
0
100
AcDbCircle
 62
7
  6
CONTINUOUS
 10
4.5799375113
 20
6.6223318604
 40
0.065
100
AcDbArc
 50
180.0
 51
270.0
  0
ARC
  5
2F1
100
AcDbEntity
  8
0
100
AcDbCircle
 62
7
  6
CONTINUOUS
 10
5.3899375113
 20
6.6223318604
 40
0.065
100
AcDbArc
 50
270.0
 51
360.0
  0
ARC
  5
2F2
100
AcDbEntity
  8
0
100
AcDbCircle
 62
9
  6
CONTINUOUS
 10
5.4199375113
 20
6.5923318604
 40
0.055
100
AcDbArc
 50
269.9999999998
 51
359.9999999993
  0
ARC
  5
2F3
100
AcDbEntity
  8
0
100
AcDbCircle
 62
9
  6
CONTINUOUS
 10
4.5499375113
 20
6.5923318604
 40
0.055
100
AcDbArc
 50
179.9999999998
 51
269.9999999993
  0
ARC
  5
2F4
100
AcDbEntity
  8
0
100
AcDbCircle
 62
7
  6
CONTINUOUS
 10
5.9703786063
 20
6.4073318604
 40
0.03
100
AcDbArc
 50
197.9909143882
 51
270.0
  0
ARC
  5
2F5
100
AcDbEntity
  8
0
100
AcDbCircle
 62
7
  6
CONTINUOUS
 10
4.3970699702
 20
6.6723318604
 40
0.03
100
AcDbArc
 50
90.0
 51
209.0977698531
  0
ARC
  5
2F6
100
AcDbEntity
  8
0
100
AcDbCircle
 62
9
  6
CONTINUOUS
 10
4.9261317753
 20
6.8596436713
 40
0.4368607173
100
AcDbArc
 50
244.1445137575
 51
244.2923420715
  0
ARC
  5
2F7
100
AcDbEntity
  8
0
100
AcDbCircle
 62
9
  6
CONTINUOUS
 10
4.9249034426
 20
6.8571137212
 40
0.4340483422
100
AcDbArc
 50
243.8991588563
 51
244.0755599114
  0
ARC
  5
2F8
100
AcDbEntity
  8
0
100
AcDbCircle
 62
9
  6
CONTINUOUS
 10
4.9207600347
 20
6.8486713422
 40
0.4246440056
100
AcDbArc
 50
243.2966917625
 51
243.9000525086
  0
ARC
  5
2F9
100
AcDbEntity
  8
0
100
AcDbCircle
 62
9
  6
CONTINUOUS
 10
4.919770395
 20
6.8465199903
 40
0.4222855343
100
AcDbArc
 50
236.2273731716
 51
236.7457169203
  0
ARC
  5
2FA
100
AcDbEntity
  8
0
100
AcDbCircle
 62
9
  6
CONTINUOUS
 10
4.9193451406
 20
6.8458808745
 40
0.4215178713
100
AcDbArc
 50
235.7806032452
 51
236.1949741706
  0
ARC
  5
2FB
100
AcDbEntity
  8
0
100
AcDbCircle
 62
9
  6
CONTINUOUS
 10
4.9192740498
 20
6.8458021664
 40
0.4214130844
100
AcDbArc
 50
236.7486323944
 51
243.301882032
  0
ARC
  5
2FC
100
AcDbEntity
  8
0
100
AcDbCircle
 62
7
  6
CONTINUOUS
 10
4.9849375113
 20
6.8938461379
 40
0.5
100
AcDbArc
 50
297.6312784854
 51
307.3946885821
  0
ARC
  5
2FD
100
AcDbEntity
  8
0
100
AcDbCircle
 62
7
  6
CONTINUOUS
 10
4.9849375113
 20
6.8938461379
 40
0.5
100
AcDbArc
 50
232.6053110643
 51
242.3687214871
  0
ARC
  5
2FE
100
AcDbEntity
  8
0
100
AcDbCircle
 62
7
  6
CONTINUOUS
 10
4.2387583166
 20
6.954861814
 40
0.28
100
AcDbArc
 50
95.5472543386
 51
275.5472543386
  0
ARC
  5
2FF
100
AcDbEntity
  8
0
100
AcDbCircle
 62
7
  6
CONTINUOUS
 10
4.9849375113
 20
6.944297654
 40
0.5
100
AcDbArc
 50
256.5783444203
 51
263.0668168099
  0
ARC
  5
300
100
AcDbEntity
  8
0
100
AcDbCircle
 62
7
  6
CONTINUOUS
 10
4.9849375113
 20
6.944297654
 40
0.5
100
AcDbArc
 50
276.9331831901
 51
283.4216555797
  0
ARC
  5
301
100
AcDbEntity
  8
0
100
AcDbCircle
 62
7
  6
CONTINUOUS
 10
4.9849375113
 20
7.0273318604
 40
0.4705
100
AcDbArc
 50
170.605876241
 51
179.1070722996
  0
ARC
  5
302
100
AcDbEntity
  8
0
100
AcDbCircle
 62
7
  6
CONTINUOUS
 10
4.9849375113
 20
7.0273318604
 40
0.4705
100
AcDbArc
 50
80.8035482511
 51
99.1964517488
  0
ARC
  5
303
100
AcDbEntity
  8
0
100
AcDbCircle
 62
7
  6
CONTINUOUS
 10
4.9849375113
 20
7.0273318604
 40
0.4705
100
AcDbArc
 50
0.8929277004
 51
9.394123759
  0
ARC
  5
304
100
AcDbEntity
  8
0
100
AcDbCircle
 62
7
  6
CONTINUOUS
 10
4.9849375113
 20
7.0273318604
 40
0.4705
100
AcDbArc
 50
180.8929277004
 51
189.394123759
  0
ARC
  5
305
100
AcDbEntity
  8
0
100
AcDbCircle
 62
7
  6
CONTINUOUS
 10
4.9849375113
 20
7.0273318604
 40
0.4705
100
AcDbArc
 50
260.8035482512
 51
279.1964517488
  0
ARC
  5
306
100
AcDbEntity
  8
0
100
AcDbCircle
 62
7
  6
CONTINUOUS
 10
4.9849375113
 20
7.0273318604
 40
0.4705
100
AcDbArc
 50
350.605876241
 51
359.1070722996
  0
ARC
  5
307
100
AcDbEntity
  8
0
100
AcDbCircle
 62
9
  6
CONTINUOUS
 10
4.9688949736
 20
7.175189399
 40
0.7261753906
100
AcDbArc
 50
276.4829002799
 51
276.791532416
  0
ARC
  5
308
100
AcDbEntity
  8
0
100
AcDbCircle
 62
9
  6
CONTINUOUS
 10
4.9996833834
 20
7.163556565
 40
0.7144723699
100
AcDbArc
 50
261.9748515543
 51
262.7671616327
  0
ARC
  5
309
100
AcDbEntity
  8
0
100
AcDbCircle
 62
9
  6
CONTINUOUS
 10
4.9703143999
 20
7.1635006344
 40
0.7144007892
100
AcDbArc
 50
276.789352118
 51
277.2007792813
  0
ARC
  5
30A
100
AcDbEntity
  8
0
100
AcDbCircle
 62
9
  6
CONTINUOUS
 10
4.9995753768
 20
7.1630709694
 40
0.7139770416
100
AcDbArc
 50
262.770853864
 51
263.2050186697
  0
ARC
  5
30B
100
AcDbEntity
  8
0
100
AcDbCircle
 62
9
  6
CONTINUOUS
 10
4.9989158387
 20
7.1573828072
 40
0.7082507994
100
AcDbArc
 50
263.2035543571
 51
263.4979424008
  0
ARC
  5
30C
100
AcDbEntity
  8
0
100
AcDbCircle
 62
9
  6
CONTINUOUS
 10
4.9714118346
 20
7.1549668377
 40
0.705796739
100
AcDbArc
 50
277.1992291075
 51
278.0244097578
  0
ARC
  5
30D
100
AcDbEntity
  8
0
100
AcDbCircle
 62
9
  6
CONTINUOUS
 10
4.9746086195
 20
7.1317304573
 40
0.6823416226
100
AcDbArc
 50
278.0309759718
 51
279.5131605859
  0
ARC
  5
30E
100
AcDbEntity
  8
0
100
AcDbCircle
 62
9
  6
CONTINUOUS
 10
4.993867343
 20
7.1221776988
 40
0.6726867676
100
AcDbArc
 50
260.2495812656
 51
261.9733416933
  0
ARC
  5
30F
100
AcDbEntity
  8
0
100
AcDbCircle
 62
9
  6
CONTINUOUS
 10
4.9881074603
 20
7.0876826901
 40
0.6377145895
100
AcDbArc
 50
259.4028488807
 51
260.1343051484
  0
ARC
  5
310
100
AcDbEntity
  8
0
100
AcDbCircle
 62
9
  6
CONTINUOUS
 10
4.9824104086
 20
7.0833721232
 40
0.6333591237
100
AcDbArc
 50
279.8366107274
 51
280.2660867018
  0
ARC
  5
311
100
AcDbEntity
  8
0
100
AcDbCircle
 62
9
  6
CONTINUOUS
 10
4.9845232256
 20
7.0711755964
 40
0.620980947
100
AcDbArc
 50
279.5343722858
 51
279.8367848802
  0
ARC
  5
312
100
AcDbEntity
  8
0
100
AcDbCircle
 62
9
  6
CONTINUOUS
 10
5.0451148809
 20
6.8566801386
 40
0.4335961789
100
AcDbArc
 50
295.9373404762
 51
296.1143332555
  0
ARC
  5
313
100
AcDbEntity
  8
0
100
AcDbCircle
 62
9
  6
CONTINUOUS
 10
5.0454746251
 20
6.8559380335
 40
0.4327714754
100
AcDbArc
 50
295.7199030393
 51
295.8687455157
  0
ARC
  5
314
100
AcDbEntity
  8
0
100
AcDbCircle
 62
9
  6
CONTINUOUS
 10
5.0475804591
 20
6.8516816128
 40
0.4280226571
100
AcDbArc
 50
296.1124972503
 51
296.705745032
  0
ARC
  5
315
100
AcDbEntity
  8
0
100
AcDbCircle
 62
9
  6
CONTINUOUS
 10
5.0501248967
 20
6.846489822
 40
0.4222491889
100
AcDbArc
 50
303.2543006114
 51
303.7726212963
  0
ARC
  5
316
100
AcDbEntity
  8
0
100
AcDbCircle
 62
9
  6
CONTINUOUS
 10
5.0504735144
 20
6.8459649282
 40
0.4216190754
100
AcDbArc
 50
303.8051494415
 51
304.2193075734
  0
ARC
  5
317
100
AcDbEntity
  8
0
100
AcDbCircle
 62
9
  6
CONTINUOUS
 10
5.0506214587
 20
6.845768923
 40
0.4213740484
100
AcDbArc
 50
296.6976693551
 51
303.2515895483
  0
ARC
  5
318
100
AcDbEntity
  8
0
100
AcDbCircle
 62
7
  6
CONTINUOUS
 10
5.7933599208
 20
6.690449547
 40
0.03
100
AcDbArc
 50
180.0
 51
242.0401199031
  0
ARC
  5
319
100
AcDbEntity
  8
0
100
AcDbCircle
 62
7
  6
CONTINUOUS
 10
5.0349375113
 20
7.0273318604
 40
0.76
100
AcDbArc
 50
20.8095735777
 51
150.902230147
  0
ARC
  5
31A
100
AcDbEntity
  8
0
100
AcDbCircle
 62
7
  6
CONTINUOUS
 10
5.0349375113
 20
7.0273318604
 40
0.76
100
AcDbArc
 50
209.097769853
 51
339.1904264223
  0
ARC
  5
31B
100
AcDbEntity
  8
0
100
AcDbCircle
 62
9
  6
CONTINUOUS
 10
5.0349375113
 20
7.0273318604
 40
0.5878559417
100
AcDbArc
 50
244.2958912961
 51
252.874246812
  0
ARC
  5
31C
100
AcDbEntity
  8
0
100
AcDbCircle
 62
9
  6
CONTINUOUS
 10
5.0349375113
 20
7.0273318604
 40
0.5878559417
100
AcDbArc
 50
259.6824473773
 51
286.6334400709
  0
ARC
  5
31D
100
AcDbEntity
  8
0
100
AcDbCircle
 62
9
  6
CONTINUOUS
 10
5.0349375113
 20
7.0273318604
 40
0.5878559417
100
AcDbArc
 50
295.5609137405
 51
301.5965496395
  0
ARC
  5
31E
100
AcDbEntity
  8
0
100
AcDbCircle
 62
9
  6
CONTINUOUS
 10
5.0349375113
 20
7.0273318604
 40
0.5878559417
100
AcDbArc
 50
312.5361244494
 51
312.9236057318
  0
ARC
  5
31F
100
AcDbEntity
  8
0
100
AcDbCircle
 62
9
  6
CONTINUOUS
 10
5.0349375113
 20
7.0273318604
 40
0.5878559417
100
AcDbArc
 50
320.1279896817
 51
39.8581814418
  0
ARC
  5
320
100
AcDbEntity
  8
0
100
AcDbCircle
 62
9
  6
CONTINUOUS
 10
5.0349375113
 20
7.0273318604
 40
0.5878559417
100
AcDbArc
 50
46.9654782116
 51
47.412311956
  0
ARC
  5
321
100
AcDbEntity
  8
0
100
AcDbCircle
 62
9
  6
CONTINUOUS
 10
5.0349375113
 20
7.0273318604
 40
0.5878559417
100
AcDbArc
 50
58.371563897
 51
121.4985423784
  0
ARC
  5
322
100
AcDbEntity
  8
0
100
AcDbCircle
 62
9
  6
CONTINUOUS
 10
5.0349375113
 20
7.0273318604
 40
0.5491812087
100
AcDbArc
 50
65.8674156566
 51
114.4099571146
  0
ARC
  5
323
100
AcDbEntity
  8
0
100
AcDbCircle
 62
9
  6
CONTINUOUS
 10
5.0349375113
 20
7.0273318604
 40
0.5491812087
100
AcDbArc
 50
325.0602082763
 51
34.7696516962
  0
ARC
  5
324
100
AcDbEntity
  8
0
100
AcDbCircle
 62
9
  6
CONTINUOUS
 10
5.0349375113
 20
7.0273318604
 40
0.5491812087
100
AcDbArc
 50
278.3418100861
 51
286.3241819586
  0
ARC
  5
325
100
AcDbEntity
  8
0
100
AcDbCircle
 62
9
  6
CONTINUOUS
 10
5.0349375113
 20
7.0273318604
 40
0.5491812087
100
AcDbArc
 50
260.612646102
 51
269.2119796467
  0
ARC
  5
326
100
AcDbEntity
  8
0
100
AcDbCircle
 62
9
  6
CONTINUOUS
 10
5.0349375113
 20
7.0273318604
 40
0.5491812087
100
AcDbArc
 50
245.6406645386
 51
250.0529736026
  0
ARC
  5
327
100
AcDbEntity
  8
0
100
AcDbCircle
 62
7
  6
CONTINUOUS
 10
6.1583599208
 20
6.3923318604
 40
0.015
100
AcDbArc
 50
270.0
 51
360.0
  0
ARC
  5
328
100
AcDbEntity
  8
0
100
AcDbCircle
 62
9
  6
CONTINUOUS
 10
7.3058599208
 20
7.0273318604
 40
0.8425
100
AcDbArc
 50
19.1846387988
 51
37.3209145299
  0
ARC
  5
329
100
AcDbEntity
  8
0
100
AcDbCircle
 62
9
  6
CONTINUOUS
 10
7.3058599208
 20
7.0273318604
 40
0.84
100
AcDbArc
 50
43.4320282878
 51
136.5679717013
  0
ARC
  5
32A
100
AcDbEntity
  8
0
100
AcDbCircle
 62
7
  6
CONTINUOUS
 10
7.3058599208
 20
7.0273318604
 40
0.835
100
AcDbArc
 50
41.5423055053
 51
138.4576944947
  0
ARC
  5
32B
100
AcDbEntity
  8
0
100
AcDbCircle
 62
7
  6
CONTINUOUS
 10
7.3058599208
 20
7.0273318604
 40
0.835
100
AcDbArc
 50
145.2941477133
 51
34.7058522863
  0
ARC
  5
32C
100
AcDbEntity
  8
0
100
AcDbCircle
 62
9
  6
CONTINUOUS
 10
7.3058599208
 20
7.0273318604
 40
0.815
100
AcDbArc
 50
41.5423055053
 51
138.4576944947
  0
ARC
  5
32D
100
AcDbEntity
  8
0
100
AcDbCircle
 62
9
  6
CONTINUOUS
 10
7.3058599208
 20
7.0273318604
 40
0.815
100
AcDbArc
 50
145.2941477124
 51
34.7058522876
  0
ARC
  5
32E
100
AcDbEntity
  8
0
100
AcDbCircle
 62
9
  6
CONTINUOUS
 10
7.3058599208
 20
7.0273318604
 40
0.67
100
AcDbArc
 50
24.4326976795
 51
155.5673023205
  0
ARC
  5
32F
100
AcDbEntity
  8
0
100
AcDbCircle
 62
9
  6
CONTINUOUS
 10
7.3058599208
 20
7.0273318604
 40
0.67
100
AcDbArc
 50
180.0
 51
360.0
  0
ARC
  5
330
100
AcDbEntity
  8
0
100
AcDbCircle
 62
7
  6
CONTINUOUS
 10
7.3058599208
 20
7.0273318604
 40
0.65
100
AcDbArc
 50
24.4326976794
 51
155.5673023206
  0
ARC
  5
331
100
AcDbEntity
  8
0
100
AcDbCircle
 62
7
  6
CONTINUOUS
 10
7.3058599208
 20
7.0273318604
 40
0.65
100
AcDbArc
 50
180.0
 51
360.0
  0
ARC
  5
332
100
AcDbEntity
  8
0
100
AcDbCircle
 62
7
  6
CONTINUOUS
 10
7.3058599208
 20
7.0273318604
 40
0.6325
100
AcDbArc
 50
32.8217896251
 51
147.1782103749
  0
ARC
  5
333
100
AcDbEntity
  8
0
100
AcDbCircle
 62
7
  6
CONTINUOUS
 10
7.3058599208
 20
7.0273318604
 40
0.6325
100
AcDbArc
 50
180.0
 51
360.0
  0
ARC
  5
334
100
AcDbEntity
  8
0
100
AcDbCircle
 62
7
  6
CONTINUOUS
 10
7.9583599208
 20
7.21152673
 40
0.02
100
AcDbArc
 50
97.2723223419
 51
180.0
  0
ARC
  5
335
100
AcDbEntity
  8
0
100
AcDbCircle
 62
7
  6
CONTINUOUS
 10
6.6533599208
 20
7.21152673
 40
0.02
100
AcDbArc
 50
0.0
 51
82.7277133363
  0
ARC
  5
336
100
AcDbEntity
  8
0
100
AcDbCircle
 62
7
  6
CONTINUOUS
 10
6.6958599208
 20
7.3044599896
 40
0.02
100
AcDbArc
 50
180.0000000499
 51
335.5673023205
  0
ARC
  5
337
100
AcDbEntity
  8
0
100
AcDbCircle
 62
7
  6
CONTINUOUS
 10
7.9158599208
 20
7.3044599896
 40
0.02
100
AcDbArc
 50
204.4326976795
 51
359.999999975
  0
ARC
  5
338
100
AcDbEntity
  8
0
100
AcDbCircle
 62
7
  6
CONTINUOUS
 10
5.7033401592
 20
7.5338032139
 40
0.162
100
AcDbArc
 50
297.9598631388
 51
313.7473789406
  0
ARC
  5
339
100
AcDbEntity
  8
0
100
AcDbCircle
 62
7
  6
CONTINUOUS
 10
5.3684375113
 20
7.4108318604
 40
0.08
100
AcDbArc
 50
0.0
 51
90.0000000044
  0
ARC
  5
33A
100
AcDbEntity
  8
0
100
AcDbCircle
 62
7
  6
CONTINUOUS
 10
4.6014375113
 20
7.4108318604
 40
0.08
100
AcDbArc
 50
90.0
 51
180.0000000044
  0
ARC
  5
33B
100
AcDbEntity
  8
0
100
AcDbCircle
 62
7
  6
CONTINUOUS
 10
5.3699375113
 20
7.4123318604
 40
0.0785
100
AcDbArc
 50
34.0615602456
 51
55.9384397544
  0
ARC
  5
33C
100
AcDbEntity
  8
0
100
AcDbCircle
 62
7
  6
CONTINUOUS
 10
4.5999375113
 20
7.4123318604
 40
0.0785
100
AcDbArc
 50
124.0615602456
 51
145.9384397545
  0
ARC
  5
33D
100
AcDbEntity
  8
0
100
AcDbCircle
 62
9
  6
CONTINUOUS
 10
4.6014375113
 20
7.4108318604
 40
0.07
100
AcDbArc
 50
90.0
 51
180.0
  0
ARC
  5
33E
100
AcDbEntity
  8
0
100
AcDbCircle
 62
9
  6
CONTINUOUS
 10
5.3684375113
 20
7.4108318604
 40
0.07
100
AcDbArc
 50
0.0
 51
90.0
  0
ARC
  5
33F
100
AcDbEntity
  8
0
100
AcDbCircle
 62
7
  6
CONTINUOUS
 10
4.5499375113
 20
7.4623318604
 40
0.065
100
AcDbArc
 50
90.0000004769
 51
180.0
  0
ARC
  5
340
100
AcDbEntity
  8
0
100
AcDbCircle
 62
7
  6
CONTINUOUS
 10
5.3899375113
 20
7.4323318604
 40
0.065
100
AcDbArc
 50
0.0
 51
90.0
  0
ARC
  5
341
100
AcDbEntity
  8
0
100
AcDbCircle
 62
7
  6
CONTINUOUS
 10
4.5799375113
 20
7.4323318604
 40
0.065
100
AcDbArc
 50
90.0
 51
180.0
  0
ARC
  5
342
100
AcDbEntity
  8
0
100
AcDbCircle
 62
7
  6
CONTINUOUS
 10
5.4199375113
 20
7.4623318604
 40
0.065
100
AcDbArc
 50
0.0000004769
 51
90.0
  0
ARC
  5
343
100
AcDbEntity
  8
0
100
AcDbCircle
 62
9
  6
CONTINUOUS
 10
4.5499375113
 20
7.4623318604
 40
0.055
100
AcDbArc
 50
89.9999999998
 51
179.9999999993
  0
ARC
  5
344
100
AcDbEntity
  8
0
100
AcDbCircle
 62
9
  6
CONTINUOUS
 10
5.4199375113
 20
7.4623318604
 40
0.055
100
AcDbArc
 50
0.0
 51
89.9999999993
  0
ARC
  5
345
100
AcDbEntity
  8
0
100
AcDbCircle
 62
7
  6
CONTINUOUS
 10
5.7933599208
 20
7.3642141738
 40
0.03
100
AcDbArc
 50
117.9598800969
 51
180.0
  0
ARC
  5
346
100
AcDbEntity
  8
0
100
AcDbCircle
 62
7
  6
CONTINUOUS
 10
5.9703786063
 20
7.6473318604
 40
0.03
100
AcDbArc
 50
90.0
 51
162.0090856118
  0
ARC
  5
347
100
AcDbEntity
  8
0
100
AcDbCircle
 62
7
  6
CONTINUOUS
 10
4.3970699702
 20
7.3823318604
 40
0.03
100
AcDbArc
 50
150.902230147
 51
270.0
  0
ARC
  5
348
100
AcDbEntity
  8
0
100
AcDbCircle
 62
7
  6
CONTINUOUS
 10
6.1583599208
 20
7.6623318604
 40
0.015
100
AcDbArc
 50
0.0
 51
90.0
  0
ARC
  5
349
100
AcDbEntity
  8
0
100
AcDbCircle
 62
7
  6
CONTINUOUS
 10
4.8623406914
 20
8.0071609575
 40
1.135
100
AcDbArc
 50
335.0430228834
 51
342.0090856118
  0
ARC
  5
34A
100
AcDbEntity
  8
0
100
AcDbCircle
 62
7
  6
CONTINUOUS
 10
5.4879118529
 20
7.7160240106
 40
0.445
100
AcDbArc
 50
323.0118254245
 51
335.0430228834
  0
ARC
  5
34B
100
AcDbEntity
  8
0
100
AcDbCircle
 62
7
  6
CONTINUOUS
 10
7.8649097639
 20
7.3879158804
 40
0.03275
100
AcDbArc
 50
212.8217896245
 51
270.2327478803
  0
ARC
  5
34C
100
AcDbEntity
  8
0
100
AcDbCircle
 62
7
  6
CONTINUOUS
 10
6.7468100778
 20
7.3879158804
 40
0.03275
100
AcDbArc
 50
269.7740785823
 51
327.1782103757
  0
ARC
  5
34D
100
AcDbEntity
  8
0
100
AcDbCircle
 62
7
  6
CONTINUOUS
 10
6.6958599208
 20
7.5678177529
 40
0.02
100
AcDbArc
 50
138.4576944947
 51
180.0000000003
  0
ARC
  5
34E
100
AcDbEntity
  8
0
100
AcDbCircle
 62
7
  6
CONTINUOUS
 10
7.9158599208
 20
7.5678177529
 40
0.02
100
AcDbArc
 50
0.0
 51
41.5423055053
  0
ARC
  5
34F
100
AcDbEntity
  8
0
100
AcDbCircle
 62
7
  6
CONTINUOUS
 10
7.9758599208
 20
7.4913631094
 40
0.02
100
AcDbArc
 50
34.7058522876
 51
180.0
  0
ARC
  5
350
100
AcDbEntity
  8
0
100
AcDbCircle
 62
7
  6
CONTINUOUS
 10
6.6358599208
 20
7.4913631094
 40
0.02
100
AcDbArc
 50
0.0
 51
145.2941477124
  0
ARC
  5
351
100
AcDbEntity
  8
0
100
AcDbCircle
 62
9
  6
CONTINUOUS
 10
7.9958599208
 20
7.7973318604
 40
0.08
100
AcDbArc
 50
90.0000000906
 51
179.9999998557
  0
ARC
  5
352
100
AcDbEntity
  8
0
100
AcDbCircle
 62
9
  6
CONTINUOUS
 10
6.6158599208
 20
7.7973318604
 40
0.08
100
AcDbArc
 50
0.0000001443
 51
89.9999999095
  0
ARC
  5
353
100
AcDbEntity
  8
0
100
AcDbCircle
 62
7
  6
CONTINUOUS
 10
7.9958599208
 20
7.7973318604
 40
0.06
100
AcDbArc
 50
90.0
 51
180.0000000257
  0
ARC
  5
354
100
AcDbEntity
  8
0
100
AcDbCircle
 62
7
  6
CONTINUOUS
 10
6.6158599208
 20
7.7973318604
 40
0.06
100
AcDbArc
 50
0.0
 51
90.0
  0
ARC
  5
355
100
AcDbEntity
  8
0
100
AcDbCircle
 62
7
  6
CONTINUOUS
 10
8.0158599208
 20
7.7973318604
 40
0.06
100
AcDbArc
 50
90.0000000079
 51
180.0
  0
ARC
  5
356
100
AcDbEntity
  8
0
100
AcDbCircle
 62
7
  6
CONTINUOUS
 10
6.5958599208
 20
7.7973318604
 40
0.06
100
AcDbArc
 50
0.0
 51
89.9999999921
  0
ARC
  5
357
100
AcDbEntity
  8
0
100
AcDbCircle
 62
9
  6
CONTINUOUS
 10
8.0158599208
 20
7.7973318604
 40
0.04
100
AcDbArc
 50
90.0
 51
180.0
  0
ARC
  5
358
100
AcDbEntity
  8
0
100
AcDbCircle
 62
9
  6
CONTINUOUS
 10
6.5958599208
 20
7.7973318604
 40
0.04
100
AcDbArc
 50
0.0
 51
90.0
  0
ARC
  5
359
100
AcDbEntity
  8
0
100
AcDbCircle
 62
7
  6
CONTINUOUS
 10
6.2758599208
 20
7.8773318604
 40
0.02
100
AcDbArc
 50
180.0
 51
270.0
  0
ARC
  5
35A
100
AcDbEntity
  8
0
100
AcDbCircle
 62
7
  6
CONTINUOUS
 10
6.2758599208
 20
7.9573318604
 40
0.02
100
AcDbArc
 50
90.0
 51
180.0
  0
ARC
  5
35B
100
AcDbEntity
  8
0
100
AcDbCircle
 62
7
  6
CONTINUOUS
 10
6.2758599208
 20
7.8373318604
 40
0.02
100
AcDbArc
 50
90.0
 51
180.0
  0
ARC
  5
35C
100
AcDbEntity
  8
0
100
AcDbCircle
 62
7
  6
CONTINUOUS
 10
11.5943383812
 20
7.0223318604
 40
0.04
100
AcDbArc
 50
270.0
 51
360.0
  0
ARC
  5
35D
100
AcDbEntity
  8
0
100
AcDbCircle
 62
7
  6
CONTINUOUS
 10
10.3193383812
 20
7.0223318604
 40
0.04
100
AcDbArc
 50
179.9999999505
 51
270.0
  0
ARC
  5
35E
100
AcDbEntity
  8
0
100
AcDbCircle
 62
7
  6
CONTINUOUS
 10
9.2688599208
 20
6.6723318604
 40
0.03
100
AcDbArc
 50
0.0
 51
90.0
  0
ARC
  5
35F
100
AcDbEntity
  8
0
100
AcDbCircle
 62
7
  6
CONTINUOUS
 10
9.7188599208
 20
5.4873318604
 40
0.03
100
AcDbArc
 50
270.0
 51
360.0
  0
ARC
  5
360
100
AcDbEntity
  8
0
100
AcDbCircle
 62
7
  6
CONTINUOUS
 10
9.7188599208
 20
6.7723318604
 40
0.03
100
AcDbArc
 50
270.0
 51
360.0
  0
ARC
  5
361
100
AcDbEntity
  8
0
100
AcDbCircle
 62
7
  6
CONTINUOUS
 10
9.7188599208
 20
7.2823318604
 40
0.03
100
AcDbArc
 50
0.0
 51
90.0
  0
ARC
  5
362
100
AcDbEntity
  8
0
100
AcDbCircle
 62
7
  6
CONTINUOUS
 10
9.3288599208
 20
7.2823318604
 40
0.03
100
AcDbArc
 50
90.0
 51
180.0
  0
ARC
  5
363
100
AcDbEntity
  8
0
100
AcDbCircle
 62
7
  6
CONTINUOUS
 10
9.3288599208
 20
6.7723318604
 40
0.03
100
AcDbArc
 50
180.0
 51
270.0
  0
ARC
  5
364
100
AcDbEntity
  8
0
100
AcDbCircle
 62
7
  6
CONTINUOUS
 10
9.3288599208
 20
5.4873318604
 40
0.03
100
AcDbArc
 50
180.0
 51
270.0
  0
ARC
  5
365
100
AcDbEntity
  8
0
100
AcDbCircle
 62
7
  6
CONTINUOUS
 10
8.4758599208
 20
6.6923318604
 40
0.02
100
AcDbArc
 50
270.0
 51
360.0
  0
ARC
  5
366
100
AcDbEntity
  8
0
100
AcDbCircle
 62
7
  6
CONTINUOUS
 10
11.9668383812
 20
9.2273318604
 40
0.04
100
AcDbArc
 50
270.0
 51
360.0
  0
ARC
  5
367
100
AcDbEntity
  8
0
100
AcDbCircle
 62
7
  6
CONTINUOUS
 10
9.9468383812
 20
9.2273318604
 40
0.04
100
AcDbArc
 50
180.0
 51
270.0
  0
ARC
  5
368
100
AcDbEntity
  8
0
100
AcDbCircle
 62
7
  6
CONTINUOUS
 10
9.2688599208
 20
7.3823318604
 40
0.03
100
AcDbArc
 50
270.0
 51
360.0
  0
ARC
  5
369
100
AcDbEntity
  8
0
100
AcDbCircle
 62
7
  6
CONTINUOUS
 10
9.7188599208
 20
8.5673318604
 40
0.03
100
AcDbArc
 50
0.0
 51
90.0
  0
ARC
  5
36A
100
AcDbEntity
  8
0
100
AcDbCircle
 62
7
  6
CONTINUOUS
 10
9.3288599208
 20
8.5673318604
 40
0.03
100
AcDbArc
 50
90.0
 51
180.0
  0
ARC
  5
36B
100
AcDbEntity
  8
0
100
AcDbCircle
 62
7
  6
CONTINUOUS
 10
8.3358599208
 20
7.8773318604
 40
0.02
100
AcDbArc
 50
270.0
 51
360.0
  0
ARC
  5
36C
100
AcDbEntity
  8
0
100
AcDbCircle
 62
7
  6
CONTINUOUS
 10
8.3358599208
 20
7.9573318604
 40
0.02
100
AcDbArc
 50
0.0
 51
90.0
  0
ARC
  5
36D
100
AcDbEntity
  8
0
100
AcDbCircle
 62
7
  6
CONTINUOUS
 10
8.4758599208
 20
7.3623318604
 40
0.02
100
AcDbArc
 50
0.0
 51
90.0
  0
ARC
  5
36E
100
AcDbEntity
  8
0
100
AcDbCircle
 62
7
  6
CONTINUOUS
 10
8.3358599208
 20
7.8373318604
 40
0.02
100
AcDbArc
 50
0.0
 51
90.0
  0
SPLINE
  5
36F
100
AcDbEntity
  8
0
100
AcDbSpline
 62
7
  6
CONTINUOUS
 70
0
 71
3
 72
11
 73
7
 74
0
 42
0.0000001
 43
0.0000001
 44
0.0000000001
 40
0.0
 40
0.0
 40
0.0
 40
0.0
 40
0.2388081317
 40
0.4890224177
 40
0.7451855756
 40
1.0
 40
1.0
 40
1.0
 40
1.0
 10
4.868879732
 20
6.4579535455
 30
0.0
 10
4.8683629037
 20
6.4580768778
 30
0.0
 10
4.8673315789
 20
6.4584556916
 30
0.0
 10
4.8659296019
 20
6.4593702206
 30
0.0
 10
4.8647754541
 20
6.4606319718
 30
0.0
 10
4.8642157654
 20
6.4616362251
 30
0.0
 10
4.8640052041
 20
6.4621626283
 30
0.0
  0
SPLINE
  5
370
100
AcDbEntity
  8
0
100
AcDbSpline
 62
7
  6
CONTINUOUS
 70
0
 71
3
 72
13
 73
9
 74
0
 42
0.0000001
 43
0.0000001
 44
0.0000000001
 40
0.0
 40
0.0
 40
0.0
 40
0.0
 40
0.119833513
 40
0.2447307125
 40
0.5000000098
 40
0.7552693015
 40
0.8801664948
 40
1.0
 40
1.0
 40
1.0
 40
1.0
 10
4.9245816213
 20
6.4479538553
 30
0.0
 10
4.9249442342
 20
6.4479097612
 30
0.0
 10
4.9256940941
 20
6.447885189
 30
0.0
 10
4.9272103648
 20
6.4480722796
 30
0.0
 10
4.9290665142
 20
6.4487559262
 30
0.0
 10
4.9305583233
 20
6.4500548369
 30
0.0
 10
4.9314513265
 20
6.4512944437
 30
0.0
 10
4.9317902775
 20
6.451963776
 30
0.0
 10
4.9319259406
 20
6.4523029337
 30
0.0
  0
SPLINE
  5
371
100
AcDbEntity
  8
0
100
AcDbSpline
 62
7
  6
CONTINUOUS
 70
0
 71
3
 72
11
 73
7
 74
0
 42
0.0000001
 43
0.0000001
 44
0.0000000001
 40
0.0
 40
0.0
 40
0.0
 40
0.0
 40
0.2388081317
 40
0.4890224177
 40
0.7451855756
 40
1.0
 40
1.0
 40
1.0
 40
1.0
 10
5.1009952905
 20
6.4579535455
 30
0.0
 10
5.1015121188
 20
6.4580768778
 30
0.0
 10
5.1025434436
 20
6.4584556916
 30
0.0
 10
5.1039454206
 20
6.4593702206
 30
0.0
 10
5.1050995684
 20
6.4606319718
 30
0.0
 10
5.1056592571
 20
6.4616362251
 30
0.0
 10
5.1058698184
 20
6.4621626283
 30
0.0
  0
SPLINE
  5
372
100
AcDbEntity
  8
0
100
AcDbSpline
 62
7
  6
CONTINUOUS
 70
0
 71
3
 72
13
 73
9
 74
0
 42
0.0000001
 43
0.0000001
 44
0.0000000001
 40
0.0
 40
0.0
 40
0.0
 40
0.0
 40
0.119833513
 40
0.2447307125
 40
0.5000000098
 40
0.7552693015
 40
0.8801664948
 40
1.0
 40
1.0
 40
1.0
 40
1.0
 10
5.0452934012
 20
6.4479538553
 30
0.0
 10
5.0449307883
 20
6.4479097612
 30
0.0
 10
5.0441809285
 20
6.447885189
 30
0.0
 10
5.0426646577
 20
6.4480722796
 30
0.0
 10
5.0408085083
 20
6.4487559262
 30
0.0
 10
5.0393166993
 20
6.4500548369
 30
0.0
 10
5.0384236961
 20
6.4512944437
 30
0.0
 10
5.038084745
 20
6.451963776
 30
0.0
 10
5.0379490819
 20
6.4523029337
 30
0.0
  0
SPLINE
  5
373
100
AcDbEntity
  8
0
100
AcDbSpline
 62
9
  6
CONTINUOUS
 70
0
 71
3
 72
9
 73
5
 74
0
 42
0.0000001
 43
0.0000001
 44
0.0000000001
 40
0.0
 40
0.0
 40
0.0
 40
0.0
 40
0.4934117164
 40
1.0
 40
1.0
 40
1.0
 40
1.0
 10
5.2855928567
 20
6.4943384867
 30
0.0
 10
5.2860710822
 20
6.4946983835
 30
0.0
 10
5.2869085981
 20
6.4956118853
 30
0.0
 10
5.2874168657
 20
6.4967383363
 30
0.0
 10
5.2875760598
 20
6.4973318604
 30
0.0
  0
LINE
  5
374
100
AcDbEntity
  8
0
100
AcDbLine
 62
7
  6
CONTINUOUS
 10
5.2875760684
 20
6.4973318604
 11
5.2884764383
 21
6.4974763935
  0
LINE
  5
375
100
AcDbEntity
  8
0
100
AcDbLine
 62
7
  6
CONTINUOUS
 10
5.2884764383
 20
6.4974763935
 11
5.2898137856
 21
6.4979984535
  0
LINE
  5
376
100
AcDbEntity
  8
0
100
AcDbLine
 62
7
  6
CONTINUOUS
 10
5.2898137856
 20
6.4979984535
 11
5.2900344511
 21
6.4981073792
  0
LINE
  5
377
100
AcDbEntity
  8
0
100
AcDbLine
 62
9
  6
CONTINUOUS
 10
5.2850498449
 20
6.4956271057
 11
5.2848525737
 21
6.4954950995
  0
LINE
  5
378
100
AcDbEntity
  8
0
100
AcDbLine
 62
9
  6
CONTINUOUS
 10
5.2347646248
 20
6.4667588376
 11
5.2342975891
 21
6.4665320266
  0
SPLINE
  5
379
100
AcDbEntity
  8
0
100
AcDbSpline
 62
9
  6
CONTINUOUS
 70
0
 71
3
 72
22
 73
18
 74
0
 42
0.0000001
 43
0.0000001
 44
0.0000000001
 40
0.0
 40
0.0
 40
0.0
 40
0.0
 40
0.2010768784
 40
0.3894507214
 40
0.5606032454
 40
0.7099093447
 40
0.7748726569
 40
0.8325711721
 40
0.8824639267
 40
0.9240947713
 40
0.9570131719
 40
0.9700643109
 40
0.9807768614
 40
0.9891350598
 40
0.9951305519
 40
0.9987549829
 40
1.0
 40
1.0
 40
1.0
 40
1.0
 10
5.2332853576
 20
6.4660428185
 30
0.0
 10
5.2315554307
 20
6.4652095232
 30
0.0
 10
5.2281939906
 20
6.4636180219
 30
0.0
 10
5.2233251705
 20
6.4613920014
 30
0.0
 10
5.2188829718
 20
6.4594227036
 30
0.0
 10
5.2155028706
 20
6.4579660634
 30
0.0
 10
5.2131108216
 20
6.4569545206
 30
0.0
 10
5.2115906362
 20
6.4563186981
 30
0.0
 10
5.210274089
 20
6.4557734599
 30
0.0
 10
5.2091747353
 20
6.4553222501
 30
0.0
 10
5.2084000364
 20
6.455006606
 30
0.0
 10
5.2078984374
 20
6.454803189
 30
0.0
 10
5.2076142108
 20
6.4546878101
 30
0.0
 10
5.2073921747
 20
6.454598436
 30
0.0
 10
5.2072333626
 20
6.4545330985
 30
0.0
 10
5.2071365155
 20
6.4544960429
 30
0.0
 10
5.2070940395
 20
6.4544768263
 30
0.0
 10
5.20708271
 20
6.4544732213
 30
0.0
  0
SPLINE
  5
37A
100
AcDbEntity
  8
0
100
AcDbSpline
 62
9
  6
CONTINUOUS
 70
0
 71
3
 72
26
 73
22
 74
0
 42
0.0000001
 43
0.0000001
 44
0.0000000001
 40
0.0
 40
0.0
 40
0.0
 40
0.0
 40
0.0002883934
 40
0.0011745009
 40
0.0026593691
 40
0.0047440414
 40
0.010716321
 40
0.0190772878
 40
0.0297865124
 40
0.0428019874
 40
0.0580817183
 40
0.0755837254
 40
0.1170867177
 40
0.1669438463
 40
0.2246257102
 40
0.2895513288
 40
0.3611403992
 40
0.4388126061
 40
0.6100696896
 40
0.7986526615
 40
1.0
 40
1.0
 40
1.0
 40
1.0
 10
4.7627923262
 20
6.454473217
 30
0.0
 10
4.7627950269
 20
6.4544727004
 30
0.0
 10
4.7627717224
 20
6.45448084
 30
0.0
 10
4.7627608959
 20
6.4544865484
 30
0.0
 10
4.7627142923
 20
6.4545046781
 30
0.0
 10
4.7626343725
 20
6.4545374496
 30
0.0
 10
4.7624859215
 20
6.4545970393
 30
0.0
 10
4.762266105
 20
6.454685935
 30
0.0
 10
4.7619818887
 20
6.4548008242
 30
0.0
 10
4.761637485
 20
6.4549405102
 30
0.0
 10
4.7612329474
 20
6.4551050684
 30
0.0
 10
4.7605772494
 20
6.4553727347
 30
0.0
 10
4.7596170823
 20
6.455766981
 30
0.0
 10
4.7583040887
 20
6.4563104342
 30
0.0
 10
4.7567869291
 20
6.4569445619
 30
0.0
 10
4.7550814557
 20
6.4576653934
 30
0.0
 10
4.753203968
 20
6.4584687703
 30
0.0
 10
4.750400337
 20
6.4596847168
 30
0.0
 10
4.7465866073
 20
6.4613749566
 30
0.0
 10
4.7417205453
 20
6.4636001671
 30
0.0
 10
4.7383602528
 20
6.4651911047
 30
0.0
 10
4.7366305452
 20
6.4660238419
 30
0.0
  0
LINE
  5
37B
100
AcDbEntity
  8
0
100
AcDbLine
 62
9
  6
CONTINUOUS
 10
4.7356156022
 20
6.4665140819
 11
4.7351438167
 21
6.4667430669
  0
LINE
  5
37C
100
AcDbEntity
  8
0
100
AcDbLine
 62
9
  6
CONTINUOUS
 10
5.1058698184
 20
6.4621626283
 11
5.0952875599
 21
6.4601526368
  0
LINE
  5
37D
100
AcDbEntity
  8
0
100
AcDbLine
 62
9
  6
CONTINUOUS
 10
5.0508850266
 20
6.4536574669
 11
5.0379490819
 21
6.4523029337
  0
LINE
  5
37E
100
AcDbEntity
  8
0
100
AcDbLine
 62
9
  6
CONTINUOUS
 10
4.9319259406
 20
6.4523029337
 11
4.918714301
 21
6.4536876259
  0
LINE
  5
37F
100
AcDbEntity
  8
0
100
AcDbLine
 62
9
  6
CONTINUOUS
 10
4.8799433275
 20
6.4592080117
 11
4.8793835905
 21
6.4593046051
  0
LINE
  5
380
100
AcDbEntity
  8
0
100
AcDbLine
 62
9
  6
CONTINUOUS
 10
4.8793835905
 20
6.4593046051
 11
4.8788419226
 21
6.4593985665
  0
LINE
  5
381
100
AcDbEntity
  8
0
100
AcDbLine
 62
9
  6
CONTINUOUS
 10
4.870830168
 20
6.4608446453
 11
4.8640052041
 21
6.4621626283
  0
LINE
  5
382
100
AcDbEntity
  8
0
100
AcDbLine
 62
7
  6
CONTINUOUS
 10
4.6798405713
 20
6.49810738
 11
4.681430548
 21
6.4974673611
  0
LINE
  5
383
100
AcDbEntity
  8
0
100
AcDbLine
 62
7
  6
CONTINUOUS
 10
4.681430548
 20
6.4974673611
 11
4.68229896
 21
6.4973318604
  0
SPLINE
  5
384
100
AcDbEntity
  8
0
100
AcDbSpline
 62
9
  6
CONTINUOUS
 70
0
 71
3
 72
9
 73
5
 74
0
 42
0.0000001
 43
0.0000001
 44
0.0000000001
 40
0.0
 40
0.0
 40
0.0
 40
0.0
 40
0.4740884979
 40
1.0
 40
1.0
 40
1.0
 40
1.0
 10
4.6842821521
 20
6.4943384972
 30
0.0
 10
4.6838226018
 20
6.4946843407
 30
0.0
 10
4.6829780178
 20
6.4955883974
 30
0.0
 10
4.6824642504
 20
6.4967156111
 30
0.0
 10
4.6822989632
 20
6.4973318462
 30
0.0
  0
LINE
  5
385
100
AcDbEntity
  8
0
100
AcDbLine
 62
9
  6
CONTINUOUS
 10
4.6848258726
 20
6.4956266399
 11
4.6850224798
 21
6.4954950784
  0
LINE
  5
386
100
AcDbEntity
  8
0
100
AcDbLine
 62
9
  6
CONTINUOUS
 10
7.9158597934
 20
7.6048264311
 11
7.9173570118
 21
7.5942699236
  0
LINE
  5
387
100
AcDbEntity
  8
0
100
AcDbLine
 62
9
  6
CONTINUOUS
 10
6.6943629046
 20
7.5942706899
 11
6.6958600168
 21
7.6048264354
  0
SPLINE
  5
388
100
AcDbEntity
  8
0
100
AcDbSpline
 62
9
  6
CONTINUOUS
 70
0
 71
3
 72
15
 73
11
 74
0
 42
0.0000001
 43
0.0000001
 44
0.0000000001
 40
0.0
 40
0.0
 40
0.0
 40
0.0
 40
0.1327152388
 40
0.2646720482
 40
0.3950498678
 40
0.5231201425
 40
0.6481985666
 40
0.7696783672
 40
0.8871060946
 40
1.0
 40
1.0
 40
1.0
 40
1.0
 10
8.1483599574
 20
7.0273318604
 30
0.0
 10
8.1483599304
 20
7.0365753369
 30
0.0
 10
8.147934591
 20
7.0550120793
 30
0.0
 10
8.1460654394
 20
7.082472131
 30
0.0
 10
8.1429998781
 20
7.109499312
 30
0.0
 10
8.1388226514
 20
7.1358913457
 30
0.0
 10
8.1336414733
 20
7.1614722984
 30
0.0
 10
8.1275672684
 20
7.186092451
 30
0.0
 10
8.1207613282
 20
7.2096368554
 30
0.0
 10
8.1157298754
 20
7.2248734914
 30
0.0
 10
8.1131279004
 20
7.2322934358
 30
0.0
  0
LINE
  5
389
100
AcDbEntity
  8
0
100
AcDbLine
 62
9
  6
CONTINUOUS
 10
7.979348129
 20
7.5108488411
 11
7.9758598412
 21
7.5381216798
  0
SPLINE
  5
38A
100
AcDbEntity
  8
0
100
AcDbSpline
 62
9
  6
CONTINUOUS
 70
0
 71
3
 72
36
 73
32
 74
0
 42
0.0000001
 43
0.0000001
 44
0.0000000001
 40
0.0
 40
0.0
 40
0.0
 40
0.0
 40
0.0000932705
 40
0.0003677152
 40
0.0008230766
 40
0.0014590968
 40
0.002275518
 40
0.0032720825
 40
0.0058046103
 40
0.0090543548
 40
0.0130142713
 40
0.0176732423
 40
0.0230200241
 40
0.0357320872
 40
0.0510597547
 40
0.0688947161
 40
0.0891132786
 40
0.1115916159
 40
0.1362038516
 40
0.1628213455
 40
0.1913160782
 40
0.2534441934
 40
0.3216733947
 40
0.3951572343
 40
0.4731719048
 40
0.5550465492
 40
0.6401282632
 40
0.7277958108
 40
0.8174333951
 40
0.9084232136
 40
1.0
 40
1.0
 40
1.0
 40
1.0
 10
6.1933613341
 20
7.6123305446
 30
0.0
 10
6.1933701208
 20
7.6123256734
 30
0.0
 10
6.1934073898
 20
7.6123117751
 30
0.0
 10
6.1934877351
 20
7.612274482
 30
0.0
 10
6.1936231528
 20
7.6122168144
 30
0.0
 10
6.1938113633
 20
7.612134373
 30
0.0
 10
6.1940533778
 20
7.6120293827
 30
0.0
 10
6.1944826464
 20
7.6118427742
 30
0.0
 10
6.1951524805
 20
7.6115520853
 30
0.0
 10
6.1961152083
 20
7.6111345155
 30
0.0
 10
6.1972884644
 20
7.6106267016
 30
0.0
 10
6.1986697391
 20
7.6100308286
 30
0.0
 10
6.2009180582
 20
7.6090648093
 30
0.0
 10
6.2042259733
 20
7.6076538606
 30
0.0
 10
6.2087783974
 20
7.605732081
 30
0.0
 10
6.2140859473
 20
7.6035201574
 30
0.0
 10
6.2201183842
 20
7.601045564
 30
0.0
 10
6.2268432706
 20
7.5983358065
 30
0.0
 10
6.2342280719
 20
7.5954200315
 30
0.0
 10
6.2422403051
 20
7.5923293401
 30
0.0
 10
6.2540617236
 20
7.5878864234
 30
0.0
 10
6.2701655702
 20
7.5820992424
 30
0.0
 10
6.2909905507
 20
7.5751339093
 30
0.0
 10
6.3136243825
 20
7.5682035079
 30
0.0
 10
6.3378702603
 20
7.5615506659
 30
0.0
 10
6.3635391567
 20
7.5554129158
 30
0.0
 10
6.3904349721
 20
7.5500068443
 30
0.0
 10
6.4183531952
 20
7.5455534464
 30
0.0
 10
6.4470689234
 20
7.5422149307
 30
0.0
 10
6.4763274477
 20
7.540160811
 30
0.0
 10
6.4959956651
 20
7.5396906675
 30
0.0
 10
6.5058599211
 20
7.5396905584
 30
0.0
  0
SPLINE
  5
38B
100
AcDbEntity
  8
0
100
AcDbSpline
 62
9
  6
CONTINUOUS
 70
0
 71
3
 72
15
 73
11
 74
0
 42
0.0000001
 43
0.0000001
 44
0.0000000001
 40
0.0
 40
0.0
 40
0.0
 40
0.0
 40
0.1134530904
 40
0.2312763536
 40
0.3530014737
 40
0.4781197811
 40
0.606022023
 40
0.7361105987
 40
0.867691708
 40
1.0
 40
1.0
 40
1.0
 40
1.0
 10
8.1146881557
 20
6.8268288807
 30
0.0
 10
8.1171928427
 20
6.8341347926
 30
0.0
 10
8.122026776
 20
6.8491228142
 30
0.0
 10
8.1285480194
 20
6.8722574536
 30
0.0
 10
8.1343438642
 20
6.8964030541
 30
0.0
 10
8.139283202
 20
6.9214384613
 30
0.0
 10
8.1432670798
 20
6.9472204763
 30
0.0
 10
8.1461779171
 20
6.9735890311
 30
0.0
 10
8.1479552983
 20
7.0003582283
 30
0.0
 10
8.1483598077
 20
7.0183249623
 30
0.0
 10
8.1483598255
 20
7.0273318604
 30
0.0
  0
SPLINE
  5
38C
100
AcDbEntity
  8
0
100
AcDbSpline
 62
9
  6
CONTINUOUS
 70
0
 71
3
 72
14
 73
10
 74
0
 42
0.0000001
 43
0.0000001
 44
0.0000000001
 40
0.0
 40
0.0
 40
0.0
 40
0.0
 40
0.2431198108
 40
0.3668920902
 40
0.4919422294
 40
0.6180418504
 40
0.7449495128
 40
0.8723791634
 40
1.0
 40
1.0
 40
1.0
 40
1.0
 10
6.4991406816
 20
7.2395955726
 30
0.0
 10
6.493816836
 20
7.222945935
 30
0.0
 10
6.4866995837
 20
7.1975119763
 30
0.0
 10
6.4791027695
 20
7.1629610344
 30
0.0
 10
6.4743391398
 20
7.1364212427
 30
0.0
 10
6.4705799229
 20
7.1094936262
 30
0.0
 10
6.4678682427
 20
7.0822679689
 30
0.0
 10
6.4662298499
 20
7.0548476326
 30
0.0
 10
6.465861549
 20
7.036507684
 30
0.0
 10
6.4658613725
 20
7.0273318604
 30
0.0
  0
SPLINE
  5
38D
100
AcDbEntity
  8
0
100
AcDbSpline
 62
9
  6
CONTINUOUS
 70
0
 71
3
 72
13
 73
9
 74
0
 42
0.0000001
 43
0.0000001
 44
0.0000000001
 40
0.0
 40
0.0
 40
0.0
 40
0.0
 40
0.25513087
 40
0.3820728192
 40
0.5082058952
 40
0.6332478726
 40
0.7570015741
 40
1.0
 40
1.0
 40
1.0
 40
1.0
 10
6.4658599407
 20
7.0273318604
 30
0.0
 10
6.4658600204
 20
7.0087467486
 30
0.0
 10
6.4670021287
 20
6.9808979145
 30
0.0
 10
6.4707215186
 20
6.94405851
 30
0.0
 10
6.4745696814
 20
6.9167767192
 30
0.0
 10
6.4794585472
 20
6.8898983048
 30
0.0
 10
6.4872498436
 20
6.8549245005
 30
0.0
 10
6.4945419896
 20
6.8291883858
 30
0.0
 10
6.4999998299
 20
6.8123494823
 30
0.0
  0
SPLINE
  5
38E
100
AcDbEntity
  8
0
100
AcDbSpline
 62
9
  6
CONTINUOUS
 70
0
 71
3
 72
15
 73
11
 74
0
 42
0.0000001
 43
0.0000001
 44
0.0000000001
 40
0.0
 40
0.0
 40
0.0
 40
0.0
 40
0.1165384439
 40
0.2348372276
 40
0.3553731042
 40
0.4788276775
 40
0.6055020621
 40
0.7352077101
 40
0.8672848077
 40
1.0
 40
1.0
 40
1.0
 40
1.0
 10
6.6558599208
 20
7.5221740217
 30
0.0
 10
6.6558599208
 20
7.523318007
 30
0.0
 10
6.6555941793
 20
7.5256305371
 30
0.0
 10
6.6544442262
 20
7.5289522064
 30
0.0
 10
6.6525673287
 20
7.5320047296
 30
0.0
 10
6.6500572029
 20
7.5346718965
 30
0.0
 10
6.6470052931
 20
7.5368524656
 30
0.0
 10
6.6435306588
 20
7.5384743368
 30
0.0
 10
6.6397669986
 20
7.5394631025
 30
0.0
 10
6.6371627032
 20
7.5396905584
 30
0.0
 10
6.6358599208
 20
7.5396905584
 30
0.0
  0
SPLINE
  5
38F
100
AcDbEntity
  8
0
100
AcDbSpline
 62
9
  6
CONTINUOUS
 70
0
 71
3
 72
30
 73
26
 74
0
 42
0.0000001
 43
0.0000001
 44
0.0000000001
 40
0.0
 40
0.0
 40
0.0
 40
0.0
 40
0.0921396622
 40
0.1836632521
 40
0.2737965173
 40
0.3618975599
 40
0.5294075431
 40
0.6076250888
 40
0.6811908434
 40
0.7493144509
 40
0.811162007
 40
0.8658506082
 40
0.8902130975
 40
0.9124239027
 40
0.9323622435
 40
0.9499197607
 40
0.9649908678
 40
0.9774695063
 40
0.9872596982
 40
0.9911290513
 40
0.994307301
 40
0.9967889868
 40
0.9985686445
 40
0.9996408061
 40
1.0
 40
1.0
 40
1.0
 40
1.0
 10
6.5058599209
 20
7.5944298511
 30
0.0
 10
6.4976929427
 20
7.5944300639
 30
0.0
 10
6.4814087427
 20
7.5949902549
 30
0.0
 10
6.4572452477
 20
7.5974140596
 30
0.0
 10
6.4336417755
 20
7.6013335733
 30
0.0
 10
6.4037450912
 20
7.6081309908
 30
0.0
 10
6.3754576074
 20
7.6170013894
 30
0.0
 10
6.3490584721
 20
7.6272127998
 30
0.0
 10
6.3311489805
 20
7.6349171947
 30
0.0
 10
6.3148104574
 20
7.642573346
 30
0.0
 10
6.300182953
 20
7.6499212719
 30
0.0
 10
6.2891501677
 20
7.65577543
 30
0.0
 10
6.2812832983
 20
7.660096822
 30
0.0
 10
6.2761396862
 20
7.6629777185
 30
0.0
 10
6.2715404885
 20
7.6655959873
 30
0.0
 10
6.2675059759
 20
7.6679268129
 30
0.0
 10
6.2640552353
 20
7.6699461933
 30
0.0
 10
6.2612064275
 20
7.6716309609
 30
0.0
 10
6.2592155959
 20
7.6728159529
 30
0.0
 10
6.2579346896
 20
7.6735819084
 30
0.0
 10
6.2572104644
 20
7.6740165685
 30
0.0
 10
6.256645172
 20
7.674356094
 30
0.0
 10
6.2562409707
 20
7.6746012918
 30
0.0
 10
6.2559964569
 20
7.674746926
 30
0.0
 10
6.2558890235
 20
7.6748144917
 30
0.0
 10
6.2558613833
 20
7.6748302925
 30
0.0
  0
SPLINE
  5
390
100
AcDbEntity
  8
0
100
AcDbSpline
 62
9
  6
CONTINUOUS
 70
0
 71
3
 72
37
 73
33
 74
0
 42
0.0000001
 43
0.0000001
 44
0.0000000001
 40
0.0
 40
0.0
 40
0.0
 40
0.0
 40
0.0001052721
 40
0.0004190488
 40
0.0009399925
 40
0.0016667661
 40
0.0025980323
 40
0.003732454
 40
0.0066054162
 40
0.010274959
 40
0.0147303906
 40
0.0199610215
 40
0.0259561646
 40
0.0327030705
 40
0.0401807378
 40
0.0572361492
 40
0.0769381537
 40
0.0991027819
 40
0.1235475962
 40
0.1500954635
 40
0.1785711524
 40
0.2088002534
 40
0.2738744803
 40
0.3441950015
 40
0.4187499907
 40
0.4966990462
 40
0.5773027225
 40
0.6599014789
 40
0.743955403
 40
0.8288817529
 40
0.9143816115
 40
1.0
 40
1.0
 40
1.0
 40
1.0
 10
8.3558582357
 20
7.4448299492
 30
0.0
 10
8.3558516995
 20
7.4448219988
 30
0.0
 10
8.3558195352
 20
7.4447960999
 30
0.0
 10
8.3557547642
 20
7.4447311137
 30
0.0
 10
8.3556421594
 20
7.4446278474
 30
0.0
 10
8.3554872733
 20
7.4444816531
 30
0.0
 10
8.3552877668
 20
7.4442952572
 30
0.0
 10
8.354935253
 20
7.4439653195
 30
0.0
 10
8.3543866782
 20
7.4434530637
 30
0.0
 10
8.3536002365
 20
7.4427198202
 30
0.0
 10
8.3526443195
 20
7.4418303301
 30
0.0
 10
8.3515209685
 20
7.4407870112
 30
0.0
 10
8.3502323059
 20
7.4395924806
 30
0.0
 10
8.3487811985
 20
7.4382500396
 30
0.0
 10
8.3465335346
 20
7.4361763024
 30
0.0
 10
8.3433475436
 20
7.4332517456
 30
0.0
 10
8.3390880924
 20
7.4293732819
 30
0.0
 10
8.3342743491
 20
7.4250306072
 30
0.0
 10
8.3289389367
 20
7.4202671181
 30
0.0
 10
8.3231111829
 20
7.4151288233
 30
0.0
 10
8.316820051
 20
7.4096612552
 30
0.0
 10
8.3076227724
 20
7.4017961311
 30
0.0
 10
8.2951726691
 20
7.3914406993
 30
0.0
 10
8.2790898906
 20
7.3786829358
 30
0.0
 10
8.2616406083
 20
7.3656338646
 30
0.0
 10
8.2428871691
 20
7.3526724225
 30
0.0
 10
8.2228851394
 20
7.340170444
 30
0.0
 10
8.2016301041
 20
7.3286172141
 30
0.0
 10
8.1791686703
 20
7.3185231098
 30
0.0
 10
8.1555459471
 20
7.3105537813
 30
0.0
 10
8.1309794046
 20
7.305430375
 30
0.0
 10
8.1142306143
 20
7.3041895276
 30
0.0
 10
8.1058599208
 20
7.3041893617
 30
0.0
  0
SPLINE
  5
391
100
AcDbEntity
  8
0
100
AcDbSpline
 62
9
  6
CONTINUOUS
 70
0
 71
3
 72
56
 73
52
 74
0
 42
0.0000001
 43
0.0000001
 44
0.0000000001
 40
0.0
 40
0.0
 40
0.0
 40
0.0
 40
0.0000066099
 40
0.0000264397
 40
0.0000594895
 40
0.0001057593
 40
0.000165249
 40
0.0002379588
 40
0.0004230381
 40
0.0006609975
 40
0.0009518355
 40
0.0012954916
 40
0.0016918266
 40
0.0026419537
 40
0.0038010579
 40
0.0051679805
 40
0.0067415626
 40
0.0085206211
 40
0.0105034705
 40
0.0126879573
 40
0.0150719102
 40
0.0204295304
 40
0.0265583956
 40
0.0334371665
 40
0.0410432521
 40
0.049353743
 40
0.0583437836
 40
0.0679878047
 40
0.0782602685
 40
0.1005892391
 40
0.1251295505
 40
0.1516875411
 40
0.1800776728
 40
0.2101329399
 40
0.2416968683
 40
0.2746291372
 40
0.3087985324
 40
0.3440938392
 40
0.4176597376
 40
0.4946183343
 40
0.5744048602
 40
0.6152095077
 40
0.6565457638
 40
0.6983622492
 40
0.7406115558
 40
0.783238008
 40
0.8261866338
 40
0.8693983395
 40
0.9128169302
 40
0.9563785891
 40
1.0
 40
1.0
 40
1.0
 40
1.0
 10
8.418359751
 20
7.382331738
 30
0.0
 10
8.4183594963
 20
7.3823324404
 30
0.0
 10
8.4183560599
 20
7.3823281493
 30
0.0
 10
8.4183512704
 20
7.3823271355
 30
0.0
 10
8.4183413108
 20
7.3823196392
 30
0.0
 10
8.4183282957
 20
7.382311871
 30
0.0
 10
8.4183111894
 20
7.3823007884
 30
0.0
 10
8.4182809727
 20
7.3822816576
 30
0.0
 10
8.4182336678
 20
7.3822514973
 30
0.0
 10
8.4181655996
 20
7.3822082153
 30
0.0
 10
8.4180823927
 20
7.3821552635
 30
0.0
 10
8.4179840868
 20
7.3820927203
 30
0.0
 10
8.4178228978
 20
7.3819901773
 30
0.0
 10
8.4175839188
 20
7.3818381959
 30
0.0
 10
8.4172523162
 20
7.3816274162
 30
0.0
 10
8.416861175
 20
7.3813789362
 30
0.0
 10
8.4164108026
 20
7.3810930086
 30
0.0
 10
8.4159015596
 20
7.3807699154
 30
0.0
 10
8.4153338878
 20
7.3804100199
 30
0.0
 10
8.4147083126
 20
7.3800137622
 30
0.0
 10
8.4137602231
 20
7.3794137928
 30
0.0
 10
8.4124347712
 20
7.378576381
 30
0.0
 10
8.4106786538
 20
7.3774694107
 30
0.0
 10
8.4087059783
 20
7.376229385
 30
0.0
 10
8.4065225645
 20
7.3748612501
 30
0.0
 10
8.4041345792
 20
7.3733701525
 30
0.0
 10
8.4015483921
 20
7.3717615565
 30
0.0
 10
8.3987706139
 20
7.3700411097
 30
0.0
 10
8.3947059326
 20
7.3675350094
 30
0.0
 10
8.3891963358
 20
7.3641641605
 30
0.0
 10
8.3820939461
 20
7.359869664
 30
0.0
 10
8.3743777241
 20
7.3552665264
 30
0.0
 10
8.3660935383
 20
7.3503990618
 30
0.0
 10
8.3572824754
 20
7.3453118785
 30
0.0
 10
8.3479813805
 20
7.3400473339
 30
0.0
 10
8.3382237436
 20
7.3346462662
 30
0.0
 10
8.3280389152
 20
7.3291471887
 30
0.0
 10
8.3137227227
 20
7.321634717
 30
0.0
 10
8.294928972
 20
7.3122490229
 30
0.0
 10
8.2712748766
 20
7.301365
 30
0.0
 10
8.2506258281
 20
7.2928443145
 30
0.0
 10
8.2334637439
 20
7.286477577
 30
0.0
 10
8.2202007954
 20
7.2819537733
 30
0.0
 10
8.2066534541
 20
7.2777758768
 30
0.0
 10
8.1928365355
 20
7.2740013811
 30
0.0
 10
8.1787718482
 20
7.270679927
 30
0.0
 10
8.1644859826
 20
7.2678632021
 30
0.0
 10
8.1500088053
 20
7.265612704
 30
0.0
 10
8.135379389
 20
7.2639756886
 30
0.0
 10
8.1206466439
 20
7.2629721826
 30
0.0
 10
8.1107906039
 20
7.2627433062
 30
0.0
 10
8.1058599153
 20
7.262743511
 30
0.0
  0
SPLINE
  5
392
100
AcDbEntity
  8
0
100
AcDbSpline
 62
9
  6
CONTINUOUS
 70
0
 71
3
 72
17
 73
13
 74
0
 42
0.0000001
 43
0.0000001
 44
0.0000000001
 40
0.0
 40
0.0
 40
0.0
 40
0.0
 40
0.1247729347
 40
0.187243113
 40
0.2497219489
 40
0.3745793293
 40
0.4995091655
 40
0.6244941344
 40
0.7495457659
 40
0.8122209957
 40
0.8749487058
 40
1.0
 40
1.0
 40
1.0
 40
1.0
 10
4.2225120196
 20
7.2346014119
 30
0.0
 10
4.2043572323
 20
7.2328381916
 30
0.0
 10
4.1772801681
 20
7.2274671822
 30
0.0
 10
4.1428569176
 20
7.21518575
 30
0.0
 10
4.1097937175
 20
7.1995552369
 30
0.0
 10
4.0715611193
 20
7.1740326423
 30
0.0
 10
4.0326037813
 20
7.1350175299
 30
0.0
 10
4.0019453992
 20
7.0891607205
 30
0.0
 10
3.9843359014
 20
7.0466294087
 30
0.0
 10
3.9754174316
 20
7.0110639743
 30
0.0
 10
3.9700435012
 20
6.9748053035
 30
0.0
 10
3.9699884547
 20
6.9471253986
 30
0.0
 10
3.9717556086
 20
6.9289301092
 30
0.0
  0
SPLINE
  5
393
100
AcDbEntity
  8
0
100
AcDbSpline
 62
9
  6
CONTINUOUS
 70
0
 71
3
 72
23
 73
19
 74
0
 42
0.0000001
 43
0.0000001
 44
0.0000000001
 40
0.0
 40
0.0
 40
0.0
 40
0.0
 40
0.0314325635
 40
0.0436105017
 40
0.0577674628
 40
0.0739595609
 40
0.0922000989
 40
0.1124728347
 40
0.1347506772
 40
0.1851783539
 40
0.2431622272
 40
0.3082071258
 40
0.3796944357
 40
0.4569885815
 40
0.539400453
 40
0.6261757618
 40
0.8096759857
 40
1.0
 40
1.0
 40
1.0
 40
1.0
 10
7.2343283496
 20
7.5271135466
 30
0.0
 10
7.2373191707
 20
7.5274040196
 30
0.0
 10
7.2411195053
 20
7.523892634
 30
0.0
 10
7.2442310737
 20
7.5195179222
 30
0.0
 10
7.2463399828
 20
7.5159982566
 30
0.0
 10
7.2484544722
 20
7.5118719881
 30
0.0
 10
7.250611883
 20
7.5071023576
 30
0.0
 10
7.2527942698
 20
7.5017159967
 30
0.0
 10
7.2558635288
 20
7.4933724224
 30
0.0
 10
7.2596840083
 20
7.4814719723
 30
0.0
 10
7.2641262363
 20
7.4654928659
 30
0.0
 10
7.2685513787
 20
7.4474291806
 30
0.0
 10
7.2729183687
 20
7.427457918
 30
0.0
 10
7.2771793487
 20
7.4057694203
 30
0.0
 10
7.2812923663
 20
7.3825667986
 30
0.0
 10
7.2866306596
 20
7.3492745392
 30
0.0
 10
7.2926001344
 20
7.3056422828
 30
0.0
 10
7.2965139748
 20
7.2701158705
 30
0.0
 10
7.2982727876
 20
7.2520064639
 30
0.0
  0
SPLINE
  5
394
100
AcDbEntity
  8
0
100
AcDbSpline
 62
9
  6
CONTINUOUS
 70
0
 71
3
 72
17
 73
13
 74
0
 42
0.0000001
 43
0.0000001
 44
0.0000000001
 40
0.0
 40
0.0
 40
0.0
 40
0.0
 40
0.1250512942
 40
0.1877790043
 40
0.2504542341
 40
0.3755058656
 40
0.5004908345
 40
0.6254206707
 40
0.7502780511
 40
0.812756887
 40
0.8752270653
 40
1.0
 40
1.0
 40
1.0
 40
1.0
 10
3.9717556086
 20
6.9289301092
 30
0.0
 10
3.9735227625
 20
6.9107348199
 30
0.0
 10
3.9789031667
 20
6.8835828141
 30
0.0
 10
3.9911538448
 20
6.8490358718
 30
0.0
 10
4.0067494207
 20
6.8158512784
 30
0.0
 10
4.0322140283
 20
6.7775033885
 30
0.0
 10
4.0711235697
 20
6.7384031206
 30
0.0
 10
4.116860435
 20
6.7076136367
 30
0.0
 10
4.1592897682
 20
6.6899250502
 30
0.0
 10
4.1947428009
 20
6.6809489367
 30
0.0
 10
4.2308860095
 20
6.6755210253
 30
0.0
 10
4.2584905657
 20
6.6754607771
 30
0.0
 10
4.276645353
 20
6.6772239974
 30
0.0
  0
SPLINE
  5
395
100
AcDbEntity
  8
0
100
AcDbSpline
 62
9
  6
CONTINUOUS
 70
0
 71
3
 72
23
 73
19
 74
0
 42
0.0000001
 43
0.0000001
 44
0.0000000001
 40
0.0
 40
0.0
 40
0.0
 40
0.0
 40
0.1903240143
 40
0.3738242382
 40
0.460599547
 40
0.5430114185
 40
0.6203055643
 40
0.6917928742
 40
0.7568377728
 40
0.8148216461
 40
0.8652493228
 40
0.8875271653
 40
0.9077999011
 40
0.9260404391
 40
0.9422325372
 40
0.9563894983
 40
0.9685674365
 40
1.0
 40
1.0
 40
1.0
 40
1.0
 10
7.2982727876
 20
7.2520064639
 30
0.0
 10
7.3000316004
 20
7.2338970574
 30
0.0
 10
7.3030271789
 20
7.1982814621
 30
0.0
 10
7.3055653312
 20
7.1543159505
 30
0.0
 10
7.3067331648
 20
7.1206186498
 30
0.0
 10
7.307161847
 20
7.0970581998
 30
0.0
 10
7.3071539725
 20
7.0749551046
 30
0.0
 10
7.3067116251
 20
7.0545167519
 30
0.0
 10
7.305845141
 20
7.0359391359
 30
0.0
 10
7.3045607595
 20
7.0194038526
 30
0.0
 10
7.3031016593
 20
7.0069906418
 30
0.0
 10
7.301695298
 20
6.9982123884
 30
0.0
 10
7.3005901838
 20
6.9925067405
 30
0.0
 10
7.2993909027
 20
6.987411103
 30
0.0
 10
7.29810994
 20
6.9829550631
 30
0.0
 10
7.296717726
 20
6.9790953631
 30
0.0
 10
7.294506126
 20
6.9742036572
 30
0.0
 10
7.291452504
 20
6.9700266051
 30
0.0
 10
7.288461683
 20
6.969736132
 30
0.0
  0
ENDSEC
  0
SECTION
  2
OBJECTS
  0
DICTIONARY
  5
C
100
AcDbDictionary
280
0
281
1
  3
ACAD_GROUP
350
D
  3
ACAD_MLINESTYLE
350
17
  3
ACAD_LAYOUT
350
1A
  3
ACAD_PLOTSETTINGS
350
19
  3
ACAD_PLOTSTYLENAME
350
E
  0
DICTIONARY
  5
D
102
{ACAD_REACTORS
330
C
102
}
100
AcDbDictionary
280
0
281
1
  0
ACDBDICTIONARYWDFLT
  5
E
102
{ACAD_REACTORS
330
C
102
}
100
AcDbDictionary
281
1
  3
Normal
350
F
100
AcDbDictionaryWithDefault
340
F
  0
DICTIONARY
  5
17
102
{ACAD_REACTORS
330
C
102
}
100
AcDbDictionary
280
0
281
1
  3
Standard
350
18
  0
DICTIONARY
  5
19
102
{ACAD_REACTORS
330
C
102
}
100
AcDbDictionary
281
1
  0
DICTIONARY
  5
1A
102
{ACAD_REACTORS
330
C
102
}
100
AcDbDictionary
281
1
  3
Model
350
396
  3
Layout1
350
397
  0
ACDBPLACEHOLDER
  5
F
102
{ACAD_REACTORS
330
E
102
}
  0
MLINESTYLE
  5
18
102
{ACAD_REACTORS
330
17
102
}
100
AcDbMlineStyle
  2
STANDARD
 70
0
  3

 62
256
 51
90.0
 52
90.0
 71
2
 49
0.5
 62
256
  6
BYLAYER
 49
-0.5
 62
256
  6
BYLAYER
  0
LAYOUT
  5
396
102
{ACAD_REACTORS
330
1A
102
}
100
AcDbPlotSettings
  1

  2
none_device
  4
ANSI_C_(22.00_x_17.00_Inches)
  6

 40
0.0
 41
0.0
 42
0.0
 43
0.0
 44
558.8
 45
431.8
 46
0.0
 47
0.0
 48
0.0
 49
0.0
140
0.0
141
0.0
142
1.0
143
1.0
 70
1024
 72
0
 73
0
 74
0
  7

 75
0
147
1.0
148
0.0
149
0.0
100
AcDbLayout
  1
Model
 70
0
 71
0
 10
0.0
 20
0.0
 11
22.0
 21
17.0
 12
0.0
 22
0.0
 32
0.0
 14
0.0
 24
0.0
 34
0.0
 15
0.0
 25
0.0
 35
0.0
146
0.0
 13
0.0
 23
0.0
 33
0.0
 16
1.0
 26
0.0
 36
0.0
 17
0.0
 27
1.0
 37
0.0
 76
0
330
202
345
0
346
0
  0
LAYOUT
  5
397
102
{ACAD_REACTORS
330
1A
102
}
100
AcDbPlotSettings
  1

  2
none_device
  4
ANSI_C_(22.00_x_17.00_Inches)
  6

 40
0.0
 41
0.0
 42
0.0
 43
0.0
 44
558.8
 45
431.8
 46
0.0
 47
0.0
 48
0.0
 49
0.0
140
0.0
141
0.0
142
1.0
143
1.0
 70
0
 72
0
 73
0
 74
0
  7

 75
0
147
1.0
148
0.0
149
0.0
100
AcDbLayout
  1
Layout1
 70
0
 71
1
 10
0.0
 20
0.0
 11
22.0
 21
17.0
 12
0.0
 22
0.0
 32
0.0
 14
0.0
 24
0.0
 34
0.0
 15
0.0
 25
0.0
 35
0.0
146
0.0
 13
0.0
 23
0.0
 33
0.0
 16
1.0
 26
0.0
 36
0.0
 17
0.0
 27
1.0
 37
0.0
 76
0
330
203
345
0
346
0
  0
ENDSEC
  0
EOF
