999
DXF file: 2040-3912_front.dxf
999
Pro/ENGINEER 2018400 by Parametric Technology Corporation
  0
SECTION
  2
HEADER
  9
$ACADVER
  1
AC1027
  9
$DWGCODEPAGE
  3
ANSI_1252
  9
$EXTMAX
 10
11.0
 20
8.5
 30
0.0
  9
$EXTMIN
 10
0.0
 20
0.0
 30
0.0
  9
$LIMMIN
 10
0.0
 20
0.0
  9
$LIMMAX
 10
11.0
 20
8.5
  9
$VIEWCTR
 10
5.5
 20
4.25
  9
$VIEWSIZE
 40
8.5
  9
$CLAYER
  8
0
  9
$LTSCALE
 40
0.605
  9
$CELTYPE
  6
BYLAYER
  9
$DIMSCALE
 40
1.0
  9
$DIMASZ
 40
0.1
  9
$DIMEXO
 40
0.0625
  9
$DIMDLI
 40
0.418
  9
$DIMEXE
 40
0.125
  9
$DIMCEN
 40
0.099
  9
$DIMLFAC
 40
1.0
  9
$DIMBLK
  1
_FILLED
  9
$DIMALT
 70
1
  9
$DIMALTD
 70
1
  9
$DIMALTTD
 70
2
  9
$DIMALTF
 40
25.4
  9
$DIMTXT
 40
0.08
  9
$DIMTOL
 70
1
  9
$DIMLIM
 70
0
  9
$DIMTFAC
 40
1.0
  9
$DIMTP
 40
0.01
  9
$DIMTM
 40
0.01
  9
$DIMGAP
 40
0.09
  9
$DIMDSEP
 70
46
  9
$AUNITS
 70
0
  9
$PDMODE
 70
3
  9
$PDSIZE
 40
0.3125
  9
$HANDSEED
  5
262
  9
$TILEMODE
 70
1
  9
$MEASUREMENT
 70
0
  9
$INSUNITS
 70
1
  0
ENDSEC
  0
SECTION
  2
CLASSES
  0
CLASS
  1
ACDBDICTIONARYWDFLT
  2
AcDbDictionaryWithDefault
  3
AutoCAD 2000
 90
0
 91
1
280
0
281
0
  0
CLASS
  1
ACDBPLACEHOLDER
  2
AcDbPlaceHolder
  3
AutoCAD 2000
 90
0
 91
1
280
0
281
0
  0
CLASS
  1
LAYOUT
  2
AcDbLayout
  3
AutoCAD 2000
 90
0
 91
0
280
0
281
0
  0
ENDSEC
  0
SECTION
  2
TABLES
  0
TABLE
  2
VPORT
  5
8
100
AcDbSymbolTable
 70
2
  0
VPORT
  5
1F4
100
AcDbSymbolTableRecord
100
AcDbViewportTableRecord
  2
*ACTIVE
 70
0
 10
0.0
 20
0.0
 11
1.0
 21
1.0
 12
5.5
 22
4.25
 13
0.0
 23
0.0
 14
1.0
 24
1.0
 15
0.0
 25
0.0
 16
0.0
 26
0.0
 36
1.0
 17
0.0
 27
0.0
 37
0.0
 40
8.5
 41
1.2941176471
 42
50.0
 43
0.0
 44
0.0
 50
0.0
 51
0.0
 71
0
 72
100
 73
1
 74
1
 75
0
 76
0
 77
0
 78
0
  0
ENDTAB
  0
TABLE
  2
LTYPE
  5
5
100
AcDbSymbolTable
 70
6
  0
LTYPE
  5
14
100
AcDbSymbolTableRecord
100
AcDbLinetypeTableRecord
  2
BYBLOCK
 70
0
  3

 72
65
 73
0
 40
0.0
  0
LTYPE
  5
15
100
AcDbSymbolTableRecord
100
AcDbLinetypeTableRecord
  2
BYLAYER
 70
0
  3

 72
65
 73
0
 40
0.0
  0
LTYPE
  5
16
100
AcDbSymbolTableRecord
100
AcDbLinetypeTableRecord
  2
CONTINUOUS
 70
64
  3
Solid line
 72
65
 73
0
 40
0.0
  0
LTYPE
  5
1F5
100
AcDbSymbolTableRecord
100
AcDbLinetypeTableRecord
  2
CENTER
 70
64
  3
____ _ ____ _ ____ _ ____ _ ____ _ ____ _ ____
 72
65
 73
4
 40
0.6
 49
0.375
 74
0
 49
-0.075
 74
0
 49
0.075
 74
0
 49
-0.075
 74
0
  0
LTYPE
  5
1F6
100
AcDbSymbolTableRecord
100
AcDbLinetypeTableRecord
  2
HIDDEN
 70
64
  3
- - - - - - - - - - - - - - - - - - - -
 72
65
 73
2
 40
0.2
 49
0.1
 74
0
 49
-0.1
 74
0
  0
LTYPE
  5
1F7
100
AcDbSymbolTableRecord
100
AcDbLinetypeTableRecord
  2
PHANTOM
 70
64
  3
_____ _ _ _____ _ _ _____ _ _ _____
 72
65
 73
6
 40
0.8
 49
0.45
 74
0
 49
-0.05
 74
0
 49
0.1
 74
0
 49
-0.05
 74
0
 49
0.1
 74
0
 49
-0.05
 74
0
  0
LTYPE
  5
1F8
100
AcDbSymbolTableRecord
100
AcDbLinetypeTableRecord
  2
DOT
 70
64
  3
. . . . . . . . . . . . . . . . . . . .
 72
65
 73
2
 40
0.2
 49
0.1
 74
0
 49
-0.1
 74
0
  0
LTYPE
  5
1F9
100
AcDbSymbolTableRecord
100
AcDbLinetypeTableRecord
  2
DASHED
 70
64
  3
- - - - - - - - - - - - - - - - - - - -
 72
65
 73
2
 40
0.2
 49
0.1
 74
0
 49
-0.1
 74
0
  0
ENDTAB
  0
TABLE
  2
LAYER
  5
2
100
AcDbSymbolTable
 70
36
  0
LAYER
  5
10
100
AcDbSymbolTableRecord
100
AcDbLayerTableRecord
  2
0
 70
0
 62
7
  6
CONTINUOUS
370
-3
390
F
  0
LAYER
  5
1FA
100
AcDbSymbolTableRecord
100
AcDbLayerTableRecord
  2
DEFAULT_1
 70
0
 62
7
  6
CENTER
370
-3
390
F
  0
LAYER
  5
1FB
100
AcDbSymbolTableRecord
100
AcDbLayerTableRecord
  2
DEFAULT_2
 70
0
 62
8
  6
HIDDEN
370
-3
390
F
  0
LAYER
  5
1FC
100
AcDbSymbolTableRecord
100
AcDbLayerTableRecord
  2
DEFAULT_3
 70
0
 62
7
  6
PHANTOM
370
-3
390
F
  0
LAYER
  5
1FD
100
AcDbSymbolTableRecord
100
AcDbLayerTableRecord
  2
DEFAULT_COORDINATE_SYSTEM
 70
0
 62
7
  6
CONTINUOUS
370
-3
390
F
  0
LAYER
  5
1FE
100
AcDbSymbolTableRecord
100
AcDbLayerTableRecord
  2
DEFAULT_DATUM_AXES
 70
0
 62
7
  6
CONTINUOUS
370
-3
390
F
  0
LAYER
  5
1FF
100
AcDbSymbolTableRecord
100
AcDbLayerTableRecord
  2
DEFAULT_DATUM_PLANES
 70
0
 62
7
  6
CONTINUOUS
370
-3
390
F
  0
ENDTAB
  0
TABLE
  2
STYLE
  5
3
100
AcDbSymbolTable
 70
1
  0
STYLE
  5
11
100
AcDbSymbolTableRecord
100
AcDbTextStyleTableRecord
  2
STANDARD
 70
0
 40
0.0
 41
0.8
 50
0.0
 71
0
 42
0.2
  3
txt
  4

  0
STYLE
  5
200
100
AcDbSymbolTableRecord
100
AcDbTextStyleTableRecord
  2
TEXTSTYLE_1
 70
0
 40
0.0
 41
0.8
 50
0.0
 71
0
 42
0.2
  3
gdt
  4

  0
ENDTAB
  0
TABLE
  2
VIEW
  5
6
100
AcDbSymbolTable
 70
0
  0
ENDTAB
  0
TABLE
  2
UCS
  5
7
100
AcDbSymbolTable
 70
0
  0
ENDTAB
  0
TABLE
  2
APPID
  5
9
100
AcDbSymbolTable
 70
1
  0
APPID
  5
201
100
AcDbSymbolTableRecord
100
AcDbRegAppTableRecord
  2
ACAD
 70
0
  0
ENDTAB
  0
TABLE
  2
BLOCK_RECORD
  5
1
100
AcDbSymbolTable
 70
0
  0
BLOCK_RECORD
  5
202
100
AcDbSymbolTableRecord
100
AcDbBlockTableRecord
  2
*Model_Space
  0
BLOCK_RECORD
  5
203
100
AcDbSymbolTableRecord
100
AcDbBlockTableRecord
  2
*Paper_Space
  0
BLOCK_RECORD
  5
204
100
AcDbSymbolTableRecord
100
AcDbBlockTableRecord
  2
_FILLED
  0
ENDTAB
  0
TABLE
  2
DIMSTYLE
  5
A
100
AcDbSymbolTable
 70
1
100
AcDbDimStyleTable
 71
0
  0
DIMSTYLE
105
205
100
AcDbSymbolTableRecord
100
AcDbDimStyleTableRecord
  2
STANDARD
 70
0
  3

  4

 40
1.0
 41
0.1
 42
0.0625
 43
0.38
 44
0.125
 45
0.0
 46
0.0
 47
0.01
 48
0.01
140
0.08
141
0.09
142
0.0
143
25.4
144
1.0
145
0.0
146
1.0
147
0.09
 71
1.0
 72
0.0
 73
1
 74
1
 75
0
 76
0
 77
0
 78
4
 79
1
170
1
171
1
172
0
173
0
174
0
175
0
176
0
177
0
178
0
270
2
179
2
271
2
272
2
273
2
274
2
275
0
280
0
281
0
282
0
283
1
284
4
285
0
286
0
287
3
288
0
340
11
278
46
341
204
342
204
343
204
344
204
  0
ENDTAB
  0
ENDSEC
  0
SECTION
  2
BLOCKS
  0
BLOCK
  5
20
100
AcDbEntity
  8
0
100
AcDbBlockBegin
  2
*Model_Space
 70
0
 10
0.0
 20
0.0
 30
0.0
  3
*Model_Space
  1

  0
ENDBLK
  5
21
100
AcDbEntity
  8
0
100
AcDbBlockEnd
  0
BLOCK
  5
1C
100
AcDbEntity
  8
0
100
AcDbBlockBegin
  2
*Paper_Space
 70
0
 10
0.0
 20
0.0
 30
0.0
  3
*Paper_Space
  1

  0
ENDBLK
  5
1D
100
AcDbEntity
  8
0
100
AcDbBlockEnd
  0
BLOCK
  5
206
100
AcDbEntity
  8
0
100
AcDbBlockBegin
  2
_FILLED
 70
64
 10
0.0
 20
0.0
  3
_FILLED
  1

  0
SOLID
  5
207
100
AcDbEntity
  8
0
  6
BYBLOCK
 62
0
100
AcDbTrace
 10
0.0
 20
0.0
 11
-1.0
 21
0.2
 12
-1.0
 22
-0.2
 13
-1.0
 23
-0.2
  0
ENDBLK
  5
208
100
AcDbEntity
  8
0
  6
BYBLOCK
 62
0
100
AcDbBlockEnd
  0
ENDSEC
  0
SECTION
  2
ENTITIES
  0
MTEXT
  5
209
100
AcDbEntity
  8
0
100
AcDbMText
 62
2
  6
CONTINUOUS
  7
STANDARD
 71
3
 72
1
 10
5.4192934783
 20
2.8688781056
 30
0.0
 11
1.0
 21
0.0
 31
0.0
 73
2
 44
0.9
  1
SCALE  .500
 40
0.08
 41
0.704
  0
LINE
  5
20A
100
AcDbEntity
  8
0
100
AcDbLine
 62
7
  6
CONTINUOUS
 10
0.0
 20
0.0
 11
0.0
 21
8.5
  0
LINE
  5
20B
100
AcDbEntity
  8
0
100
AcDbLine
 62
7
  6
CONTINUOUS
 10
0.0
 20
0.0
 11
11.0
 21
0.0
  0
LINE
  5
20C
100
AcDbEntity
  8
0
100
AcDbLine
 62
7
  6
CONTINUOUS
 10
0.0
 20
8.5
 11
11.0
 21
8.5
  0
LINE
  5
20D
100
AcDbEntity
  8
0
100
AcDbLine
 62
7
  6
CONTINUOUS
 10
11.0
 20
0.0
 11
11.0
 21
8.5
  0
LINE
  5
20E
100
AcDbEntity
  8
0
100
AcDbLine
 62
7
  6
CONTINUOUS
 10
1.5885869565
 20
5.3122088509
 11
1.5885869565
 21
3.9372088509
  0
LINE
  5
20F
100
AcDbEntity
  8
0
100
AcDbLine
 62
7
  6
CONTINUOUS
 10
1.6135869565
 20
5.3122088509
 11
1.6135869565
 21
3.9372088509
  0
LINE
  5
210
100
AcDbEntity
  8
0
100
AcDbLine
 62
7
  6
CONTINUOUS
 10
1.6510869565
 20
3.8997088509
 11
1.6510869565
 21
3.8747088509
  0
LINE
  5
211
100
AcDbEntity
  8
0
100
AcDbLine
 62
7
  6
CONTINUOUS
 10
1.6510869565
 20
5.3497088509
 11
1.6510869567
 21
5.3747088509
  0
LINE
  5
212
100
AcDbEntity
  8
0
100
AcDbLine
 62
7
  6
CONTINUOUS
 10
2.8866872433
 20
4.3122088509
 11
2.8866872433
 21
4.9372088509
  0
LINE
  5
213
100
AcDbEntity
  8
0
100
AcDbLine
 62
7
  6
CONTINUOUS
 10
2.8966872433
 20
4.3222088509
 11
2.8966872433
 21
4.9272088509
  0
LINE
  5
214
100
AcDbEntity
  8
0
100
AcDbLine
 62
7
  6
CONTINUOUS
 10
2.9066872433
 20
4.3122088509
 11
2.9066872433
 21
4.9372088509
  0
LINE
  5
215
100
AcDbEntity
  8
0
100
AcDbLine
 62
7
  6
CONTINUOUS
 10
3.0260869565
 20
3.8997088509
 11
3.0260869564
 21
3.8747088509
  0
LINE
  5
216
100
AcDbEntity
  8
0
100
AcDbLine
 62
7
  6
CONTINUOUS
 10
3.0260869565
 20
5.3497088509
 11
3.0260869565
 21
5.3747088509
  0
LINE
  5
217
100
AcDbEntity
  8
0
100
AcDbLine
 62
7
  6
CONTINUOUS
 10
3.0635869565
 20
3.9372088509
 11
3.0635869565
 21
4.3122088509
  0
LINE
  5
218
100
AcDbEntity
  8
0
100
AcDbLine
 62
7
  6
CONTINUOUS
 10
3.0635869565
 20
4.9372088509
 11
3.0635869565
 21
5.3122088509
  0
LINE
  5
219
100
AcDbEntity
  8
0
100
AcDbLine
 62
7
  6
CONTINUOUS
 10
3.0885869565
 20
3.9372088509
 11
3.0885869565
 21
4.3122088509
  0
LINE
  5
21A
100
AcDbEntity
  8
0
100
AcDbLine
 62
7
  6
CONTINUOUS
 10
3.0885869565
 20
4.9372088509
 11
3.0885869565
 21
5.3122088509
  0
LINE
  5
21B
100
AcDbEntity
  8
0
100
AcDbLine
 62
7
  6
CONTINUOUS
 10
2.8966872433
 20
4.9272088509
 11
2.9066872433
 21
4.9372088509
  0
LINE
  5
21C
100
AcDbEntity
  8
0
100
AcDbLine
 62
7
  6
CONTINUOUS
 10
2.8966872433
 20
4.3222088509
 11
2.9066872433
 21
4.3122088509
  0
LINE
  5
21D
100
AcDbEntity
  8
0
100
AcDbLine
 62
7
  6
CONTINUOUS
 10
2.8966872433
 20
4.3222088509
 11
2.8866872433
 21
4.3122088509
  0
LINE
  5
21E
100
AcDbEntity
  8
0
100
AcDbLine
 62
7
  6
CONTINUOUS
 10
2.8966872433
 20
4.9272088509
 11
2.8866872433
 21
4.9372088509
  0
LINE
  5
21F
100
AcDbEntity
  8
0
100
AcDbLine
 62
7
  6
CONTINUOUS
 10
1.6510869565
 20
3.8747088509
 11
3.0260869565
 21
3.8747088509
  0
LINE
  5
220
100
AcDbEntity
  8
0
100
AcDbLine
 62
7
  6
CONTINUOUS
 10
7.6510869565
 20
3.8747088509
 11
9.0260869565
 21
3.8747088509
  0
LINE
  5
221
100
AcDbEntity
  8
0
100
AcDbLine
 62
7
  6
CONTINUOUS
 10
1.6510869565
 20
3.8997088509
 11
3.0260869565
 21
3.8997088509
  0
LINE
  5
222
100
AcDbEntity
  8
0
100
AcDbLine
 62
7
  6
CONTINUOUS
 10
7.6510869565
 20
3.8997088509
 11
9.0260869565
 21
3.8997088509
  0
LINE
  5
223
100
AcDbEntity
  8
0
100
AcDbLine
 62
7
  6
CONTINUOUS
 10
1.6135869565
 20
3.9372088509
 11
1.5885869565
 21
3.9372088511
  0
LINE
  5
224
100
AcDbEntity
  8
0
100
AcDbLine
 62
7
  6
CONTINUOUS
 10
7.6135869565
 20
3.9372088509
 11
7.5885869565
 21
3.9372088511
  0
LINE
  5
225
100
AcDbEntity
  8
0
100
AcDbLine
 62
7
  6
CONTINUOUS
 10
3.0635869565
 20
3.9372088509
 11
3.0885869565
 21
3.9372088509
  0
LINE
  5
226
100
AcDbEntity
  8
0
100
AcDbLine
 62
7
  6
CONTINUOUS
 10
9.0635869565
 20
3.9372088509
 11
9.0885869565
 21
3.9372088509
  0
LINE
  5
227
100
AcDbEntity
  8
0
100
AcDbLine
 62
7
  6
CONTINUOUS
 10
2.8866872433
 20
4.3122088509
 11
2.3341920207
 21
4.3122088509
  0
LINE
  5
228
100
AcDbEntity
  8
0
100
AcDbLine
 62
7
  6
CONTINUOUS
 10
2.9066872433
 20
4.3122088509
 11
7.7616872433
 21
4.3122088509
  0
LINE
  5
229
100
AcDbEntity
  8
0
100
AcDbLine
 62
7
  6
CONTINUOUS
 10
7.7816872433
 20
4.3122088509
 11
8.3341823882
 21
4.3122088509
  0
LINE
  5
22A
100
AcDbEntity
  8
0
100
AcDbLine
 62
7
  6
CONTINUOUS
 10
2.8866872433
 20
4.9372088509
 11
2.3341920984
 21
4.9372088509
  0
LINE
  5
22B
100
AcDbEntity
  8
0
100
AcDbLine
 62
7
  6
CONTINUOUS
 10
2.9066872433
 20
4.9372088509
 11
7.7616872433
 21
4.9372088509
  0
LINE
  5
22C
100
AcDbEntity
  8
0
100
AcDbLine
 62
7
  6
CONTINUOUS
 10
7.7816872433
 20
4.9372088509
 11
8.334182466
 21
4.9372088509
  0
LINE
  5
22D
100
AcDbEntity
  8
0
100
AcDbLine
 62
7
  6
CONTINUOUS
 10
7.6135869565
 20
5.3122088509
 11
7.5885869565
 21
5.3122088509
  0
LINE
  5
22E
100
AcDbEntity
  8
0
100
AcDbLine
 62
7
  6
CONTINUOUS
 10
1.6135869565
 20
5.3122088509
 11
1.5885869565
 21
5.3122088509
  0
LINE
  5
22F
100
AcDbEntity
  8
0
100
AcDbLine
 62
7
  6
CONTINUOUS
 10
3.0635869565
 20
5.3122088509
 11
3.0885869565
 21
5.3122088508
  0
LINE
  5
230
100
AcDbEntity
  8
0
100
AcDbLine
 62
7
  6
CONTINUOUS
 10
9.0635869565
 20
5.3122088509
 11
9.0885869565
 21
5.3122088508
  0
LINE
  5
231
100
AcDbEntity
  8
0
100
AcDbLine
 62
7
  6
CONTINUOUS
 10
9.0260869565
 20
5.3497088509
 11
7.6510869565
 21
5.3497088509
  0
LINE
  5
232
100
AcDbEntity
  8
0
100
AcDbLine
 62
7
  6
CONTINUOUS
 10
3.0260869565
 20
5.3497088509
 11
1.6510869565
 21
5.3497088509
  0
LINE
  5
233
100
AcDbEntity
  8
0
100
AcDbLine
 62
7
  6
CONTINUOUS
 10
9.0260869565
 20
5.3747088509
 11
7.6510869565
 21
5.3747088509
  0
LINE
  5
234
100
AcDbEntity
  8
0
100
AcDbLine
 62
7
  6
CONTINUOUS
 10
3.0260869565
 20
5.3747088509
 11
1.6510869565
 21
5.3747088509
  0
LINE
  5
235
100
AcDbEntity
  8
0
100
AcDbLine
 62
7
  6
CONTINUOUS
 10
7.7716872433
 20
4.9272088509
 11
7.7816872433
 21
4.9372088509
  0
LINE
  5
236
100
AcDbEntity
  8
0
100
AcDbLine
 62
7
  6
CONTINUOUS
 10
7.7716872433
 20
4.3222088509
 11
7.7816872433
 21
4.3122088509
  0
LINE
  5
237
100
AcDbEntity
  8
0
100
AcDbLine
 62
7
  6
CONTINUOUS
 10
7.7716872433
 20
4.3222088509
 11
7.7616872433
 21
4.3122088509
  0
LINE
  5
238
100
AcDbEntity
  8
0
100
AcDbLine
 62
7
  6
CONTINUOUS
 10
7.7716872433
 20
4.9272088509
 11
7.7616872433
 21
4.9372088509
  0
LINE
  5
239
100
AcDbEntity
  8
0
100
AcDbLine
 62
7
  6
CONTINUOUS
 10
7.5885869565
 20
5.3122088509
 11
7.5885869565
 21
4.9372088509
  0
LINE
  5
23A
100
AcDbEntity
  8
0
100
AcDbLine
 62
7
  6
CONTINUOUS
 10
7.5885869565
 20
4.3122088509
 11
7.5885869565
 21
3.9372088509
  0
LINE
  5
23B
100
AcDbEntity
  8
0
100
AcDbLine
 62
7
  6
CONTINUOUS
 10
7.6135869565
 20
5.3122088509
 11
7.6135869565
 21
4.9372088509
  0
LINE
  5
23C
100
AcDbEntity
  8
0
100
AcDbLine
 62
7
  6
CONTINUOUS
 10
7.6135869565
 20
4.3122088509
 11
7.6135869565
 21
3.9372088509
  0
LINE
  5
23D
100
AcDbEntity
  8
0
100
AcDbLine
 62
7
  6
CONTINUOUS
 10
7.6510869565
 20
3.8997088509
 11
7.6510869565
 21
3.8747088509
  0
LINE
  5
23E
100
AcDbEntity
  8
0
100
AcDbLine
 62
7
  6
CONTINUOUS
 10
7.6510869565
 20
5.3497088509
 11
7.6510869567
 21
5.3747088509
  0
LINE
  5
23F
100
AcDbEntity
  8
0
100
AcDbLine
 62
7
  6
CONTINUOUS
 10
7.7616872433
 20
4.9372088509
 11
7.7616872433
 21
4.3122088509
  0
LINE
  5
240
100
AcDbEntity
  8
0
100
AcDbLine
 62
7
  6
CONTINUOUS
 10
7.7716872433
 20
4.9272088509
 11
7.7716872433
 21
4.3222088509
  0
LINE
  5
241
100
AcDbEntity
  8
0
100
AcDbLine
 62
7
  6
CONTINUOUS
 10
7.7816872433
 20
4.9372088509
 11
7.7816872433
 21
4.3122088509
  0
LINE
  5
242
100
AcDbEntity
  8
0
100
AcDbLine
 62
7
  6
CONTINUOUS
 10
9.0260869565
 20
3.8997088509
 11
9.0260869564
 21
3.8747088509
  0
LINE
  5
243
100
AcDbEntity
  8
0
100
AcDbLine
 62
7
  6
CONTINUOUS
 10
9.0260869565
 20
5.3497088509
 11
9.0260869565
 21
5.3747088509
  0
LINE
  5
244
100
AcDbEntity
  8
0
100
AcDbLine
 62
7
  6
CONTINUOUS
 10
9.0635869565
 20
3.9372088509
 11
9.0635869565
 21
5.3122088509
  0
LINE
  5
245
100
AcDbEntity
  8
0
100
AcDbLine
 62
7
  6
CONTINUOUS
 10
9.0885869565
 20
3.9372088509
 11
9.0885869565
 21
5.3122088509
  0
ARC
  5
246
100
AcDbEntity
  8
0
100
AcDbCircle
 62
7
  6
CONTINUOUS
 10
2.3341872433
 20
4.6247088509
 40
0.4375
100
AcDbArc
 50
45.5877231478
 51
314.4122768541
  0
ARC
  5
247
100
AcDbEntity
  8
0
100
AcDbCircle
 62
7
  6
CONTINUOUS
 10
8.3341872433
 20
4.6247088509
 40
0.4375
100
AcDbArc
 50
225.5904542271
 51
134.4095457737
  0
ARC
  5
248
100
AcDbEntity
  8
0
100
AcDbCircle
 62
7
  6
CONTINUOUS
 10
2.3341872433
 20
4.6247088509
 40
0.4075
100
AcDbArc
 50
50.0969620823
 51
309.903038013
  0
ARC
  5
249
100
AcDbEntity
  8
0
100
AcDbCircle
 62
7
  6
CONTINUOUS
 10
8.3341872433
 20
4.6247088509
 40
0.4075
100
AcDbArc
 50
230.0807044389
 51
129.9192950693
  0
ARC
  5
24A
100
AcDbEntity
  8
0
100
AcDbCircle
 62
7
  6
CONTINUOUS
 10
2.3341872433
 20
4.6247088509
 40
0.3125
100
AcDbArc
 50
90.0
 51
270.0
  0
ARC
  5
24B
100
AcDbEntity
  8
0
100
AcDbCircle
 62
7
  6
CONTINUOUS
 10
8.3341872433
 20
4.6247088509
 40
0.3125
100
AcDbArc
 50
270.0
 51
90.0
  0
ARC
  5
24C
100
AcDbEntity
  8
0
100
AcDbCircle
 62
7
  6
CONTINUOUS
 10
7.6510869565
 20
5.3122088509
 40
0.0625
100
AcDbArc
 50
90.0
 51
180.0
  0
ARC
  5
24D
100
AcDbEntity
  8
0
100
AcDbCircle
 62
7
  6
CONTINUOUS
 10
9.0260869565
 20
5.3122088509
 40
0.0625
100
AcDbArc
 50
0.0
 51
90.0
  0
ARC
  5
24E
100
AcDbEntity
  8
0
100
AcDbCircle
 62
7
  6
CONTINUOUS
 10
9.0260869565
 20
3.9372088509
 40
0.0625
100
AcDbArc
 50
270.0
 51
360.0
  0
ARC
  5
24F
100
AcDbEntity
  8
0
100
AcDbCircle
 62
7
  6
CONTINUOUS
 10
7.6510869565
 20
3.9372088509
 40
0.0625
100
AcDbArc
 50
180.0
 51
270.0
  0
ARC
  5
250
100
AcDbEntity
  8
0
100
AcDbCircle
 62
7
  6
CONTINUOUS
 10
1.6510869565
 20
3.9372088509
 40
0.0625
100
AcDbArc
 50
180.0
 51
270.0
  0
ARC
  5
251
100
AcDbEntity
  8
0
100
AcDbCircle
 62
7
  6
CONTINUOUS
 10
3.0260869565
 20
3.9372088509
 40
0.0625
100
AcDbArc
 50
270.0
 51
360.0
  0
ARC
  5
252
100
AcDbEntity
  8
0
100
AcDbCircle
 62
7
  6
CONTINUOUS
 10
3.0260869565
 20
5.3122088509
 40
0.0625
100
AcDbArc
 50
0.0
 51
90.0
  0
ARC
  5
253
100
AcDbEntity
  8
0
100
AcDbCircle
 62
7
  6
CONTINUOUS
 10
1.6510869565
 20
5.3122088509
 40
0.0625
100
AcDbArc
 50
90.0
 51
180.0
  0
ARC
  5
254
100
AcDbEntity
  8
0
100
AcDbCircle
 62
7
  6
CONTINUOUS
 10
9.0260869565
 20
3.9372088509
 40
0.0375
100
AcDbArc
 50
270.0
 51
360.0
  0
ARC
  5
255
100
AcDbEntity
  8
0
100
AcDbCircle
 62
7
  6
CONTINUOUS
 10
1.6510869565
 20
3.9372088509
 40
0.0375
100
AcDbArc
 50
180.0
 51
270.0
  0
ARC
  5
256
100
AcDbEntity
  8
0
100
AcDbCircle
 62
7
  6
CONTINUOUS
 10
1.6510869565
 20
5.3122088509
 40
0.0375
100
AcDbArc
 50
90.0
 51
180.0
  0
ARC
  5
257
100
AcDbEntity
  8
0
100
AcDbCircle
 62
7
  6
CONTINUOUS
 10
3.0260869565
 20
5.3122088509
 40
0.0375
100
AcDbArc
 50
0.0
 51
90.0
  0
ARC
  5
258
100
AcDbEntity
  8
0
100
AcDbCircle
 62
7
  6
CONTINUOUS
 10
3.0260869565
 20
3.9372088509
 40
0.0375
100
AcDbArc
 50
270.0
 51
360.0
  0
ARC
  5
259
100
AcDbEntity
  8
0
100
AcDbCircle
 62
7
  6
CONTINUOUS
 10
9.0260869565
 20
5.3122088509
 40
0.0375
100
AcDbArc
 50
0.0
 51
90.0
  0
ARC
  5
25A
100
AcDbEntity
  8
0
100
AcDbCircle
 62
7
  6
CONTINUOUS
 10
7.6510869565
 20
5.3122088509
 40
0.0375
100
AcDbArc
 50
90.0
 51
180.0
  0
ARC
  5
25B
100
AcDbEntity
  8
0
100
AcDbCircle
 62
7
  6
CONTINUOUS
 10
7.6510869565
 20
3.9372088509
 40
0.0375
100
AcDbArc
 50
180.0
 51
270.0
  0
SPLINE
  5
25C
100
AcDbEntity
  8
0
100
AcDbSpline
 62
7
  6
CONTINUOUS
 70
0
 71
3
 72
33
 73
29
 74
0
 42
0.0000001
 43
0.0000001
 44
0.0000000001
 40
0.0
 40
0.0
 40
0.0
 40
0.0
 40
0.0165387725
 40
0.0331986362
 40
0.0502388293
 40
0.0678635896
 40
0.1053912008
 40
0.125572505
 40
0.1468182198
 40
0.1692068096
 40
0.1928009647
 40
0.2176481957
 40
0.2437786424
 40
0.271212297
 40
0.2999570891
 40
0.3300118784
 40
0.3613669057
 40
0.4278825837
 40
0.4629895529
 40
0.499271647
 40
0.5366747965
 40
0.575138595
 40
0.6145963722
 40
0.6549734234
 40
0.7381475312
 40
0.823933914
 40
0.9115122018
 40
1.0
 40
1.0
 40
1.0
 40
1.0
 10
2.3341872433
 20
4.3122088509
 30
0.0
 10
2.3322052339
 20
4.312209645
 30
0.0
 10
2.3282227177
 20
4.3124450276
 30
0.0
 10
2.3222835798
 20
4.3135080822
 30
0.0
 10
2.3163791916
 20
4.3152775922
 30
0.0
 10
2.308392327
 20
4.3186384216
 30
0.0
 10
2.3006490739
 20
4.3233986775
 30
0.0
 10
2.2932549306
 20
4.3293109901
 30
0.0
 10
2.2876587457
 20
4.3345349313
 30
0.0
 10
2.2821613381
 20
4.3404321842
 30
0.0
 10
2.2767705373
 20
4.3469954832
 30
0.0
 10
2.2714973683
 20
4.3542160102
 30
0.0
 10
2.2663534593
 20
4.362084479
 30
0.0
 10
2.2613519864
 20
4.3705903023
 30
0.0
 10
2.2565054675
 20
4.3797209583
 30
0.0
 10
2.2518268466
 20
4.3894626389
 30
0.0
 10
2.2457094588
 20
4.4035229505
 30
0.0
 10
2.240130194
 20
4.4184649313
 30
0.0
 10
2.235044589
 20
4.4341909476
 30
0.0
 10
2.2313869945
 20
4.4467070267
 30
0.0
 10
2.2279686612
 20
4.4597066135
 30
0.0
 10
2.2248079284
 20
4.4731624681
 30
0.0
 10
2.2219156564
 20
4.4870427282
 30
0.0
 10
2.2183861379
 20
4.5062577724
 30
0.0
 10
2.2147043519
 20
4.5310823816
 30
0.0
 10
2.2115287365
 20
4.5616712298
 30
0.0
 10
2.2096273018
 20
4.5930024975
 30
0.0
 10
2.2091867506
 20
4.6141044565
 30
0.0
 10
2.2091872433
 20
4.6247088509
 30
0.0
  0
SPLINE
  5
25D
100
AcDbEntity
  8
0
100
AcDbSpline
 62
7
  6
CONTINUOUS
 70
0
 71
3
 72
33
 73
29
 74
0
 42
0.0000001
 43
0.0000001
 44
0.0000000001
 40
0.0
 40
0.0
 40
0.0
 40
0.0
 40
0.088487797
 40
0.1760660858
 40
0.2618524673
 40
0.3450265799
 40
0.3854036356
 40
0.424861405
 40
0.4633251943
 40
0.5007283428
 40
0.5370104431
 40
0.5721174207
 40
0.6386330955
 40
0.669988107
 40
0.7000428869
 40
0.7287876815
 40
0.7562213473
 40
0.7823518067
 40
0.8071990417
 40
0.8307931821
 40
0.8531817499
 40
0.8744274601
 40
0.8946087857
 40
0.932136429
 40
0.9497610895
 40
0.9668010119
 40
0.9834607005
 40
1.0
 40
1.0
 40
1.0
 40
1.0
 10
2.2091872433
 20
4.6247088509
 30
0.0
 10
2.2091867279
 20
4.6353132453
 30
0.0
 10
2.2096273596
 20
4.6564152053
 30
0.0
 10
2.211528837
 20
4.6877464642
 30
0.0
 10
2.214704157
 20
4.7183353475
 30
0.0
 10
2.2183861899
 20
4.7431599246
 30
0.0
 10
2.2219157298
 20
4.7623749634
 30
0.0
 10
2.2248079386
 20
4.7762552351
 30
0.0
 10
2.2279686296
 20
4.7897110979
 30
0.0
 10
2.2313869669
 20
4.8027106836
 30
0.0
 10
2.2350445857
 20
4.8152267575
 30
0.0
 10
2.2401302309
 20
4.8309527624
 30
0.0
 10
2.2457094913
 20
4.8458947419
 30
0.0
 10
2.2518268387
 20
4.8599550676
 30
0.0
 10
2.2565054479
 20
4.8696967513
 30
0.0
 10
2.2613519725
 20
4.8788274052
 30
0.0
 10
2.2663534585
 20
4.8873332246
 30
0.0
 10
2.2714973797
 20
4.8952016895
 30
0.0
 10
2.2767705526
 20
4.9024222139
 30
0.0
 10
2.2821613425
 20
4.9089855165
 30
0.0
 10
2.2876587368
 20
4.9148827753
 30
0.0
 10
2.2932549206
 20
4.9201067173
 30
0.0
 10
2.3006490787
 20
4.9260190216
 30
0.0
 10
2.3083923294
 20
4.930779267
 30
0.0
 10
2.3163791456
 20
4.9341401046
 30
0.0
 10
2.3222834627
 20
4.9359096245
 30
0.0
 10
2.3282226121
 20
4.93697268
 30
0.0
 10
2.3322051707
 20
4.9372080485
 30
0.0
 10
2.3341872433
 20
4.9372088509
 30
0.0
  0
SPLINE
  5
25E
100
AcDbEntity
  8
0
100
AcDbSpline
 62
7
  6
CONTINUOUS
 70
0
 71
3
 72
33
 73
29
 74
0
 42
0.0000001
 43
0.0000001
 44
0.0000000001
 40
0.0
 40
0.0
 40
0.0
 40
0.0
 40
0.0165387725
 40
0.0331986362
 40
0.0502388293
 40
0.0678635896
 40
0.1053912008
 40
0.125572505
 40
0.1468182198
 40
0.1692068096
 40
0.1928009647
 40
0.2176481957
 40
0.2437786424
 40
0.271212297
 40
0.2999570891
 40
0.3300118784
 40
0.3613669057
 40
0.4278825837
 40
0.4629895529
 40
0.499271647
 40
0.5366747965
 40
0.575138595
 40
0.6145963722
 40
0.6549734234
 40
0.7381475312
 40
0.823933914
 40
0.9115122018
 40
1.0
 40
1.0
 40
1.0
 40
1.0
 10
8.3341872433
 20
4.9372088509
 30
0.0
 10
8.3361692528
 20
4.9372080568
 30
0.0
 10
8.3401517689
 20
4.9369726742
 30
0.0
 10
8.3460909069
 20
4.9359096197
 30
0.0
 10
8.351995295
 20
4.9341401097
 30
0.0
 10
8.3599821597
 20
4.9307792803
 30
0.0
 10
8.3677254128
 20
4.9260190244
 30
0.0
 10
8.3751195561
 20
4.9201067118
 30
0.0
 10
8.3807157409
 20
4.9148827705
 30
0.0
 10
8.3862131486
 20
4.9089855177
 30
0.0
 10
8.3916039493
 20
4.9024222187
 30
0.0
 10
8.3968771183
 20
4.8952016917
 30
0.0
 10
8.4020210274
 20
4.8873332229
 30
0.0
 10
8.4070225003
 20
4.8788273996
 30
0.0
 10
8.4118690191
 20
4.8696967436
 30
0.0
 10
8.41654764
 20
4.8599550629
 30
0.0
 10
8.4226650278
 20
4.8458947514
 30
0.0
 10
8.4282442926
 20
4.8309527705
 30
0.0
 10
8.4333298977
 20
4.8152267542
 30
0.0
 10
8.4369874922
 20
4.8027106751
 30
0.0
 10
8.4404058254
 20
4.7897110884
 30
0.0
 10
8.4435665582
 20
4.7762552338
 30
0.0
 10
8.4464588302
 20
4.7623749737
 30
0.0
 10
8.4499883487
 20
4.7431599295
 30
0.0
 10
8.4536701347
 20
4.7183353202
 30
0.0
 10
8.4568457502
 20
4.687746472
 30
0.0
 10
8.4587471849
 20
4.6564152043
 30
0.0
 10
8.459187736
 20
4.6353132454
 30
0.0
 10
8.4591872433
 20
4.6247088509
 30
0.0
  0
SPLINE
  5
25F
100
AcDbEntity
  8
0
100
AcDbSpline
 62
7
  6
CONTINUOUS
 70
0
 71
3
 72
33
 73
29
 74
0
 42
0.0000001
 43
0.0000001
 44
0.0000000001
 40
0.0
 40
0.0
 40
0.0
 40
0.0
 40
0.088487797
 40
0.1760660858
 40
0.2618524673
 40
0.3450265799
 40
0.3854036356
 40
0.424861405
 40
0.4633251943
 40
0.5007283428
 40
0.5370104431
 40
0.5721174207
 40
0.6386330955
 40
0.669988107
 40
0.7000428869
 40
0.7287876815
 40
0.7562213473
 40
0.7823518067
 40
0.8071990417
 40
0.8307931821
 40
0.8531817499
 40
0.8744274601
 40
0.8946087857
 40
0.932136429
 40
0.9497610895
 40
0.9668010119
 40
0.9834607005
 40
1.0
 40
1.0
 40
1.0
 40
1.0
 10
8.4591872433
 20
4.6247088509
 30
0.0
 10
8.4591877588
 20
4.6141044565
 30
0.0
 10
8.4587471271
 20
4.5930024966
 30
0.0
 10
8.4568456496
 20
4.5616712377
 30
0.0
 10
8.4536703296
 20
4.5310823543
 30
0.0
 10
8.4499882968
 20
4.5062577773
 30
0.0
 10
8.4464587568
 20
4.4870427385
 30
0.0
 10
8.443566548
 20
4.4731624667
 30
0.0
 10
8.4404058571
 20
4.459706604
 30
0.0
 10
8.4369875198
 20
4.4467070183
 30
0.0
 10
8.433329901
 20
4.4341909443
 30
0.0
 10
8.4282442557
 20
4.4184649394
 30
0.0
 10
8.4226649953
 20
4.4035229599
 30
0.0
 10
8.4165476479
 20
4.3894626342
 30
0.0
 10
8.4118690388
 20
4.3797209505
 30
0.0
 10
8.4070225141
 20
4.3705902967
 30
0.0
 10
8.4020210282
 20
4.3620844772
 30
0.0
 10
8.3968771069
 20
4.3542160124
 30
0.0
 10
8.3916039341
 20
4.346995488
 30
0.0
 10
8.3862131442
 20
4.3404321854
 30
0.0
 10
8.3807157498
 20
4.3345349266
 30
0.0
 10
8.375119566
 20
4.3293109846
 30
0.0
 10
8.3677254079
 20
4.3233986803
 30
0.0
 10
8.3599821572
 20
4.3186384348
 30
0.0
 10
8.351995341
 20
4.3152775973
 30
0.0
 10
8.3460910239
 20
4.3135080774
 30
0.0
 10
8.3401518745
 20
4.3124450218
 30
0.0
 10
8.336169316
 20
4.3122096533
 30
0.0
 10
8.3341872433
 20
4.3122088509
 30
0.0
  0
ENDSEC
  0
SECTION
  2
OBJECTS
  0
DICTIONARY
  5
C
100
AcDbDictionary
280
0
281
1
  3
ACAD_GROUP
350
D
  3
ACAD_MLINESTYLE
350
17
  3
ACAD_LAYOUT
350
1A
  3
ACAD_PLOTSETTINGS
350
19
  3
ACAD_PLOTSTYLENAME
350
E
  0
DICTIONARY
  5
D
102
{ACAD_REACTORS
330
C
102
}
100
AcDbDictionary
280
0
281
1
  0
ACDBDICTIONARYWDFLT
  5
E
102
{ACAD_REACTORS
330
C
102
}
100
AcDbDictionary
281
1
  3
Normal
350
F
100
AcDbDictionaryWithDefault
340
F
  0
DICTIONARY
  5
17
102
{ACAD_REACTORS
330
C
102
}
100
AcDbDictionary
280
0
281
1
  3
Standard
350
18
  0
DICTIONARY
  5
19
102
{ACAD_REACTORS
330
C
102
}
100
AcDbDictionary
281
1
  0
DICTIONARY
  5
1A
102
{ACAD_REACTORS
330
C
102
}
100
AcDbDictionary
281
1
  3
Model
350
260
  3
Layout1
350
261
  0
ACDBPLACEHOLDER
  5
F
102
{ACAD_REACTORS
330
E
102
}
  0
MLINESTYLE
  5
18
102
{ACAD_REACTORS
330
17
102
}
100
AcDbMlineStyle
  2
STANDARD
 70
0
  3

 62
256
 51
90.0
 52
90.0
 71
2
 49
0.5
 62
256
  6
BYLAYER
 49
-0.5
 62
256
  6
BYLAYER
  0
LAYOUT
  5
260
102
{ACAD_REACTORS
330
1A
102
}
100
AcDbPlotSettings
  1

  2
none_device
  4
ANSI_A_(11.00_x_8.50_Inches)
  6

 40
0.0
 41
0.0
 42
0.0
 43
0.0
 44
279.4
 45
215.9
 46
0.0
 47
0.0
 48
0.0
 49
0.0
140
0.0
141
0.0
142
1.0
143
1.0
 70
1024
 72
0
 73
0
 74
0
  7

 75
0
147
1.0
148
0.0
149
0.0
100
AcDbLayout
  1
Model
 70
0
 71
0
 10
0.0
 20
0.0
 11
11.0
 21
8.5
 12
0.0
 22
0.0
 32
0.0
 14
0.0
 24
0.0
 34
0.0
 15
0.0
 25
0.0
 35
0.0
146
0.0
 13
0.0
 23
0.0
 33
0.0
 16
1.0
 26
0.0
 36
0.0
 17
0.0
 27
1.0
 37
0.0
 76
0
330
202
345
0
346
0
  0
LAYOUT
  5
261
102
{ACAD_REACTORS
330
1A
102
}
100
AcDbPlotSettings
  1

  2
none_device
  4
ANSI_A_(11.00_x_8.50_Inches)
  6

 40
0.0
 41
0.0
 42
0.0
 43
0.0
 44
279.4
 45
215.9
 46
0.0
 47
0.0
 48
0.0
 49
0.0
140
0.0
141
0.0
142
1.0
143
1.0
 70
0
 72
0
 73
0
 74
0
  7

 75
0
147
1.0
148
0.0
149
0.0
100
AcDbLayout
  1
Layout1
 70
0
 71
1
 10
0.0
 20
0.0
 11
11.0
 21
8.5
 12
0.0
 22
0.0
 32
0.0
 14
0.0
 24
0.0
 34
0.0
 15
0.0
 25
0.0
 35
0.0
146
0.0
 13
0.0
 23
0.0
 33
0.0
 16
1.0
 26
0.0
 36
0.0
 17
0.0
 27
1.0
 37
0.0
 76
0
330
203
345
0
346
0
  0
ENDSEC
  0
EOF
