999
DXF file: E:\BT Custom\CADOUTPUT\_FRONT.dxf
999
Pro/ENGINEER 2018400 by Parametric Technology Corporation
  0
SECTION
  2
HEADER
  9
$ACADVER
  1
AC1018
  9
$DWGCODEPAGE
  3
ANSI_1252
  9
$EXTMAX
 10
22.0
 20
17.0
 30
0.0
  9
$EXTMIN
 10
0.0
 20
0.0
 30
0.0
  9
$LIMMIN
 10
0.0
 20
0.0
  9
$LIMMAX
 10
22.0
 20
17.0
  9
$VIEWCTR
 10
11.0
 20
8.5
  9
$VIEWSIZE
 40
17.0
  9
$CLAYER
  8
0
  9
$LTSCALE
 40
1.21
  9
$CELTYPE
  6
BYLAYER
  9
$DIMSCALE
 40
1.0
  9
$DIMASZ
 40
0.1
  9
$DIMEXO
 40
0.0625
  9
$DIMDLI
 40
0.836
  9
$DIMEXE
 40
0.125
  9
$DIMCEN
 40
0.198
  9
$DIMLFAC
 40
1.0
  9
$DIMBLK
  1
_FILLED
  9
$DIMALT
 70
1
  9
$DIMALTD
 70
2
  9
$DIMALTTD
 70
2
  9
$DIMALTF
 40
25.4
  9
$DIMTXT
 40
0.08
  9
$DIMTOL
 70
1
  9
$DIMLIM
 70
0
  9
$DIMTFAC
 40
1.0
  9
$DIMTP
 40
0.001
  9
$DIMTM
 40
0.001
  9
$DIMGAP
 40
0.09
  9
$DIMDSEP
 70
46
  9
$AUNITS
 70
0
  9
$PDMODE
 70
3
  9
$PDSIZE
 40
0.06
  9
$HANDSEED
  5
280
  9
$TILEMODE
 70
1
  9
$MEASUREMENT
 70
0
  9
$INSUNITS
 70
1
  0
ENDSEC
  0
SECTION
  2
CLASSES
  0
CLASS
  1
ACDBDICTIONARYWDFLT
  2
AcDbDictionaryWithDefault
  3
AutoCAD 2000
 90
0
 91
1
280
0
281
0
  0
CLASS
  1
ACDBPLACEHOLDER
  2
AcDbPlaceHolder
  3
AutoCAD 2000
 90
0
 91
1
280
0
281
0
  0
CLASS
  1
LAYOUT
  2
AcDbLayout
  3
AutoCAD 2000
 90
0
 91
0
280
0
281
0
  0
ENDSEC
  0
SECTION
  2
TABLES
  0
TABLE
  2
VPORT
  5
8
100
AcDbSymbolTable
 70
2
  0
VPORT
  5
1F4
100
AcDbSymbolTableRecord
100
AcDbViewportTableRecord
  2
*ACTIVE
 70
0
 10
0.0
 20
0.0
 11
1.0
 21
1.0
 12
11.0
 22
8.5
 13
0.0
 23
0.0
 14
1.0
 24
1.0
 15
0.0
 25
0.0
 16
0.0
 26
0.0
 36
1.0
 17
0.0
 27
0.0
 37
0.0
 40
17.0
 41
1.2941176471
 42
50.0
 43
0.0
 44
0.0
 50
0.0
 51
0.0
 71
0
 72
100
 73
1
 74
1
 75
0
 76
0
 77
0
 78
0
  0
ENDTAB
  0
TABLE
  2
LTYPE
  5
5
100
AcDbSymbolTable
 70
6
  0
LTYPE
  5
14
100
AcDbSymbolTableRecord
100
AcDbLinetypeTableRecord
  2
BYBLOCK
 70
0
  3

 72
65
 73
0
 40
0.0
  0
LTYPE
  5
15
100
AcDbSymbolTableRecord
100
AcDbLinetypeTableRecord
  2
BYLAYER
 70
0
  3

 72
65
 73
0
 40
0.0
  0
LTYPE
  5
16
100
AcDbSymbolTableRecord
100
AcDbLinetypeTableRecord
  2
CONTINUOUS
 70
64
  3
Solid line
 72
65
 73
0
 40
0.0
  0
LTYPE
  5
1F5
100
AcDbSymbolTableRecord
100
AcDbLinetypeTableRecord
  2
CENTER
 70
64
  3
____ _ ____ _ ____ _ ____ _ ____ _ ____ _ ____
 72
65
 73
4
 40
0.6
 49
0.375
 74
0
 49
-0.075
 74
0
 49
0.075
 74
0
 49
-0.075
 74
0
  0
LTYPE
  5
1F6
100
AcDbSymbolTableRecord
100
AcDbLinetypeTableRecord
  2
HIDDEN
 70
64
  3
- - - - - - - - - - - - - - - - - - - -
 72
65
 73
2
 40
0.2
 49
0.1
 74
0
 49
-0.1
 74
0
  0
LTYPE
  5
1F7
100
AcDbSymbolTableRecord
100
AcDbLinetypeTableRecord
  2
PHANTOM
 70
64
  3
_____ _ _ _____ _ _ _____ _ _ _____
 72
65
 73
6
 40
0.8
 49
0.45
 74
0
 49
-0.05
 74
0
 49
0.1
 74
0
 49
-0.05
 74
0
 49
0.1
 74
0
 49
-0.05
 74
0
  0
LTYPE
  5
1F8
100
AcDbSymbolTableRecord
100
AcDbLinetypeTableRecord
  2
DOT
 70
64
  3
. . . . . . . . . . . . . . . . . . . .
 72
65
 73
2
 40
0.2
 49
0.1
 74
0
 49
-0.1
 74
0
  0
LTYPE
  5
1F9
100
AcDbSymbolTableRecord
100
AcDbLinetypeTableRecord
  2
DASHED
 70
64
  3
- - - - - - - - - - - - - - - - - - - -
 72
65
 73
2
 40
0.2
 49
0.1
 74
0
 49
-0.1
 74
0
  0
ENDTAB
  0
TABLE
  2
LAYER
  5
2
100
AcDbSymbolTable
 70
36
  0
LAYER
  5
10
100
AcDbSymbolTableRecord
100
AcDbLayerTableRecord
  2
0
 70
0
 62
7
  6
CONTINUOUS
370
-3
390
F
  0
LAYER
  5
1FA
100
AcDbSymbolTableRecord
100
AcDbLayerTableRecord
  2
DEFAULT_1
 70
0
 62
7
  6
CENTER
370
-3
390
F
  0
LAYER
  5
1FB
100
AcDbSymbolTableRecord
100
AcDbLayerTableRecord
  2
DEFAULT_2
 70
0
 62
8
  6
HIDDEN
370
-3
390
F
  0
LAYER
  5
1FC
100
AcDbSymbolTableRecord
100
AcDbLayerTableRecord
  2
DEFAULT_3
 70
0
 62
7
  6
PHANTOM
370
-3
390
F
  0
LAYER
  5
1FD
100
AcDbSymbolTableRecord
100
AcDbLayerTableRecord
  2
ALL_FEATURES
 70
0
 62
7
  6
CONTINUOUS
370
-3
390
F
  0
LAYER
  5
1FE
100
AcDbSymbolTableRecord
100
AcDbLayerTableRecord
  2
AXES_FEATURES
 70
0
 62
7
  6
CONTINUOUS
370
-3
390
F
  0
LAYER
  5
1FF
100
AcDbSymbolTableRecord
100
AcDbLayerTableRecord
  2
DEFAULT_COORDINATE_SYSTEM
 70
0
 62
7
  6
CONTINUOUS
370
-3
390
F
  0
LAYER
  5
200
100
AcDbSymbolTableRecord
100
AcDbLayerTableRecord
  2
DEFAULT_DATUM_AXES
 70
0
 62
7
  6
CONTINUOUS
370
-3
390
F
  0
LAYER
  5
201
100
AcDbSymbolTableRecord
100
AcDbLayerTableRecord
  2
DEFAULT_DATUM_PLANES
 70
0
 62
7
  6
CONTINUOUS
370
-3
390
F
  0
LAYER
  5
202
100
AcDbSymbolTableRecord
100
AcDbLayerTableRecord
  2
DIMENSIONS
 70
0
 62
7
  6
CONTINUOUS
370
-3
390
F
  0
ENDTAB
  0
TABLE
  2
STYLE
  5
3
100
AcDbSymbolTable
 70
1
  0
STYLE
  5
11
100
AcDbSymbolTableRecord
100
AcDbTextStyleTableRecord
  2
STANDARD
 70
0
 40
0.0
 41
0.8
 50
0.0
 71
0
 42
0.2
  3
txt
  4

  0
STYLE
  5
203
100
AcDbSymbolTableRecord
100
AcDbTextStyleTableRecord
  2
TEXTSTYLE_1
 70
0
 40
0.0
 41
0.8
 50
0.0
 71
0
 42
0.2
  3
gdt
  4

  0
ENDTAB
  0
TABLE
  2
VIEW
  5
6
100
AcDbSymbolTable
 70
0
  0
ENDTAB
  0
TABLE
  2
UCS
  5
7
100
AcDbSymbolTable
 70
0
  0
ENDTAB
  0
TABLE
  2
APPID
  5
9
100
AcDbSymbolTable
 70
1
  0
APPID
  5
204
100
AcDbSymbolTableRecord
100
AcDbRegAppTableRecord
  2
ACAD
 70
0
  0
ENDTAB
  0
TABLE
  2
BLOCK_RECORD
  5
1
100
AcDbSymbolTable
 70
0
  0
BLOCK_RECORD
  5
205
100
AcDbSymbolTableRecord
100
AcDbBlockTableRecord
  2
*Model_Space
  0
BLOCK_RECORD
  5
206
100
AcDbSymbolTableRecord
100
AcDbBlockTableRecord
  2
*Paper_Space
  0
BLOCK_RECORD
  5
207
100
AcDbSymbolTableRecord
100
AcDbBlockTableRecord
  2
_FILLED
  0
ENDTAB
  0
TABLE
  2
DIMSTYLE
  5
A
100
AcDbSymbolTable
 70
1
100
AcDbDimStyleTable
 71
0
  0
DIMSTYLE
105
208
100
AcDbSymbolTableRecord
100
AcDbDimStyleTableRecord
  2
STANDARD
 70
0
  3

  4

 40
1.0
 41
0.1
 42
0.0625
 43
0.38
 44
0.125
 45
0.0
 46
0.0
 47
0.001
 48
0.001
140
0.08
141
0.09
142
0.0
143
25.4
144
1.0
145
0.0
146
1.0
147
0.09
 71
1.0
 72
0.0
 73
1
 74
1
 75
0
 76
0
 77
0
 78
4
 79
1
170
1
171
2
172
0
173
0
174
0
175
0
176
0
177
0
178
0
270
2
179
3
271
3
272
3
273
2
274
2
275
0
280
0
281
0
282
0
283
1
284
4
285
0
286
0
287
3
288
0
340
11
278
46
341
207
342
207
343
207
344
207
  0
ENDTAB
  0
ENDSEC
  0
SECTION
  2
BLOCKS
  0
BLOCK
  5
20
100
AcDbEntity
  8
0
100
AcDbBlockBegin
  2
*Model_Space
 70
0
 10
0.0
 20
0.0
 30
0.0
  3
*Model_Space
  1

  0
ENDBLK
  5
21
100
AcDbEntity
  8
0
100
AcDbBlockEnd
  0
BLOCK
  5
1C
100
AcDbEntity
  8
0
100
AcDbBlockBegin
  2
*Paper_Space
 70
0
 10
0.0
 20
0.0
 30
0.0
  3
*Paper_Space
  1

  0
ENDBLK
  5
1D
100
AcDbEntity
  8
0
100
AcDbBlockEnd
  0
BLOCK
  5
209
100
AcDbEntity
  8
0
100
AcDbBlockBegin
  2
_FILLED
 70
64
 10
0.0
 20
0.0
  3
_FILLED
  1

  0
SOLID
  5
20A
100
AcDbEntity
  8
0
  6
BYBLOCK
 62
0
100
AcDbTrace
 10
0.0
 20
0.0
 11
-1.0
 21
0.2
 12
-1.0
 22
-0.2
 13
-1.0
 23
-0.2
  0
ENDBLK
  5
20B
100
AcDbEntity
  8
0
  6
BYBLOCK
 62
0
100
AcDbBlockEnd
  0
ENDSEC
  0
SECTION
  2
ENTITIES
  0
LINE
  5
20C
100
AcDbEntity
  8
0
100
AcDbLine
 62
7
  6
CONTINUOUS
 10
-11.5623076573
 20
10.6426695021
 11
-11.5623076573
 21
7.8926695021
  0
LINE
  5
20D
100
AcDbEntity
  8
0
100
AcDbLine
 62
9
  6
CONTINUOUS
 10
-11.5123076573
 20
10.6426695021
 11
-11.5123076573
 21
7.8926695021
  0
LINE
  5
20E
100
AcDbEntity
  8
0
100
AcDbLine
 62
9
  6
CONTINUOUS
 10
-11.4373076573
 20
7.8176695021
 11
-11.4373076573
 21
7.7676695021
  0
LINE
  5
20F
100
AcDbEntity
  8
0
100
AcDbLine
 62
9
  6
CONTINUOUS
 10
-11.4373076573
 20
10.7176695021
 11
-11.4373076569
 21
10.7676695021
  0
LINE
  5
210
100
AcDbEntity
  8
0
100
AcDbLine
 62
7
  6
CONTINUOUS
 10
-8.9573076573
 20
8.6426695021
 11
-8.9573076573
 21
9.8926695021
  0
LINE
  5
211
100
AcDbEntity
  8
0
100
AcDbLine
 62
7
  6
CONTINUOUS
 10
-8.9373076573
 20
8.6626695021
 11
-8.9373076573
 21
9.8726695021
  0
LINE
  5
212
100
AcDbEntity
  8
0
100
AcDbLine
 62
7
  6
CONTINUOUS
 10
-8.9173076573
 20
8.6426695021
 11
-8.9173076573
 21
9.8926695021
  0
LINE
  5
213
100
AcDbEntity
  8
0
100
AcDbLine
 62
9
  6
CONTINUOUS
 10
-8.6873076573
 20
7.8176695021
 11
-8.6873076576
 21
7.7676695021
  0
LINE
  5
214
100
AcDbEntity
  8
0
100
AcDbLine
 62
9
  6
CONTINUOUS
 10
-8.6873076573
 20
10.7176695021
 11
-8.6873076573
 21
10.7676695021
  0
LINE
  5
215
100
AcDbEntity
  8
0
100
AcDbLine
 62
9
  6
CONTINUOUS
 10
-8.6123076573
 20
7.8926695021
 11
-8.6123076573
 21
8.6426695021
  0
LINE
  5
216
100
AcDbEntity
  8
0
100
AcDbLine
 62
9
  6
CONTINUOUS
 10
-8.6123076573
 20
9.8926695021
 11
-8.6123076573
 21
10.6426695021
  0
LINE
  5
217
100
AcDbEntity
  8
0
100
AcDbLine
 62
7
  6
CONTINUOUS
 10
-8.5623076573
 20
7.8926695021
 11
-8.5623076573
 21
8.6426695021
  0
LINE
  5
218
100
AcDbEntity
  8
0
100
AcDbLine
 62
7
  6
CONTINUOUS
 10
-8.5623076573
 20
9.8926695021
 11
-8.5623076573
 21
10.6426695021
  0
LINE
  5
219
100
AcDbEntity
  8
0
100
AcDbLine
 62
7
  6
CONTINUOUS
 10
-8.9373076573
 20
9.8726695021
 11
-8.9173076573
 21
9.8926695021
  0
LINE
  5
21A
100
AcDbEntity
  8
0
100
AcDbLine
 62
7
  6
CONTINUOUS
 10
-8.9373076573
 20
8.6626695021
 11
-8.9573076573
 21
8.6426695021
  0
LINE
  5
21B
100
AcDbEntity
  8
0
100
AcDbLine
 62
7
  6
CONTINUOUS
 10
-8.9373076573
 20
8.6626695021
 11
-8.9173076573
 21
8.6426695021
  0
LINE
  5
21C
100
AcDbEntity
  8
0
100
AcDbLine
 62
7
  6
CONTINUOUS
 10
-8.9373076573
 20
9.8726695021
 11
-8.9573076573
 21
9.8926695021
  0
LINE
  5
21D
100
AcDbEntity
  8
0
100
AcDbLine
 62
7
  6
CONTINUOUS
 10
9.4376923427
 20
10.6426695021
 11
9.4376923427
 21
9.8926695021
  0
LINE
  5
21E
100
AcDbEntity
  8
0
100
AcDbLine
 62
7
  6
CONTINUOUS
 10
9.4376923427
 20
8.6426695021
 11
9.4376923427
 21
7.8926695021
  0
LINE
  5
21F
100
AcDbEntity
  8
0
100
AcDbLine
 62
9
  6
CONTINUOUS
 10
9.4876923427
 20
10.6426695021
 11
9.4876923427
 21
9.8926695021
  0
LINE
  5
220
100
AcDbEntity
  8
0
100
AcDbLine
 62
9
  6
CONTINUOUS
 10
9.4876923427
 20
8.6426695021
 11
9.4876923427
 21
7.8926695021
  0
LINE
  5
221
100
AcDbEntity
  8
0
100
AcDbLine
 62
9
  6
CONTINUOUS
 10
9.5626923427
 20
7.8176695021
 11
9.5626923427
 21
7.7676695021
  0
LINE
  5
222
100
AcDbEntity
  8
0
100
AcDbLine
 62
9
  6
CONTINUOUS
 10
9.5626923427
 20
10.7176695021
 11
9.5626923431
 21
10.7676695021
  0
LINE
  5
223
100
AcDbEntity
  8
0
100
AcDbLine
 62
7
  6
CONTINUOUS
 10
-11.4373076573
 20
7.7676695021
 11
-8.6873076573
 21
7.7676695021
  0
LINE
  5
224
100
AcDbEntity
  8
0
100
AcDbLine
 62
7
  6
CONTINUOUS
 10
9.5626923427
 20
7.7676695021
 11
12.3126923427
 21
7.7676695021
  0
LINE
  5
225
100
AcDbEntity
  8
0
100
AcDbLine
 62
7
  6
CONTINUOUS
 10
30.5626923427
 20
7.7676695021
 11
33.3126923427
 21
7.7676695021
  0
LINE
  5
226
100
AcDbEntity
  8
0
100
AcDbLine
 62
9
  6
CONTINUOUS
 10
-11.4373076573
 20
7.8176695021
 11
-8.6873076573
 21
7.8176695021
  0
LINE
  5
227
100
AcDbEntity
  8
0
100
AcDbLine
 62
9
  6
CONTINUOUS
 10
9.5626923427
 20
7.8176695021
 11
12.3126923427
 21
7.8176695021
  0
LINE
  5
228
100
AcDbEntity
  8
0
100
AcDbLine
 62
9
  6
CONTINUOUS
 10
30.5626923427
 20
7.8176695021
 11
33.3126923427
 21
7.8176695021
  0
LINE
  5
229
100
AcDbEntity
  8
0
100
AcDbLine
 62
9
  6
CONTINUOUS
 10
-11.5123076573
 20
7.8926695021
 11
-11.5623076573
 21
7.8926695025
  0
LINE
  5
22A
100
AcDbEntity
  8
0
100
AcDbLine
 62
9
  6
CONTINUOUS
 10
9.4876923427
 20
7.8926695021
 11
9.4376923427
 21
7.8926695025
  0
LINE
  5
22B
100
AcDbEntity
  8
0
100
AcDbLine
 62
9
  6
CONTINUOUS
 10
-8.6123076573
 20
7.8926695021
 11
-8.5623076573
 21
7.8926695021
  0
LINE
  5
22C
100
AcDbEntity
  8
0
100
AcDbLine
 62
9
  6
CONTINUOUS
 10
12.3876923427
 20
7.8926695021
 11
12.4376923427
 21
7.8926695021
  0
LINE
  5
22D
100
AcDbEntity
  8
0
100
AcDbLine
 62
9
  6
CONTINUOUS
 10
33.3876923427
 20
7.8926695021
 11
33.4376923427
 21
7.8926695021
  0
LINE
  5
22E
100
AcDbEntity
  8
0
100
AcDbLine
 62
9
  6
CONTINUOUS
 10
30.4876923427
 20
7.8926695021
 11
30.4376923427
 21
7.8926695025
  0
LINE
  5
22F
100
AcDbEntity
  8
0
100
AcDbLine
 62
7
  6
CONTINUOUS
 10
-8.9173076573
 20
8.6426695021
 11
30.7926923427
 21
8.6426695021
  0
LINE
  5
230
100
AcDbEntity
  8
0
100
AcDbLine
 62
7
  6
CONTINUOUS
 10
-8.9573076573
 20
8.6426695021
 11
-10.0622991182
 21
8.6426695021
  0
LINE
  5
231
100
AcDbEntity
  8
0
100
AcDbLine
 62
7
  6
CONTINUOUS
 10
30.8326923427
 20
8.6426695021
 11
31.9376826505
 21
8.6426695021
  0
LINE
  5
232
100
AcDbEntity
  8
0
100
AcDbLine
 62
9
  6
CONTINUOUS
 10
12.3126923427
 20
7.8176695021
 11
12.3126923424
 21
7.7676695021
  0
LINE
  5
233
100
AcDbEntity
  8
0
100
AcDbLine
 62
9
  6
CONTINUOUS
 10
12.3126923427
 20
10.7176695021
 11
12.3126923427
 21
10.7676695021
  0
LINE
  5
234
100
AcDbEntity
  8
0
100
AcDbLine
 62
9
  6
CONTINUOUS
 10
12.3876923427
 20
7.8926695021
 11
12.3876923427
 21
8.6426695021
  0
LINE
  5
235
100
AcDbEntity
  8
0
100
AcDbLine
 62
9
  6
CONTINUOUS
 10
12.3876923427
 20
9.8926695021
 11
12.3876923427
 21
10.6426695021
  0
LINE
  5
236
100
AcDbEntity
  8
0
100
AcDbLine
 62
7
  6
CONTINUOUS
 10
12.4376923427
 20
7.8926695021
 11
12.4376923427
 21
8.6426695021
  0
LINE
  5
237
100
AcDbEntity
  8
0
100
AcDbLine
 62
7
  6
CONTINUOUS
 10
12.4376923427
 20
9.8926695021
 11
12.4376923427
 21
10.6426695021
  0
LINE
  5
238
100
AcDbEntity
  8
0
100
AcDbLine
 62
7
  6
CONTINUOUS
 10
-8.9173076573
 20
9.8926695021
 11
30.7926923427
 21
9.8926695021
  0
LINE
  5
239
100
AcDbEntity
  8
0
100
AcDbLine
 62
7
  6
CONTINUOUS
 10
-8.9573076573
 20
9.8926695021
 11
-10.062297965
 21
9.8926695021
  0
LINE
  5
23A
100
AcDbEntity
  8
0
100
AcDbLine
 62
7
  6
CONTINUOUS
 10
30.8326923427
 20
9.8926695021
 11
31.9376838037
 21
9.8926695021
  0
LINE
  5
23B
100
AcDbEntity
  8
0
100
AcDbLine
 62
9
  6
CONTINUOUS
 10
-8.6123076573
 20
10.6426695021
 11
-8.5623076573
 21
10.6426695018
  0
LINE
  5
23C
100
AcDbEntity
  8
0
100
AcDbLine
 62
9
  6
CONTINUOUS
 10
30.4876923427
 20
10.6426695021
 11
30.4376923427
 21
10.6426695021
  0
LINE
  5
23D
100
AcDbEntity
  8
0
100
AcDbLine
 62
9
  6
CONTINUOUS
 10
9.4876923427
 20
10.6426695021
 11
9.4376923427
 21
10.6426695021
  0
LINE
  5
23E
100
AcDbEntity
  8
0
100
AcDbLine
 62
9
  6
CONTINUOUS
 10
-11.5123076573
 20
10.6426695021
 11
-11.5623076573
 21
10.6426695021
  0
LINE
  5
23F
100
AcDbEntity
  8
0
100
AcDbLine
 62
9
  6
CONTINUOUS
 10
12.3876923427
 20
10.6426695021
 11
12.4376923427
 21
10.6426695018
  0
LINE
  5
240
100
AcDbEntity
  8
0
100
AcDbLine
 62
9
  6
CONTINUOUS
 10
33.3876923427
 20
10.6426695021
 11
33.4376923427
 21
10.6426695018
  0
LINE
  5
241
100
AcDbEntity
  8
0
100
AcDbLine
 62
9
  6
CONTINUOUS
 10
33.3126923427
 20
10.7176695021
 11
30.5626923427
 21
10.7176695021
  0
LINE
  5
242
100
AcDbEntity
  8
0
100
AcDbLine
 62
9
  6
CONTINUOUS
 10
12.3126923427
 20
10.7176695021
 11
9.5626923427
 21
10.7176695021
  0
LINE
  5
243
100
AcDbEntity
  8
0
100
AcDbLine
 62
9
  6
CONTINUOUS
 10
-8.6873076573
 20
10.7176695021
 11
-11.4373076573
 21
10.7176695021
  0
LINE
  5
244
100
AcDbEntity
  8
0
100
AcDbLine
 62
7
  6
CONTINUOUS
 10
33.3126923427
 20
10.7676695021
 11
30.5626923427
 21
10.7676695021
  0
LINE
  5
245
100
AcDbEntity
  8
0
100
AcDbLine
 62
7
  6
CONTINUOUS
 10
12.3126923427
 20
10.7676695021
 11
9.5626923427
 21
10.7676695021
  0
LINE
  5
246
100
AcDbEntity
  8
0
100
AcDbLine
 62
7
  6
CONTINUOUS
 10
-8.6873076573
 20
10.7676695021
 11
-11.4373076573
 21
10.7676695021
  0
LINE
  5
247
100
AcDbEntity
  8
0
100
AcDbLine
 62
7
  6
CONTINUOUS
 10
30.8126923427
 20
9.8726695021
 11
30.8326923427
 21
9.8926695021
  0
LINE
  5
248
100
AcDbEntity
  8
0
100
AcDbLine
 62
7
  6
CONTINUOUS
 10
30.8126923427
 20
8.6626695021
 11
30.8326923427
 21
8.6426695021
  0
LINE
  5
249
100
AcDbEntity
  8
0
100
AcDbLine
 62
7
  6
CONTINUOUS
 10
30.8126923427
 20
8.6626695021
 11
30.7926923427
 21
8.6426695021
  0
LINE
  5
24A
100
AcDbEntity
  8
0
100
AcDbLine
 62
7
  6
CONTINUOUS
 10
30.8126923427
 20
9.8726695021
 11
30.7926923427
 21
9.8926695021
  0
LINE
  5
24B
100
AcDbEntity
  8
0
100
AcDbLine
 62
7
  6
CONTINUOUS
 10
30.4376923427
 20
10.6426695021
 11
30.4376923427
 21
9.8926695021
  0
LINE
  5
24C
100
AcDbEntity
  8
0
100
AcDbLine
 62
7
  6
CONTINUOUS
 10
30.4376923427
 20
8.6426695021
 11
30.4376923427
 21
7.8926695021
  0
LINE
  5
24D
100
AcDbEntity
  8
0
100
AcDbLine
 62
9
  6
CONTINUOUS
 10
30.4876923427
 20
10.6426695021
 11
30.4876923427
 21
9.8926695021
  0
LINE
  5
24E
100
AcDbEntity
  8
0
100
AcDbLine
 62
9
  6
CONTINUOUS
 10
30.4876923427
 20
8.6426695021
 11
30.4876923427
 21
7.8926695021
  0
LINE
  5
24F
100
AcDbEntity
  8
0
100
AcDbLine
 62
9
  6
CONTINUOUS
 10
30.5626923427
 20
7.8176695021
 11
30.5626923427
 21
7.7676695021
  0
LINE
  5
250
100
AcDbEntity
  8
0
100
AcDbLine
 62
9
  6
CONTINUOUS
 10
30.5626923427
 20
10.7176695021
 11
30.5626923431
 21
10.7676695021
  0
LINE
  5
251
100
AcDbEntity
  8
0
100
AcDbLine
 62
7
  6
CONTINUOUS
 10
30.7926923427
 20
9.8926695021
 11
30.7926923427
 21
8.6426695021
  0
LINE
  5
252
100
AcDbEntity
  8
0
100
AcDbLine
 62
7
  6
CONTINUOUS
 10
30.8126923427
 20
9.8726695021
 11
30.8126923427
 21
8.6626695021
  0
LINE
  5
253
100
AcDbEntity
  8
0
100
AcDbLine
 62
7
  6
CONTINUOUS
 10
30.8326923427
 20
9.8926695021
 11
30.8326923427
 21
8.6426695021
  0
LINE
  5
254
100
AcDbEntity
  8
0
100
AcDbLine
 62
9
  6
CONTINUOUS
 10
33.3126923427
 20
7.8176695021
 11
33.3126923424
 21
7.7676695021
  0
LINE
  5
255
100
AcDbEntity
  8
0
100
AcDbLine
 62
9
  6
CONTINUOUS
 10
33.3126923427
 20
10.7176695021
 11
33.3126923427
 21
10.7676695021
  0
LINE
  5
256
100
AcDbEntity
  8
0
100
AcDbLine
 62
9
  6
CONTINUOUS
 10
33.3876923427
 20
7.8926695021
 11
33.3876923427
 21
10.6426695021
  0
LINE
  5
257
100
AcDbEntity
  8
0
100
AcDbLine
 62
7
  6
CONTINUOUS
 10
33.4376923427
 20
7.8926695021
 11
33.4376923427
 21
10.6426695021
  0
ARC
  5
258
100
AcDbEntity
  8
0
100
AcDbCircle
 62
7
  6
CONTINUOUS
 10
-8.6873076573
 20
7.8926695021
 40
0.125
100
AcDbArc
 50
270.0
 51
360.0
  0
ARC
  5
259
100
AcDbEntity
  8
0
100
AcDbCircle
 62
7
  6
CONTINUOUS
 10
-11.4373076573
 20
7.8926695021
 40
0.125
100
AcDbArc
 50
180.0
 51
270.0
  0
ARC
  5
25A
100
AcDbEntity
  8
0
100
AcDbCircle
 62
7
  6
CONTINUOUS
 10
9.5626923427
 20
7.8926695021
 40
0.125
100
AcDbArc
 50
180.0
 51
270.0
  0
ARC
  5
25B
100
AcDbEntity
  8
0
100
AcDbCircle
 62
9
  6
CONTINUOUS
 10
-11.4373076573
 20
7.8926695021
 40
0.075
100
AcDbArc
 50
180.0
 51
270.0
  0
ARC
  5
25C
100
AcDbEntity
  8
0
100
AcDbCircle
 62
9
  6
CONTINUOUS
 10
-8.6873076573
 20
7.8926695021
 40
0.075
100
AcDbArc
 50
270.0
 51
360.0
  0
ARC
  5
25D
100
AcDbEntity
  8
0
100
AcDbCircle
 62
9
  6
CONTINUOUS
 10
9.5626923427
 20
7.8926695021
 40
0.075
100
AcDbArc
 50
180.0
 51
270.0
  0
ARC
  5
25E
100
AcDbEntity
  8
0
100
AcDbCircle
 62
7
  6
CONTINUOUS
 10
-10.0623076573
 20
9.2676695021
 40
0.875
100
AcDbArc
 50
45.5956680294
 51
314.4043319727
  0
ARC
  5
25F
100
AcDbEntity
  8
0
100
AcDbCircle
 62
9
  6
CONTINUOUS
 10
-10.0623076573
 20
9.2676695021
 40
0.815
100
AcDbArc
 50
50.0986392328
 51
309.9013607598
  0
ARC
  5
260
100
AcDbEntity
  8
0
100
AcDbCircle
 62
7
  6
CONTINUOUS
 10
-10.0623076573
 20
9.2676695021
 40
0.625
100
AcDbArc
 50
90.0
 51
270.0
  0
ARC
  5
261
100
AcDbEntity
  8
0
100
AcDbCircle
 62
7
  6
CONTINUOUS
 10
-11.4373076573
 20
10.6426695021
 40
0.125
100
AcDbArc
 50
90.0
 51
180.0
  0
ARC
  5
262
100
AcDbEntity
  8
0
100
AcDbCircle
 62
7
  6
CONTINUOUS
 10
-8.6873076573
 20
10.6426695021
 40
0.125
100
AcDbArc
 50
0.0
 51
90.0
  0
ARC
  5
263
100
AcDbEntity
  8
0
100
AcDbCircle
 62
7
  6
CONTINUOUS
 10
9.5626923427
 20
10.6426695021
 40
0.125
100
AcDbArc
 50
90.0
 51
180.0
  0
ARC
  5
264
100
AcDbEntity
  8
0
100
AcDbCircle
 62
9
  6
CONTINUOUS
 10
-8.6873076573
 20
10.6426695021
 40
0.075
100
AcDbArc
 50
0.0
 51
90.0
  0
ARC
  5
265
100
AcDbEntity
  8
0
100
AcDbCircle
 62
9
  6
CONTINUOUS
 10
-11.4373076573
 20
10.6426695021
 40
0.075
100
AcDbArc
 50
90.0
 51
180.0
  0
ARC
  5
266
100
AcDbEntity
  8
0
100
AcDbCircle
 62
9
  6
CONTINUOUS
 10
9.5626923427
 20
10.6426695021
 40
0.075
100
AcDbArc
 50
90.0
 51
180.0
  0
ARC
  5
267
100
AcDbEntity
  8
0
100
AcDbCircle
 62
7
  6
CONTINUOUS
 10
30.5626923427
 20
7.8926695021
 40
0.125
100
AcDbArc
 50
180.0
 51
270.0
  0
ARC
  5
268
100
AcDbEntity
  8
0
100
AcDbCircle
 62
7
  6
CONTINUOUS
 10
33.3126923427
 20
7.8926695021
 40
0.125
100
AcDbArc
 50
270.0
 51
360.0
  0
ARC
  5
269
100
AcDbEntity
  8
0
100
AcDbCircle
 62
7
  6
CONTINUOUS
 10
12.3126923427
 20
7.8926695021
 40
0.125
100
AcDbArc
 50
270.0
 51
360.0
  0
ARC
  5
26A
100
AcDbEntity
  8
0
100
AcDbCircle
 62
9
  6
CONTINUOUS
 10
33.3126923427
 20
7.8926695021
 40
0.075
100
AcDbArc
 50
270.0
 51
360.0
  0
ARC
  5
26B
100
AcDbEntity
  8
0
100
AcDbCircle
 62
9
  6
CONTINUOUS
 10
30.5626923427
 20
7.8926695021
 40
0.075
100
AcDbArc
 50
180.0
 51
270.0
  0
ARC
  5
26C
100
AcDbEntity
  8
0
100
AcDbCircle
 62
9
  6
CONTINUOUS
 10
12.3126923427
 20
7.8926695021
 40
0.075
100
AcDbArc
 50
270.0
 51
360.0
  0
ARC
  5
26D
100
AcDbEntity
  8
0
100
AcDbCircle
 62
7
  6
CONTINUOUS
 10
31.9376923427
 20
9.2676695021
 40
0.875
100
AcDbArc
 50
225.5956680294
 51
134.4043319727
  0
ARC
  5
26E
100
AcDbEntity
  8
0
100
AcDbCircle
 62
7
  6
CONTINUOUS
 10
10.9376923427
 20
9.2676695021
 40
0.875
100
AcDbArc
 50
225.5956680294
 51
314.4043319727
  0
ARC
  5
26F
100
AcDbEntity
  8
0
100
AcDbCircle
 62
7
  6
CONTINUOUS
 10
10.9376923427
 20
9.2676695021
 40
0.875
100
AcDbArc
 50
45.5956680294
 51
134.4043319727
  0
ARC
  5
270
100
AcDbEntity
  8
0
100
AcDbCircle
 62
9
  6
CONTINUOUS
 10
31.9376923427
 20
9.2676695021
 40
0.815
100
AcDbArc
 50
230.0986392328
 51
129.9013607598
  0
ARC
  5
271
100
AcDbEntity
  8
0
100
AcDbCircle
 62
9
  6
CONTINUOUS
 10
10.9376923427
 20
9.2676695021
 40
0.815
100
AcDbArc
 50
230.0986392328
 51
309.9013607598
  0
ARC
  5
272
100
AcDbEntity
  8
0
100
AcDbCircle
 62
9
  6
CONTINUOUS
 10
10.9376923427
 20
9.2676695021
 40
0.815
100
AcDbArc
 50
50.0986392328
 51
129.9013607598
  0
ARC
  5
273
100
AcDbEntity
  8
0
100
AcDbCircle
 62
7
  6
CONTINUOUS
 10
31.9376923427
 20
9.2676695021
 40
0.625
100
AcDbArc
 50
270.0
 51
90.0
  0
ARC
  5
274
100
AcDbEntity
  8
0
100
AcDbCircle
 62
7
  6
CONTINUOUS
 10
33.3126923427
 20
10.6426695021
 40
0.125
100
AcDbArc
 50
0.0
 51
90.0
  0
ARC
  5
275
100
AcDbEntity
  8
0
100
AcDbCircle
 62
7
  6
CONTINUOUS
 10
30.5626923427
 20
10.6426695021
 40
0.125
100
AcDbArc
 50
90.0
 51
180.0
  0
ARC
  5
276
100
AcDbEntity
  8
0
100
AcDbCircle
 62
7
  6
CONTINUOUS
 10
12.3126923427
 20
10.6426695021
 40
0.125
100
AcDbArc
 50
0.0
 51
90.0
  0
ARC
  5
277
100
AcDbEntity
  8
0
100
AcDbCircle
 62
9
  6
CONTINUOUS
 10
30.5626923427
 20
10.6426695021
 40
0.075
100
AcDbArc
 50
90.0
 51
180.0
  0
ARC
  5
278
100
AcDbEntity
  8
0
100
AcDbCircle
 62
9
  6
CONTINUOUS
 10
33.3126923427
 20
10.6426695021
 40
0.075
100
AcDbArc
 50
0.0
 51
90.0
  0
ARC
  5
279
100
AcDbEntity
  8
0
100
AcDbCircle
 62
9
  6
CONTINUOUS
 10
12.3126923427
 20
10.6426695021
 40
0.075
100
AcDbArc
 50
0.0
 51
90.0
  0
SPLINE
  5
27A
100
AcDbEntity
  8
0
100
AcDbSpline
 62
9
  6
CONTINUOUS
 70
0
 71
3
 72
46
 73
42
 74
0
 42
0.0000001
 43
0.0000001
 44
0.0000000001
 40
0.0
 40
0.0
 40
0.0
 40
0.0
 40
0.0165227097
 40
0.033176884
 40
0.0502360351
 40
0.0678609425
 40
0.0769383809
 40
0.0862165328
 40
0.1054311914
 40
0.1256117749
 40
0.1468527821
 40
0.1692383623
 40
0.1928342204
 40
0.217682094
 40
0.2438082949
 40
0.2712389531
 40
0.2999826454
 40
0.3300333134
 40
0.3613845611
 40
0.394018973
 40
0.4279071611
 40
0.4630110205
 40
0.4992884068
 40
0.5366887128
 40
0.575149282
 40
0.6146031718
 40
0.654976821
 40
0.6754838299
 40
0.6961893029
 40
0.7170816188
 40
0.7381494299
 40
0.7593811464
 40
0.780764585
 40
0.8239335456
 40
0.8456932047
 40
0.8675520073
 40
0.8894960536
 40
0.9115110451
 40
0.9335832034
 40
0.9556991845
 40
1.0
 40
1.0
 40
1.0
 40
1.0
 10
31.9376923427
 20
9.8926695021
 30
0.0
 10
31.9416528167
 20
9.8926678082
 30
0.0
 10
31.9496133503
 20
9.8921987806
 30
0.0
 10
31.9614915435
 20
9.8900696372
 30
0.0
 10
31.9733045741
 20
9.8865342541
 30
0.0
 10
31.9829913025
 20
9.8824573212
 30
0.0
 10
31.9906728555
 20
9.8785302004
 30
0.0
 10
31.9984888279
 20
9.8740507069
 30
0.0
 10
32.0081975593
 20
9.8675508909
 30
0.0
 10
32.0195615654
 20
9.8584650911
 30
0.0
 10
32.0307490707
 20
9.8480160893
 30
0.0
 10
32.0417423377
 20
9.8362197908
 30
0.0
 10
32.0525279882
 20
9.8230954312
 30
0.0
 10
32.0630803352
 20
9.8086573485
 30
0.0
 10
32.0733610136
 20
9.7929157759
 30
0.0
 10
32.0833624118
 20
9.7759040434
 30
0.0
 10
32.0930606519
 20
9.7576457552
 30
0.0
 10
32.1024091011
 20
9.738158785
 30
0.0
 10
32.1113998798
 20
9.7174839687
 30
0.0
 10
32.1200146073
 20
9.6956580365
 30
0.0
 10
32.1282232236
 20
9.6727186829
 30
0.0
 10
32.1359848092
 20
9.6487050725
 30
0.0
 10
32.1432855214
 20
9.6236698236
 30
0.0
 10
32.1501301487
 20
9.5976732622
 30
0.0
 10
32.1564514779
 20
9.570761677
 30
0.0
 10
32.1622340328
 20
9.5430012602
 30
0.0
 10
32.166581926
 20
9.5193451657
 30
0.0
 10
32.1697968036
 20
9.5000548026
 30
0.0
 10
32.1720774984
 20
9.4853437512
 30
0.0
 10
32.17420479
 20
9.4704739171
 30
0.0
 10
32.1761692921
 20
9.4554544953
 30
0.0
 10
32.1779807903
 20
9.440297321
 30
0.0
 10
32.180214561
 20
9.4198564617
 30
0.0
 10
32.1821635948
 20
9.399257715
 30
0.0
 10
32.1837673644
 20
9.3785163884
 30
0.0
 10
32.1848021189
 20
9.3628349123
 30
0.0
 10
32.1856791593
 20
9.3470826035
 30
0.0
 10
32.1864095792
 20
9.3312716318
 30
0.0
 10
32.186985594
 20
9.3154129775
 30
0.0
 10
32.1875342715
 20
9.2942090968
 30
0.0
 10
32.1876930889
 20
9.2782883562
 30
0.0
 10
32.1876923427
 20
9.2676695021
 30
0.0
  0
SPLINE
  5
27B
100
AcDbEntity
  8
0
100
AcDbSpline
 62
9
  6
CONTINUOUS
 70
0
 71
3
 72
44
 73
40
 74
0
 42
0.0000001
 43
0.0000001
 44
0.0000000001
 40
0.0
 40
0.0
 40
0.0
 40
0.0
 40
0.0443015439
 40
0.0664178652
 40
0.0884903778
 40
0.1105057414
 40
0.1324501493
 40
0.1543092934
 40
0.1760692922
 40
0.2192389551
 40
0.240622735
 40
0.2618547967
 40
0.2829229621
 40
0.3038156149
 40
0.3245213902
 40
0.3450286987
 40
0.3854030867
 40
0.4248576619
 40
0.4633187476
 40
0.5007196556
 40
0.5720947328
 40
0.6386096551
 40
0.66996163
 40
0.70001243
 40
0.7287567077
 40
0.7561879058
 40
0.7823143336
 40
0.8071626149
 40
0.8307591134
 40
0.8531453041
 40
0.8743864578
 40
0.8945667692
 40
0.9137814114
 40
0.9230600781
 40
0.9321383572
 40
0.9497644915
 40
0.9668233592
 40
0.9834781957
 40
1.0
 40
1.0
 40
1.0
 40
1.0
 10
32.1876923427
 20
9.2676695021
 30
0.0
 10
32.1876928695
 20
9.2570506455
 30
0.0
 10
32.18753531
 20
9.2411298978
 30
0.0
 10
32.1869863502
 20
9.2199260185
 30
0.0
 10
32.1864091972
 20
9.2040674061
 30
0.0
 10
32.1856779438
 20
9.1882564714
 30
0.0
 10
32.1848012654
 20
9.1725041437
 30
0.0
 10
32.183767432
 20
9.156822612
 30
0.0
 10
32.182164725
 20
9.1360812075
 30
0.0
 10
32.1802158578
 20
9.1154824363
 30
0.0
 10
32.1779810625
 20
9.0950416877
 30
0.0
 10
32.1761686359
 20
9.0798846225
 30
0.0
 10
32.1742037985
 20
9.0648652459
 30
0.0
 10
32.1720774759
 20
9.0499952824
 30
0.0
 10
32.1697980757
 20
9.0352840457
 30
0.0
 10
32.1665838469
 20
9.0159935624
 30
0.0
 10
32.1622330024
 20
8.992337961
 30
0.0
 10
32.156450351
 20
8.9645776606
 30
0.0
 10
32.1501307006
 20
8.9376654575
 30
0.0
 10
32.1411444512
 20
8.9035335792
 30
0.0
 10
32.1288663632
 20
8.863326862
 30
0.0
 10
32.1146385279
 20
8.8253032746
 30
0.0
 10
32.102408097
 20
8.7971808019
 30
0.0
 10
32.0930612805
 20
8.777692898
 30
0.0
 10
32.0833623795
 20
8.7594350078
 30
0.0
 10
32.0733607525
 20
8.7424234197
 30
0.0
 10
32.063080582
 20
8.7266815449
 30
0.0
 10
32.0525281767
 20
8.7122434698
 30
0.0
 10
32.041742165
 20
8.6991192435
 30
0.0
 10
32.0307486028
 20
8.6873231292
 30
0.0
 10
32.0195613578
 20
8.67687406
 30
0.0
 10
32.0081978823
 20
8.667788035
 30
0.0
 10
31.9984893915
 20
8.6612880727
 30
0.0
 10
31.9906731392
 20
8.6568087062
 30
0.0
 10
31.9829909566
 20
8.6528817584
 30
0.0
 10
31.9733038775
 20
8.6488050512
 30
0.0
 10
31.9614907647
 20
8.6452693112
 30
0.0
 10
31.9496128779
 20
8.6431402636
 30
0.0
 10
31.9416525356
 20
8.642671106
 30
0.0
 10
31.9376923427
 20
8.6426695021
 30
0.0
  0
SPLINE
  5
27C
100
AcDbEntity
  8
0
100
AcDbSpline
 62
9
  6
CONTINUOUS
 70
0
 71
3
 72
46
 73
42
 74
0
 42
0.0000001
 43
0.0000001
 44
0.0000000001
 40
0.0
 40
0.0
 40
0.0
 40
0.0
 40
0.0165227097
 40
0.033176884
 40
0.0502360351
 40
0.0678609425
 40
0.0769383809
 40
0.0862165328
 40
0.1054311914
 40
0.1256117749
 40
0.1468527821
 40
0.1692383623
 40
0.1928342204
 40
0.217682094
 40
0.2438082949
 40
0.2712389531
 40
0.2999826454
 40
0.3300333134
 40
0.3613845611
 40
0.394018973
 40
0.4279071611
 40
0.4630110205
 40
0.4992884068
 40
0.5366887128
 40
0.575149282
 40
0.6146031718
 40
0.654976821
 40
0.6754838299
 40
0.6961893029
 40
0.7170816188
 40
0.7381494299
 40
0.7593811464
 40
0.780764585
 40
0.8239335456
 40
0.8456932047
 40
0.8675520073
 40
0.8894960536
 40
0.9115110451
 40
0.9335832034
 40
0.9556991845
 40
1.0
 40
1.0
 40
1.0
 40
1.0
 10
-10.0623076573
 20
8.6426695021
 30
0.0
 10
-10.0662681312
 20
8.6426711961
 30
0.0
 10
-10.0742286649
 20
8.6431402236
 30
0.0
 10
-10.086106858
 20
8.6452693671
 30
0.0
 10
-10.0979198886
 20
8.6488047502
 30
0.0
 10
-10.1076066171
 20
8.6528816831
 30
0.0
 10
-10.11528817
 20
8.6568088039
 30
0.0
 10
-10.1231041425
 20
8.6612882974
 30
0.0
 10
-10.1328128738
 20
8.6677881134
 30
0.0
 10
-10.1441768799
 20
8.6768739132
 30
0.0
 10
-10.1553643852
 20
8.687322915
 30
0.0
 10
-10.1663576522
 20
8.6991192135
 30
0.0
 10
-10.1771433027
 20
8.7122435731
 30
0.0
 10
-10.1876956497
 20
8.7266816558
 30
0.0
 10
-10.1979763281
 20
8.7424232284
 30
0.0
 10
-10.2079777263
 20
8.7594349609
 30
0.0
 10
-10.2176759664
 20
8.7776932491
 30
0.0
 10
-10.2270244157
 20
8.7971802193
 30
0.0
 10
-10.2360151944
 20
8.8178550356
 30
0.0
 10
-10.2446299218
 20
8.8396809678
 30
0.0
 10
-10.2528385382
 20
8.8626203214
 30
0.0
 10
-10.2606001237
 20
8.8866339318
 30
0.0
 10
-10.2679008359
 20
8.9116691807
 30
0.0
 10
-10.2747454633
 20
8.937665742
 30
0.0
 10
-10.2810667924
 20
8.9645773273
 30
0.0
 10
-10.2868493474
 20
8.9923377441
 30
0.0
 10
-10.2911972405
 20
9.0159938386
 30
0.0
 10
-10.2944121181
 20
9.0352842016
 30
0.0
 10
-10.2966928129
 20
9.0499952531
 30
0.0
 10
-10.2988201045
 20
9.0648650872
 30
0.0
 10
-10.3007846066
 20
9.079884509
 30
0.0
 10
-10.3025961048
 20
9.0950416833
 30
0.0
 10
-10.3048298755
 20
9.1154825426
 30
0.0
 10
-10.3067789094
 20
9.1360812893
 30
0.0
 10
-10.3083826789
 20
9.1568226159
 30
0.0
 10
-10.3094174334
 20
9.172504092
 30
0.0
 10
-10.3102944738
 20
9.1882564007
 30
0.0
 10
-10.3110248938
 20
9.2040673725
 30
0.0
 10
-10.3116009085
 20
9.2199260267
 30
0.0
 10
-10.312149586
 20
9.2411299075
 30
0.0
 10
-10.3123084034
 20
9.2570506481
 30
0.0
 10
-10.3123076573
 20
9.2676695021
 30
0.0
  0
SPLINE
  5
27D
100
AcDbEntity
  8
0
100
AcDbSpline
 62
9
  6
CONTINUOUS
 70
0
 71
3
 72
44
 73
40
 74
0
 42
0.0000001
 43
0.0000001
 44
0.0000000001
 40
0.0
 40
0.0
 40
0.0
 40
0.0
 40
0.0443015439
 40
0.0664178652
 40
0.0884903778
 40
0.1105057414
 40
0.1324501493
 40
0.1543092934
 40
0.1760692922
 40
0.2192389551
 40
0.240622735
 40
0.2618547967
 40
0.2829229621
 40
0.3038156149
 40
0.3245213902
 40
0.3450286987
 40
0.3854030867
 40
0.4248576619
 40
0.4633187476
 40
0.5007196556
 40
0.5720947328
 40
0.6386096551
 40
0.66996163
 40
0.70001243
 40
0.7287567077
 40
0.7561879058
 40
0.7823143336
 40
0.8071626149
 40
0.8307591134
 40
0.8531453041
 40
0.8743864578
 40
0.8945667692
 40
0.9137814114
 40
0.9230600781
 40
0.9321383572
 40
0.9497644915
 40
0.9668233592
 40
0.9834781957
 40
1.0
 40
1.0
 40
1.0
 40
1.0
 10
-10.3123076573
 20
9.2676695021
 30
0.0
 10
-10.3123081841
 20
9.2782883588
 30
0.0
 10
-10.3121506245
 20
9.2942091065
 30
0.0
 10
-10.3116016647
 20
9.3154129858
 30
0.0
 10
-10.3110245117
 20
9.3312715982
 30
0.0
 10
-10.3102932583
 20
9.3470825329
 30
0.0
 10
-10.30941658
 20
9.3628348606
 30
0.0
 10
-10.3083827466
 20
9.3785163923
 30
0.0
 10
-10.3067800396
 20
9.3992577968
 30
0.0
 10
-10.3048311723
 20
9.419856568
 30
0.0
 10
-10.3025963771
 20
9.4402973166
 30
0.0
 10
-10.3007839505
 20
9.4554543818
 30
0.0
 10
-10.298819113
 20
9.4704737584
 30
0.0
 10
-10.2966927904
 20
9.4853437219
 30
0.0
 10
-10.2944133902
 20
9.5000549586
 30
0.0
 10
-10.2911991615
 20
9.5193454419
 30
0.0
 10
-10.2868483169
 20
9.5430010433
 30
0.0
 10
-10.2810656655
 20
9.5707613437
 30
0.0
 10
-10.2747460151
 20
9.5976735468
 30
0.0
 10
-10.2657597657
 20
9.6318054251
 30
0.0
 10
-10.2534816777
 20
9.6720121423
 30
0.0
 10
-10.2392538424
 20
9.7100357297
 30
0.0
 10
-10.2270234115
 20
9.7381582024
 30
0.0
 10
-10.217676595
 20
9.7576461063
 30
0.0
 10
-10.2079776941
 20
9.7759039965
 30
0.0
 10
-10.197976067
 20
9.7929155845
 30
0.0
 10
-10.1876958965
 20
9.8086574594
 30
0.0
 10
-10.1771434912
 20
9.8230955345
 30
0.0
 10
-10.1663574795
 20
9.8362197608
 30
0.0
 10
-10.1553639173
 20
9.8480158751
 30
0.0
 10
-10.1441766723
 20
9.8584649443
 30
0.0
 10
-10.1328131968
 20
9.8675509693
 30
0.0
 10
-10.1231047061
 20
9.8740509316
 30
0.0
 10
-10.1152884537
 20
9.8785302981
 30
0.0
 10
-10.1076062711
 20
9.8824572458
 30
0.0
 10
-10.097919192
 20
9.8865339531
 30
0.0
 10
-10.0861060792
 20
9.8900696931
 30
0.0
 10
-10.0742281924
 20
9.8921987407
 30
0.0
 10
-10.0662678501
 20
9.8926678983
 30
0.0
 10
-10.0623076573
 20
9.8926695021
 30
0.0
  0
ENDSEC
  0
SECTION
  2
OBJECTS
  0
DICTIONARY
  5
C
100
AcDbDictionary
280
0
281
1
  3
ACAD_GROUP
350
D
  3
ACAD_MLINESTYLE
350
17
  3
ACAD_LAYOUT
350
1A
  3
ACAD_PLOTSETTINGS
350
19
  3
ACAD_PLOTSTYLENAME
350
E
  0
DICTIONARY
  5
D
102
{ACAD_REACTORS
330
C
102
}
100
AcDbDictionary
280
0
281
1
  0
ACDBDICTIONARYWDFLT
  5
E
102
{ACAD_REACTORS
330
C
102
}
100
AcDbDictionary
281
1
  3
Normal
350
F
100
AcDbDictionaryWithDefault
340
F
  0
DICTIONARY
  5
17
102
{ACAD_REACTORS
330
C
102
}
100
AcDbDictionary
280
0
281
1
  3
Standard
350
18
  0
DICTIONARY
  5
19
102
{ACAD_REACTORS
330
C
102
}
100
AcDbDictionary
281
1
  0
DICTIONARY
  5
1A
102
{ACAD_REACTORS
330
C
102
}
100
AcDbDictionary
281
1
  3
Model
350
27E
  3
Layout1
350
27F
  0
ACDBPLACEHOLDER
  5
F
102
{ACAD_REACTORS
330
E
102
}
  0
MLINESTYLE
  5
18
102
{ACAD_REACTORS
330
17
102
}
100
AcDbMlineStyle
  2
STANDARD
 70
0
  3

 62
256
 51
90.0
 52
90.0
 71
2
 49
0.5
 62
256
  6
BYLAYER
 49
-0.5
 62
256
  6
BYLAYER
  0
LAYOUT
  5
27E
102
{ACAD_REACTORS
330
1A
102
}
100
AcDbPlotSettings
  1

  2
none_device
  4
ANSI_C_(22.00_x_17.00_Inches)
  6

 40
0.0
 41
0.0
 42
0.0
 43
0.0
 44
558.8
 45
431.8
 46
0.0
 47
0.0
 48
0.0
 49
0.0
140
0.0
141
0.0
142
1.0
143
1.0
 70
1024
 72
0
 73
0
 74
0
  7

 75
0
147
1.0
148
0.0
149
0.0
100
AcDbLayout
  1
Model
 70
0
 71
0
 10
0.0
 20
0.0
 11
22.0
 21
17.0
 12
0.0
 22
0.0
 32
0.0
 14
0.0
 24
0.0
 34
0.0
 15
0.0
 25
0.0
 35
0.0
146
0.0
 13
0.0
 23
0.0
 33
0.0
 16
1.0
 26
0.0
 36
0.0
 17
0.0
 27
1.0
 37
0.0
 76
0
330
205
345
0
346
0
  0
LAYOUT
  5
27F
102
{ACAD_REACTORS
330
1A
102
}
100
AcDbPlotSettings
  1

  2
none_device
  4
ANSI_C_(22.00_x_17.00_Inches)
  6

 40
0.0
 41
0.0
 42
0.0
 43
0.0
 44
558.8
 45
431.8
 46
0.0
 47
0.0
 48
0.0
 49
0.0
140
0.0
141
0.0
142
1.0
143
1.0
 70
0
 72
0
 73
0
 74
0
  7

 75
0
147
1.0
148
0.0
149
0.0
100
AcDbLayout
  1
Layout1
 70
0
 71
1
 10
0.0
 20
0.0
 11
22.0
 21
17.0
 12
0.0
 22
0.0
 32
0.0
 14
0.0
 24
0.0
 34
0.0
 15
0.0
 25
0.0
 35
0.0
146
0.0
 13
0.0
 23
0.0
 33
0.0
 16
1.0
 26
0.0
 36
0.0
 17
0.0
 27
1.0
 37
0.0
 76
0
330
206
345
0
346
0
  0
ENDSEC
  0
EOF
