ISO-10303-21;
HEADER;
FILE_DESCRIPTION((''),'2;1');
FILE_NAME('11754','2015-07-30T',('rsmith'),(''),
'PRO/ENGINEER BY PARAMETRIC TECHNOLOGY CORPORATION, 2013150',
'PRO/ENGINEER BY PARAMETRIC TECHNOLOGY CORPORATION, 2013150','');
FILE_SCHEMA(('CONFIG_CONTROL_DESIGN'));
ENDSEC;
DATA;
#2=CARTESIAN_POINT('',(0.E0,0.E0,0.E0));
#3=DIRECTION('',(0.E0,0.E0,-1.E0));
#4=DIRECTION('',(1.E0,0.E0,0.E0));
#5=AXIS2_PLACEMENT_3D('',#2,#3,#4);
#7=CARTESIAN_POINT('',(0.E0,0.E0,0.E0));
#8=DIRECTION('',(0.E0,0.E0,-1.E0));
#9=DIRECTION('',(-1.E0,0.E0,0.E0));
#10=AXIS2_PLACEMENT_3D('',#7,#8,#9);
#12=CARTESIAN_POINT('',(0.E0,0.E0,0.E0));
#13=DIRECTION('',(0.E0,0.E0,1.E0));
#14=DIRECTION('',(-1.E0,0.E0,0.E0));
#15=AXIS2_PLACEMENT_3D('',#12,#13,#14);
#17=CARTESIAN_POINT('',(0.E0,0.E0,0.E0));
#18=DIRECTION('',(0.E0,0.E0,1.E0));
#19=DIRECTION('',(1.E0,0.E0,0.E0));
#20=AXIS2_PLACEMENT_3D('',#17,#18,#19);
#22=CARTESIAN_POINT('',(0.E0,0.E0,-6.E-2));
#23=DIRECTION('',(0.E0,0.E0,1.E0));
#24=DIRECTION('',(-1.E0,0.E0,0.E0));
#25=AXIS2_PLACEMENT_3D('',#22,#23,#24);
#27=DIRECTION('',(0.E0,0.E0,-1.E0));
#28=VECTOR('',#27,6.E-2);
#29=CARTESIAN_POINT('',(4.325E-1,0.E0,0.E0));
#30=LINE('',#29,#28);
#31=CARTESIAN_POINT('',(0.E0,0.E0,-1.8E-1));
#32=DIRECTION('',(0.E0,0.E0,-1.E0));
#33=DIRECTION('',(1.E0,0.E0,0.E0));
#34=AXIS2_PLACEMENT_3D('',#31,#32,#33);
#36=CARTESIAN_POINT('',(0.E0,0.E0,-2.4E-1));
#37=DIRECTION('',(0.E0,0.E0,1.E0));
#38=DIRECTION('',(-1.E0,0.E0,0.E0));
#39=AXIS2_PLACEMENT_3D('',#36,#37,#38);
#41=DIRECTION('',(0.E0,0.E0,-1.E0));
#42=VECTOR('',#41,6.E-2);
#43=CARTESIAN_POINT('',(4.325E-1,0.E0,-1.8E-1));
#44=LINE('',#43,#42);
#45=DIRECTION('',(0.E0,0.E0,1.E0));
#46=VECTOR('',#45,1.2E-1);
#47=CARTESIAN_POINT('',(0.E0,-5.025E-1,-1.8E-1));
#48=LINE('',#47,#46);
#49=DIRECTION('',(0.E0,0.E0,1.E0));
#50=VECTOR('',#49,1.2E-1);
#51=CARTESIAN_POINT('',(0.E0,5.025E-1,-1.8E-1));
#52=LINE('',#51,#50);
#53=CARTESIAN_POINT('',(0.E0,0.E0,-6.E-2));
#54=DIRECTION('',(0.E0,0.E0,-1.E0));
#55=DIRECTION('',(0.E0,1.E0,0.E0));
#56=AXIS2_PLACEMENT_3D('',#53,#54,#55);
#58=CARTESIAN_POINT('',(0.E0,0.E0,-6.E-2));
#59=DIRECTION('',(0.E0,0.E0,1.E0));
#60=DIRECTION('',(0.E0,1.E0,0.E0));
#61=AXIS2_PLACEMENT_3D('',#58,#59,#60);
#63=CARTESIAN_POINT('',(0.E0,0.E0,-1.8E-1));
#64=DIRECTION('',(0.E0,0.E0,1.E0));
#65=DIRECTION('',(0.E0,1.E0,0.E0));
#66=AXIS2_PLACEMENT_3D('',#63,#64,#65);
#68=CARTESIAN_POINT('',(0.E0,0.E0,-1.8E-1));
#69=DIRECTION('',(0.E0,0.E0,-1.E0));
#70=DIRECTION('',(0.E0,1.E0,0.E0));
#71=AXIS2_PLACEMENT_3D('',#68,#69,#70);
#73=CARTESIAN_POINT('',(0.E0,0.E0,-6.E-2));
#74=DIRECTION('',(0.E0,0.E0,1.E0));
#75=DIRECTION('',(1.E0,0.E0,0.E0));
#76=AXIS2_PLACEMENT_3D('',#73,#74,#75);
#78=DIRECTION('',(0.E0,0.E0,-1.E0));
#79=VECTOR('',#78,6.E-2);
#80=CARTESIAN_POINT('',(-4.325E-1,0.E0,0.E0));
#81=LINE('',#80,#79);
#82=CARTESIAN_POINT('',(0.E0,0.E0,-1.8E-1));
#83=DIRECTION('',(0.E0,0.E0,-1.E0));
#84=DIRECTION('',(-1.E0,0.E0,0.E0));
#85=AXIS2_PLACEMENT_3D('',#82,#83,#84);
#87=CARTESIAN_POINT('',(0.E0,0.E0,-2.4E-1));
#88=DIRECTION('',(0.E0,0.E0,1.E0));
#89=DIRECTION('',(1.E0,0.E0,0.E0));
#90=AXIS2_PLACEMENT_3D('',#87,#88,#89);
#92=DIRECTION('',(0.E0,0.E0,-1.E0));
#93=VECTOR('',#92,6.E-2);
#94=CARTESIAN_POINT('',(-4.325E-1,0.E0,-1.8E-1));
#95=LINE('',#94,#93);
#96=DIRECTION('',(0.E0,0.E0,-1.E0));
#97=VECTOR('',#96,7.E-2);
#98=CARTESIAN_POINT('',(1.E0,0.E0,-2.4E-1));
#99=LINE('',#98,#97);
#100=CARTESIAN_POINT('',(0.E0,0.E0,-2.4E-1));
#101=DIRECTION('',(0.E0,0.E0,-1.E0));
#102=DIRECTION('',(1.E0,0.E0,0.E0));
#103=AXIS2_PLACEMENT_3D('',#100,#101,#102);
#105=DIRECTION('',(0.E0,0.E0,-1.E0));
#106=VECTOR('',#105,7.E-2);
#107=CARTESIAN_POINT('',(-1.E0,0.E0,-2.4E-1));
#108=LINE('',#107,#106);
#109=CARTESIAN_POINT('',(0.E0,0.E0,-3.1E-1));
#110=DIRECTION('',(0.E0,0.E0,1.E0));
#111=DIRECTION('',(1.E0,0.E0,0.E0));
#112=AXIS2_PLACEMENT_3D('',#109,#110,#111);
#114=CARTESIAN_POINT('',(0.E0,0.E0,-3.1E-1));
#115=DIRECTION('',(0.E0,0.E0,1.E0));
#116=DIRECTION('',(-1.E0,0.E0,0.E0));
#117=AXIS2_PLACEMENT_3D('',#114,#115,#116);
#119=CARTESIAN_POINT('',(0.E0,0.E0,-3.1E-1));
#120=DIRECTION('',(0.E0,0.E0,1.E0));
#121=DIRECTION('',(1.E0,0.E0,0.E0));
#122=AXIS2_PLACEMENT_3D('',#119,#120,#121);
#124=CARTESIAN_POINT('',(0.E0,0.E0,-3.1E-1));
#125=DIRECTION('',(0.E0,0.E0,1.E0));
#126=DIRECTION('',(-1.E0,0.E0,0.E0));
#127=AXIS2_PLACEMENT_3D('',#124,#125,#126);
#129=CARTESIAN_POINT('',(0.E0,0.E0,-3.E-2));
#130=DIRECTION('',(0.E0,0.E0,1.E0));
#131=DIRECTION('',(1.E0,0.E0,0.E0));
#132=AXIS2_PLACEMENT_3D('',#129,#130,#131);
#134=DIRECTION('',(0.E0,8.281225935692E-14,-1.E0));
#135=VECTOR('',#134,2.8E-1);
#136=CARTESIAN_POINT('',(1.125E0,-2.332520538484E-14,-3.E-2));
#137=LINE('',#136,#135);
#138=CARTESIAN_POINT('',(1.095E0,0.E0,-3.E-2));
#139=DIRECTION('',(0.E0,1.E0,0.E0));
#140=DIRECTION('',(0.E0,0.E0,1.E0));
#141=AXIS2_PLACEMENT_3D('',#138,#139,#140);
#143=CARTESIAN_POINT('',(-1.095E0,0.E0,-3.E-2));
#144=DIRECTION('',(0.E0,-1.E0,0.E0));
#145=DIRECTION('',(0.E0,0.E0,1.E0));
#146=AXIS2_PLACEMENT_3D('',#143,#144,#145);
#148=CARTESIAN_POINT('',(0.E0,0.E0,-3.E-2));
#149=DIRECTION('',(0.E0,0.E0,1.E0));
#150=DIRECTION('',(-1.E0,0.E0,0.E0));
#151=AXIS2_PLACEMENT_3D('',#148,#149,#150);
#153=DIRECTION('',(0.E0,-8.316707134570E-14,-1.E0));
#154=VECTOR('',#153,2.8E-1);
#155=CARTESIAN_POINT('',(-1.125E0,2.342455274170E-14,-3.E-2));
#156=LINE('',#155,#154);
#157=CARTESIAN_POINT('',(0.E0,0.E0,-2.4E-1));
#158=DIRECTION('',(0.E0,0.E0,1.E0));
#159=DIRECTION('',(1.E0,0.E0,0.E0));
#160=AXIS2_PLACEMENT_3D('',#157,#158,#159);
#162=CARTESIAN_POINT('',(4.325E-1,0.E0,0.E0));
#163=CARTESIAN_POINT('',(-4.325E-1,0.E0,0.E0));
#164=VERTEX_POINT('',#162);
#165=VERTEX_POINT('',#163);
#166=CARTESIAN_POINT('',(1.125E0,0.E0,-3.1E-1));
#167=CARTESIAN_POINT('',(-1.125E0,0.E0,-3.1E-1));
#168=VERTEX_POINT('',#166);
#169=VERTEX_POINT('',#167);
#170=CARTESIAN_POINT('',(-1.094999997860E0,0.E0,0.E0));
#171=CARTESIAN_POINT('',(1.094999997860E0,0.E0,0.E0));
#172=VERTEX_POINT('',#170);
#173=VERTEX_POINT('',#171);
#174=CARTESIAN_POINT('',(-1.125E0,0.E0,-3.E-2));
#175=CARTESIAN_POINT('',(1.125E0,0.E0,-3.E-2));
#176=VERTEX_POINT('',#174);
#177=VERTEX_POINT('',#175);
#178=CARTESIAN_POINT('',(1.E0,0.E0,-2.4E-1));
#179=CARTESIAN_POINT('',(-1.E0,0.E0,-2.4E-1));
#180=VERTEX_POINT('',#178);
#181=VERTEX_POINT('',#179);
#182=CARTESIAN_POINT('',(1.E0,0.E0,-3.1E-1));
#183=CARTESIAN_POINT('',(-1.E0,0.E0,-3.1E-1));
#184=VERTEX_POINT('',#182);
#185=VERTEX_POINT('',#183);
#186=CARTESIAN_POINT('',(-4.325E-1,0.E0,-2.4E-1));
#187=CARTESIAN_POINT('',(4.325E-1,0.E0,-2.4E-1));
#188=VERTEX_POINT('',#186);
#189=VERTEX_POINT('',#187);
#190=CARTESIAN_POINT('',(0.E0,-5.025E-1,-1.8E-1));
#191=CARTESIAN_POINT('',(0.E0,-5.025E-1,-6.E-2));
#192=VERTEX_POINT('',#190);
#193=VERTEX_POINT('',#191);
#194=CARTESIAN_POINT('',(0.E0,5.025E-1,-1.8E-1));
#195=CARTESIAN_POINT('',(0.E0,5.025E-1,-6.E-2));
#196=VERTEX_POINT('',#194);
#197=VERTEX_POINT('',#195);
#198=CARTESIAN_POINT('',(-4.325E-1,0.E0,-6.E-2));
#199=CARTESIAN_POINT('',(4.325E-1,0.E0,-6.E-2));
#200=VERTEX_POINT('',#198);
#201=VERTEX_POINT('',#199);
#202=CARTESIAN_POINT('',(4.325E-1,0.E0,-1.8E-1));
#203=CARTESIAN_POINT('',(-4.325E-1,0.E0,-1.8E-1));
#204=VERTEX_POINT('',#202);
#205=VERTEX_POINT('',#203);
#206=CARTESIAN_POINT('',(0.E0,0.E0,0.E0));
#207=DIRECTION('',(0.E0,0.E0,1.E0));
#208=DIRECTION('',(1.E0,0.E0,0.E0));
#209=AXIS2_PLACEMENT_3D('',#206,#207,#208);
#210=PLANE('',#209);
#212=ORIENTED_EDGE('',*,*,#211,.F.);
#214=ORIENTED_EDGE('',*,*,#213,.F.);
#215=EDGE_LOOP('',(#212,#214));
#216=FACE_OUTER_BOUND('',#215,.F.);
#218=ORIENTED_EDGE('',*,*,#217,.F.);
#220=ORIENTED_EDGE('',*,*,#219,.F.);
#221=EDGE_LOOP('',(#218,#220));
#222=FACE_BOUND('',#221,.F.);
#223=ADVANCED_FACE('',(#216,#222),#210,.T.);
#224=CARTESIAN_POINT('',(0.E0,0.E0,0.E0));
#225=DIRECTION('',(0.E0,0.E0,1.E0));
#226=DIRECTION('',(1.E0,0.E0,0.E0));
#227=AXIS2_PLACEMENT_3D('',#224,#225,#226);
#228=CYLINDRICAL_SURFACE('',#227,4.325E-1);
#230=ORIENTED_EDGE('',*,*,#229,.T.);
#232=ORIENTED_EDGE('',*,*,#231,.F.);
#233=ORIENTED_EDGE('',*,*,#217,.T.);
#235=ORIENTED_EDGE('',*,*,#234,.T.);
#236=EDGE_LOOP('',(#230,#232,#233,#235));
#237=FACE_OUTER_BOUND('',#236,.F.);
#238=ADVANCED_FACE('',(#237),#228,.F.);
#239=CARTESIAN_POINT('',(0.E0,0.E0,0.E0));
#240=DIRECTION('',(0.E0,0.E0,1.E0));
#241=DIRECTION('',(1.E0,0.E0,0.E0));
#242=AXIS2_PLACEMENT_3D('',#239,#240,#241);
#243=CYLINDRICAL_SURFACE('',#242,4.325E-1);
#245=ORIENTED_EDGE('',*,*,#244,.T.);
#247=ORIENTED_EDGE('',*,*,#246,.T.);
#249=ORIENTED_EDGE('',*,*,#248,.T.);
#251=ORIENTED_EDGE('',*,*,#250,.F.);
#252=EDGE_LOOP('',(#245,#247,#249,#251));
#253=FACE_OUTER_BOUND('',#252,.F.);
#254=ADVANCED_FACE('',(#253),#243,.F.);
#255=CARTESIAN_POINT('',(0.E0,0.E0,-6.E-2));
#256=DIRECTION('',(0.E0,0.E0,-1.E0));
#257=DIRECTION('',(0.E0,-1.E0,0.E0));
#258=AXIS2_PLACEMENT_3D('',#255,#256,#257);
#259=PLANE('',#258);
#261=ORIENTED_EDGE('',*,*,#260,.F.);
#263=ORIENTED_EDGE('',*,*,#262,.T.);
#264=EDGE_LOOP('',(#261,#263));
#265=FACE_OUTER_BOUND('',#264,.F.);
#266=ORIENTED_EDGE('',*,*,#229,.F.);
#268=ORIENTED_EDGE('',*,*,#267,.F.);
#269=EDGE_LOOP('',(#266,#268));
#270=FACE_BOUND('',#269,.F.);
#271=ADVANCED_FACE('',(#265,#270),#259,.T.);
#272=CARTESIAN_POINT('',(0.E0,0.E0,-5.4E-2));
#273=DIRECTION('',(0.E0,0.E0,-1.E0));
#274=DIRECTION('',(0.E0,-1.E0,0.E0));
#275=AXIS2_PLACEMENT_3D('',#272,#273,#274);
#276=CYLINDRICAL_SURFACE('',#275,5.025E-1);
#278=ORIENTED_EDGE('',*,*,#277,.F.);
#280=ORIENTED_EDGE('',*,*,#279,.F.);
#282=ORIENTED_EDGE('',*,*,#281,.T.);
#283=ORIENTED_EDGE('',*,*,#260,.T.);
#284=EDGE_LOOP('',(#278,#280,#282,#283));
#285=FACE_OUTER_BOUND('',#284,.F.);
#286=ADVANCED_FACE('',(#285),#276,.F.);
#287=CARTESIAN_POINT('',(0.E0,0.E0,-5.4E-2));
#288=DIRECTION('',(0.E0,0.E0,-1.E0));
#289=DIRECTION('',(0.E0,-1.E0,0.E0));
#290=AXIS2_PLACEMENT_3D('',#287,#288,#289);
#291=CYLINDRICAL_SURFACE('',#290,5.025E-1);
#292=ORIENTED_EDGE('',*,*,#277,.T.);
#293=ORIENTED_EDGE('',*,*,#262,.F.);
#294=ORIENTED_EDGE('',*,*,#281,.F.);
#296=ORIENTED_EDGE('',*,*,#295,.T.);
#297=EDGE_LOOP('',(#292,#293,#294,#296));
#298=FACE_OUTER_BOUND('',#297,.F.);
#299=ADVANCED_FACE('',(#298),#291,.F.);
#300=CARTESIAN_POINT('',(0.E0,0.E0,-1.8E-1));
#301=DIRECTION('',(0.E0,0.E0,-1.E0));
#302=DIRECTION('',(0.E0,-1.E0,0.E0));
#303=AXIS2_PLACEMENT_3D('',#300,#301,#302);
#304=PLANE('',#303);
#305=ORIENTED_EDGE('',*,*,#295,.F.);
#306=ORIENTED_EDGE('',*,*,#279,.T.);
#307=EDGE_LOOP('',(#305,#306));
#308=FACE_OUTER_BOUND('',#307,.F.);
#309=ORIENTED_EDGE('',*,*,#244,.F.);
#311=ORIENTED_EDGE('',*,*,#310,.F.);
#312=EDGE_LOOP('',(#309,#311));
#313=FACE_BOUND('',#312,.F.);
#314=ADVANCED_FACE('',(#308,#313),#304,.F.);
#315=CARTESIAN_POINT('',(0.E0,0.E0,0.E0));
#316=DIRECTION('',(0.E0,0.E0,1.E0));
#317=DIRECTION('',(1.E0,0.E0,0.E0));
#318=AXIS2_PLACEMENT_3D('',#315,#316,#317);
#319=CYLINDRICAL_SURFACE('',#318,4.325E-1);
#320=ORIENTED_EDGE('',*,*,#267,.T.);
#321=ORIENTED_EDGE('',*,*,#234,.F.);
#322=ORIENTED_EDGE('',*,*,#219,.T.);
#323=ORIENTED_EDGE('',*,*,#231,.T.);
#324=EDGE_LOOP('',(#320,#321,#322,#323));
#325=FACE_OUTER_BOUND('',#324,.F.);
#326=ADVANCED_FACE('',(#325),#319,.F.);
#327=CARTESIAN_POINT('',(0.E0,0.E0,0.E0));
#328=DIRECTION('',(0.E0,0.E0,1.E0));
#329=DIRECTION('',(1.E0,0.E0,0.E0));
#330=AXIS2_PLACEMENT_3D('',#327,#328,#329);
#331=CYLINDRICAL_SURFACE('',#330,4.325E-1);
#332=ORIENTED_EDGE('',*,*,#310,.T.);
#333=ORIENTED_EDGE('',*,*,#250,.T.);
#335=ORIENTED_EDGE('',*,*,#334,.T.);
#336=ORIENTED_EDGE('',*,*,#246,.F.);
#337=EDGE_LOOP('',(#332,#333,#335,#336));
#338=FACE_OUTER_BOUND('',#337,.F.);
#339=ADVANCED_FACE('',(#338),#331,.F.);
#340=CARTESIAN_POINT('',(0.E0,0.E0,-2.4E-1));
#341=DIRECTION('',(0.E0,0.E0,1.E0));
#342=DIRECTION('',(-1.E0,0.E0,0.E0));
#343=AXIS2_PLACEMENT_3D('',#340,#341,#342);
#344=PLANE('',#343);
#346=ORIENTED_EDGE('',*,*,#345,.F.);
#348=ORIENTED_EDGE('',*,*,#347,.T.);
#349=EDGE_LOOP('',(#346,#348));
#350=FACE_OUTER_BOUND('',#349,.F.);
#351=ORIENTED_EDGE('',*,*,#248,.F.);
#352=ORIENTED_EDGE('',*,*,#334,.F.);
#353=EDGE_LOOP('',(#351,#352));
#354=FACE_BOUND('',#353,.F.);
#355=ADVANCED_FACE('',(#350,#354),#344,.F.);
#356=CARTESIAN_POINT('',(0.E0,0.E0,-3.135E-1));
#357=DIRECTION('',(0.E0,0.E0,1.E0));
#358=DIRECTION('',(-1.E0,0.E0,0.E0));
#359=AXIS2_PLACEMENT_3D('',#356,#357,#358);
#360=CYLINDRICAL_SURFACE('',#359,1.E0);
#362=ORIENTED_EDGE('',*,*,#361,.T.);
#364=ORIENTED_EDGE('',*,*,#363,.F.);
#365=ORIENTED_EDGE('',*,*,#345,.T.);
#367=ORIENTED_EDGE('',*,*,#366,.T.);
#368=EDGE_LOOP('',(#362,#364,#365,#367));
#369=FACE_OUTER_BOUND('',#368,.F.);
#370=ADVANCED_FACE('',(#369),#360,.F.);
#371=CARTESIAN_POINT('',(0.E0,0.E0,-3.1E-1));
#372=DIRECTION('',(0.E0,0.E0,1.E0));
#373=DIRECTION('',(1.E0,0.E0,0.E0));
#374=AXIS2_PLACEMENT_3D('',#371,#372,#373);
#375=PLANE('',#374);
#377=ORIENTED_EDGE('',*,*,#376,.T.);
#379=ORIENTED_EDGE('',*,*,#378,.T.);
#380=EDGE_LOOP('',(#377,#379));
#381=FACE_OUTER_BOUND('',#380,.F.);
#383=ORIENTED_EDGE('',*,*,#382,.F.);
#384=ORIENTED_EDGE('',*,*,#361,.F.);
#385=EDGE_LOOP('',(#383,#384));
#386=FACE_BOUND('',#385,.F.);
#387=ADVANCED_FACE('',(#381,#386),#375,.F.);
#388=CARTESIAN_POINT('',(0.E0,0.E0,0.E0));
#389=DIRECTION('',(0.E0,0.E0,1.E0));
#390=DIRECTION('',(1.E0,0.E0,0.E0));
#391=AXIS2_PLACEMENT_3D('',#388,#389,#390);
#392=CYLINDRICAL_SURFACE('',#391,1.125E0);
#394=ORIENTED_EDGE('',*,*,#393,.T.);
#396=ORIENTED_EDGE('',*,*,#395,.T.);
#397=ORIENTED_EDGE('',*,*,#376,.F.);
#399=ORIENTED_EDGE('',*,*,#398,.F.);
#400=EDGE_LOOP('',(#394,#396,#397,#399));
#401=FACE_OUTER_BOUND('',#400,.F.);
#402=ADVANCED_FACE('',(#401),#392,.T.);
#403=CARTESIAN_POINT('',(0.E0,0.E0,-3.E-2));
#404=DIRECTION('',(0.E0,0.E0,1.E0));
#405=DIRECTION('',(9.999904531721E-1,-4.369618361442E-3,0.E0));
#406=AXIS2_PLACEMENT_3D('',#403,#404,#405);
#407=TOROIDAL_SURFACE('',#406,1.095E0,3.E-2);
#408=ORIENTED_EDGE('',*,*,#213,.T.);
#410=ORIENTED_EDGE('',*,*,#409,.T.);
#411=ORIENTED_EDGE('',*,*,#393,.F.);
#413=ORIENTED_EDGE('',*,*,#412,.F.);
#414=EDGE_LOOP('',(#408,#410,#411,#413));
#415=FACE_OUTER_BOUND('',#414,.F.);
#416=ADVANCED_FACE('',(#415),#407,.T.);
#417=CARTESIAN_POINT('',(0.E0,0.E0,-3.E-2));
#418=DIRECTION('',(0.E0,0.E0,1.E0));
#419=DIRECTION('',(-9.999904531721E-1,4.369618361442E-3,0.E0));
#420=AXIS2_PLACEMENT_3D('',#417,#418,#419);
#421=TOROIDAL_SURFACE('',#420,1.095E0,3.E-2);
#422=ORIENTED_EDGE('',*,*,#211,.T.);
#423=ORIENTED_EDGE('',*,*,#412,.T.);
#425=ORIENTED_EDGE('',*,*,#424,.F.);
#426=ORIENTED_EDGE('',*,*,#409,.F.);
#427=EDGE_LOOP('',(#422,#423,#425,#426));
#428=FACE_OUTER_BOUND('',#427,.F.);
#429=ADVANCED_FACE('',(#428),#421,.T.);
#430=CARTESIAN_POINT('',(0.E0,0.E0,0.E0));
#431=DIRECTION('',(0.E0,0.E0,1.E0));
#432=DIRECTION('',(1.E0,0.E0,0.E0));
#433=AXIS2_PLACEMENT_3D('',#430,#431,#432);
#434=CYLINDRICAL_SURFACE('',#433,1.125E0);
#435=ORIENTED_EDGE('',*,*,#424,.T.);
#436=ORIENTED_EDGE('',*,*,#398,.T.);
#437=ORIENTED_EDGE('',*,*,#378,.F.);
#438=ORIENTED_EDGE('',*,*,#395,.F.);
#439=EDGE_LOOP('',(#435,#436,#437,#438));
#440=FACE_OUTER_BOUND('',#439,.F.);
#441=ADVANCED_FACE('',(#440),#434,.T.);
#442=CARTESIAN_POINT('',(0.E0,0.E0,-3.135E-1));
#443=DIRECTION('',(0.E0,0.E0,1.E0));
#444=DIRECTION('',(-1.E0,0.E0,0.E0));
#445=AXIS2_PLACEMENT_3D('',#442,#443,#444);
#446=CYLINDRICAL_SURFACE('',#445,1.E0);
#447=ORIENTED_EDGE('',*,*,#382,.T.);
#448=ORIENTED_EDGE('',*,*,#366,.F.);
#449=ORIENTED_EDGE('',*,*,#347,.F.);
#450=ORIENTED_EDGE('',*,*,#363,.T.);
#451=EDGE_LOOP('',(#447,#448,#449,#450));
#452=FACE_OUTER_BOUND('',#451,.F.);
#453=ADVANCED_FACE('',(#452),#446,.F.);
#454=CLOSED_SHELL('',(#223,#238,#254,#271,#286,#299,#314,#326,#339,#355,#370,
#387,#402,#416,#429,#441,#453));
#455=CARTESIAN_POINT('',(0.E0,0.E0,0.E0));
#456=DIRECTION('',(0.E0,0.E0,1.E0));
#457=DIRECTION('',(-1.E0,0.E0,0.E0));
#458=AXIS2_PLACEMENT_3D('',#455,#456,#457);
#460=CARTESIAN_POINT('',(0.E0,0.E0,0.E0));
#461=DIRECTION('',(0.E0,0.E0,1.E0));
#462=DIRECTION('',(1.E0,0.E0,0.E0));
#463=AXIS2_PLACEMENT_3D('',#460,#461,#462);
#465=CARTESIAN_POINT('',(0.E0,0.E0,0.E0));
#466=DIRECTION('',(0.E0,0.E0,1.E0));
#467=DIRECTION('',(-1.E0,0.E0,0.E0));
#468=AXIS2_PLACEMENT_3D('',#465,#466,#467);
#470=CARTESIAN_POINT('',(0.E0,0.E0,0.E0));
#471=DIRECTION('',(0.E0,0.E0,1.E0));
#472=DIRECTION('',(1.E0,0.E0,0.E0));
#473=AXIS2_PLACEMENT_3D('',#470,#471,#472);
#475=CARTESIAN_POINT('',(-1.095E0,0.E0,-3.E-2));
#476=DIRECTION('',(0.E0,-1.E0,0.E0));
#477=DIRECTION('',(0.E0,0.E0,1.E0));
#478=AXIS2_PLACEMENT_3D('',#475,#476,#477);
#480=CARTESIAN_POINT('',(1.095E0,0.E0,-3.E-2));
#481=DIRECTION('',(0.E0,1.E0,0.E0));
#482=DIRECTION('',(0.E0,0.E0,1.E0));
#483=AXIS2_PLACEMENT_3D('',#480,#481,#482);
#485=CARTESIAN_POINT('',(0.E0,0.E0,-3.E-2));
#486=DIRECTION('',(0.E0,0.E0,1.E0));
#487=DIRECTION('',(1.E0,0.E0,0.E0));
#488=AXIS2_PLACEMENT_3D('',#485,#486,#487);
#490=CARTESIAN_POINT('',(0.E0,0.E0,-3.1E-1));
#491=DIRECTION('',(0.E0,0.E0,-1.E0));
#492=DIRECTION('',(-1.E0,0.E0,0.E0));
#493=AXIS2_PLACEMENT_3D('',#490,#491,#492);
#495=DIRECTION('',(0.E0,8.281225935692E-14,-1.E0));
#496=VECTOR('',#495,2.8E-1);
#497=CARTESIAN_POINT('',(1.125E0,-2.332520538484E-14,-3.E-2));
#498=LINE('',#497,#496);
#499=CARTESIAN_POINT('',(0.E0,0.E0,-3.E-2));
#500=DIRECTION('',(0.E0,0.E0,1.E0));
#501=DIRECTION('',(-1.E0,0.E0,0.E0));
#502=AXIS2_PLACEMENT_3D('',#499,#500,#501);
#504=CARTESIAN_POINT('',(0.E0,0.E0,-3.1E-1));
#505=DIRECTION('',(0.E0,0.E0,-1.E0));
#506=DIRECTION('',(1.E0,0.E0,0.E0));
#507=AXIS2_PLACEMENT_3D('',#504,#505,#506);
#509=DIRECTION('',(0.E0,-8.316707134570E-14,-1.E0));
#510=VECTOR('',#509,2.8E-1);
#511=CARTESIAN_POINT('',(-1.125E0,2.342455274170E-14,-3.E-2));
#512=LINE('',#511,#510);
#513=CARTESIAN_POINT('',(4.325E-1,0.E0,0.E0));
#514=CARTESIAN_POINT('',(-4.325E-1,0.E0,0.E0));
#515=VERTEX_POINT('',#513);
#516=VERTEX_POINT('',#514);
#517=CARTESIAN_POINT('',(1.125E0,0.E0,-3.1E-1));
#518=CARTESIAN_POINT('',(-1.125E0,0.E0,-3.1E-1));
#519=VERTEX_POINT('',#517);
#520=VERTEX_POINT('',#518);
#521=CARTESIAN_POINT('',(-1.094999997860E0,0.E0,0.E0));
#522=CARTESIAN_POINT('',(1.094999997860E0,0.E0,0.E0));
#523=VERTEX_POINT('',#521);
#524=VERTEX_POINT('',#522);
#525=CARTESIAN_POINT('',(-1.125E0,0.E0,-3.E-2));
#526=CARTESIAN_POINT('',(1.125E0,0.E0,-3.E-2));
#527=VERTEX_POINT('',#525);
#528=VERTEX_POINT('',#526);
#529=CARTESIAN_POINT('',(0.E0,0.E0,0.E0));
#530=DIRECTION('',(0.E0,0.E0,1.E0));
#531=DIRECTION('',(1.E0,0.E0,0.E0));
#532=AXIS2_PLACEMENT_3D('',#529,#530,#531);
#533=PLANE('',#532);
#535=ORIENTED_EDGE('',*,*,#534,.F.);
#537=ORIENTED_EDGE('',*,*,#536,.F.);
#538=EDGE_LOOP('',(#535,#537));
#539=FACE_OUTER_BOUND('',#538,.F.);
#541=ORIENTED_EDGE('',*,*,#540,.T.);
#543=ORIENTED_EDGE('',*,*,#542,.T.);
#544=EDGE_LOOP('',(#541,#543));
#545=FACE_BOUND('',#544,.F.);
#546=ADVANCED_FACE('',(#539,#545),#533,.T.);
#547=CARTESIAN_POINT('',(0.E0,0.E0,-3.E-2));
#548=DIRECTION('',(0.E0,0.E0,1.E0));
#549=DIRECTION('',(-9.999904531721E-1,4.369618361442E-3,0.E0));
#550=AXIS2_PLACEMENT_3D('',#547,#548,#549);
#551=TOROIDAL_SURFACE('',#550,1.095E0,3.E-2);
#552=ORIENTED_EDGE('',*,*,#534,.T.);
#554=ORIENTED_EDGE('',*,*,#553,.T.);
#556=ORIENTED_EDGE('',*,*,#555,.F.);
#558=ORIENTED_EDGE('',*,*,#557,.F.);
#559=EDGE_LOOP('',(#552,#554,#556,#558));
#560=FACE_OUTER_BOUND('',#559,.F.);
#561=ADVANCED_FACE('',(#560),#551,.T.);
#562=CARTESIAN_POINT('',(0.E0,0.E0,-3.E-2));
#563=DIRECTION('',(0.E0,0.E0,1.E0));
#564=DIRECTION('',(9.999904531721E-1,-4.369618361442E-3,0.E0));
#565=AXIS2_PLACEMENT_3D('',#562,#563,#564);
#566=TOROIDAL_SURFACE('',#565,1.095E0,3.E-2);
#567=ORIENTED_EDGE('',*,*,#536,.T.);
#568=ORIENTED_EDGE('',*,*,#557,.T.);
#570=ORIENTED_EDGE('',*,*,#569,.F.);
#571=ORIENTED_EDGE('',*,*,#553,.F.);
#572=EDGE_LOOP('',(#567,#568,#570,#571));
#573=FACE_OUTER_BOUND('',#572,.F.);
#574=ADVANCED_FACE('',(#573),#566,.T.);
#575=CARTESIAN_POINT('',(0.E0,0.E0,0.E0));
#576=DIRECTION('',(0.E0,0.E0,1.E0));
#577=DIRECTION('',(1.E0,0.E0,0.E0));
#578=AXIS2_PLACEMENT_3D('',#575,#576,#577);
#579=CYLINDRICAL_SURFACE('',#578,1.125E0);
#580=ORIENTED_EDGE('',*,*,#569,.T.);
#582=ORIENTED_EDGE('',*,*,#581,.T.);
#584=ORIENTED_EDGE('',*,*,#583,.T.);
#586=ORIENTED_EDGE('',*,*,#585,.F.);
#587=EDGE_LOOP('',(#580,#582,#584,#586));
#588=FACE_OUTER_BOUND('',#587,.F.);
#589=ADVANCED_FACE('',(#588),#579,.T.);
#590=CARTESIAN_POINT('',(0.E0,0.E0,0.E0));
#591=DIRECTION('',(0.E0,0.E0,1.E0));
#592=DIRECTION('',(1.E0,0.E0,0.E0));
#593=AXIS2_PLACEMENT_3D('',#590,#591,#592);
#594=CYLINDRICAL_SURFACE('',#593,1.125E0);
#595=ORIENTED_EDGE('',*,*,#555,.T.);
#596=ORIENTED_EDGE('',*,*,#585,.T.);
#598=ORIENTED_EDGE('',*,*,#597,.T.);
#599=ORIENTED_EDGE('',*,*,#581,.F.);
#600=EDGE_LOOP('',(#595,#596,#598,#599));
#601=FACE_OUTER_BOUND('',#600,.F.);
#602=ADVANCED_FACE('',(#601),#594,.T.);
#603=OPEN_SHELL('',(#546,#561,#574,#589,#602));
#604=MANIFOLD_SOLID_BREP('',#454);
#605=SHELL_BASED_SURFACE_MODEL('',(#603));
#606=DIMENSIONAL_EXPONENTS(1.E0,0.E0,0.E0,0.E0,0.E0,0.E0,0.E0);
#608=LENGTH_MEASURE_WITH_UNIT(LENGTH_MEASURE(2.54E1),#607);
#609=(CONVERSION_BASED_UNIT('INCH',#608)LENGTH_UNIT()NAMED_UNIT(#606));
#610=DIMENSIONAL_EXPONENTS(0.E0,0.E0,0.E0,0.E0,0.E0,0.E0,0.E0);
#612=PLANE_ANGLE_MEASURE_WITH_UNIT(PLANE_ANGLE_MEASURE(1.745329251994E-2),#611);
#613=(CONVERSION_BASED_UNIT('DEGREE',#612)NAMED_UNIT(*)PLANE_ANGLE_UNIT());
#615=UNCERTAINTY_MEASURE_WITH_UNIT(LENGTH_MEASURE(3.196917629273E-4),#609,
'closure',
'Maximum model space distance between geometric entities at asserted connectivities');
#616=(GEOMETRIC_REPRESENTATION_CONTEXT(3)GLOBAL_UNCERTAINTY_ASSIGNED_CONTEXT((
#615))GLOBAL_UNIT_ASSIGNED_CONTEXT((#609,#613,#614))REPRESENTATION_CONTEXT
('ID1','3'));
#619=CARTESIAN_POINT('',(0.E0,0.E0,0.E0));
#620=DIRECTION('',(0.E0,0.E0,1.E0));
#621=DIRECTION('',(1.E0,0.E0,0.E0));
#624=SHAPE_REPRESENTATION_RELATIONSHIP('','',#623,#617);
#625=SHAPE_REPRESENTATION_RELATIONSHIP('','',#623,#618);
#626=APPLICATION_CONTEXT(
'CONFIGURATION CONTROLLED 3D DESIGNS OF MECHANICAL PARTS AND ASSEMBLIES');
#627=APPLICATION_PROTOCOL_DEFINITION('international standard',
'config_control_design',1994,#626);
#628=DESIGN_CONTEXT('',#626,'design');
#629=MECHANICAL_CONTEXT('',#626,'mechanical');
#630=PRODUCT('11754','11754','NOT SPECIFIED',(#629));
#631=PRODUCT_DEFINITION_FORMATION_WITH_SPECIFIED_SOURCE('1','LAST_VERSION',#630,
.MADE.);
#635=PRODUCT_CATEGORY('part','');
#636=PRODUCT_RELATED_PRODUCT_CATEGORY('detail','',(#630));
#637=PRODUCT_CATEGORY_RELATIONSHIP('','',#635,#636);
#638=SECURITY_CLASSIFICATION_LEVEL('unclassified');
#639=SECURITY_CLASSIFICATION('','',#638);
#640=CC_DESIGN_SECURITY_CLASSIFICATION(#639,(#631));
#641=APPROVAL_STATUS('approved');
#642=APPROVAL(#641,'');
#643=CC_DESIGN_APPROVAL(#642,(#639,#631,#632));
#644=CALENDAR_DATE(115,30,7);
#645=COORDINATED_UNIVERSAL_TIME_OFFSET(4,0,.BEHIND.);
#646=LOCAL_TIME(9,57,9.E0,#645);
#647=DATE_AND_TIME(#644,#646);
#648=APPROVAL_DATE_TIME(#647,#642);
#649=DATE_TIME_ROLE('creation_date');
#650=CC_DESIGN_DATE_AND_TIME_ASSIGNMENT(#647,#649,(#632));
#651=DATE_TIME_ROLE('classification_date');
#652=CC_DESIGN_DATE_AND_TIME_ASSIGNMENT(#647,#651,(#639));
#653=PERSON('UNSPECIFIED','UNSPECIFIED',$,$,$,$);
#654=ORGANIZATION('UNSPECIFIED','UNSPECIFIED','UNSPECIFIED');
#655=PERSON_AND_ORGANIZATION(#653,#654);
#656=APPROVAL_ROLE('approver');
#657=APPROVAL_PERSON_ORGANIZATION(#655,#642,#656);
#658=PERSON_AND_ORGANIZATION_ROLE('creator');
#659=CC_DESIGN_PERSON_AND_ORGANIZATION_ASSIGNMENT(#655,#658,(#631,#632));
#660=PERSON_AND_ORGANIZATION_ROLE('design_supplier');
#661=CC_DESIGN_PERSON_AND_ORGANIZATION_ASSIGNMENT(#655,#660,(#631));
#662=PERSON_AND_ORGANIZATION_ROLE('classification_officer');
#663=CC_DESIGN_PERSON_AND_ORGANIZATION_ASSIGNMENT(#655,#662,(#639));
#664=PERSON_AND_ORGANIZATION_ROLE('design_owner');
#665=CC_DESIGN_PERSON_AND_ORGANIZATION_ASSIGNMENT(#655,#664,(#630));
#6=CIRCLE('',#5,4.325E-1);
#11=CIRCLE('',#10,4.325E-1);
#16=CIRCLE('',#15,1.094999997860E0);
#21=CIRCLE('',#20,1.094999997860E0);
#26=CIRCLE('',#25,4.325E-1);
#35=CIRCLE('',#34,4.325E-1);
#40=CIRCLE('',#39,4.325E-1);
#57=CIRCLE('',#56,5.025E-1);
#62=CIRCLE('',#61,5.025E-1);
#67=CIRCLE('',#66,5.025E-1);
#72=CIRCLE('',#71,5.025E-1);
#77=CIRCLE('',#76,4.325E-1);
#86=CIRCLE('',#85,4.325E-1);
#91=CIRCLE('',#90,4.325E-1);
#104=CIRCLE('',#103,1.E0);
#113=CIRCLE('',#112,1.125E0);
#118=CIRCLE('',#117,1.125E0);
#123=CIRCLE('',#122,1.E0);
#128=CIRCLE('',#127,1.E0);
#133=CIRCLE('',#132,1.125E0);
#142=CIRCLE('',#141,3.E-2);
#147=CIRCLE('',#146,3.E-2);
#152=CIRCLE('',#151,1.125E0);
#161=CIRCLE('',#160,1.E0);
#211=EDGE_CURVE('',#172,#173,#16,.T.);
#213=EDGE_CURVE('',#173,#172,#21,.T.);
#217=EDGE_CURVE('',#164,#165,#6,.T.);
#219=EDGE_CURVE('',#165,#164,#11,.T.);
#229=EDGE_CURVE('',#200,#201,#26,.T.);
#231=EDGE_CURVE('',#164,#201,#30,.T.);
#234=EDGE_CURVE('',#165,#200,#81,.T.);
#244=EDGE_CURVE('',#204,#205,#35,.T.);
#246=EDGE_CURVE('',#205,#188,#95,.T.);
#248=EDGE_CURVE('',#188,#189,#40,.T.);
#250=EDGE_CURVE('',#204,#189,#44,.T.);
#260=EDGE_CURVE('',#197,#193,#57,.T.);
#262=EDGE_CURVE('',#197,#193,#62,.T.);
#267=EDGE_CURVE('',#201,#200,#77,.T.);
#277=EDGE_CURVE('',#192,#193,#48,.T.);
#279=EDGE_CURVE('',#196,#192,#72,.T.);
#281=EDGE_CURVE('',#196,#197,#52,.T.);
#295=EDGE_CURVE('',#196,#192,#67,.T.);
#310=EDGE_CURVE('',#205,#204,#86,.T.);
#334=EDGE_CURVE('',#189,#188,#91,.T.);
#345=EDGE_CURVE('',#180,#181,#104,.T.);
#347=EDGE_CURVE('',#180,#181,#161,.T.);
#361=EDGE_CURVE('',#185,#184,#128,.T.);
#363=EDGE_CURVE('',#180,#184,#99,.T.);
#366=EDGE_CURVE('',#181,#185,#108,.T.);
#376=EDGE_CURVE('',#168,#169,#113,.T.);
#378=EDGE_CURVE('',#169,#168,#118,.T.);
#382=EDGE_CURVE('',#184,#185,#123,.T.);
#393=EDGE_CURVE('',#177,#176,#133,.T.);
#395=EDGE_CURVE('',#176,#169,#156,.T.);
#398=EDGE_CURVE('',#177,#168,#137,.T.);
#409=EDGE_CURVE('',#172,#176,#147,.T.);
#412=EDGE_CURVE('',#173,#177,#142,.T.);
#424=EDGE_CURVE('',#176,#177,#152,.T.);
#459=CIRCLE('',#458,4.325E-1);
#464=CIRCLE('',#463,4.325E-1);
#469=CIRCLE('',#468,1.094999997860E0);
#474=CIRCLE('',#473,1.094999997860E0);
#479=CIRCLE('',#478,3.E-2);
#484=CIRCLE('',#483,3.E-2);
#489=CIRCLE('',#488,1.125E0);
#494=CIRCLE('',#493,1.125E0);
#503=CIRCLE('',#502,1.125E0);
#508=CIRCLE('',#507,1.125E0);
#534=EDGE_CURVE('',#523,#524,#469,.T.);
#536=EDGE_CURVE('',#524,#523,#474,.T.);
#540=EDGE_CURVE('',#516,#515,#459,.T.);
#542=EDGE_CURVE('',#515,#516,#464,.T.);
#553=EDGE_CURVE('',#524,#528,#484,.T.);
#555=EDGE_CURVE('',#527,#528,#503,.T.);
#557=EDGE_CURVE('',#523,#527,#479,.T.);
#569=EDGE_CURVE('',#528,#527,#489,.T.);
#581=EDGE_CURVE('',#527,#520,#512,.T.);
#583=EDGE_CURVE('',#520,#519,#494,.T.);
#585=EDGE_CURVE('',#528,#519,#498,.T.);
#597=EDGE_CURVE('',#519,#520,#508,.T.);
#607=(LENGTH_UNIT()NAMED_UNIT(*)SI_UNIT(.MILLI.,.METRE.));
#611=(NAMED_UNIT(*)PLANE_ANGLE_UNIT()SI_UNIT($,.RADIAN.));
#614=(NAMED_UNIT(*)SI_UNIT($,.STERADIAN.)SOLID_ANGLE_UNIT());
#617=ADVANCED_BREP_SHAPE_REPRESENTATION('',(#604),#616);
#618=MANIFOLD_SURFACE_SHAPE_REPRESENTATION('',(#605),#616);
#622=AXIS2_PLACEMENT_3D('',#619,#620,#621);
#623=SHAPE_REPRESENTATION('',(#622),#616);
#632=PRODUCT_DEFINITION('design','',#631,#628);
#633=PRODUCT_DEFINITION_SHAPE('','SHAPE FOR 11754.',#632);
#634=SHAPE_DEFINITION_REPRESENTATION(#633,#623);
ENDSEC;
END-ISO-10303-21;
