999
DXF file: 211_front.dxf
999
Pro/ENGINEER 2018400 by Parametric Technology Corporation
  0
SECTION
  2
HEADER
  9
$ACADVER
  1
AC1027
  9
$DWGCODEPAGE
  3
ANSI_1252
  9
$EXTMAX
 10
11.0
 20
8.5
 30
0.0
  9
$EXTMIN
 10
0.0
 20
0.0
 30
0.0
  9
$LIMMIN
 10
0.0
 20
0.0
  9
$LIMMAX
 10
11.0
 20
8.5
  9
$VIEWCTR
 10
5.5
 20
4.25
  9
$VIEWSIZE
 40
8.5
  9
$CLAYER
  8
0
  9
$LTSCALE
 40
0.605
  9
$CELTYPE
  6
BYLAYER
  9
$DIMSCALE
 40
1.0
  9
$DIMASZ
 40
0.1
  9
$DIMEXO
 40
0.0625
  9
$DIMDLI
 40
0.418
  9
$DIMEXE
 40
0.125
  9
$DIMCEN
 40
0.099
  9
$DIMLFAC
 40
1.0
  9
$DIMBLK
  1
_FILLED
  9
$DIMALT
 70
1
  9
$DIMALTD
 70
1
  9
$DIMALTTD
 70
2
  9
$DIMALTF
 40
25.4
  9
$DIMTXT
 40
0.08
  9
$DIMTOL
 70
1
  9
$DIMLIM
 70
0
  9
$DIMTFAC
 40
1.0
  9
$DIMTP
 40
0.01
  9
$DIMTM
 40
0.01
  9
$DIMGAP
 40
0.09
  9
$DIMDSEP
 70
46
  9
$AUNITS
 70
0
  9
$PDMODE
 70
3
  9
$PDSIZE
 40
0.3125
  9
$HANDSEED
  5
31E
  9
$TILEMODE
 70
1
  9
$MEASUREMENT
 70
0
  9
$INSUNITS
 70
1
  0
ENDSEC
  0
SECTION
  2
CLASSES
  0
CLASS
  1
ACDBDICTIONARYWDFLT
  2
AcDbDictionaryWithDefault
  3
AutoCAD 2000
 90
0
 91
1
280
0
281
0
  0
CLASS
  1
ACDBPLACEHOLDER
  2
AcDbPlaceHolder
  3
AutoCAD 2000
 90
0
 91
1
280
0
281
0
  0
CLASS
  1
LAYOUT
  2
AcDbLayout
  3
AutoCAD 2000
 90
0
 91
0
280
0
281
0
  0
ENDSEC
  0
SECTION
  2
TABLES
  0
TABLE
  2
VPORT
  5
8
100
AcDbSymbolTable
 70
2
  0
VPORT
  5
1F4
100
AcDbSymbolTableRecord
100
AcDbViewportTableRecord
  2
*ACTIVE
 70
0
 10
0.0
 20
0.0
 11
1.0
 21
1.0
 12
5.5
 22
4.25
 13
0.0
 23
0.0
 14
1.0
 24
1.0
 15
0.0
 25
0.0
 16
0.0
 26
0.0
 36
1.0
 17
0.0
 27
0.0
 37
0.0
 40
8.5
 41
1.2941176471
 42
50.0
 43
0.0
 44
0.0
 50
0.0
 51
0.0
 71
0
 72
100
 73
1
 74
1
 75
0
 76
0
 77
0
 78
0
  0
ENDTAB
  0
TABLE
  2
LTYPE
  5
5
100
AcDbSymbolTable
 70
6
  0
LTYPE
  5
14
100
AcDbSymbolTableRecord
100
AcDbLinetypeTableRecord
  2
BYBLOCK
 70
0
  3

 72
65
 73
0
 40
0.0
  0
LTYPE
  5
15
100
AcDbSymbolTableRecord
100
AcDbLinetypeTableRecord
  2
BYLAYER
 70
0
  3

 72
65
 73
0
 40
0.0
  0
LTYPE
  5
16
100
AcDbSymbolTableRecord
100
AcDbLinetypeTableRecord
  2
CONTINUOUS
 70
64
  3
Solid line
 72
65
 73
0
 40
0.0
  0
LTYPE
  5
1F5
100
AcDbSymbolTableRecord
100
AcDbLinetypeTableRecord
  2
CENTER
 70
64
  3
____ _ ____ _ ____ _ ____ _ ____ _ ____ _ ____
 72
65
 73
4
 40
0.6
 49
0.375
 74
0
 49
-0.075
 74
0
 49
0.075
 74
0
 49
-0.075
 74
0
  0
LTYPE
  5
1F6
100
AcDbSymbolTableRecord
100
AcDbLinetypeTableRecord
  2
HIDDEN
 70
64
  3
- - - - - - - - - - - - - - - - - - - -
 72
65
 73
2
 40
0.2
 49
0.1
 74
0
 49
-0.1
 74
0
  0
LTYPE
  5
1F7
100
AcDbSymbolTableRecord
100
AcDbLinetypeTableRecord
  2
PHANTOM
 70
64
  3
_____ _ _ _____ _ _ _____ _ _ _____
 72
65
 73
6
 40
0.8
 49
0.45
 74
0
 49
-0.05
 74
0
 49
0.1
 74
0
 49
-0.05
 74
0
 49
0.1
 74
0
 49
-0.05
 74
0
  0
LTYPE
  5
1F8
100
AcDbSymbolTableRecord
100
AcDbLinetypeTableRecord
  2
DOT
 70
64
  3
. . . . . . . . . . . . . . . . . . . .
 72
65
 73
2
 40
0.2
 49
0.1
 74
0
 49
-0.1
 74
0
  0
LTYPE
  5
1F9
100
AcDbSymbolTableRecord
100
AcDbLinetypeTableRecord
  2
DASHED
 70
64
  3
- - - - - - - - - - - - - - - - - - - -
 72
65
 73
2
 40
0.2
 49
0.1
 74
0
 49
-0.1
 74
0
  0
ENDTAB
  0
TABLE
  2
LAYER
  5
2
100
AcDbSymbolTable
 70
36
  0
LAYER
  5
10
100
AcDbSymbolTableRecord
100
AcDbLayerTableRecord
  2
0
 70
0
 62
7
  6
CONTINUOUS
370
-3
390
F
  0
LAYER
  5
1FA
100
AcDbSymbolTableRecord
100
AcDbLayerTableRecord
  2
DEFAULT_1
 70
0
 62
7
  6
CENTER
370
-3
390
F
  0
LAYER
  5
1FB
100
AcDbSymbolTableRecord
100
AcDbLayerTableRecord
  2
DEFAULT_2
 70
0
 62
8
  6
HIDDEN
370
-3
390
F
  0
LAYER
  5
1FC
100
AcDbSymbolTableRecord
100
AcDbLayerTableRecord
  2
DEFAULT_3
 70
0
 62
7
  6
PHANTOM
370
-3
390
F
  0
LAYER
  5
1FD
100
AcDbSymbolTableRecord
100
AcDbLayerTableRecord
  2
ALL_ASSEMBLY_MEMBERS
 70
0
 62
7
  6
CONTINUOUS
370
-3
390
F
  0
LAYER
  5
1FE
100
AcDbSymbolTableRecord
100
AcDbLayerTableRecord
  2
ALL_FEATURES
 70
0
 62
7
  6
CONTINUOUS
370
-3
390
F
  0
LAYER
  5
1FF
100
AcDbSymbolTableRecord
100
AcDbLayerTableRecord
  2
AXES_FEATURES
 70
0
 62
7
  6
CONTINUOUS
370
-3
390
F
  0
LAYER
  5
200
100
AcDbSymbolTableRecord
100
AcDbLayerTableRecord
  2
CHAMFER_FEATURES
 70
0
 62
7
  6
CONTINUOUS
370
-3
390
F
  0
LAYER
  5
201
100
AcDbSymbolTableRecord
100
AcDbLayerTableRecord
  2
CUT_FEATURES
 70
0
 62
7
  6
CONTINUOUS
370
-3
390
F
  0
LAYER
  5
202
100
AcDbSymbolTableRecord
100
AcDbLayerTableRecord
  2
DATUM_PLANES
 70
0
 62
7
  6
CONTINUOUS
370
-3
390
F
  0
LAYER
  5
203
100
AcDbSymbolTableRecord
100
AcDbLayerTableRecord
  2
DATUM_POINTS
 70
0
 62
7
  6
CONTINUOUS
370
-3
390
F
  0
LAYER
  5
204
100
AcDbSymbolTableRecord
100
AcDbLayerTableRecord
  2
DEFAULT_COORDINATE_SYSTEM
 70
0
 62
7
  6
CONTINUOUS
370
-3
390
F
  0
LAYER
  5
205
100
AcDbSymbolTableRecord
100
AcDbLayerTableRecord
  2
DEFAULT_DATUM_AXES
 70
0
 62
7
  6
CONTINUOUS
370
-3
390
F
  0
LAYER
  5
206
100
AcDbSymbolTableRecord
100
AcDbLayerTableRecord
  2
DEFAULT_DATUM_PLANES
 70
0
 62
7
  6
CONTINUOUS
370
-3
390
F
  0
LAYER
  5
207
100
AcDbSymbolTableRecord
100
AcDbLayerTableRecord
  2
DEFAULT_SURFACES
 70
0
 62
7
  6
CONTINUOUS
370
-3
390
F
  0
LAYER
  5
208
100
AcDbSymbolTableRecord
100
AcDbLayerTableRecord
  2
DIMENSIONS
 70
0
 62
7
  6
CONTINUOUS
370
-3
390
F
  0
LAYER
  5
209
100
AcDbSymbolTableRecord
100
AcDbLayerTableRecord
  2
NONE
 70
0
 62
7
  6
CONTINUOUS
370
-3
390
F
  0
LAYER
  5
20A
100
AcDbSymbolTableRecord
100
AcDbLayerTableRecord
  2
NOTES
 70
0
 62
7
  6
CONTINUOUS
370
-3
390
F
  0
LAYER
  5
20B
100
AcDbSymbolTableRecord
100
AcDbLayerTableRecord
  2
PART_REFERENCE_DIMENSIONS
 70
0
 62
7
  6
CONTINUOUS
370
-3
390
F
  0
LAYER
  5
20C
100
AcDbSymbolTableRecord
100
AcDbLayerTableRecord
  2
PLATED_AREA
 70
0
 62
7
  6
CONTINUOUS
370
-3
390
F
  0
LAYER
  5
20D
100
AcDbSymbolTableRecord
100
AcDbLayerTableRecord
  2
PLATED_SURFACE_AREA
 70
0
 62
7
  6
CONTINUOUS
370
-3
390
F
  0
LAYER
  5
20E
100
AcDbSymbolTableRecord
100
AcDbLayerTableRecord
  2
PLATEED_SURFACE
 70
0
 62
7
  6
CONTINUOUS
370
-3
390
F
  0
LAYER
  5
20F
100
AcDbSymbolTableRecord
100
AcDbLayerTableRecord
  2
POINTS
 70
0
 62
7
  6
CONTINUOUS
370
-3
390
F
  0
LAYER
  5
210
100
AcDbSymbolTableRecord
100
AcDbLayerTableRecord
  2
PROTRUSION_FEATURES
 70
0
 62
7
  6
CONTINUOUS
370
-3
390
F
  0
LAYER
  5
211
100
AcDbSymbolTableRecord
100
AcDbLayerTableRecord
  2
QUILT
 70
0
 62
7
  6
CONTINUOUS
370
-3
390
F
  0
LAYER
  5
212
100
AcDbSymbolTableRecord
100
AcDbLayerTableRecord
  2
QUILTS
 70
0
 62
7
  6
CONTINUOUS
370
-3
390
F
  0
LAYER
  5
213
100
AcDbSymbolTableRecord
100
AcDbLayerTableRecord
  2
REFERENCE_DIMENSIONS
 70
0
 62
7
  6
CONTINUOUS
370
-3
390
F
  0
LAYER
  5
214
100
AcDbSymbolTableRecord
100
AcDbLayerTableRecord
  2
ROUND_FEATURES
 70
0
 62
7
  6
CONTINUOUS
370
-3
390
F
  0
LAYER
  5
215
100
AcDbSymbolTableRecord
100
AcDbLayerTableRecord
  2
XSEC_DATUMS
 70
0
 62
7
  6
CONTINUOUS
370
-3
390
F
  0
ENDTAB
  0
TABLE
  2
STYLE
  5
3
100
AcDbSymbolTable
 70
1
  0
STYLE
  5
11
100
AcDbSymbolTableRecord
100
AcDbTextStyleTableRecord
  2
STANDARD
 70
0
 40
0.0
 41
0.8
 50
0.0
 71
0
 42
0.2
  3
txt
  4

  0
STYLE
  5
216
100
AcDbSymbolTableRecord
100
AcDbTextStyleTableRecord
  2
TEXTSTYLE_1
 70
0
 40
0.0
 41
0.8
 50
0.0
 71
0
 42
0.2
  3
gdt
  4

  0
ENDTAB
  0
TABLE
  2
VIEW
  5
6
100
AcDbSymbolTable
 70
0
  0
ENDTAB
  0
TABLE
  2
UCS
  5
7
100
AcDbSymbolTable
 70
0
  0
ENDTAB
  0
TABLE
  2
APPID
  5
9
100
AcDbSymbolTable
 70
1
  0
APPID
  5
217
100
AcDbSymbolTableRecord
100
AcDbRegAppTableRecord
  2
ACAD
 70
0
  0
ENDTAB
  0
TABLE
  2
BLOCK_RECORD
  5
1
100
AcDbSymbolTable
 70
0
  0
BLOCK_RECORD
  5
218
100
AcDbSymbolTableRecord
100
AcDbBlockTableRecord
  2
*Model_Space
  0
BLOCK_RECORD
  5
219
100
AcDbSymbolTableRecord
100
AcDbBlockTableRecord
  2
*Paper_Space
  0
BLOCK_RECORD
  5
21A
100
AcDbSymbolTableRecord
100
AcDbBlockTableRecord
  2
_FILLED
  0
ENDTAB
  0
TABLE
  2
DIMSTYLE
  5
A
100
AcDbSymbolTable
 70
1
100
AcDbDimStyleTable
 71
0
  0
DIMSTYLE
105
21B
100
AcDbSymbolTableRecord
100
AcDbDimStyleTableRecord
  2
STANDARD
 70
0
  3

  4

 40
1.0
 41
0.1
 42
0.0625
 43
0.38
 44
0.125
 45
0.0
 46
0.0
 47
0.01
 48
0.01
140
0.08
141
0.09
142
0.0
143
25.4
144
1.0
145
0.0
146
1.0
147
0.09
 71
1.0
 72
0.0
 73
1
 74
1
 75
0
 76
0
 77
0
 78
4
 79
1
170
1
171
1
172
0
173
0
174
0
175
0
176
0
177
0
178
0
270
2
179
2
271
2
272
2
273
2
274
2
275
0
280
0
281
0
282
0
283
1
284
4
285
0
286
0
287
3
288
0
340
11
278
46
341
21A
342
21A
343
21A
344
21A
  0
ENDTAB
  0
ENDSEC
  0
SECTION
  2
BLOCKS
  0
BLOCK
  5
20
100
AcDbEntity
  8
0
100
AcDbBlockBegin
  2
*Model_Space
 70
0
 10
0.0
 20
0.0
 30
0.0
  3
*Model_Space
  1

  0
ENDBLK
  5
21
100
AcDbEntity
  8
0
100
AcDbBlockEnd
  0
BLOCK
  5
1C
100
AcDbEntity
  8
0
100
AcDbBlockBegin
  2
*Paper_Space
 70
0
 10
0.0
 20
0.0
 30
0.0
  3
*Paper_Space
  1

  0
ENDBLK
  5
1D
100
AcDbEntity
  8
0
100
AcDbBlockEnd
  0
BLOCK
  5
21C
100
AcDbEntity
  8
0
100
AcDbBlockBegin
  2
_FILLED
 70
64
 10
0.0
 20
0.0
  3
_FILLED
  1

  0
SOLID
  5
21D
100
AcDbEntity
  8
0
  6
BYBLOCK
 62
0
100
AcDbTrace
 10
0.0
 20
0.0
 11
-1.0
 21
0.2
 12
-1.0
 22
-0.2
 13
-1.0
 23
-0.2
  0
ENDBLK
  5
21E
100
AcDbEntity
  8
0
  6
BYBLOCK
 62
0
100
AcDbBlockEnd
  0
ENDSEC
  0
SECTION
  2
ENTITIES
  0
MTEXT
  5
21F
100
AcDbEntity
  8
0
100
AcDbMText
 62
2
  6
CONTINUOUS
  7
STANDARD
 71
3
 72
1
 10
4.958113354
 20
1.0034466311
 30
0.0
 11
1.0
 21
0.0
 31
0.0
 73
2
 44
0.9
  1
SCALE  1.000
 40
0.08
 41
0.768
  0
LINE
  5
220
100
AcDbEntity
  8
0
100
AcDbLine
 62
7
  6
CONTINUOUS
 10
0.0
 20
0.0
 11
0.0
 21
8.5
  0
LINE
  5
221
100
AcDbEntity
  8
0
100
AcDbLine
 62
7
  6
CONTINUOUS
 10
0.0
 20
0.0
 11
11.0
 21
0.0
  0
LINE
  5
222
100
AcDbEntity
  8
0
100
AcDbLine
 62
7
  6
CONTINUOUS
 10
0.0
 20
8.5
 11
11.0
 21
8.5
  0
LINE
  5
223
100
AcDbEntity
  8
0
100
AcDbLine
 62
7
  6
CONTINUOUS
 10
11.0
 20
0.0
 11
11.0
 21
8.5
  0
LINE
  5
224
100
AcDbEntity
  8
ALL_ASSEMBLY_MEMBERS
100
AcDbLine
 62
7
  6
CONTINUOUS
 10
5.6486168422
 20
1.7671578112
 11
5.2863439481
 21
1.7671578112
  0
LINE
  5
225
100
AcDbEntity
  8
ALL_ASSEMBLY_MEMBERS
100
AcDbLine
 62
7
  6
CONTINUOUS
 10
5.0733296491
 20
1.7671578112
 11
4.711056755
 21
1.7671578112
  0
LINE
  5
226
100
AcDbEntity
  8
ALL_ASSEMBLY_MEMBERS
100
AcDbLine
 62
7
  6
CONTINUOUS
 10
4.2597506984
 20
1.7671578112
 11
3.8974778043
 21
1.7671578112
  0
LINE
  5
227
100
AcDbEntity
  8
ALL_ASSEMBLY_MEMBERS
100
AcDbLine
 62
7
  6
CONTINUOUS
 10
3.6844635054
 20
1.7671578112
 11
3.3221906112
 21
1.7671578112
  0
LINE
  5
228
100
AcDbEntity
  8
ALL_ASSEMBLY_MEMBERS
100
AcDbLine
 62
7
  6
CONTINUOUS
 10
5.6833517757
 20
1.7990703078
 11
5.6253945723
 21
1.7990703078
  0
LINE
  5
229
100
AcDbEntity
  8
ALL_ASSEMBLY_MEMBERS
100
AcDbLine
 62
7
  6
CONTINUOUS
 10
5.614854452
 20
1.7990703078
 11
5.4749333857
 21
1.7990703078
  0
LINE
  5
22A
100
AcDbEntity
  8
ALL_ASSEMBLY_MEMBERS
100
AcDbLine
 62
7
  6
CONTINUOUS
 10
5.4600274046
 20
1.7990703078
 11
5.3201063382
 21
1.7990703078
  0
LINE
  5
22B
100
AcDbEntity
  8
ALL_ASSEMBLY_MEMBERS
100
AcDbLine
 62
7
  6
CONTINUOUS
 10
5.3095662179
 20
1.7990703078
 11
5.2516090146
 21
1.7990703078
  0
LINE
  5
22C
100
AcDbEntity
  8
ALL_ASSEMBLY_MEMBERS
100
AcDbLine
 62
7
  6
CONTINUOUS
 10
5.1080645826
 20
1.7990703078
 11
5.0501073793
 21
1.7990703078
  0
LINE
  5
22D
100
AcDbEntity
  8
ALL_ASSEMBLY_MEMBERS
100
AcDbLine
 62
7
  6
CONTINUOUS
 10
5.0395672589
 20
1.7990703078
 11
4.8996461926
 21
1.7990703078
  0
LINE
  5
22E
100
AcDbEntity
  8
ALL_ASSEMBLY_MEMBERS
100
AcDbLine
 62
7
  6
CONTINUOUS
 10
4.8847402115
 20
1.7990703078
 11
4.7448191452
 21
1.7990703078
  0
LINE
  5
22F
100
AcDbEntity
  8
ALL_ASSEMBLY_MEMBERS
100
AcDbLine
 62
7
  6
CONTINUOUS
 10
4.7342790249
 20
1.7990703078
 11
4.6763218215
 21
1.7990703078
  0
LINE
  5
230
100
AcDbEntity
  8
ALL_ASSEMBLY_MEMBERS
100
AcDbLine
 62
7
  6
CONTINUOUS
 10
4.2944856319
 20
1.7990703078
 11
4.2365284286
 21
1.7990703078
  0
LINE
  5
231
100
AcDbEntity
  8
ALL_ASSEMBLY_MEMBERS
100
AcDbLine
 62
7
  6
CONTINUOUS
 10
4.2259883082
 20
1.7990703078
 11
4.0860672419
 21
1.7990703078
  0
LINE
  5
232
100
AcDbEntity
  8
ALL_ASSEMBLY_MEMBERS
100
AcDbLine
 62
7
  6
CONTINUOUS
 10
4.0711612608
 20
1.7990703078
 11
3.9312401945
 21
1.7990703078
  0
LINE
  5
233
100
AcDbEntity
  8
ALL_ASSEMBLY_MEMBERS
100
AcDbLine
 62
7
  6
CONTINUOUS
 10
3.9207000742
 20
1.7990703078
 11
3.8627428708
 21
1.7990703078
  0
LINE
  5
234
100
AcDbEntity
  8
ALL_ASSEMBLY_MEMBERS
100
AcDbLine
 62
7
  6
CONTINUOUS
 10
3.7191984388
 20
1.7990703078
 11
3.6612412355
 21
1.7990703078
  0
LINE
  5
235
100
AcDbEntity
  8
ALL_ASSEMBLY_MEMBERS
100
AcDbLine
 62
7
  6
CONTINUOUS
 10
3.6507011152
 20
1.7990703078
 11
3.5107800488
 21
1.7990703078
  0
LINE
  5
236
100
AcDbEntity
  8
ALL_ASSEMBLY_MEMBERS
100
AcDbLine
 62
7
  6
CONTINUOUS
 10
3.4958740677
 20
1.7990703078
 11
3.3559530014
 21
1.7990703078
  0
LINE
  5
237
100
AcDbEntity
  8
ALL_ASSEMBLY_MEMBERS
100
AcDbLine
 62
7
  6
CONTINUOUS
 10
3.3454128811
 20
1.7990703078
 11
3.2874556778
 21
1.7990703078
  0
LINE
  5
238
100
AcDbEntity
  8
ALL_ASSEMBLY_MEMBERS
100
AcDbLine
 62
7
  6
CONTINUOUS
 10
6.2491832543
 20
2.021086945
 11
2.7216241991
 21
2.021086945
  0
LINE
  5
239
100
AcDbEntity
  8
ALL_ASSEMBLY_MEMBERS
100
AcDbLine
 62
7
  6
CONTINUOUS
 10
4.0254037267
 20
6.7904897044
 11
4.0154037267
 21
6.7804897044
  0
LINE
  5
23A
100
AcDbEntity
  8
ALL_ASSEMBLY_MEMBERS
100
AcDbLine
 62
7
  6
CONTINUOUS
 10
6.288553333
 20
2.0604570238
 11
2.6822541204
 21
2.0604570238
  0
LINE
  5
23B
100
AcDbEntity
  8
ALL_ASSEMBLY_MEMBERS
100
AcDbLine
 62
7
  6
CONTINUOUS
 10
2.6822541204
 20
2.2251580855
 11
6.288553333
 21
2.2251580855
  0
LINE
  5
23C
100
AcDbEntity
  8
ALL_ASSEMBLY_MEMBERS
100
AcDbLine
 62
7
  6
CONTINUOUS
 10
6.2819912851
 20
2.3129498266
 11
2.6888161683
 21
2.3129498266
  0
LINE
  5
23D
100
AcDbEntity
  8
ALL_ASSEMBLY_MEMBERS
100
AcDbLine
 62
7
  6
CONTINUOUS
 10
4.4749037267
 20
2.3812644996
 11
4.4959037271
 21
2.3812644996
  0
LINE
  5
23E
100
AcDbEntity
  8
ALL_ASSEMBLY_MEMBERS
100
AcDbLine
 62
7
  6
CONTINUOUS
 10
4.4749037267
 20
2.3822279223
 11
4.4959037267
 21
2.3822279223
  0
LINE
  5
23F
100
AcDbEntity
  8
ALL_ASSEMBLY_MEMBERS
100
AcDbLine
 62
7
  6
CONTINUOUS
 10
2.6822541204
 20
2.2251580855
 11
2.6822541204
 21
2.0604570238
  0
LINE
  5
240
100
AcDbEntity
  8
ALL_ASSEMBLY_MEMBERS
100
AcDbLine
 62
7
  6
CONTINUOUS
 10
4.4959037267
 20
2.496164766
 11
4.4749037267
 21
2.496164766
  0
LINE
  5
241
100
AcDbEntity
  8
ALL_ASSEMBLY_MEMBERS
100
AcDbLine
 62
7
  6
CONTINUOUS
 10
4.4959037267
 20
2.5691769108
 11
4.4749037267
 21
2.5691769108
  0
LINE
  5
242
100
AcDbEntity
  8
ALL_ASSEMBLY_MEMBERS
100
AcDbLine
 62
7
  6
CONTINUOUS
 10
4.4959037267
 20
2.7828584547
 11
4.4749037267
 21
2.7828584547
  0
LINE
  5
243
100
AcDbEntity
  8
ALL_ASSEMBLY_MEMBERS
100
AcDbLine
 62
7
  6
CONTINUOUS
 10
3.5033270583
 20
2.021086945
 11
3.5033270583
 21
1.7846775498
  0
LINE
  5
244
100
AcDbEntity
  8
ALL_ASSEMBLY_MEMBERS
100
AcDbLine
 62
7
  6
CONTINUOUS
 10
3.7854037267
 20
5.7021893073
 11
3.7854037267
 21
5.7010579064
  0
LINE
  5
245
100
AcDbEntity
  8
ALL_ASSEMBLY_MEMBERS
100
AcDbLine
 62
7
  6
CONTINUOUS
 10
3.8704037267
 20
5.5762050553
 11
3.8704037267
 21
5.6021893073
  0
LINE
  5
246
100
AcDbEntity
  8
ALL_ASSEMBLY_MEMBERS
100
AcDbLine
 62
7
  6
CONTINUOUS
 10
4.0154037267
 20
6.5404897043
 11
4.0154037267
 21
6.7804897043
  0
LINE
  5
247
100
AcDbEntity
  8
ALL_ASSEMBLY_MEMBERS
100
AcDbLine
 62
7
  6
CONTINUOUS
 10
4.0364037267
 20
6.1358724605
 11
4.0364037267
 21
6.5404897043
  0
LINE
  5
248
100
AcDbEntity
  8
ALL_ASSEMBLY_MEMBERS
100
AcDbLine
 62
7
  6
CONTINUOUS
 10
4.0786142514
 20
2.021086945
 11
4.0786142514
 21
1.7846775498
  0
LINE
  5
249
100
AcDbEntity
  8
ALL_ASSEMBLY_MEMBERS
100
AcDbLine
 62
7
  6
CONTINUOUS
 10
4.2384725622
 20
5.7021893073
 11
4.2384725622
 21
5.7010579064
  0
LINE
  5
24A
100
AcDbEntity
  8
ALL_ASSEMBLY_MEMBERS
100
AcDbLine
 62
7
  6
CONTINUOUS
 10
4.2704037267
 20
2.4689159726
 11
4.2704037267
 21
2.7472314141
  0
LINE
  5
24B
100
AcDbEntity
  8
ALL_ASSEMBLY_MEMBERS
100
AcDbLine
 62
7
  6
CONTINUOUS
 10
4.3054037267
 20
2.7671531326
 11
4.3054037267
 21
4.0196432284
  0
LINE
  5
24C
100
AcDbEntity
  8
ALL_ASSEMBLY_MEMBERS
100
AcDbLine
 62
7
  6
CONTINUOUS
 10
4.3334037267
 20
2.471513293
 11
4.3334037267
 21
2.4068793954
  0
LINE
  5
24D
100
AcDbEntity
  8
ALL_ASSEMBLY_MEMBERS
100
AcDbLine
 62
7
  6
CONTINUOUS
 10
4.4494037267
 20
4.3019924569
 11
4.4494037267
 21
4.2519924569
  0
LINE
  5
24E
100
AcDbEntity
  8
ALL_ASSEMBLY_MEMBERS
100
AcDbLine
 62
7
  6
CONTINUOUS
 10
4.4604037267
 20
4.187600966
 11
4.4604037267
 21
4.2519924569
  0
LINE
  5
24F
100
AcDbEntity
  8
ALL_ASSEMBLY_MEMBERS
100
AcDbLine
 62
7
  6
CONTINUOUS
 10
4.4604037267
 20
4.3019924569
 11
4.4604037267
 21
4.3663839478
  0
LINE
  5
250
100
AcDbEntity
  8
ALL_ASSEMBLY_MEMBERS
100
AcDbLine
 62
7
  6
CONTINUOUS
 10
4.4749037267
 20
2.3822279223
 11
4.4749037267
 21
2.3812644996
  0
LINE
  5
251
100
AcDbEntity
  8
ALL_ASSEMBLY_MEMBERS
100
AcDbLine
 62
7
  6
CONTINUOUS
 10
4.4749037267
 20
2.496164766
 11
4.4749037267
 21
2.7828584547
  0
LINE
  5
252
100
AcDbEntity
  8
ALL_ASSEMBLY_MEMBERS
100
AcDbLine
 62
7
  6
CONTINUOUS
 10
4.4854060815
 20
2.7828380495
 11
4.4854037267
 21
4.0839924569
  0
LINE
  5
253
100
AcDbEntity
  8
ALL_ASSEMBLY_MEMBERS
100
AcDbLine
 62
7
  6
CONTINUOUS
 10
4.4959037267
 20
2.3822279223
 11
4.4959037271
 21
2.3812644996
  0
LINE
  5
254
100
AcDbEntity
  8
ALL_ASSEMBLY_MEMBERS
100
AcDbLine
 62
7
  6
CONTINUOUS
 10
4.4959037267
 20
2.496164766
 11
4.4959037267
 21
2.7828584547
  0
LINE
  5
255
100
AcDbEntity
  8
ALL_ASSEMBLY_MEMBERS
100
AcDbLine
 62
7
  6
CONTINUOUS
 10
4.5104037267
 20
4.3663839478
 11
4.5104037267
 21
4.3019924569
  0
LINE
  5
256
100
AcDbEntity
  8
ALL_ASSEMBLY_MEMBERS
100
AcDbLine
 62
7
  6
CONTINUOUS
 10
4.5104037267
 20
4.2519924569
 11
4.5104037267
 21
4.187600966
  0
LINE
  5
257
100
AcDbEntity
  8
ALL_ASSEMBLY_MEMBERS
100
AcDbLine
 62
7
  6
CONTINUOUS
 10
4.4604037267
 20
4.2409924569
 11
4.5104037267
 21
4.2409924569
  0
LINE
  5
258
100
AcDbEntity
  8
ALL_ASSEMBLY_MEMBERS
100
AcDbLine
 62
7
  6
CONTINUOUS
 10
4.5747952176
 20
4.2519924569
 11
4.5104037267
 21
4.2519924569
  0
LINE
  5
259
100
AcDbEntity
  8
ALL_ASSEMBLY_MEMBERS
100
AcDbLine
 62
7
  6
CONTINUOUS
 10
4.4604037267
 20
4.2519924569
 11
4.3960122358
 21
4.2519924569
  0
LINE
  5
25A
100
AcDbEntity
  8
ALL_ASSEMBLY_MEMBERS
100
AcDbLine
 62
7
  6
CONTINUOUS
 10
4.3960122358
 20
4.3019924569
 11
4.4604037267
 21
4.3019924569
  0
LINE
  5
25B
100
AcDbEntity
  8
ALL_ASSEMBLY_MEMBERS
100
AcDbLine
 62
7
  6
CONTINUOUS
 10
4.5104037267
 20
4.3019924569
 11
4.5747952176
 21
4.3019924569
  0
LINE
  5
25C
100
AcDbEntity
  8
ALL_ASSEMBLY_MEMBERS
100
AcDbLine
 62
7
  6
CONTINUOUS
 10
4.5997742685
 20
4.1221174951
 11
4.6000740834
 21
4.1219388817
  0
LINE
  5
25D
100
AcDbEntity
  8
ALL_ASSEMBLY_MEMBERS
100
AcDbLine
 62
7
  6
CONTINUOUS
 10
4.5997742685
 20
4.1221174951
 11
4.6000698845
 21
4.1219353331
  0
LINE
  5
25E
100
AcDbEntity
  8
ALL_ASSEMBLY_MEMBERS
100
AcDbLine
 62
7
  6
CONTINUOUS
 10
4.5214037267
 20
4.3019924569
 11
4.5214037267
 21
4.2519924569
  0
LINE
  5
25F
100
AcDbEntity
  8
ALL_ASSEMBLY_MEMBERS
100
AcDbLine
 62
7
  6
CONTINUOUS
 10
4.6374037267
 20
2.4068793954
 11
4.6374037267
 21
2.471513293
  0
LINE
  5
260
100
AcDbEntity
  8
ALL_ASSEMBLY_MEMBERS
100
AcDbLine
 62
7
  6
CONTINUOUS
 10
4.6654037267
 20
4.0196432284
 11
4.6654037267
 21
2.7671532794
  0
LINE
  5
261
100
AcDbEntity
  8
ALL_ASSEMBLY_MEMBERS
100
AcDbLine
 62
7
  6
CONTINUOUS
 10
4.7004037267
 20
2.4689159726
 11
4.7004037267
 21
2.7472314141
  0
LINE
  5
262
100
AcDbEntity
  8
ALL_ASSEMBLY_MEMBERS
100
AcDbLine
 62
7
  6
CONTINUOUS
 10
4.3707375719
 20
4.1219353423
 11
4.3710331849
 21
4.1221174951
  0
LINE
  5
263
100
AcDbEntity
  8
ALL_ASSEMBLY_MEMBERS
100
AcDbLine
 62
7
  6
CONTINUOUS
 10
4.3707333782
 20
4.1219388866
 11
4.3710331849
 21
4.1221174951
  0
LINE
  5
264
100
AcDbEntity
  8
ALL_ASSEMBLY_MEMBERS
100
AcDbLine
 62
7
  6
CONTINUOUS
 10
4.4604037267
 20
4.3129924569
 11
4.5104037267
 21
4.3129924569
  0
LINE
  5
265
100
AcDbEntity
  8
ALL_ASSEMBLY_MEMBERS
100
AcDbLine
 62
7
  6
CONTINUOUS
 10
4.7323348912
 20
5.7021893073
 11
4.7323348912
 21
5.7010579064
  0
LINE
  5
266
100
AcDbEntity
  8
ALL_ASSEMBLY_MEMBERS
100
AcDbLine
 62
7
  6
CONTINUOUS
 10
4.8921932021
 20
2.021086945
 11
4.8921932021
 21
1.7846775498
  0
LINE
  5
267
100
AcDbEntity
  8
ALL_ASSEMBLY_MEMBERS
100
AcDbLine
 62
7
  6
CONTINUOUS
 10
4.9344037267
 20
6.135872937
 11
4.9344037267
 21
6.5404897043
  0
LINE
  5
268
100
AcDbEntity
  8
ALL_ASSEMBLY_MEMBERS
100
AcDbLine
 62
7
  6
CONTINUOUS
 10
4.9554037267
 20
6.5404897043
 11
4.9554037267
 21
6.7804897043
  0
LINE
  5
269
100
AcDbEntity
  8
ALL_ASSEMBLY_MEMBERS
100
AcDbLine
 62
7
  6
CONTINUOUS
 10
5.1004037267
 20
5.5762050553
 11
5.1004037267
 21
5.6021893073
  0
LINE
  5
26A
100
AcDbEntity
  8
ALL_ASSEMBLY_MEMBERS
100
AcDbLine
 62
7
  6
CONTINUOUS
 10
5.1854037267
 20
5.7021893073
 11
5.1854037267
 21
5.7010579064
  0
LINE
  5
26B
100
AcDbEntity
  8
ALL_ASSEMBLY_MEMBERS
100
AcDbLine
 62
7
  6
CONTINUOUS
 10
5.4674803951
 20
2.021086945
 11
5.4674803951
 21
1.7846775498
  0
LINE
  5
26C
100
AcDbEntity
  8
ALL_ASSEMBLY_MEMBERS
100
AcDbLine
 62
7
  6
CONTINUOUS
 10
3.788553333
 20
5.5762050553
 11
5.1822541204
 21
5.5762050553
  0
LINE
  5
26D
100
AcDbEntity
  8
ALL_ASSEMBLY_MEMBERS
100
AcDbLine
 62
7
  6
CONTINUOUS
 10
3.8704037267
 20
5.6021893073
 11
5.1004037267
 21
5.6021893073
  0
LINE
  5
26E
100
AcDbEntity
  8
ALL_ASSEMBLY_MEMBERS
100
AcDbLine
 62
7
  6
CONTINUOUS
 10
3.7854037267
 20
5.7010579069
 11
4.2384725622
 21
5.7010579064
  0
LINE
  5
26F
100
AcDbEntity
  8
ALL_ASSEMBLY_MEMBERS
100
AcDbLine
 62
7
  6
CONTINUOUS
 10
4.7323348912
 20
5.7010579064
 11
5.1854037267
 21
5.7010579069
  0
LINE
  5
270
100
AcDbEntity
  8
ALL_ASSEMBLY_MEMBERS
100
AcDbLine
 62
7
  6
CONTINUOUS
 10
3.7854037267
 20
5.7021893073
 11
4.2384725622
 21
5.7021893073
  0
LINE
  5
271
100
AcDbEntity
  8
ALL_ASSEMBLY_MEMBERS
100
AcDbLine
 62
7
  6
CONTINUOUS
 10
4.7323348912
 20
5.7021893073
 11
5.1854037267
 21
5.7021893073
  0
LINE
  5
272
100
AcDbEntity
  8
ALL_ASSEMBLY_MEMBERS
100
AcDbLine
 62
7
  6
CONTINUOUS
 10
3.8854037267
 20
5.8021893073
 11
5.0854037267
 21
5.8021893073
  0
LINE
  5
273
100
AcDbEntity
  8
ALL_ASSEMBLY_MEMBERS
100
AcDbLine
 62
7
  6
CONTINUOUS
 10
6.288553333
 20
2.2251580855
 11
6.288553333
 21
2.0604570238
  0
LINE
  5
274
100
AcDbEntity
  8
ALL_ASSEMBLY_MEMBERS
100
AcDbLine
 62
7
  6
CONTINUOUS
 10
4.8461074778
 20
5.9981251578
 11
4.1246999757
 21
5.9981251578
  0
LINE
  5
275
100
AcDbEntity
  8
ALL_ASSEMBLY_MEMBERS
100
AcDbLine
 62
7
  6
CONTINUOUS
 10
4.9254039838
 20
6.1344897043
 11
4.0454038429
 21
6.1344897043
  0
LINE
  5
276
100
AcDbEntity
  8
ALL_ASSEMBLY_MEMBERS
100
AcDbLine
 62
7
  6
CONTINUOUS
 10
4.0364037267
 20
6.1644897043
 11
4.9344037267
 21
6.1644897043
  0
LINE
  5
277
100
AcDbEntity
  8
ALL_ASSEMBLY_MEMBERS
100
AcDbLine
 62
7
  6
CONTINUOUS
 10
4.9554037267
 20
6.5404897043
 11
4.9344037267
 21
6.5404897043
  0
LINE
  5
278
100
AcDbEntity
  8
ALL_ASSEMBLY_MEMBERS
100
AcDbLine
 62
7
  6
CONTINUOUS
 10
4.0364037267
 20
6.5404897043
 11
4.0154037267
 21
6.5404897043
  0
LINE
  5
279
100
AcDbEntity
  8
ALL_ASSEMBLY_MEMBERS
100
AcDbLine
 62
7
  6
CONTINUOUS
 10
4.9454037267
 20
6.7904897044
 11
4.9554037267
 21
6.7804897044
  0
LINE
  5
27A
100
AcDbEntity
  8
ALL_ASSEMBLY_MEMBERS
100
AcDbLine
 62
7
  6
CONTINUOUS
 10
4.0154037267
 20
6.7804897043
 11
4.9554037267
 21
6.7804897043
  0
LINE
  5
27B
100
AcDbEntity
  8
ALL_ASSEMBLY_MEMBERS
100
AcDbLine
 62
7
  6
CONTINUOUS
 10
4.0254037267
 20
6.7904897043
 11
4.9454037267
 21
6.7904897043
  0
ARC
  5
27C
100
AcDbEntity
  8
ALL_ASSEMBLY_MEMBERS
100
AcDbCircle
 62
7
  6
CONTINUOUS
 10
-3.451160935
 20
0.8497541425
 40
9.842519685
100
AcDbArc
 50
8.5493190706
 51
28.6989493415
  0
ARC
  5
27D
100
AcDbEntity
  8
ALL_ASSEMBLY_MEMBERS
100
AcDbCircle
 62
7
  6
CONTINUOUS
 10
-0.5240205096
 20
1.168136847
 40
4.2221295192
100
AcDbArc
 50
8.3966973272
 51
8.5941790454
  0
ARC
  5
27E
100
AcDbEntity
  8
ALL_ASSEMBLY_MEMBERS
100
AcDbCircle
 62
7
  6
CONTINUOUS
 10
1.4401328272
 20
1.168136847
 40
4.2221295192
100
AcDbArc
 50
8.3966973272
 51
8.5941790454
  0
ARC
  5
27F
100
AcDbEntity
  8
ALL_ASSEMBLY_MEMBERS
100
AcDbCircle
 62
7
  6
CONTINUOUS
 10
0.0512666834
 20
1.168136847
 40
4.2221295192
100
AcDbArc
 50
8.3966973272
 51
8.5941790454
  0
ARC
  5
280
100
AcDbEntity
  8
ALL_ASSEMBLY_MEMBERS
100
AcDbCircle
 62
7
  6
CONTINUOUS
 10
0.8648456341
 20
1.168136847
 40
4.2221295192
100
AcDbArc
 50
8.3966973272
 51
8.5941790454
  0
ARC
  5
281
100
AcDbEntity
  8
ALL_ASSEMBLY_MEMBERS
100
AcDbCircle
 62
7
  6
CONTINUOUS
 10
2.6187378889
 20
1.8845713489
 40
1.1037770835
100
AcDbArc
 50
355.5572902183
 51
357.5222057306
  0
ARC
  5
282
100
AcDbEntity
  8
ALL_ASSEMBLY_MEMBERS
100
AcDbCircle
 62
7
  6
CONTINUOUS
 10
3.194025082
 20
1.8845713489
 40
1.1037770835
100
AcDbArc
 50
355.5572902183
 51
357.5222057306
  0
ARC
  5
283
100
AcDbEntity
  8
ALL_ASSEMBLY_MEMBERS
100
AcDbCircle
 62
7
  6
CONTINUOUS
 10
4.0076040327
 20
1.8845713489
 40
1.1037770835
100
AcDbArc
 50
355.5572902183
 51
357.5222057306
  0
ARC
  5
284
100
AcDbEntity
  8
ALL_ASSEMBLY_MEMBERS
100
AcDbCircle
 62
7
  6
CONTINUOUS
 10
4.3559078482
 20
1.8826639424
 40
1.0717172837
100
AcDbArc
 50
182.385772327
 51
184.4735980784
  0
ARC
  5
285
100
AcDbEntity
  8
ALL_ASSEMBLY_MEMBERS
100
AcDbCircle
 62
7
  6
CONTINUOUS
 10
3.2728053015
 20
2.2251580855
 40
0.5905511811
100
AcDbArc
 50
171.4506809295
 51
180.0
  0
ARC
  5
286
100
AcDbEntity
  8
ALL_ASSEMBLY_MEMBERS
100
AcDbCircle
 62
7
  6
CONTINUOUS
 10
2.7216241991
 20
2.0604570238
 40
0.0393700787
100
AcDbArc
 50
180.0
 51
270.0
  0
ARC
  5
287
100
AcDbEntity
  8
ALL_ASSEMBLY_MEMBERS
100
AcDbCircle
 62
7
  6
CONTINUOUS
 10
3.3226460635
 20
1.8018324579
 40
0.0352986221
100
AcDbArc
 50
184.488036244
 51
192.3955686222
  0
ARC
  5
288
100
AcDbEntity
  8
ALL_ASSEMBLY_MEMBERS
100
AcDbCircle
 62
7
  6
CONTINUOUS
 10
3.8979332566
 20
1.8018324579
 40
0.0352986221
100
AcDbArc
 50
184.4880362439
 51
192.3955686223
  0
ARC
  5
289
100
AcDbEntity
  8
ALL_ASSEMBLY_MEMBERS
100
AcDbCircle
 62
7
  6
CONTINUOUS
 10
3.6840080917
 20
1.8018324546
 40
0.0352985833
100
AcDbArc
 50
347.6034123781
 51
355.5119640611
  0
ARC
  5
28A
100
AcDbEntity
  8
ALL_ASSEMBLY_MEMBERS
100
AcDbCircle
 62
7
  6
CONTINUOUS
 10
4.2592952848
 20
1.8018324546
 40
0.0352985833
100
AcDbArc
 50
347.6034123781
 51
355.5119640611
  0
ARC
  5
28B
100
AcDbEntity
  8
ALL_ASSEMBLY_MEMBERS
100
AcDbCircle
 62
7
  6
CONTINUOUS
 10
3.3225191684
 20
1.8018136273
 40
0.0351706437
100
AcDbArc
 50
184.4736300607
 51
192.4099821407
  0
ARC
  5
28C
100
AcDbEntity
  8
ALL_ASSEMBLY_MEMBERS
100
AcDbCircle
 62
7
  6
CONTINUOUS
 10
3.8978063615
 20
1.8018136273
 40
0.0351706437
100
AcDbArc
 50
184.4736300607
 51
192.4099821406
  0
ARC
  5
28D
100
AcDbEntity
  8
ALL_ASSEMBLY_MEMBERS
100
AcDbCircle
 62
7
  6
CONTINUOUS
 10
3.684134998
 20
1.8018136213
 40
0.0351705936
100
AcDbArc
 50
347.5889956206
 51
355.5263733356
  0
ARC
  5
28E
100
AcDbEntity
  8
ALL_ASSEMBLY_MEMBERS
100
AcDbCircle
 62
7
  6
CONTINUOUS
 10
4.259422191
 20
1.8018136213
 40
0.0351705936
100
AcDbArc
 50
347.5889956206
 51
355.5263733356
  0
ARC
  5
28F
100
AcDbEntity
  8
ALL_ASSEMBLY_MEMBERS
100
AcDbCircle
 62
7
  6
CONTINUOUS
 10
3.3221906112
 20
1.8021578112
 40
0.035
100
AcDbArc
 50
209.9626957831
 51
270.0
  0
ARC
  5
290
100
AcDbEntity
  8
ALL_ASSEMBLY_MEMBERS
100
AcDbCircle
 62
7
  6
CONTINUOUS
 10
3.6844635054
 20
1.8021578112
 40
0.035
100
AcDbArc
 50
270.0
 51
330.0373042169
  0
ARC
  5
291
100
AcDbEntity
  8
ALL_ASSEMBLY_MEMBERS
100
AcDbCircle
 62
7
  6
CONTINUOUS
 10
3.8974778043
 20
1.8021578112
 40
0.035
100
AcDbArc
 50
209.9626957831
 51
270.0
  0
ARC
  5
292
100
AcDbEntity
  8
ALL_ASSEMBLY_MEMBERS
100
AcDbCircle
 62
7
  6
CONTINUOUS
 10
4.2597506984
 20
1.8021578112
 40
0.035
100
AcDbArc
 50
270.0
 51
330.0373042169
  0
ARC
  5
293
100
AcDbEntity
  8
ALL_ASSEMBLY_MEMBERS
100
AcDbCircle
 62
7
  6
CONTINUOUS
 10
3.3215956526
 20
1.8016119226
 40
0.0342253588
100
AcDbArc
 50
192.4124544447
 51
200.9440995701
  0
ARC
  5
294
100
AcDbEntity
  8
ALL_ASSEMBLY_MEMBERS
100
AcDbCircle
 62
7
  6
CONTINUOUS
 10
3.8968828456
 20
1.8016119226
 40
0.0342253588
100
AcDbArc
 50
192.4124544446
 51
200.9440995701
  0
ARC
  5
295
100
AcDbEntity
  8
ALL_ASSEMBLY_MEMBERS
100
AcDbCircle
 62
7
  6
CONTINUOUS
 10
3.6852102456
 20
1.8015664448
 40
0.0340673511
100
AcDbArc
 50
339.0347758204
 51
347.6063268008
  0
ARC
  5
296
100
AcDbEntity
  8
ALL_ASSEMBLY_MEMBERS
100
AcDbCircle
 62
7
  6
CONTINUOUS
 10
4.2604974387
 20
1.8015664448
 40
0.0340673511
100
AcDbArc
 50
339.0347758204
 51
347.6063268009
  0
ARC
  5
297
100
AcDbEntity
  8
ALL_ASSEMBLY_MEMBERS
100
AcDbCircle
 62
7
  6
CONTINUOUS
 10
3.6859951431
 20
1.8012607205
 40
0.0332250273
100
AcDbArc
 50
330.058411948
 51
339.0427900668
  0
ARC
  5
298
100
AcDbEntity
  8
ALL_ASSEMBLY_MEMBERS
100
AcDbCircle
 62
7
  6
CONTINUOUS
 10
4.2612823362
 20
1.8012607205
 40
0.0332250273
100
AcDbArc
 50
330.058411948
 51
339.0427900668
  0
ARC
  5
299
100
AcDbEntity
  8
ALL_ASSEMBLY_MEMBERS
100
AcDbCircle
 62
7
  6
CONTINUOUS
 10
3.3206589177
 20
1.8012606958
 40
0.0332249666
100
AcDbArc
 50
200.9558626344
 51
209.9415990733
  0
ARC
  5
29A
100
AcDbEntity
  8
ALL_ASSEMBLY_MEMBERS
100
AcDbCircle
 62
7
  6
CONTINUOUS
 10
3.8959461107
 20
1.8012606958
 40
0.0332249666
100
AcDbArc
 50
200.9558626345
 51
209.9415990733
  0
ARC
  5
29B
100
AcDbEntity
  8
ALL_ASSEMBLY_MEMBERS
100
AcDbCircle
 62
7
  6
CONTINUOUS
 10
4.333220065
 20
4.2769840793
 40
0.2428661633
100
AcDbArc
 50
0.0019764025
 51
5.9103285718
  0
ARC
  5
29C
100
AcDbEntity
  8
ALL_ASSEMBLY_MEMBERS
100
AcDbCircle
 62
7
  6
CONTINUOUS
 10
4.3332200658
 20
4.2770008344
 40
0.2428661625
100
AcDbArc
 50
354.0896714186
 51
359.9980236072
  0
ARC
  5
29D
100
AcDbEntity
  8
ALL_ASSEMBLY_MEMBERS
100
AcDbCircle
 62
7
  6
CONTINUOUS
 10
3.8854037267
 20
5.7021893073
 40
0.1
100
AcDbArc
 50
90.0
 51
180.0
  0
ARC
  5
29E
100
AcDbEntity
  8
ALL_ASSEMBLY_MEMBERS
100
AcDbCircle
 62
7
  6
CONTINUOUS
 10
3.8854037267
 20
5.7010579064
 40
0.1
100
AcDbArc
 50
179.9999996915
 51
261.3730733957
  0
ARC
  5
29F
100
AcDbEntity
  8
ALL_ASSEMBLY_MEMBERS
100
AcDbCircle
 62
7
  6
CONTINUOUS
 10
4.066153222
 20
6.0537391996
 40
0.0807505047
100
AcDbArc
 50
316.471565278
 51
90.0
  0
ARC
  5
2A0
100
AcDbEntity
  8
ALL_ASSEMBLY_MEMBERS
100
AcDbCircle
 62
7
  6
CONTINUOUS
 10
4.0454037267
 20
6.1644897043
 40
0.03
100
AcDbArc
 50
252.5423968763
 51
270.0
  0
ARC
  5
2A1
100
AcDbEntity
  8
ALL_ASSEMBLY_MEMBERS
100
AcDbCircle
 62
7
  6
CONTINUOUS
 10
12.4219683884
 20
0.8497541425
 40
9.842519685
100
AcDbArc
 50
151.3010506585
 51
171.4506809294
  0
ARC
  5
2A2
100
AcDbEntity
  8
ALL_ASSEMBLY_MEMBERS
100
AcDbCircle
 62
7
  6
CONTINUOUS
 10
7.5306812311
 20
1.1681358604
 40
4.2221361973
100
AcDbArc
 50
171.4058211108
 51
171.6033025167
  0
ARC
  5
2A3
100
AcDbEntity
  8
ALL_ASSEMBLY_MEMBERS
100
AcDbCircle
 62
7
  6
CONTINUOUS
 10
9.4948345679
 20
1.1681358604
 40
4.2221361973
100
AcDbArc
 50
171.4058211108
 51
171.6033025167
  0
ARC
  5
2A4
100
AcDbEntity
  8
ALL_ASSEMBLY_MEMBERS
100
AcDbCircle
 62
7
  6
CONTINUOUS
 10
8.9195473749
 20
1.1681358604
 40
4.2221361973
100
AcDbArc
 50
171.4058211108
 51
171.6033025167
  0
ARC
  5
2A5
100
AcDbEntity
  8
ALL_ASSEMBLY_MEMBERS
100
AcDbCircle
 62
7
  6
CONTINUOUS
 10
8.1059684238
 20
1.1681358605
 40
4.2221361969
100
AcDbArc
 50
171.4058211108
 51
171.6033025167
  0
ARC
  5
2A6
100
AcDbEntity
  8
ALL_ASSEMBLY_MEMBERS
100
AcDbCircle
 62
7
  6
CONTINUOUS
 10
4.5828912221
 20
1.8845713491
 40
1.103777087
100
AcDbArc
 50
355.5572902211
 51
357.5222057847
  0
ARC
  5
2A7
100
AcDbEntity
  8
ALL_ASSEMBLY_MEMBERS
100
AcDbCircle
 62
7
  6
CONTINUOUS
 10
6.320061185
 20
1.8826639424
 40
1.0717172837
100
AcDbArc
 50
182.385772327
 51
184.4735980784
  0
ARC
  5
2A8
100
AcDbEntity
  8
ALL_ASSEMBLY_MEMBERS
100
AcDbCircle
 62
7
  6
CONTINUOUS
 10
4.9311950412
 20
1.8826639424
 40
1.0717172837
100
AcDbArc
 50
182.385772327
 51
184.4735980784
  0
ARC
  5
2A9
100
AcDbEntity
  8
ALL_ASSEMBLY_MEMBERS
100
AcDbCircle
 62
7
  6
CONTINUOUS
 10
5.7447739919
 20
1.8826639424
 40
1.0717172837
100
AcDbArc
 50
182.385772327
 51
184.4735980784
  0
ARC
  5
2AA
100
AcDbEntity
  8
ALL_ASSEMBLY_MEMBERS
100
AcDbCircle
 62
7
  6
CONTINUOUS
 10
5.6980021519
 20
2.2251580855
 40
0.5905511811
100
AcDbArc
 50
0.0
 51
8.5493190705
  0
ARC
  5
2AB
100
AcDbEntity
  8
ALL_ASSEMBLY_MEMBERS
100
AcDbCircle
 62
7
  6
CONTINUOUS
 10
6.2491832543
 20
2.0604570238
 40
0.0393700787
100
AcDbArc
 50
270.0
 51
360.0
  0
ARC
  5
2AC
100
AcDbEntity
  8
ALL_ASSEMBLY_MEMBERS
100
AcDbCircle
 62
7
  6
CONTINUOUS
 10
5.2867994003
 20
1.8018324579
 40
0.0352986221
100
AcDbArc
 50
184.4880362439
 51
192.3955686223
  0
ARC
  5
2AD
100
AcDbEntity
  8
ALL_ASSEMBLY_MEMBERS
100
AcDbCircle
 62
7
  6
CONTINUOUS
 10
4.7115122073
 20
1.8018324579
 40
0.0352986221
100
AcDbArc
 50
184.488036244
 51
192.3955686222
  0
ARC
  5
2AE
100
AcDbEntity
  8
ALL_ASSEMBLY_MEMBERS
100
AcDbCircle
 62
7
  6
CONTINUOUS
 10
5.6481614285
 20
1.8018324546
 40
0.0352985833
100
AcDbArc
 50
347.6034123781
 51
355.5119640611
  0
ARC
  5
2AF
100
AcDbEntity
  8
ALL_ASSEMBLY_MEMBERS
100
AcDbCircle
 62
7
  6
CONTINUOUS
 10
5.0728742355
 20
1.8018324546
 40
0.0352985833
100
AcDbArc
 50
347.6034123781
 51
355.5119640611
  0
ARC
  5
2B0
100
AcDbEntity
  8
ALL_ASSEMBLY_MEMBERS
100
AcDbCircle
 62
7
  6
CONTINUOUS
 10
5.2866725053
 20
1.8018136273
 40
0.0351706437
100
AcDbArc
 50
184.4736300607
 51
192.4099821406
  0
ARC
  5
2B1
100
AcDbEntity
  8
ALL_ASSEMBLY_MEMBERS
100
AcDbCircle
 62
7
  6
CONTINUOUS
 10
4.7113853122
 20
1.8018136273
 40
0.0351706437
100
AcDbArc
 50
184.4736300607
 51
192.4099821407
  0
ARC
  5
2B2
100
AcDbEntity
  8
ALL_ASSEMBLY_MEMBERS
100
AcDbCircle
 62
7
  6
CONTINUOUS
 10
5.6482883348
 20
1.8018136213
 40
0.0351705936
100
AcDbArc
 50
347.5889956206
 51
355.5263733356
  0
ARC
  5
2B3
100
AcDbEntity
  8
ALL_ASSEMBLY_MEMBERS
100
AcDbCircle
 62
7
  6
CONTINUOUS
 10
5.0730011417
 20
1.8018136213
 40
0.0351705936
100
AcDbArc
 50
347.5889956206
 51
355.5263733356
  0
ARC
  5
2B4
100
AcDbEntity
  8
ALL_ASSEMBLY_MEMBERS
100
AcDbCircle
 62
7
  6
CONTINUOUS
 10
5.2863439481
 20
1.8021578112
 40
0.035
100
AcDbArc
 50
209.9626957831
 51
270.0
  0
ARC
  5
2B5
100
AcDbEntity
  8
ALL_ASSEMBLY_MEMBERS
100
AcDbCircle
 62
7
  6
CONTINUOUS
 10
5.6486168422
 20
1.8021578112
 40
0.035
100
AcDbArc
 50
270.0
 51
330.0373042169
  0
ARC
  5
2B6
100
AcDbEntity
  8
ALL_ASSEMBLY_MEMBERS
100
AcDbCircle
 62
7
  6
CONTINUOUS
 10
4.711056755
 20
1.8021578112
 40
0.035
100
AcDbArc
 50
209.9626957831
 51
270.0
  0
ARC
  5
2B7
100
AcDbEntity
  8
ALL_ASSEMBLY_MEMBERS
100
AcDbCircle
 62
7
  6
CONTINUOUS
 10
5.0733296491
 20
1.8021578112
 40
0.035
100
AcDbArc
 50
270.0
 51
330.0373042169
  0
ARC
  5
2B8
100
AcDbEntity
  8
ALL_ASSEMBLY_MEMBERS
100
AcDbCircle
 62
7
  6
CONTINUOUS
 10
5.2857489894
 20
1.8016119226
 40
0.0342253588
100
AcDbArc
 50
192.4124544447
 51
200.94409957
  0
ARC
  5
2B9
100
AcDbEntity
  8
ALL_ASSEMBLY_MEMBERS
100
AcDbCircle
 62
7
  6
CONTINUOUS
 10
4.7104617963
 20
1.8016119226
 40
0.0342253588
100
AcDbArc
 50
192.4124544447
 51
200.9440995701
  0
ARC
  5
2BA
100
AcDbEntity
  8
ALL_ASSEMBLY_MEMBERS
100
AcDbCircle
 62
7
  6
CONTINUOUS
 10
5.6493635824
 20
1.8015664448
 40
0.0340673511
100
AcDbArc
 50
339.0347758204
 51
347.6063268008
  0
ARC
  5
2BB
100
AcDbEntity
  8
ALL_ASSEMBLY_MEMBERS
100
AcDbCircle
 62
7
  6
CONTINUOUS
 10
5.0740763894
 20
1.8015664448
 40
0.0340673511
100
AcDbArc
 50
339.0347758204
 51
347.6063268008
  0
ARC
  5
2BC
100
AcDbEntity
  8
ALL_ASSEMBLY_MEMBERS
100
AcDbCircle
 62
7
  6
CONTINUOUS
 10
5.65014848
 20
1.8012607205
 40
0.0332250273
100
AcDbArc
 50
330.058411948
 51
339.0427900668
  0
ARC
  5
2BD
100
AcDbEntity
  8
ALL_ASSEMBLY_MEMBERS
100
AcDbCircle
 62
7
  6
CONTINUOUS
 10
5.0748612869
 20
1.8012607205
 40
0.0332250273
100
AcDbArc
 50
330.058411948
 51
339.0427900668
  0
ARC
  5
2BE
100
AcDbEntity
  8
ALL_ASSEMBLY_MEMBERS
100
AcDbCircle
 62
7
  6
CONTINUOUS
 10
5.2848122545
 20
1.8012606958
 40
0.0332249666
100
AcDbArc
 50
200.9558626345
 51
209.9415990733
  0
ARC
  5
2BF
100
AcDbEntity
  8
ALL_ASSEMBLY_MEMBERS
100
AcDbCircle
 62
7
  6
CONTINUOUS
 10
4.7095250614
 20
1.8012606958
 40
0.0332249666
100
AcDbArc
 50
200.9558626344
 51
209.9415990733
  0
ARC
  5
2C0
100
AcDbEntity
  8
ALL_ASSEMBLY_MEMBERS
100
AcDbCircle
 62
7
  6
CONTINUOUS
 10
4.4854037267
 20
4.2769924569
 40
0.625984252
100
AcDbArc
 50
286.7121286497
 51
253.2851671932
  0
ARC
  5
2C1
100
AcDbEntity
  8
ALL_ASSEMBLY_MEMBERS
100
AcDbCircle
 62
7
  6
CONTINUOUS
 10
4.4854037267
 20
4.2769924569
 40
0.5866141732
100
AcDbArc
 50
287.8726856323
 51
252.1282825781
  0
ARC
  5
2C2
100
AcDbEntity
  8
ALL_ASSEMBLY_MEMBERS
100
AcDbCircle
 62
7
  6
CONTINUOUS
 10
4.4854037267
 20
4.2769924569
 40
0.5815
100
AcDbArc
 50
288.035952472
 51
251.964047528
  0
ARC
  5
2C3
100
AcDbEntity
  8
ALL_ASSEMBLY_MEMBERS
100
AcDbCircle
 62
7
  6
CONTINUOUS
 10
4.4854037267
 20
5.6554897043
 40
0.4975
100
AcDbArc
 50
17.1553275907
 51
43.528434722
  0
ARC
  5
2C4
100
AcDbEntity
  8
ALL_ASSEMBLY_MEMBERS
100
AcDbCircle
 62
7
  6
CONTINUOUS
 10
4.4854037267
 20
5.6554897043
 40
0.4975
100
AcDbArc
 50
136.471565278
 51
162.8446724093
  0
ARC
  5
2C5
100
AcDbEntity
  8
ALL_ASSEMBLY_MEMBERS
100
AcDbCircle
 62
7
  6
CONTINUOUS
 10
4.4854037267
 20
4.2769924569
 40
0.3867707858
100
AcDbArc
 50
297.7478625028
 51
242.2521374973
  0
ARC
  5
2C6
100
AcDbEntity
  8
ALL_ASSEMBLY_MEMBERS
100
AcDbCircle
 62
7
  6
CONTINUOUS
 10
4.6375873886
 20
4.2769840792
 40
0.2428661635
100
AcDbArc
 50
174.0896714308
 51
179.998023595
  0
ARC
  5
2C7
100
AcDbEntity
  8
ALL_ASSEMBLY_MEMBERS
100
AcDbCircle
 62
7
  6
CONTINUOUS
 10
4.6375873874
 20
4.2770008344
 40
0.2428661624
100
AcDbArc
 50
180.0019763908
 51
185.9103285834
  0
ARC
  5
2C8
100
AcDbEntity
  8
ALL_ASSEMBLY_MEMBERS
100
AcDbCircle
 62
7
  6
CONTINUOUS
 10
4.4854037267
 20
4.1249709387
 40
0.2427039336
100
AcDbArc
 50
84.0876971182
 51
95.9123028818
  0
ARC
  5
2C9
100
AcDbEntity
  8
ALL_ASSEMBLY_MEMBERS
100
AcDbCircle
 62
7
  6
CONTINUOUS
 10
4.4854037267
 20
4.429013975
 40
0.2427039336
100
AcDbArc
 50
264.0876971183
 51
275.9123028817
  0
ARC
  5
2CA
100
AcDbEntity
  8
ALL_ASSEMBLY_MEMBERS
100
AcDbCircle
 62
7
  6
CONTINUOUS
 10
4.4854037267
 20
4.2769924569
 40
0.193
100
AcDbArc
 50
233.6275424661
 51
306.3724575339
  0
ARC
  5
2CB
100
AcDbEntity
  8
ALL_ASSEMBLY_MEMBERS
100
AcDbCircle
 62
7
  6
CONTINUOUS
 10
4.4854037267
 20
4.2769924569
 40
0.1925275944
100
AcDbArc
 50
306.4447623811
 51
233.5552376189
  0
CIRCLE
  5
2CC
100
AcDbEntity
  8
ALL_ASSEMBLY_MEMBERS
100
AcDbCircle
 62
7
  6
CONTINUOUS
 10
4.4854037267
 20
4.2769924569
 40
0.1493817338
  0
CIRCLE
  5
2CD
100
AcDbEntity
  8
ALL_ASSEMBLY_MEMBERS
100
AcDbCircle
 62
7
  6
CONTINUOUS
 10
4.4854037267
 20
4.2769924569
 40
0.1448472776
  0
ARC
  5
2CE
100
AcDbEntity
  8
ALL_ASSEMBLY_MEMBERS
100
AcDbCircle
 62
7
  6
CONTINUOUS
 10
5.0854037267
 20
5.7021893073
 40
0.1
100
AcDbArc
 50
0.0
 51
90.0
  0
ARC
  5
2CF
100
AcDbEntity
  8
ALL_ASSEMBLY_MEMBERS
100
AcDbCircle
 62
7
  6
CONTINUOUS
 10
5.0854037267
 20
5.7010579064
 40
0.1
100
AcDbArc
 50
278.6269266033
 51
0.0000003017
  0
ARC
  5
2D0
100
AcDbEntity
  8
ALL_ASSEMBLY_MEMBERS
100
AcDbCircle
 62
7
  6
CONTINUOUS
 10
4.9046542314
 20
6.0537391996
 40
0.0807505047
100
AcDbArc
 50
90.0
 51
223.528434722
  0
ARC
  5
2D1
100
AcDbEntity
  8
ALL_ASSEMBLY_MEMBERS
100
AcDbCircle
 62
7
  6
CONTINUOUS
 10
4.9254037267
 20
6.1644897043
 40
0.03
100
AcDbArc
 50
270.0
 51
287.4576031237
  0
SPLINE
  5
2D2
100
AcDbEntity
  8
ALL_ASSEMBLY_MEMBERS
100
AcDbSpline
 62
7
  6
CONTINUOUS
 70
0
 71
3
 72
14
 73
10
 74
0
 42
0.0000001
 43
0.0000001
 44
0.0000000001
 40
0.0
 40
0.0
 40
0.0
 40
0.0
 40
0.1226755865
 40
0.2464880971
 40
0.4963517609
 40
0.622010969
 40
0.7479343346
 40
0.8739772621
 40
1.0
 40
1.0
 40
1.0
 40
1.0
 10
3.6507011152
 20
1.7990703078
 30
0.0
 10
3.6493401818
 20
1.8081019845
 30
0.0
 10
3.6466935806
 20
1.8262624481
 30
0.0
 10
3.6417313441
 20
1.8628833744
 30
0.0
 10
3.6373234078
 20
1.899801991
 30
0.0
 10
3.6335162347
 20
1.9369424513
 30
0.0
 10
3.6309681743
 20
1.9649429851
 30
0.0
 10
3.6287411135
 20
1.9929979616
 30
0.0
 10
3.6274757221
 20
2.0117229618
 30
0.0
 10
3.6268982133
 20
2.0210880165
 30
0.0
  0
SPLINE
  5
2D3
100
AcDbEntity
  8
ALL_ASSEMBLY_MEMBERS
100
AcDbSpline
 62
7
  6
CONTINUOUS
 70
0
 71
3
 72
14
 73
10
 74
0
 42
0.0000001
 43
0.0000001
 44
0.0000000001
 40
0.0
 40
0.0
 40
0.0
 40
0.0
 40
0.1260227378
 40
0.2520656652
 40
0.3779890308
 40
0.5036482389
 40
0.7535119027
 40
0.8773244134
 40
1.0
 40
1.0
 40
1.0
 40
1.0
 10
3.3797559033
 20
2.0210880165
 30
0.0
 10
3.3791783945
 20
2.0117229618
 30
0.0
 10
3.3779130031
 20
1.9929979616
 30
0.0
 10
3.3756859423
 20
1.9649429851
 30
0.0
 10
3.3731378819
 20
1.9369424513
 30
0.0
 10
3.3693307088
 20
1.899801991
 30
0.0
 10
3.3649227725
 20
1.8628833745
 30
0.0
 10
3.359960536
 20
1.8262624481
 30
0.0
 10
3.3573139347
 20
1.8081019845
 30
0.0
 10
3.3559530014
 20
1.7990703078
 30
0.0
  0
SPLINE
  5
2D4
100
AcDbEntity
  8
ALL_ASSEMBLY_MEMBERS
100
AcDbSpline
 62
7
  6
CONTINUOUS
 70
0
 71
3
 72
17
 73
13
 74
0
 42
0.0000001
 43
0.0000001
 44
0.0000000001
 40
0.0
 40
0.0
 40
0.0
 40
0.0
 40
0.1222832195
 40
0.2457159164
 40
0.3077862292
 40
0.3700576195
 40
0.495133621
 40
0.5579036827
 40
0.6208034621
 40
0.7469250513
 40
0.8733678135
 40
1.0
 40
1.0
 40
1.0
 40
1.0
 10
3.7191984388
 20
1.7990703078
 30
0.0
 10
3.7199076627
 20
1.8081000183
 30
0.0
 10
3.7210837377
 20
1.826264547
 30
0.0
 10
3.7220091043
 20
1.8490453821
 30
0.0
 10
3.7224653272
 20
1.8673926322
 30
0.0
 10
3.7227406405
 20
1.8858652072
 30
0.0
 10
3.7227515329
 20
1.9043926283
 30
0.0
 10
3.7225210219
 20
1.9229641025
 30
0.0
 10
3.7221353749
 20
1.9416105004
 30
0.0
 10
3.7213707831
 20
1.9649654721
 30
0.0
 10
3.7200257557
 20
1.993021281
 30
0.0
 10
3.7188590033
 20
2.0117309523
 30
0.0
 10
3.7182090096
 20
2.0210880515
 30
0.0
  0
SPLINE
  5
2D5
100
AcDbEntity
  8
ALL_ASSEMBLY_MEMBERS
100
AcDbSpline
 62
7
  6
CONTINUOUS
 70
0
 71
3
 72
17
 73
13
 74
0
 42
0.0000001
 43
0.0000001
 44
0.0000000001
 40
0.0
 40
0.0
 40
0.0
 40
0.0
 40
0.126632134
 40
0.253074851
 40
0.3791963913
 40
0.4420961246
 40
0.5048661256
 40
0.6299420412
 40
0.6922134463
 40
0.7542838318
 40
0.8777166825
 40
1.0
 40
1.0
 40
1.0
 40
1.0
 10
3.2884451085
 20
2.0210880626
 30
0.0
 10
3.2877951119
 20
2.0117309669
 30
0.0
 10
3.2866283605
 20
1.9930213019
 30
0.0
 10
3.2852833418
 20
1.9649655021
 30
0.0
 10
3.2845187409
 20
1.9416105399
 30
0.0
 10
3.2841330956
 20
1.9229641525
 30
0.0
 10
3.2839025893
 20
1.9043926917
 30
0.0
 10
3.2839134841
 20
1.8858652794
 30
0.0
 10
3.2841887931
 20
1.8673927034
 30
0.0
 10
3.284645002
 20
1.8490454341
 30
0.0
 10
3.2855703714
 20
1.8262645738
 30
0.0
 10
3.2867464533
 20
1.808100026
 30
0.0
 10
3.2874556778
 20
1.7990703078
 30
0.0
  0
SPLINE
  5
2D6
100
AcDbEntity
  8
ALL_ASSEMBLY_MEMBERS
100
AcDbSpline
 62
7
  6
CONTINUOUS
 70
0
 71
3
 72
14
 73
10
 74
0
 42
0.0000001
 43
0.0000001
 44
0.0000000001
 40
0.0
 40
0.0
 40
0.0
 40
0.0
 40
0.2498329266
 40
0.3749283641
 40
0.5000355395
 40
0.6251250332
 40
0.7501667347
 40
0.8751344568
 40
1.0
 40
1.0
 40
1.0
 40
1.0
 10
3.4958740677
 20
1.7990703078
 30
0.0
 10
3.4906269852
 20
1.8170617421
 30
0.0
 10
3.4837819104
 20
1.8443745853
 30
0.0
 10
3.4765597669
 20
1.881186627
 30
0.0
 10
3.4720680946
 20
1.9089839659
 30
0.0
 10
3.4684854477
 20
1.9369078763
 30
0.0
 10
3.4657957676
 20
1.9649215119
 30
0.0
 10
3.463989722
 20
1.9929886652
 30
0.0
 10
3.4633672893
 20
2.0117228538
 30
0.0
 10
3.4632011062
 20
2.0210880397
 30
0.0
  0
SPLINE
  5
2D7
100
AcDbEntity
  8
ALL_ASSEMBLY_MEMBERS
100
AcDbSpline
 62
7
  6
CONTINUOUS
 70
0
 71
3
 72
14
 73
10
 74
0
 42
0.0000001
 43
0.0000001
 44
0.0000000001
 40
0.0
 40
0.0
 40
0.0
 40
0.0
 40
0.1248655431
 40
0.2498332652
 40
0.3748749667
 40
0.4999644604
 40
0.6250716358
 40
0.7501670733
 40
1.0
 40
1.0
 40
1.0
 40
1.0
 10
3.5434530104
 20
2.0210880397
 30
0.0
 10
3.5432868273
 20
2.0117228538
 30
0.0
 10
3.5426643946
 20
1.9929886653
 30
0.0
 10
3.540858349
 20
1.9649215119
 30
0.0
 10
3.5381686689
 20
1.9369078763
 30
0.0
 10
3.534586022
 20
1.9089839659
 30
0.0
 10
3.5300943497
 20
1.881186627
 30
0.0
 10
3.5228722062
 20
1.8443745854
 30
0.0
 10
3.5160271314
 20
1.8170617421
 30
0.0
 10
3.5107800488
 20
1.7990703078
 30
0.0
  0
SPLINE
  5
2D8
100
AcDbEntity
  8
ALL_ASSEMBLY_MEMBERS
100
AcDbSpline
 62
7
  6
CONTINUOUS
 70
0
 71
3
 72
17
 73
13
 74
0
 42
0.0000001
 43
0.0000001
 44
0.0000000001
 40
0.0
 40
0.0
 40
0.0
 40
0.0
 40
0.1254513726
 40
0.2507971074
 40
0.3760183429
 40
0.4385806565
 40
0.5011082622
 40
0.6260501836
 40
0.6884707637
 40
0.7508592083
 40
0.875521327
 40
1.0
 40
1.0
 40
1.0
 40
1.0
 10
3.6836448779
 20
2.021088187
 30
0.0
 10
3.6839871112
 20
2.0117309599
 30
0.0
 10
3.6843730892
 20
1.9930120567
 30
0.0
 10
3.6840477408
 20
1.964943949
 30
0.0
 10
3.6830032072
 20
1.941590993
 30
0.0
 10
3.6816913325
 20
1.9229534718
 30
0.0
 10
3.6800590501
 20
1.9043623104
 30
0.0
 10
3.6779334135
 20
1.8858275069
 30
0.0
 10
3.675291966
 20
1.8673736773
 30
0.0
 10
3.672302033
 20
1.8489941581
 30
0.0
 10
3.6678925485
 20
1.8261574311
 30
0.0
 10
3.6635939633
 20
1.8080583651
 30
0.0
 10
3.6612412355
 20
1.7990703078
 30
0.0
  0
SPLINE
  5
2D9
100
AcDbEntity
  8
ALL_ASSEMBLY_MEMBERS
100
AcDbSpline
 62
7
  6
CONTINUOUS
 70
0
 71
3
 72
11
 73
7
 74
0
 42
0.0000001
 43
0.0000001
 44
0.0000000001
 40
0.0
 40
0.0
 40
0.0
 40
0.0
 40
0.2504731349
 40
0.500675508
 40
0.7505170983
 40
1.0
 40
1.0
 40
1.0
 40
1.0
 10
3.3538031608
 20
1.7846775498
 30
0.0
 10
3.352828808
 20
1.7856900707
 30
0.0
 10
3.3509844107
 20
1.7878170689
 30
0.0
 10
3.3486027902
 20
1.7913015323
 30
0.0
 10
3.346684831
 20
1.7950569099
 30
0.0
 10
3.3457673105
 20
1.7977162915
 30
0.0
 10
3.3454128811
 20
1.7990703078
 30
0.0
  0
SPLINE
  5
2DA
100
AcDbEntity
  8
ALL_ASSEMBLY_MEMBERS
100
AcDbSpline
 62
7
  6
CONTINUOUS
 70
0
 71
3
 72
11
 73
7
 74
0
 42
0.0000001
 43
0.0000001
 44
0.0000000001
 40
0.0
 40
0.0
 40
0.0
 40
0.0
 40
0.2494824595
 40
0.4993241425
 40
0.7495270427
 40
1.0
 40
1.0
 40
1.0
 40
1.0
 10
3.6612412355
 20
1.7990703078
 30
0.0
 10
3.6608868067
 20
1.7977162939
 30
0.0
 10
3.6599692899
 20
1.7950569129
 30
0.0
 10
3.6580513259
 20
1.7913015366
 30
0.0
 10
3.6556697081
 20
1.7878170685
 30
0.0
 10
3.6538253079
 20
1.78569007
 30
0.0
 10
3.6528509558
 20
1.7846775498
 30
0.0
  0
SPLINE
  5
2DB
100
AcDbEntity
  8
ALL_ASSEMBLY_MEMBERS
100
AcDbSpline
 62
7
  6
CONTINUOUS
 70
0
 71
3
 72
17
 73
13
 74
0
 42
0.0000001
 43
0.0000001
 44
0.0000000001
 40
0.0
 40
0.0
 40
0.0
 40
0.0
 40
0.1244785221
 40
0.2491407147
 40
0.3115292879
 40
0.3739499299
 40
0.498891839
 40
0.5614194311
 40
0.6239817378
 40
0.749202923
 40
0.8745486481
 40
1.0
 40
1.0
 40
1.0
 40
1.0
 10
3.3454128811
 20
1.7990703078
 30
0.0
 10
3.3430601568
 20
1.8080583516
 30
0.0
 10
3.3387615599
 20
1.826157403
 30
0.0
 10
3.3343520708
 20
1.8489941267
 30
0.0
 10
3.3313621639
 20
1.8673736646
 30
0.0
 10
3.3287207047
 20
1.8858275
 30
0.0
 10
3.3265950418
 20
1.904362298
 30
0.0
 10
3.3249627796
 20
1.9229534534
 30
0.0
 10
3.3236509308
 20
1.9415909653
 30
0.0
 10
3.3226063503
 20
1.9649439072
 30
0.0
 10
3.3222810347
 20
1.9930120017
 30
0.0
 10
3.3226670169
 20
2.0117308964
 30
0.0
 10
3.3230092382
 20
2.0210881196
 30
0.0
  0
SPLINE
  5
2DC
100
AcDbEntity
  8
ALL_ASSEMBLY_MEMBERS
100
AcDbSpline
 62
7
  6
CONTINUOUS
 70
0
 71
3
 72
9
 73
5
 74
0
 42
0.0000001
 43
0.0000001
 44
0.0000000001
 40
0.0
 40
0.0
 40
0.0
 40
0.0
 40
0.4883061189
 40
1.0
 40
1.0
 40
1.0
 40
1.0
 10
3.5033270583
 20
1.7846775498
 30
0.0
 10
3.501691442
 20
1.7867626762
 30
0.0
 10
3.498716799
 20
1.791340309
 30
0.0
 10
3.4966515764
 20
1.7964043509
 30
0.0
 10
3.4958740677
 20
1.7990703078
 30
0.0
  0
SPLINE
  5
2DD
100
AcDbEntity
  8
ALL_ASSEMBLY_MEMBERS
100
AcDbSpline
 62
7
  6
CONTINUOUS
 70
0
 71
3
 72
9
 73
5
 74
0
 42
0.0000001
 43
0.0000001
 44
0.0000000001
 40
0.0
 40
0.0
 40
0.0
 40
0.0
 40
0.5116935364
 40
1.0
 40
1.0
 40
1.0
 40
1.0
 10
3.5107800488
 20
1.7990703078
 30
0.0
 10
3.5100025407
 20
1.7964043528
 30
0.0
 10
3.507937317
 20
1.7913403114
 30
0.0
 10
3.5049626757
 20
1.7867626776
 30
0.0
 10
3.5033270583
 20
1.7846775498
 30
0.0
  0
SPLINE
  5
2DE
100
AcDbEntity
  8
ALL_ASSEMBLY_MEMBERS
100
AcDbSpline
 62
7
  6
CONTINUOUS
 70
0
 71
3
 72
14
 73
10
 74
0
 42
0.0000001
 43
0.0000001
 44
0.0000000001
 40
0.0
 40
0.0
 40
0.0
 40
0.0
 40
0.1226755865
 40
0.2464880971
 40
0.4963517609
 40
0.622010969
 40
0.7479343346
 40
0.8739772621
 40
1.0
 40
1.0
 40
1.0
 40
1.0
 10
5.614854452
 20
1.7990703078
 30
0.0
 10
5.6134935187
 20
1.8081019845
 30
0.0
 10
5.6108469174
 20
1.8262624481
 30
0.0
 10
5.6058846809
 20
1.8628833744
 30
0.0
 10
5.6014767447
 20
1.899801991
 30
0.0
 10
5.5976695715
 20
1.9369424513
 30
0.0
 10
5.5951215112
 20
1.9649429851
 30
0.0
 10
5.5928944503
 20
1.9929979616
 30
0.0
 10
5.5916290589
 20
2.0117229618
 30
0.0
 10
5.5910515502
 20
2.0210880165
 30
0.0
  0
SPLINE
  5
2DF
100
AcDbEntity
  8
ALL_ASSEMBLY_MEMBERS
100
AcDbSpline
 62
7
  6
CONTINUOUS
 70
0
 71
3
 72
14
 73
10
 74
0
 42
0.0000001
 43
0.0000001
 44
0.0000000001
 40
0.0
 40
0.0
 40
0.0
 40
0.0
 40
0.1260227378
 40
0.2520656652
 40
0.3779890308
 40
0.5036482389
 40
0.7535119027
 40
0.8773244134
 40
1.0
 40
1.0
 40
1.0
 40
1.0
 10
5.3439092401
 20
2.0210880165
 30
0.0
 10
5.3433317313
 20
2.0117229618
 30
0.0
 10
5.3420663399
 20
1.9929979616
 30
0.0
 10
5.3398392791
 20
1.9649429851
 30
0.0
 10
5.3372912187
 20
1.9369424513
 30
0.0
 10
5.3334840456
 20
1.899801991
 30
0.0
 10
5.3290761093
 20
1.8628833745
 30
0.0
 10
5.3241138728
 20
1.8262624481
 30
0.0
 10
5.3214672716
 20
1.8081019845
 30
0.0
 10
5.3201063382
 20
1.7990703078
 30
0.0
  0
SPLINE
  5
2E0
100
AcDbEntity
  8
ALL_ASSEMBLY_MEMBERS
100
AcDbSpline
 62
7
  6
CONTINUOUS
 70
0
 71
3
 72
17
 73
13
 74
0
 42
0.0000001
 43
0.0000001
 44
0.0000000001
 40
0.0
 40
0.0
 40
0.0
 40
0.0
 40
0.1222832195
 40
0.2457159164
 40
0.3077862292
 40
0.3700576195
 40
0.495133621
 40
0.5579036827
 40
0.6208034621
 40
0.7469250513
 40
0.8733678135
 40
1.0
 40
1.0
 40
1.0
 40
1.0
 10
5.6833517757
 20
1.7990703078
 30
0.0
 10
5.6840609995
 20
1.8081000183
 30
0.0
 10
5.6852370745
 20
1.826264547
 30
0.0
 10
5.6861624411
 20
1.8490453821
 30
0.0
 10
5.6866186641
 20
1.8673926322
 30
0.0
 10
5.6868939774
 20
1.8858652072
 30
0.0
 10
5.6869048698
 20
1.9043926283
 30
0.0
 10
5.6866743587
 20
1.9229641025
 30
0.0
 10
5.6862887117
 20
1.9416105004
 30
0.0
 10
5.6855241199
 20
1.9649654721
 30
0.0
 10
5.6841790925
 20
1.993021281
 30
0.0
 10
5.6830123402
 20
2.0117309523
 30
0.0
 10
5.6823623465
 20
2.0210880515
 30
0.0
  0
SPLINE
  5
2E1
100
AcDbEntity
  8
ALL_ASSEMBLY_MEMBERS
100
AcDbSpline
 62
7
  6
CONTINUOUS
 70
0
 71
3
 72
17
 73
13
 74
0
 42
0.0000001
 43
0.0000001
 44
0.0000000001
 40
0.0
 40
0.0
 40
0.0
 40
0.0
 40
0.126632134
 40
0.253074851
 40
0.3791963913
 40
0.4420961246
 40
0.5048661256
 40
0.6299420412
 40
0.6922134463
 40
0.7542838318
 40
0.8777166825
 40
1.0
 40
1.0
 40
1.0
 40
1.0
 10
5.2525984454
 20
2.0210880626
 30
0.0
 10
5.2519484488
 20
2.0117309669
 30
0.0
 10
5.2507816974
 20
1.9930213019
 30
0.0
 10
5.2494366787
 20
1.9649655021
 30
0.0
 10
5.2486720778
 20
1.9416105399
 30
0.0
 10
5.2482864325
 20
1.9229641525
 30
0.0
 10
5.2480559262
 20
1.9043926917
 30
0.0
 10
5.2480668209
 20
1.8858652794
 30
0.0
 10
5.2483421299
 20
1.8673927034
 30
0.0
 10
5.2487983388
 20
1.8490454341
 30
0.0
 10
5.2497237082
 20
1.8262645738
 30
0.0
 10
5.2508997901
 20
1.808100026
 30
0.0
 10
5.2516090146
 20
1.7990703078
 30
0.0
  0
SPLINE
  5
2E2
100
AcDbEntity
  8
ALL_ASSEMBLY_MEMBERS
100
AcDbSpline
 62
7
  6
CONTINUOUS
 70
0
 71
3
 72
14
 73
10
 74
0
 42
0.0000001
 43
0.0000001
 44
0.0000000001
 40
0.0
 40
0.0
 40
0.0
 40
0.0
 40
0.2498329266
 40
0.3749283641
 40
0.5000355395
 40
0.6251250332
 40
0.7501667347
 40
0.8751344568
 40
1.0
 40
1.0
 40
1.0
 40
1.0
 10
5.4600274046
 20
1.7990703078
 30
0.0
 10
5.454780322
 20
1.8170617421
 30
0.0
 10
5.4479352472
 20
1.8443745853
 30
0.0
 10
5.4407131037
 20
1.881186627
 30
0.0
 10
5.4362214314
 20
1.9089839659
 30
0.0
 10
5.4326387846
 20
1.9369078763
 30
0.0
 10
5.4299491044
 20
1.9649215119
 30
0.0
 10
5.4281430588
 20
1.9929886652
 30
0.0
 10
5.4275206261
 20
2.0117228538
 30
0.0
 10
5.4273544431
 20
2.0210880397
 30
0.0
  0
SPLINE
  5
2E3
100
AcDbEntity
  8
ALL_ASSEMBLY_MEMBERS
100
AcDbSpline
 62
7
  6
CONTINUOUS
 70
0
 71
3
 72
14
 73
10
 74
0
 42
0.0000001
 43
0.0000001
 44
0.0000000001
 40
0.0
 40
0.0
 40
0.0
 40
0.0
 40
0.1248655431
 40
0.2498332652
 40
0.3748749667
 40
0.4999644604
 40
0.6250716358
 40
0.7501670733
 40
1.0
 40
1.0
 40
1.0
 40
1.0
 10
5.5076063472
 20
2.0210880397
 30
0.0
 10
5.5074401641
 20
2.0117228538
 30
0.0
 10
5.5068177314
 20
1.9929886653
 30
0.0
 10
5.5050116858
 20
1.9649215119
 30
0.0
 10
5.5023220057
 20
1.9369078763
 30
0.0
 10
5.4987393588
 20
1.9089839659
 30
0.0
 10
5.4942476866
 20
1.881186627
 30
0.0
 10
5.4870255431
 20
1.8443745854
 30
0.0
 10
5.4801804683
 20
1.8170617421
 30
0.0
 10
5.4749333857
 20
1.7990703078
 30
0.0
  0
SPLINE
  5
2E4
100
AcDbEntity
  8
ALL_ASSEMBLY_MEMBERS
100
AcDbSpline
 62
7
  6
CONTINUOUS
 70
0
 71
3
 72
17
 73
13
 74
0
 42
0.0000001
 43
0.0000001
 44
0.0000000001
 40
0.0
 40
0.0
 40
0.0
 40
0.0
 40
0.1254513726
 40
0.2507971074
 40
0.3760183429
 40
0.4385806565
 40
0.5011082622
 40
0.6260501836
 40
0.6884707637
 40
0.7508592083
 40
0.875521327
 40
1.0
 40
1.0
 40
1.0
 40
1.0
 10
5.6477982148
 20
2.021088187
 30
0.0
 10
5.6481404481
 20
2.0117309599
 30
0.0
 10
5.648526426
 20
1.9930120567
 30
0.0
 10
5.6482010776
 20
1.964943949
 30
0.0
 10
5.6471565441
 20
1.941590993
 30
0.0
 10
5.6458446693
 20
1.9229534718
 30
0.0
 10
5.6442123869
 20
1.9043623104
 30
0.0
 10
5.6420867503
 20
1.8858275069
 30
0.0
 10
5.6394453029
 20
1.8673736773
 30
0.0
 10
5.6364553698
 20
1.8489941581
 30
0.0
 10
5.6320458853
 20
1.8261574311
 30
0.0
 10
5.6277473002
 20
1.8080583651
 30
0.0
 10
5.6253945723
 20
1.7990703078
 30
0.0
  0
SPLINE
  5
2E5
100
AcDbEntity
  8
ALL_ASSEMBLY_MEMBERS
100
AcDbSpline
 62
7
  6
CONTINUOUS
 70
0
 71
3
 72
11
 73
7
 74
0
 42
0.0000001
 43
0.0000001
 44
0.0000000001
 40
0.0
 40
0.0
 40
0.0
 40
0.0
 40
0.2504731349
 40
0.500675508
 40
0.7505170983
 40
1.0
 40
1.0
 40
1.0
 40
1.0
 10
5.3179564977
 20
1.7846775498
 30
0.0
 10
5.3169821448
 20
1.7856900707
 30
0.0
 10
5.3151377475
 20
1.7878170689
 30
0.0
 10
5.312756127
 20
1.7913015323
 30
0.0
 10
5.3108381678
 20
1.7950569099
 30
0.0
 10
5.3099206473
 20
1.7977162915
 30
0.0
 10
5.3095662179
 20
1.7990703078
 30
0.0
  0
SPLINE
  5
2E6
100
AcDbEntity
  8
ALL_ASSEMBLY_MEMBERS
100
AcDbSpline
 62
7
  6
CONTINUOUS
 70
0
 71
3
 72
11
 73
7
 74
0
 42
0.0000001
 43
0.0000001
 44
0.0000000001
 40
0.0
 40
0.0
 40
0.0
 40
0.0
 40
0.2494824595
 40
0.4993241425
 40
0.7495270427
 40
1.0
 40
1.0
 40
1.0
 40
1.0
 10
5.6253945723
 20
1.7990703078
 30
0.0
 10
5.6250401435
 20
1.7977162939
 30
0.0
 10
5.6241226267
 20
1.7950569129
 30
0.0
 10
5.6222046628
 20
1.7913015366
 30
0.0
 10
5.619823045
 20
1.7878170685
 30
0.0
 10
5.6179786447
 20
1.78569007
 30
0.0
 10
5.6170042926
 20
1.7846775498
 30
0.0
  0
SPLINE
  5
2E7
100
AcDbEntity
  8
ALL_ASSEMBLY_MEMBERS
100
AcDbSpline
 62
7
  6
CONTINUOUS
 70
0
 71
3
 72
17
 73
13
 74
0
 42
0.0000001
 43
0.0000001
 44
0.0000000001
 40
0.0
 40
0.0
 40
0.0
 40
0.0
 40
0.1244785221
 40
0.2491407147
 40
0.3115292879
 40
0.3739499299
 40
0.498891839
 40
0.5614194311
 40
0.6239817378
 40
0.749202923
 40
0.8745486481
 40
1.0
 40
1.0
 40
1.0
 40
1.0
 10
5.3095662179
 20
1.7990703078
 30
0.0
 10
5.3072134936
 20
1.8080583516
 30
0.0
 10
5.3029148967
 20
1.826157403
 30
0.0
 10
5.2985054077
 20
1.8489941267
 30
0.0
 10
5.2955155007
 20
1.8673736646
 30
0.0
 10
5.2928740416
 20
1.8858275
 30
0.0
 10
5.2907483786
 20
1.904362298
 30
0.0
 10
5.2891161164
 20
1.9229534534
 30
0.0
 10
5.2878042676
 20
1.9415909653
 30
0.0
 10
5.2867596871
 20
1.9649439072
 30
0.0
 10
5.2864343715
 20
1.9930120017
 30
0.0
 10
5.2868203537
 20
2.0117308964
 30
0.0
 10
5.287162575
 20
2.0210881196
 30
0.0
  0
SPLINE
  5
2E8
100
AcDbEntity
  8
ALL_ASSEMBLY_MEMBERS
100
AcDbSpline
 62
7
  6
CONTINUOUS
 70
0
 71
3
 72
9
 73
5
 74
0
 42
0.0000001
 43
0.0000001
 44
0.0000000001
 40
0.0
 40
0.0
 40
0.0
 40
0.0
 40
0.4883061189
 40
1.0
 40
1.0
 40
1.0
 40
1.0
 10
5.4674803951
 20
1.7846775498
 30
0.0
 10
5.4658447789
 20
1.7867626762
 30
0.0
 10
5.4628701359
 20
1.791340309
 30
0.0
 10
5.4608049132
 20
1.7964043509
 30
0.0
 10
5.4600274046
 20
1.7990703078
 30
0.0
  0
SPLINE
  5
2E9
100
AcDbEntity
  8
ALL_ASSEMBLY_MEMBERS
100
AcDbSpline
 62
7
  6
CONTINUOUS
 70
0
 71
3
 72
9
 73
5
 74
0
 42
0.0000001
 43
0.0000001
 44
0.0000000001
 40
0.0
 40
0.0
 40
0.0
 40
0.0
 40
0.5116935364
 40
1.0
 40
1.0
 40
1.0
 40
1.0
 10
5.4749333857
 20
1.7990703078
 30
0.0
 10
5.4741558775
 20
1.7964043528
 30
0.0
 10
5.4720906539
 20
1.7913403114
 30
0.0
 10
5.4691160125
 20
1.7867626776
 30
0.0
 10
5.4674803951
 20
1.7846775498
 30
0.0
  0
SPLINE
  5
2EA
100
AcDbEntity
  8
ALL_ASSEMBLY_MEMBERS
100
AcDbSpline
 62
7
  6
CONTINUOUS
 70
0
 71
3
 72
14
 73
10
 74
0
 42
0.0000001
 43
0.0000001
 44
0.0000000001
 40
0.0
 40
0.0
 40
0.0
 40
0.0
 40
0.1226755865
 40
0.2464880971
 40
0.4963517609
 40
0.622010969
 40
0.7479343346
 40
0.8739772621
 40
1.0
 40
1.0
 40
1.0
 40
1.0
 10
4.2259883082
 20
1.7990703078
 30
0.0
 10
4.2246273749
 20
1.8081019845
 30
0.0
 10
4.2219807737
 20
1.8262624481
 30
0.0
 10
4.2170185371
 20
1.8628833744
 30
0.0
 10
4.2126106009
 20
1.899801991
 30
0.0
 10
4.2088034278
 20
1.9369424513
 30
0.0
 10
4.2062553674
 20
1.9649429851
 30
0.0
 10
4.2040283066
 20
1.9929979616
 30
0.0
 10
4.2027629152
 20
2.0117229618
 30
0.0
 10
4.2021854064
 20
2.0210880165
 30
0.0
  0
SPLINE
  5
2EB
100
AcDbEntity
  8
ALL_ASSEMBLY_MEMBERS
100
AcDbSpline
 62
7
  6
CONTINUOUS
 70
0
 71
3
 72
14
 73
10
 74
0
 42
0.0000001
 43
0.0000001
 44
0.0000000001
 40
0.0
 40
0.0
 40
0.0
 40
0.0
 40
0.1260227378
 40
0.2520656652
 40
0.3779890308
 40
0.5036482389
 40
0.7535119027
 40
0.8773244134
 40
1.0
 40
1.0
 40
1.0
 40
1.0
 10
3.9550430963
 20
2.0210880165
 30
0.0
 10
3.9544655875
 20
2.0117229618
 30
0.0
 10
3.9532001962
 20
1.9929979616
 30
0.0
 10
3.9509731353
 20
1.9649429851
 30
0.0
 10
3.948425075
 20
1.9369424513
 30
0.0
 10
3.9446179018
 20
1.899801991
 30
0.0
 10
3.9402099656
 20
1.8628833745
 30
0.0
 10
3.9352477291
 20
1.8262624481
 30
0.0
 10
3.9326011278
 20
1.8081019845
 30
0.0
 10
3.9312401945
 20
1.7990703078
 30
0.0
  0
SPLINE
  5
2EC
100
AcDbEntity
  8
ALL_ASSEMBLY_MEMBERS
100
AcDbSpline
 62
7
  6
CONTINUOUS
 70
0
 71
3
 72
17
 73
13
 74
0
 42
0.0000001
 43
0.0000001
 44
0.0000000001
 40
0.0
 40
0.0
 40
0.0
 40
0.0
 40
0.1222832195
 40
0.2457159164
 40
0.3077862292
 40
0.3700576195
 40
0.495133621
 40
0.5579036827
 40
0.6208034621
 40
0.7469250513
 40
0.8733678135
 40
1.0
 40
1.0
 40
1.0
 40
1.0
 10
4.2944856319
 20
1.7990703078
 30
0.0
 10
4.2951948557
 20
1.8081000183
 30
0.0
 10
4.2963709308
 20
1.826264547
 30
0.0
 10
4.2972962973
 20
1.8490453821
 30
0.0
 10
4.2977525203
 20
1.8673926322
 30
0.0
 10
4.2980278336
 20
1.8858652072
 30
0.0
 10
4.298038726
 20
1.9043926283
 30
0.0
 10
4.297808215
 20
1.9229641025
 30
0.0
 10
4.297422568
 20
1.9416105004
 30
0.0
 10
4.2966579761
 20
1.9649654721
 30
0.0
 10
4.2953129487
 20
1.993021281
 30
0.0
 10
4.2941461964
 20
2.0117309523
 30
0.0
 10
4.2934962027
 20
2.0210880515
 30
0.0
  0
SPLINE
  5
2ED
100
AcDbEntity
  8
ALL_ASSEMBLY_MEMBERS
100
AcDbSpline
 62
7
  6
CONTINUOUS
 70
0
 71
3
 72
17
 73
13
 74
0
 42
0.0000001
 43
0.0000001
 44
0.0000000001
 40
0.0
 40
0.0
 40
0.0
 40
0.0
 40
0.126632134
 40
0.253074851
 40
0.3791963913
 40
0.4420961246
 40
0.5048661256
 40
0.6299420412
 40
0.6922134463
 40
0.7542838318
 40
0.8777166825
 40
1.0
 40
1.0
 40
1.0
 40
1.0
 10
3.8637323016
 20
2.0210880626
 30
0.0
 10
3.863082305
 20
2.0117309669
 30
0.0
 10
3.8619155536
 20
1.9930213019
 30
0.0
 10
3.8605705349
 20
1.9649655021
 30
0.0
 10
3.859805934
 20
1.9416105399
 30
0.0
 10
3.8594202887
 20
1.9229641525
 30
0.0
 10
3.8591897824
 20
1.9043926917
 30
0.0
 10
3.8592006771
 20
1.8858652794
 30
0.0
 10
3.8594759862
 20
1.8673927034
 30
0.0
 10
3.8599321951
 20
1.8490454341
 30
0.0
 10
3.8608575645
 20
1.8262645738
 30
0.0
 10
3.8620336464
 20
1.808100026
 30
0.0
 10
3.8627428708
 20
1.7990703078
 30
0.0
  0
SPLINE
  5
2EE
100
AcDbEntity
  8
ALL_ASSEMBLY_MEMBERS
100
AcDbSpline
 62
7
  6
CONTINUOUS
 70
0
 71
3
 72
14
 73
10
 74
0
 42
0.0000001
 43
0.0000001
 44
0.0000000001
 40
0.0
 40
0.0
 40
0.0
 40
0.0
 40
0.2498329266
 40
0.3749283641
 40
0.5000355395
 40
0.6251250332
 40
0.7501667347
 40
0.8751344568
 40
1.0
 40
1.0
 40
1.0
 40
1.0
 10
4.0711612608
 20
1.7990703078
 30
0.0
 10
4.0659141782
 20
1.8170617421
 30
0.0
 10
4.0590691034
 20
1.8443745853
 30
0.0
 10
4.0518469599
 20
1.881186627
 30
0.0
 10
4.0473552877
 20
1.9089839659
 30
0.0
 10
4.0437726408
 20
1.9369078763
 30
0.0
 10
4.0410829607
 20
1.9649215119
 30
0.0
 10
4.0392769151
 20
1.9929886652
 30
0.0
 10
4.0386544824
 20
2.0117228538
 30
0.0
 10
4.0384882993
 20
2.0210880397
 30
0.0
  0
SPLINE
  5
2EF
100
AcDbEntity
  8
ALL_ASSEMBLY_MEMBERS
100
AcDbSpline
 62
7
  6
CONTINUOUS
 70
0
 71
3
 72
14
 73
10
 74
0
 42
0.0000001
 43
0.0000001
 44
0.0000000001
 40
0.0
 40
0.0
 40
0.0
 40
0.0
 40
0.1248655431
 40
0.2498332652
 40
0.3748749667
 40
0.4999644604
 40
0.6250716358
 40
0.7501670733
 40
1.0
 40
1.0
 40
1.0
 40
1.0
 10
4.1187402034
 20
2.0210880397
 30
0.0
 10
4.1185740203
 20
2.0117228538
 30
0.0
 10
4.1179515877
 20
1.9929886653
 30
0.0
 10
4.116145542
 20
1.9649215119
 30
0.0
 10
4.1134558619
 20
1.9369078763
 30
0.0
 10
4.109873215
 20
1.9089839659
 30
0.0
 10
4.1053815428
 20
1.881186627
 30
0.0
 10
4.0981593993
 20
1.8443745854
 30
0.0
 10
4.0913143245
 20
1.8170617421
 30
0.0
 10
4.0860672419
 20
1.7990703078
 30
0.0
  0
SPLINE
  5
2F0
100
AcDbEntity
  8
ALL_ASSEMBLY_MEMBERS
100
AcDbSpline
 62
7
  6
CONTINUOUS
 70
0
 71
3
 72
17
 73
13
 74
0
 42
0.0000001
 43
0.0000001
 44
0.0000000001
 40
0.0
 40
0.0
 40
0.0
 40
0.0
 40
0.1254513726
 40
0.2507971074
 40
0.3760183429
 40
0.4385806565
 40
0.5011082622
 40
0.6260501836
 40
0.6884707637
 40
0.7508592083
 40
0.875521327
 40
1.0
 40
1.0
 40
1.0
 40
1.0
 10
4.258932071
 20
2.021088187
 30
0.0
 10
4.2592743043
 20
2.0117309599
 30
0.0
 10
4.2596602822
 20
1.9930120567
 30
0.0
 10
4.2593349339
 20
1.964943949
 30
0.0
 10
4.2582904003
 20
1.941590993
 30
0.0
 10
4.2569785255
 20
1.9229534718
 30
0.0
 10
4.2553462431
 20
1.9043623104
 30
0.0
 10
4.2532206065
 20
1.8858275069
 30
0.0
 10
4.2505791591
 20
1.8673736773
 30
0.0
 10
4.2475892261
 20
1.8489941581
 30
0.0
 10
4.2431797416
 20
1.8261574311
 30
0.0
 10
4.2388811564
 20
1.8080583651
 30
0.0
 10
4.2365284286
 20
1.7990703078
 30
0.0
  0
SPLINE
  5
2F1
100
AcDbEntity
  8
ALL_ASSEMBLY_MEMBERS
100
AcDbSpline
 62
7
  6
CONTINUOUS
 70
0
 71
3
 72
11
 73
7
 74
0
 42
0.0000001
 43
0.0000001
 44
0.0000000001
 40
0.0
 40
0.0
 40
0.0
 40
0.0
 40
0.2504731349
 40
0.500675508
 40
0.7505170983
 40
1.0
 40
1.0
 40
1.0
 40
1.0
 10
3.9290903539
 20
1.7846775498
 30
0.0
 10
3.9281160011
 20
1.7856900707
 30
0.0
 10
3.9262716037
 20
1.7878170689
 30
0.0
 10
3.9238899832
 20
1.7913015323
 30
0.0
 10
3.9219720241
 20
1.7950569099
 30
0.0
 10
3.9210545036
 20
1.7977162915
 30
0.0
 10
3.9207000742
 20
1.7990703078
 30
0.0
  0
SPLINE
  5
2F2
100
AcDbEntity
  8
ALL_ASSEMBLY_MEMBERS
100
AcDbSpline
 62
7
  6
CONTINUOUS
 70
0
 71
3
 72
11
 73
7
 74
0
 42
0.0000001
 43
0.0000001
 44
0.0000000001
 40
0.0
 40
0.0
 40
0.0
 40
0.0
 40
0.2494824595
 40
0.4993241425
 40
0.7495270427
 40
1.0
 40
1.0
 40
1.0
 40
1.0
 10
4.2365284286
 20
1.7990703078
 30
0.0
 10
4.2361739998
 20
1.7977162939
 30
0.0
 10
4.235256483
 20
1.7950569129
 30
0.0
 10
4.233338519
 20
1.7913015366
 30
0.0
 10
4.2309569012
 20
1.7878170685
 30
0.0
 10
4.229112501
 20
1.78569007
 30
0.0
 10
4.2281381488
 20
1.7846775498
 30
0.0
  0
SPLINE
  5
2F3
100
AcDbEntity
  8
ALL_ASSEMBLY_MEMBERS
100
AcDbSpline
 62
7
  6
CONTINUOUS
 70
0
 71
3
 72
17
 73
13
 74
0
 42
0.0000001
 43
0.0000001
 44
0.0000000001
 40
0.0
 40
0.0
 40
0.0
 40
0.0
 40
0.1244785221
 40
0.2491407147
 40
0.3115292879
 40
0.3739499299
 40
0.498891839
 40
0.5614194311
 40
0.6239817378
 40
0.749202923
 40
0.8745486481
 40
1.0
 40
1.0
 40
1.0
 40
1.0
 10
3.9207000742
 20
1.7990703078
 30
0.0
 10
3.9183473499
 20
1.8080583516
 30
0.0
 10
3.914048753
 20
1.826157403
 30
0.0
 10
3.9096392639
 20
1.8489941267
 30
0.0
 10
3.9066493569
 20
1.8673736646
 30
0.0
 10
3.9040078978
 20
1.8858275
 30
0.0
 10
3.9018822348
 20
1.904362298
 30
0.0
 10
3.9002499727
 20
1.9229534534
 30
0.0
 10
3.8989381238
 20
1.9415909653
 30
0.0
 10
3.8978935434
 20
1.9649439072
 30
0.0
 10
3.8975682278
 20
1.9930120017
 30
0.0
 10
3.8979542099
 20
2.0117308964
 30
0.0
 10
3.8982964312
 20
2.0210881196
 30
0.0
  0
SPLINE
  5
2F4
100
AcDbEntity
  8
ALL_ASSEMBLY_MEMBERS
100
AcDbSpline
 62
7
  6
CONTINUOUS
 70
0
 71
3
 72
9
 73
5
 74
0
 42
0.0000001
 43
0.0000001
 44
0.0000000001
 40
0.0
 40
0.0
 40
0.0
 40
0.0
 40
0.4883061189
 40
1.0
 40
1.0
 40
1.0
 40
1.0
 10
4.0786142514
 20
1.7846775498
 30
0.0
 10
4.0769786351
 20
1.7867626762
 30
0.0
 10
4.0740039921
 20
1.791340309
 30
0.0
 10
4.0719387695
 20
1.7964043509
 30
0.0
 10
4.0711612608
 20
1.7990703078
 30
0.0
  0
SPLINE
  5
2F5
100
AcDbEntity
  8
ALL_ASSEMBLY_MEMBERS
100
AcDbSpline
 62
7
  6
CONTINUOUS
 70
0
 71
3
 72
9
 73
5
 74
0
 42
0.0000001
 43
0.0000001
 44
0.0000000001
 40
0.0
 40
0.0
 40
0.0
 40
0.0
 40
0.5116935364
 40
1.0
 40
1.0
 40
1.0
 40
1.0
 10
4.0860672419
 20
1.7990703078
 30
0.0
 10
4.0852897338
 20
1.7964043528
 30
0.0
 10
4.0832245101
 20
1.7913403114
 30
0.0
 10
4.0802498688
 20
1.7867626776
 30
0.0
 10
4.0786142514
 20
1.7846775498
 30
0.0
  0
SPLINE
  5
2F6
100
AcDbEntity
  8
ALL_ASSEMBLY_MEMBERS
100
AcDbSpline
 62
7
  6
CONTINUOUS
 70
0
 71
3
 72
14
 73
10
 74
0
 42
0.0000001
 43
0.0000001
 44
0.0000000001
 40
0.0
 40
0.0
 40
0.0
 40
0.0
 40
0.1226755865
 40
0.2464880971
 40
0.4963517609
 40
0.622010969
 40
0.7479343346
 40
0.8739772621
 40
1.0
 40
1.0
 40
1.0
 40
1.0
 10
5.0395672589
 20
1.7990703078
 30
0.0
 10
5.0382063256
 20
1.8081019845
 30
0.0
 10
5.0355597244
 20
1.8262624481
 30
0.0
 10
5.0305974878
 20
1.8628833744
 30
0.0
 10
5.0261895516
 20
1.899801991
 30
0.0
 10
5.0223823785
 20
1.9369424513
 30
0.0
 10
5.0198343181
 20
1.9649429851
 30
0.0
 10
5.0176072573
 20
1.9929979616
 30
0.0
 10
5.0163418659
 20
2.0117229618
 30
0.0
 10
5.0157643571
 20
2.0210880165
 30
0.0
  0
SPLINE
  5
2F7
100
AcDbEntity
  8
ALL_ASSEMBLY_MEMBERS
100
AcDbSpline
 62
7
  6
CONTINUOUS
 70
0
 71
3
 72
14
 73
10
 74
0
 42
0.0000001
 43
0.0000001
 44
0.0000000001
 40
0.0
 40
0.0
 40
0.0
 40
0.0
 40
0.1260227378
 40
0.2520656652
 40
0.3779890308
 40
0.5036482389
 40
0.7535119027
 40
0.8773244134
 40
1.0
 40
1.0
 40
1.0
 40
1.0
 10
4.768622047
 20
2.0210880165
 30
0.0
 10
4.7680445382
 20
2.0117229618
 30
0.0
 10
4.7667791469
 20
1.9929979616
 30
0.0
 10
4.764552086
 20
1.9649429851
 30
0.0
 10
4.7620040257
 20
1.9369424513
 30
0.0
 10
4.7581968525
 20
1.899801991
 30
0.0
 10
4.7537889163
 20
1.8628833745
 30
0.0
 10
4.7488266798
 20
1.8262624481
 30
0.0
 10
4.7461800785
 20
1.8081019845
 30
0.0
 10
4.7448191452
 20
1.7990703078
 30
0.0
  0
SPLINE
  5
2F8
100
AcDbEntity
  8
ALL_ASSEMBLY_MEMBERS
100
AcDbSpline
 62
7
  6
CONTINUOUS
 70
0
 71
3
 72
17
 73
13
 74
0
 42
0.0000001
 43
0.0000001
 44
0.0000000001
 40
0.0
 40
0.0
 40
0.0
 40
0.0
 40
0.1222832195
 40
0.2457159164
 40
0.3077862292
 40
0.3700576195
 40
0.495133621
 40
0.5579036827
 40
0.6208034621
 40
0.7469250513
 40
0.8733678135
 40
1.0
 40
1.0
 40
1.0
 40
1.0
 10
5.1080645826
 20
1.7990703078
 30
0.0
 10
5.1087738064
 20
1.8081000183
 30
0.0
 10
5.1099498815
 20
1.826264547
 30
0.0
 10
5.110875248
 20
1.8490453821
 30
0.0
 10
5.111331471
 20
1.8673926322
 30
0.0
 10
5.1116067843
 20
1.8858652072
 30
0.0
 10
5.1116176767
 20
1.9043926283
 30
0.0
 10
5.1113871657
 20
1.9229641025
 30
0.0
 10
5.1110015187
 20
1.9416105004
 30
0.0
 10
5.1102369268
 20
1.9649654721
 30
0.0
 10
5.1088918994
 20
1.993021281
 30
0.0
 10
5.1077251471
 20
2.0117309523
 30
0.0
 10
5.1070751534
 20
2.0210880515
 30
0.0
  0
SPLINE
  5
2F9
100
AcDbEntity
  8
ALL_ASSEMBLY_MEMBERS
100
AcDbSpline
 62
7
  6
CONTINUOUS
 70
0
 71
3
 72
17
 73
13
 74
0
 42
0.0000001
 43
0.0000001
 44
0.0000000001
 40
0.0
 40
0.0
 40
0.0
 40
0.0
 40
0.126632134
 40
0.253074851
 40
0.3791963913
 40
0.4420961246
 40
0.5048661256
 40
0.6299420412
 40
0.6922134463
 40
0.7542838318
 40
0.8777166825
 40
1.0
 40
1.0
 40
1.0
 40
1.0
 10
4.6773112523
 20
2.0210880626
 30
0.0
 10
4.6766612557
 20
2.0117309669
 30
0.0
 10
4.6754945043
 20
1.9930213019
 30
0.0
 10
4.6741494856
 20
1.9649655021
 30
0.0
 10
4.6733848847
 20
1.9416105399
 30
0.0
 10
4.6729992394
 20
1.9229641525
 30
0.0
 10
4.6727687331
 20
1.9043926917
 30
0.0
 10
4.6727796278
 20
1.8858652794
 30
0.0
 10
4.6730549369
 20
1.8673927034
 30
0.0
 10
4.6735111458
 20
1.8490454341
 30
0.0
 10
4.6744365152
 20
1.8262645738
 30
0.0
 10
4.6756125971
 20
1.808100026
 30
0.0
 10
4.6763218215
 20
1.7990703078
 30
0.0
  0
SPLINE
  5
2FA
100
AcDbEntity
  8
ALL_ASSEMBLY_MEMBERS
100
AcDbSpline
 62
7
  6
CONTINUOUS
 70
0
 71
3
 72
14
 73
10
 74
0
 42
0.0000001
 43
0.0000001
 44
0.0000000001
 40
0.0
 40
0.0
 40
0.0
 40
0.0
 40
0.2498329266
 40
0.3749283641
 40
0.5000355395
 40
0.6251250332
 40
0.7501667347
 40
0.8751344568
 40
1.0
 40
1.0
 40
1.0
 40
1.0
 10
4.8847402115
 20
1.7990703078
 30
0.0
 10
4.8794931289
 20
1.8170617421
 30
0.0
 10
4.8726480541
 20
1.8443745853
 30
0.0
 10
4.8654259106
 20
1.881186627
 30
0.0
 10
4.8609342384
 20
1.9089839659
 30
0.0
 10
4.8573515915
 20
1.9369078763
 30
0.0
 10
4.8546619114
 20
1.9649215119
 30
0.0
 10
4.8528558658
 20
1.9929886652
 30
0.0
 10
4.8522334331
 20
2.0117228538
 30
0.0
 10
4.85206725
 20
2.0210880397
 30
0.0
  0
SPLINE
  5
2FB
100
AcDbEntity
  8
ALL_ASSEMBLY_MEMBERS
100
AcDbSpline
 62
7
  6
CONTINUOUS
 70
0
 71
3
 72
14
 73
10
 74
0
 42
0.0000001
 43
0.0000001
 44
0.0000000001
 40
0.0
 40
0.0
 40
0.0
 40
0.0
 40
0.1248655431
 40
0.2498332652
 40
0.3748749667
 40
0.4999644604
 40
0.6250716358
 40
0.7501670733
 40
1.0
 40
1.0
 40
1.0
 40
1.0
 10
4.9323191541
 20
2.0210880397
 30
0.0
 10
4.932152971
 20
2.0117228538
 30
0.0
 10
4.9315305384
 20
1.9929886653
 30
0.0
 10
4.9297244927
 20
1.9649215119
 30
0.0
 10
4.9270348126
 20
1.9369078763
 30
0.0
 10
4.9234521657
 20
1.9089839659
 30
0.0
 10
4.9189604935
 20
1.881186627
 30
0.0
 10
4.91173835
 20
1.8443745854
 30
0.0
 10
4.9048932752
 20
1.8170617421
 30
0.0
 10
4.8996461926
 20
1.7990703078
 30
0.0
  0
SPLINE
  5
2FC
100
AcDbEntity
  8
ALL_ASSEMBLY_MEMBERS
100
AcDbSpline
 62
7
  6
CONTINUOUS
 70
0
 71
3
 72
17
 73
13
 74
0
 42
0.0000001
 43
0.0000001
 44
0.0000000001
 40
0.0
 40
0.0
 40
0.0
 40
0.0
 40
0.1254513726
 40
0.2507971074
 40
0.3760183429
 40
0.4385806565
 40
0.5011082622
 40
0.6260501836
 40
0.6884707637
 40
0.7508592083
 40
0.875521327
 40
1.0
 40
1.0
 40
1.0
 40
1.0
 10
5.0725110217
 20
2.021088187
 30
0.0
 10
5.072853255
 20
2.0117309599
 30
0.0
 10
5.0732392329
 20
1.9930120567
 30
0.0
 10
5.0729138846
 20
1.964943949
 30
0.0
 10
5.071869351
 20
1.941590993
 30
0.0
 10
5.0705574762
 20
1.9229534718
 30
0.0
 10
5.0689251938
 20
1.9043623104
 30
0.0
 10
5.0667995572
 20
1.8858275069
 30
0.0
 10
5.0641581098
 20
1.8673736773
 30
0.0
 10
5.0611681768
 20
1.8489941581
 30
0.0
 10
5.0567586923
 20
1.8261574311
 30
0.0
 10
5.0524601071
 20
1.8080583651
 30
0.0
 10
5.0501073793
 20
1.7990703078
 30
0.0
  0
SPLINE
  5
2FD
100
AcDbEntity
  8
ALL_ASSEMBLY_MEMBERS
100
AcDbSpline
 62
7
  6
CONTINUOUS
 70
0
 71
3
 72
11
 73
7
 74
0
 42
0.0000001
 43
0.0000001
 44
0.0000000001
 40
0.0
 40
0.0
 40
0.0
 40
0.0
 40
0.2504731349
 40
0.500675508
 40
0.7505170983
 40
1.0
 40
1.0
 40
1.0
 40
1.0
 10
4.7426693046
 20
1.7846775498
 30
0.0
 10
4.7416949518
 20
1.7856900707
 30
0.0
 10
4.7398505544
 20
1.7878170689
 30
0.0
 10
4.7374689339
 20
1.7913015323
 30
0.0
 10
4.7355509748
 20
1.7950569099
 30
0.0
 10
4.7346334543
 20
1.7977162915
 30
0.0
 10
4.7342790249
 20
1.7990703078
 30
0.0
  0
SPLINE
  5
2FE
100
AcDbEntity
  8
ALL_ASSEMBLY_MEMBERS
100
AcDbSpline
 62
7
  6
CONTINUOUS
 70
0
 71
3
 72
11
 73
7
 74
0
 42
0.0000001
 43
0.0000001
 44
0.0000000001
 40
0.0
 40
0.0
 40
0.0
 40
0.0
 40
0.2494824595
 40
0.4993241425
 40
0.7495270427
 40
1.0
 40
1.0
 40
1.0
 40
1.0
 10
5.0501073793
 20
1.7990703078
 30
0.0
 10
5.0497529505
 20
1.7977162939
 30
0.0
 10
5.0488354336
 20
1.7950569129
 30
0.0
 10
5.0469174697
 20
1.7913015366
 30
0.0
 10
5.0445358519
 20
1.7878170685
 30
0.0
 10
5.0426914517
 20
1.78569007
 30
0.0
 10
5.0417170995
 20
1.7846775498
 30
0.0
  0
SPLINE
  5
2FF
100
AcDbEntity
  8
ALL_ASSEMBLY_MEMBERS
100
AcDbSpline
 62
7
  6
CONTINUOUS
 70
0
 71
3
 72
17
 73
13
 74
0
 42
0.0000001
 43
0.0000001
 44
0.0000000001
 40
0.0
 40
0.0
 40
0.0
 40
0.0
 40
0.1244785221
 40
0.2491407147
 40
0.3115292879
 40
0.3739499299
 40
0.498891839
 40
0.5614194311
 40
0.6239817378
 40
0.749202923
 40
0.8745486481
 40
1.0
 40
1.0
 40
1.0
 40
1.0
 10
4.7342790249
 20
1.7990703078
 30
0.0
 10
4.7319263006
 20
1.8080583516
 30
0.0
 10
4.7276277037
 20
1.826157403
 30
0.0
 10
4.7232182146
 20
1.8489941267
 30
0.0
 10
4.7202283076
 20
1.8673736646
 30
0.0
 10
4.7175868485
 20
1.8858275
 30
0.0
 10
4.7154611855
 20
1.904362298
 30
0.0
 10
4.7138289234
 20
1.9229534534
 30
0.0
 10
4.7125170745
 20
1.9415909653
 30
0.0
 10
4.7114724941
 20
1.9649439072
 30
0.0
 10
4.7111471785
 20
1.9930120017
 30
0.0
 10
4.7115331606
 20
2.0117308964
 30
0.0
 10
4.7118753819
 20
2.0210881196
 30
0.0
  0
SPLINE
  5
300
100
AcDbEntity
  8
ALL_ASSEMBLY_MEMBERS
100
AcDbSpline
 62
7
  6
CONTINUOUS
 70
0
 71
3
 72
9
 73
5
 74
0
 42
0.0000001
 43
0.0000001
 44
0.0000000001
 40
0.0
 40
0.0
 40
0.0
 40
0.0
 40
0.4883061189
 40
1.0
 40
1.0
 40
1.0
 40
1.0
 10
4.8921932021
 20
1.7846775498
 30
0.0
 10
4.8905575858
 20
1.7867626762
 30
0.0
 10
4.8875829428
 20
1.791340309
 30
0.0
 10
4.8855177202
 20
1.7964043509
 30
0.0
 10
4.8847402115
 20
1.7990703078
 30
0.0
  0
SPLINE
  5
301
100
AcDbEntity
  8
ALL_ASSEMBLY_MEMBERS
100
AcDbSpline
 62
7
  6
CONTINUOUS
 70
0
 71
3
 72
9
 73
5
 74
0
 42
0.0000001
 43
0.0000001
 44
0.0000000001
 40
0.0
 40
0.0
 40
0.0
 40
0.0
 40
0.5116935364
 40
1.0
 40
1.0
 40
1.0
 40
1.0
 10
4.8996461926
 20
1.7990703078
 30
0.0
 10
4.8988686845
 20
1.7964043528
 30
0.0
 10
4.8968034608
 20
1.7913403114
 30
0.0
 10
4.8938288195
 20
1.7867626776
 30
0.0
 10
4.8921932021
 20
1.7846775498
 30
0.0
  0
SPLINE
  5
302
100
AcDbEntity
  8
ALL_ASSEMBLY_MEMBERS
100
AcDbSpline
 62
7
  6
CONTINUOUS
 70
0
 71
3
 72
70
 73
66
 74
0
 42
0.0000001
 43
0.0000001
 44
0.0000000001
 40
0.0
 40
0.0
 40
0.0
 40
0.0
 40
0.0078203919
 40
0.0156614558
 40
0.0195825807
 40
0.0234989918
 40
0.0313246122
 40
0.0391495715
 40
0.0469683936
 40
0.0547874649
 40
0.0626042419
 40
0.0782263686
 40
0.0938469581
 40
0.1094672121
 40
0.1172785988
 40
0.1250894001
 40
0.1407099826
 40
0.1563302035
 40
0.1719504899
 40
0.1875706326
 40
0.2188071401
 40
0.2500441858
 40
0.2812815158
 40
0.3125190228
 40
0.3437566711
 40
0.374994309
 40
0.4062318706
 40
0.4374695555
 40
0.4687071611
 40
0.4843261885
 40
0.4999452113
 40
0.5311829732
 40
0.5468021091
 40
0.5624213166
 40
0.5936593146
 40
0.6248977553
 40
0.6561360296
 40
0.6873748926
 40
0.7029945547
 40
0.7186145836
 40
0.7342349266
 40
0.749855019
 40
0.7654756346
 40
0.7810966487
 40
0.7967174032
 40
0.8123394032
 40
0.8279612662
 40
0.8435839923
 40
0.8748228435
 40
0.8904495951
 40
0.898263449
 40
0.9060792405
 40
0.9138975152
 40
0.9217149213
 40
0.9295324422
 40
0.9373555188
 40
0.9451800999
 40
0.9530021131
 40
0.9608300821
 40
0.9686636881
 40
0.9764940095
 40
0.9804127714
 40
0.9843361202
 40
0.9921793266
 40
1.0
 40
1.0
 40
1.0
 40
1.0
 10
4.7323348912
 20
5.7010579064
 30
0.0
 10
4.7323348912
 20
5.6996074248
 30
0.0
 10
4.7321496442
 20
5.6966999378
 30
0.0
 10
4.7314862553
 20
5.6931203699
 30
0.0
 10
4.7307116377
 20
5.6903160114
 30
0.0
 10
4.7297796994
 20
5.6875629918
 30
0.0
 10
4.7283388621
 20
5.6842244434
 30
0.0
 10
4.726231784
 20
5.6804086675
 30
0.0
 10
4.7238014658
 20
5.676792764
 30
0.0
 10
4.7210979347
 20
5.6733795662
 30
0.0
 10
4.7171911058
 20
5.6690910312
 30
0.0
 10
4.7118270503
 20
5.6641970938
 30
0.0
 10
4.7048557797
 20
5.6589886047
 30
0.0
 10
4.6987207305
 20
5.6551254033
 30
0.0
 10
4.6936693063
 20
5.6522847663
 30
0.0
 10
4.6885342387
 20
5.6495979042
 30
0.0
 10
4.6819783117
 20
5.6465102847
 30
0.0
 10
4.6739460102
 20
5.643182968
 30
0.0
 10
4.6657840416
 20
5.6401893217
 30
0.0
 10
4.6547663343
 20
5.6365928278
 30
0.0
 10
4.6407907287
 20
5.6327544832
 30
0.0
 10
4.6238143374
 20
5.6290005418
 30
0.0
 10
4.60669873
 20
5.6259501636
 30
0.0
 10
4.5894894926
 20
5.6234906351
 30
0.0
 10
4.5722163659
 20
5.6215353572
 30
0.0
 10
4.5548998304
 20
5.6200175038
 30
0.0
 10
4.5375541178
 20
5.6188853296
 30
0.0
 10
4.5201893648
 20
5.6181028468
 30
0.0
 10
4.5057091059
 20
5.61771921
 30
0.0
 10
4.4941223481
 20
5.6175670903
 30
0.0
 10
4.4825346901
 20
5.617515667
 30
0.0
 10
4.4709467381
 20
5.6176165706
 30
0.0
 10
4.4593617078
 20
5.6178714939
 30
0.0
 10
4.4477793762
 20
5.6182304707
 30
0.0
 10
4.4333083875
 20
5.6188829008
 30
0.0
 10
4.4159621766
 20
5.6200125158
 30
0.0
 10
4.3986452074
 20
5.6215304701
 30
0.0
 10
4.3842499428
 20
5.6231576613
 30
0.0
 10
4.3727662279
 20
5.6247130215
 30
0.0
 10
4.3641726682
 20
5.626015679
 30
0.0
 10
4.3556025943
 20
5.6274657223
 30
0.0
 10
4.3470613902
 20
5.6290782439
 30
0.0
 10
4.3385550319
 20
5.6308666024
 30
0.0
 10
4.3300912518
 20
5.6328479695
 30
0.0
 10
4.3216803496
 20
5.6350448441
 30
0.0
 10
4.3133339837
 20
5.637476525
 30
0.0
 10
4.3050683621
 20
5.6401735915
 30
0.0
 10
4.2941862061
 20
5.6441628946
 30
0.0
 10
4.2835502837
 20
5.6488201114
 30
0.0
 10
4.2746216646
 20
5.6536429559
 30
0.0
 10
4.2696644336
 20
5.6566507989
 30
0.0
 10
4.2660295318
 20
5.6590403921
 30
0.0
 10
4.2624912028
 20
5.6615723219
 30
0.0
 10
4.2590687633
 20
5.6642599193
 30
0.0
 10
4.2557830649
 20
5.6671149359
 30
0.0
 10
4.2526564018
 20
5.670145836
 30
0.0
 10
4.2497203458
 20
5.6733638163
 30
0.0
 10
4.2470146071
 20
5.6767799641
 30
0.0
 10
4.2445823174
 20
5.6803991533
 30
0.0
 10
4.2424718576
 20
5.6842177953
 30
0.0
 10
4.2410290889
 20
5.6875587441
 30
0.0
 10
4.240096923
 20
5.6903135122
 30
0.0
 10
4.2393222861
 20
5.6931191495
 30
0.0
 10
4.2386581716
 20
5.6966994305
 30
0.0
 10
4.2384725622
 20
5.6996073726
 30
0.0
 10
4.2384725622
 20
5.7010579064
 30
0.0
  0
SPLINE
  5
303
100
AcDbEntity
  8
ALL_ASSEMBLY_MEMBERS
100
AcDbSpline
 62
7
  6
CONTINUOUS
 70
0
 71
3
 72
72
 73
68
 74
0
 42
0.0000001
 43
0.0000001
 44
0.0000000001
 40
0.0
 40
0.0
 40
0.0
 40
0.0
 40
0.007819916
 40
0.0156617792
 40
0.0195841041
 40
0.023501794
 40
0.031330078
 40
0.0391605143
 40
0.0469844782
 40
0.0548054809
 40
0.0626291576
 40
0.0704489785
 40
0.0782651222
 40
0.0938948589
 40
0.10170843
 40
0.1095215992
 40
0.117335281
 40
0.1251480745
 40
0.1563830303
 40
0.1720033646
 40
0.187624152
 40
0.2188601513
 40
0.2344794534
 40
0.2500981575
 40
0.2657170557
 40
0.2813354981
 40
0.3125712009
 40
0.3438065259
 40
0.3594245989
 40
0.3750424823
 40
0.4062776785
 40
0.4375128369
 40
0.4687480029
 40
0.4999831946
 40
0.5312184579
 40
0.562453957
 40
0.5936894213
 40
0.6249253395
 40
0.6561610738
 40
0.6873973942
 40
0.7030157862
 40
0.7186346877
 40
0.7342537447
 40
0.7498725713
 40
0.7654920781
 40
0.7811118404
 40
0.7967313622
 40
0.8123521675
 40
0.8279726865
 40
0.8435940736
 40
0.8748303154
 40
0.8904559232
 40
0.8982691413
 40
0.9060843273
 40
0.9139017096
 40
0.9217181429
 40
0.9295349661
 40
0.9373574195
 40
0.9451807716
 40
0.9530020773
 40
0.9608305403
 40
0.9686639485
 40
0.9764939839
 40
0.9804129611
 40
0.9843365803
 40
0.9921798302
 40
1.0
 40
1.0
 40
1.0
 40
1.0
 10
4.2384725622
 20
5.7021893073
 30
0.0
 10
4.2384725622
 20
5.7036397053
 30
0.0
 10
4.23865802
 20
5.7065472651
 30
0.0
 10
4.2393217949
 20
5.7101270384
 30
0.0
 10
4.2400962948
 20
5.7129320641
 30
0.0
 10
4.2410282805
 20
5.715686091
 30
0.0
 10
4.2424702614
 20
5.7190261008
 30
0.0
 10
4.2445792821
 20
5.7228436068
 30
0.0
 10
4.2470105687
 20
5.7264616717
 30
0.0
 10
4.2497156975
 20
5.7298769216
 30
0.0
 10
4.252650616
 20
5.7330945918
 30
0.0
 10
4.2557753415
 20
5.7361261436
 30
0.0
 10
4.2601546377
 20
5.7399310124
 30
0.0
 10
4.2648090818
 20
5.7434034355
 30
0.0
 10
4.2696529922
 20
5.7465899037
 30
0.0
 10
4.273370944
 20
5.7488454136
 30
0.0
 10
4.2771617053
 20
5.7509754325
 30
0.0
 10
4.28486476
 20
5.7550031489
 30
0.0
 10
4.2941712638
 20
5.7590773217
 30
0.0
 10
4.3050511789
 20
5.7630683392
 30
0.0
 10
4.3160701779
 20
5.766662377
 30
0.0
 10
4.3272511685
 20
5.7697331804
 30
0.0
 10
4.3385337948
 20
5.7723758149
 30
0.0
 10
4.347039197
 20
5.7741650359
 30
0.0
 10
4.3555796468
 20
5.7757766046
 30
0.0
 10
4.3670046871
 20
5.7777116389
 30
0.0
 10
4.3813455244
 20
5.7797595586
 30
0.0
 10
4.3957389215
 20
5.7813891524
 30
0.0
 10
4.4072752197
 20
5.7824728758
 30
0.0
 10
4.4188234662
 20
5.7834205516
 30
0.0
 10
4.4332773857
 20
5.7843627658
 30
0.0
 10
4.4506407958
 20
5.7851457253
 30
0.0
 10
4.4680157136
 20
5.7856043983
 30
0.0
 10
4.4853959676
 20
5.7857569672
 30
0.0
 10
4.5027762821
 20
5.7856045502
 30
0.0
 10
4.5201513492
 20
5.785146676
 30
0.0
 10
4.5375150193
 20
5.7843632307
 30
0.0
 10
4.5548599067
 20
5.7832337678
 30
0.0
 10
4.5721754646
 20
5.7817152983
 30
0.0
 10
4.5865695996
 20
5.7800881671
 30
0.0
 10
4.598052376
 20
5.7785324358
 30
0.0
 10
4.606645309
 20
5.7772300213
 30
0.0
 10
4.6152146864
 20
5.7757797679
 30
0.0
 10
4.6237551851
 20
5.7741670341
 30
0.0
 10
4.6322609232
 20
5.772378859
 30
0.0
 10
4.6407240113
 20
5.7703973274
 30
0.0
 10
4.6491342103
 20
5.7682003607
 30
0.0
 10
4.6574799065
 20
5.765768777
 30
0.0
 10
4.6657447582
 20
5.7630715814
 30
0.0
 10
4.6766259815
 20
5.7590824809
 30
0.0
 10
4.6872609299
 20
5.7544253049
 30
0.0
 10
4.6961887721
 20
5.7496026598
 30
0.0
 10
4.7011454943
 20
5.7465947975
 30
0.0
 10
4.7047800731
 20
5.7442054091
 30
0.0
 10
4.7083179347
 20
5.7416735855
 30
0.0
 10
4.711739866
 20
5.738986089
 30
0.0
 10
4.7150252133
 20
5.7361313072
 30
0.0
 10
4.7181517585
 20
5.7331009435
 30
0.0
 10
4.7210874032
 20
5.7298831989
 30
0.0
 10
4.7237927793
 20
5.7264670943
 30
0.0
 10
4.7262251075
 20
5.7228480164
 30
0.0
 10
4.7283357851
 20
5.7190294758
 30
0.0
 10
4.7297785098
 20
5.7156885322
 30
0.0
 10
4.7307103898
 20
5.7129336175
 30
0.0
 10
4.7314848833
 20
5.7101278336
 30
0.0
 10
4.7321491484
 20
5.7065476181
 30
0.0
 10
4.7323348912
 20
5.7036397523
 30
0.0
 10
4.7323348912
 20
5.7021893073
 30
0.0
  0
SPLINE
  5
304
100
AcDbEntity
  8
ALL_ASSEMBLY_MEMBERS
100
AcDbSpline
 62
7
  6
CONTINUOUS
 70
0
 71
3
 72
36
 73
32
 74
0
 42
0.0000001
 43
0.0000001
 44
0.0000000001
 40
0.0
 40
0.0
 40
0.0
 40
0.0
 40
0.0735813388
 40
0.1463818788
 40
0.2174470159
 40
0.2860396162
 40
0.351528267
 40
0.4134499926
 40
0.4715494512
 40
0.4992182442
 40
0.5260221809
 40
0.5520960722
 40
0.5776155078
 40
0.602774259
 40
0.6278809675
 40
0.6533243901
 40
0.6794930497
 40
0.7067012275
 40
0.7352900723
 40
0.7653287513
 40
0.7808462765
 40
0.7966792542
 40
0.8128009739
 40
0.8291691273
 40
0.8457468832
 40
0.8625047085
 40
0.8794156158
 40
0.8964483132
 40
0.9307471654
 40
0.9652640385
 40
1.0
 40
1.0
 40
1.0
 40
1.0
 10
4.4749037267
 20
2.3812644996
 30
0.0
 10
4.4688668129
 20
2.3812644996
 30
0.0
 10
4.4568566754
 20
2.3813890245
 30
0.0
 10
4.4390238261
 20
2.3819451738
 30
0.0
 10
4.421615874
 20
2.3828686554
 30
0.0
 10
4.4048320837
 20
2.384150659
 30
0.0
 10
4.3888325034
 20
2.3857856569
 30
0.0
 10
4.3737403109
 20
2.3877713623
 30
0.0
 10
4.3617840924
 20
2.3897593359
 30
0.0
 10
4.3527255516
 20
2.3915640141
 30
0.0
 10
4.3462752387
 20
2.3930037792
 30
0.0
 10
4.3400364656
 20
2.3945723121
 30
0.0
 10
4.3339786299
 20
2.3962953625
 30
0.0
 10
4.3280574403
 20
2.3981971044
 30
0.0
 10
4.3222252862
 20
2.4003408554
 30
0.0
 10
4.3164297444
 20
2.4028034637
 30
0.0
 10
4.3106203972
 20
2.4056531877
 30
0.0
 10
4.3047942401
 20
2.4090240854
 30
0.0
 10
4.298988723
 20
2.4130239766
 30
0.0
 10
4.294292229
 20
2.4169055082
 30
0.0
 10
4.2906546548
 20
2.4203918716
 30
0.0
 10
4.2879871521
 20
2.4232324835
 30
0.0
 10
4.2854324529
 20
2.4262668072
 30
0.0
 10
4.2830120601
 20
2.4294862627
 30
0.0
 10
4.2807493286
 20
2.4328815544
 30
0.0
 10
4.2786687725
 20
2.4364432901
 30
0.0
 10
4.2767910795
 20
2.4401581505
 30
0.0
 10
4.2745699844
 20
2.4453005537
 30
0.0
 10
4.2723738997
 20
2.4520139088
 30
0.0
 10
4.2707665816
 20
2.4603777417
 30
0.0
 10
4.2704037267
 20
2.4660660924
 30
0.0
 10
4.2704037267
 20
2.4689159726
 30
0.0
  0
SPLINE
  5
305
100
AcDbEntity
  8
ALL_ASSEMBLY_MEMBERS
100
AcDbSpline
 62
7
  6
CONTINUOUS
 70
0
 71
3
 72
39
 73
35
 74
0
 42
0.0000001
 43
0.0000001
 44
0.0000000001
 40
0.0
 40
0.0
 40
0.0
 40
0.0
 40
0.034785658
 40
0.0692818265
 40
0.0864578217
 40
0.1035784301
 40
0.1206168541
 40
0.1375404786
 40
0.1543133866
 40
0.1708987623
 40
0.1872700097
 40
0.2034011954
 40
0.2347858497
 40
0.2499611979
 40
0.2647688491
 40
0.2933537754
 40
0.3071587043
 40
0.3206400829
 40
0.3467700898
 40
0.3721812948
 40
0.3847542802
 40
0.3973043284
 40
0.4224819838
 40
0.4479755262
 40
0.4740286786
 40
0.5285053285
 40
0.5865941683
 40
0.6170912268
 40
0.648521776
 40
0.7139958837
 40
0.7825816281
 40
0.8536418878
 40
0.9264369704
 40
1.0
 40
1.0
 40
1.0
 40
1.0
 10
4.7004037267
 20
2.4689159726
 30
0.0
 10
4.7004037267
 20
2.4660619667
 30
0.0
 10
4.7000418762
 20
2.4603715335
 30
0.0
 10
4.6986978736
 20
2.4533865652
 30
0.0
 10
4.6971102703
 20
2.4479669798
 30
0.0
 10
4.6956751001
 20
2.4440042781
 30
0.0
 10
4.6940102185
 20
2.4401553138
 30
0.0
 10
4.692130787
 20
2.4364384276
 30
0.0
 10
4.6900527904
 20
2.4328717427
 30
0.0
 10
4.6877897343
 20
2.4294739286
 30
0.0
 10
4.6853640935
 20
2.4262560214
 30
0.0
 10
4.6819810446
 20
2.4222497086
 30
0.0
 10
4.6783568706
 20
2.4185847093
 30
0.0
 10
4.6745565929
 20
2.415279593
 30
0.0
 10
4.6707829771
 20
2.4123021643
 30
0.0
 10
4.6669077855
 20
2.4096438828
 30
0.0
 10
4.6629811737
 20
2.4072772448
 30
0.0
 10
4.6591504744
 20
2.4051466406
 30
0.0
 10
4.6543644269
 20
2.4027814065
 30
0.0
 10
4.649515961
 20
2.4007342204
 30
0.0
 10
4.6456393042
 20
2.3992632093
 30
0.0
 10
4.6417506359
 20
2.3978804266
 30
0.0
 10
4.6368131729
 20
2.3962865627
 30
0.0
 10
4.6307564608
 20
2.3945671795
 30
0.0
 10
4.6223180066
 20
2.3924508319
 30
0.0
 10
4.6111823023
 20
2.3901170338
 30
0.0
 10
4.5996006274
 20
2.3881933026
 30
0.0
 10
4.5898494442
 20
2.3868220761
 30
0.0
 10
4.5794764905
 20
2.3855299018
 30
0.0
 10
4.5659671602
 20
2.3841501144
 30
0.0
 10
4.5491853034
 20
2.3828681791
 30
0.0
 10
4.5317784317
 20
2.3819450133
 30
0.0
 10
4.5139476321
 20
2.3813890762
 30
0.0
 10
4.501939241
 20
2.3812644996
 30
0.0
 10
4.4959037271
 20
2.3812644996
 30
0.0
  0
SPLINE
  5
306
100
AcDbEntity
  8
ALL_ASSEMBLY_MEMBERS
100
AcDbSpline
 62
7
  6
CONTINUOUS
 70
0
 71
3
 72
31
 73
27
 74
0
 42
0.0000001
 43
0.0000001
 44
0.0000000001
 40
0.0
 40
0.0
 40
0.0
 40
0.0
 40
0.0941808388
 40
0.1875779352
 40
0.2791906927
 40
0.3681782504
 40
0.4537437065
 40
0.5351055313
 40
0.6115092642
 40
0.6822797873
 40
0.746792648
 40
0.7765381122
 40
0.8045278188
 40
0.8307073277
 40
0.8550376643
 40
0.8774877933
 40
0.898033594
 40
0.916664164
 40
0.9333954479
 40
0.9482678852
 40
0.9613555338
 40
0.9727882585
 40
0.9827863355
 40
0.9916890301
 40
0.9958849058
 40
1.0
 40
1.0
 40
1.0
 40
1.0
 10
4.4959037267
 20
2.7828584547
 30
0.0
 10
4.5025819881
 20
2.7828584547
 30
0.0
 10
4.5158832135
 20
2.7827446346
 30
0.0
 10
4.5356747502
 20
2.7822364326
 30
0.0
 10
4.5550863763
 20
2.7813932209
 30
0.0
 10
4.5739248773
 20
2.780225244
 30
0.0
 10
4.5920121616
 20
2.7787427839
 30
0.0
 10
4.6091758758
 20
2.7769622694
 30
0.0
 10
4.6252511448
 20
2.7748993906
 30
0.0
 10
4.640083001
 20
2.7725769718
 30
0.0
 10
4.6515815621
 20
2.7703885278
 30
0.0
 10
4.6600436528
 20
2.7685054274
 30
0.0
 10
4.6658215625
 20
2.7670810591
 30
0.0
 10
4.6711905083
 20
2.765609275
 30
0.0
 10
4.6761380878
 20
2.7640941154
 30
0.0
 10
4.6806530888
 20
2.7625395539
 30
0.0
 10
4.6847249177
 20
2.7609494127
 30
0.0
 10
4.6883441253
 20
2.7593268652
 30
0.0
 10
4.6915034829
 20
2.7576759737
 30
0.0
 10
4.6941973848
 20
2.7559999171
 30
0.0
 10
4.696421325
 20
2.7543007708
 30
0.0
 10
4.698170771
 20
2.752576842
 30
0.0
 10
4.6994421
 20
2.7508270885
 30
0.0
 10
4.700105651
 20
2.7493102803
 30
0.0
 10
4.7003615202
 20
2.7481133716
 30
0.0
 10
4.7004037267
 20
2.747523211
 30
0.0
 10
4.7004037267
 20
2.7472314141
 30
0.0
  0
SPLINE
  5
307
100
AcDbEntity
  8
ALL_ASSEMBLY_MEMBERS
100
AcDbSpline
 62
7
  6
CONTINUOUS
 70
0
 71
3
 72
31
 73
27
 74
0
 42
0.0000001
 43
0.0000001
 44
0.0000000001
 40
0.0
 40
0.0
 40
0.0
 40
0.0
 40
0.0041150938
 40
0.0083109681
 40
0.0172136563
 40
0.027211723
 40
0.0386444358
 40
0.0517320679
 40
0.0666044828
 40
0.0833357456
 40
0.1019663037
 40
0.1225120947
 40
0.1449622082
 40
0.169292531
 40
0.1954720358
 40
0.2234617402
 40
0.2532071956
 40
0.3177200413
 40
0.3884905449
 40
0.4648942556
 40
0.5462560624
 40
0.6318215095
 40
0.7208091037
 40
0.8124219479
 40
0.9058191315
 40
1.0
 40
1.0
 40
1.0
 40
1.0
 10
4.2704037267
 20
2.7472314141
 30
0.0
 10
4.2704037267
 20
2.7475232109
 30
0.0
 10
4.2704459331
 20
2.7481133714
 30
0.0
 10
4.2707018015
 20
2.7493102796
 30
0.0
 10
4.2713653511
 20
2.7508270871
 30
0.0
 10
4.2726366783
 20
2.7525768395
 30
0.0
 10
4.2743861227
 20
2.7543007661
 30
0.0
 10
4.2766100597
 20
2.7559999105
 30
0.0
 10
4.2793039571
 20
2.7576759662
 30
0.0
 10
4.2824633106
 20
2.7593268572
 30
0.0
 10
4.2860825153
 20
2.7609494038
 30
0.0
 10
4.2901543415
 20
2.7625395447
 30
0.0
 10
4.2946693393
 20
2.7640941069
 30
0.0
 10
4.2996169161
 20
2.7656092673
 30
0.0
 10
4.3049858605
 20
2.7670810513
 30
0.0
 10
4.3107637692
 20
2.7685054196
 30
0.0
 10
4.3192258577
 20
2.7703885212
 30
0.0
 10
4.3307244157
 20
2.7725769654
 30
0.0
 10
4.3455562678
 20
2.7748993849
 30
0.0
 10
4.3616315325
 20
2.7769622641
 30
0.0
 10
4.3787952432
 20
2.7787427794
 30
0.0
 10
4.3968825282
 20
2.7802252408
 30
0.0
 10
4.4157210372
 20
2.7813932188
 30
0.0
 10
4.4351326783
 20
2.7822364318
 30
0.0
 10
4.4549242294
 20
2.7827446341
 30
0.0
 10
4.4682254632
 20
2.7828584547
 30
0.0
 10
4.4749037267
 20
2.7828584547
 30
0.0
  0
SPLINE
  5
308
100
AcDbEntity
  8
ALL_ASSEMBLY_MEMBERS
100
AcDbSpline
 62
7
  6
CONTINUOUS
 70
0
 71
3
 72
21
 73
17
 74
0
 42
0.0000001
 43
0.0000001
 44
0.0000000001
 40
0.0
 40
0.0
 40
0.0
 40
0.0
 40
0.1257271838
 40
0.1887563717
 40
0.2516907572
 40
0.3145149295
 40
0.3772427321
 40
0.4398896835
 40
0.5024603443
 40
0.5649370481
 40
0.6273048897
 40
0.6895786825
 40
0.7517918342
 40
0.8139808029
 40
0.876158668
 40
1.0
 40
1.0
 40
1.0
 40
1.0
 10
4.6374037267
 20
2.4068793954
 30
0.0
 10
4.6415164524
 20
2.4068793954
 30
0.0
 10
4.647711878
 20
2.4074858833
 30
0.0
 10
4.6557153057
 20
2.4094533079
 30
0.0
 10
4.6615503166
 20
2.4115081397
 30
0.0
 10
4.6671477162
 20
2.4141160392
 30
0.0
 10
4.6724585395
 20
2.4172490571
 30
0.0
 10
4.6774304427
 20
2.4208821567
 30
0.0
 10
4.6820171441
 20
2.4249783126
 30
0.0
 10
4.6861776696
 20
2.4294943605
 30
0.0
 10
4.6898682094
 20
2.4343901067
 30
0.0
 10
4.6930510499
 20
2.4396200764
 30
0.0
 10
4.6957005781
 20
2.445132567
 30
0.0
 10
4.6977883514
 20
2.4508795263
 30
0.0
 10
4.6997864474
 20
2.4587582128
 30
0.0
 10
4.7004037267
 20
2.464864936
 30
0.0
 10
4.7004037267
 20
2.4689159726
 30
0.0
  0
SPLINE
  5
309
100
AcDbEntity
  8
ALL_ASSEMBLY_MEMBERS
100
AcDbSpline
 62
7
  6
CONTINUOUS
 70
0
 71
3
 72
21
 73
17
 74
0
 42
0.0000001
 43
0.0000001
 44
0.0000000001
 40
0.0
 40
0.0
 40
0.0
 40
0.0
 40
0.1257271808
 40
0.1887563654
 40
0.2516907479
 40
0.3145149185
 40
0.3772427206
 40
0.4398896725
 40
0.5024603337
 40
0.5649370379
 40
0.6273048799
 40
0.6895786739
 40
0.7517918274
 40
0.8139807988
 40
0.8761586663
 40
1.0
 40
1.0
 40
1.0
 40
1.0
 10
4.6374037267
 20
2.471513293
 30
0.0
 10
4.6415164523
 20
2.471513293
 30
0.0
 10
4.6477118777
 20
2.4721197808
 30
0.0
 10
4.655715305
 20
2.4740872053
 30
0.0
 10
4.6615503157
 20
2.4761420371
 30
0.0
 10
4.6671477151
 20
2.4787499364
 30
0.0
 10
4.6724585385
 20
2.4818829542
 30
0.0
 10
4.6774304417
 20
2.4855160537
 30
0.0
 10
4.6820171433
 20
2.4896122096
 30
0.0
 10
4.686177669
 20
2.4941282573
 30
0.0
 10
4.6898682088
 20
2.4990240035
 30
0.0
 10
4.6930510494
 20
2.5042539733
 30
0.0
 10
4.6957005779
 20
2.509766464
 30
0.0
 10
4.6977883512
 20
2.5155134235
 30
0.0
 10
4.6997864473
 20
2.5233921102
 30
0.0
 10
4.7004037267
 20
2.5294988335
 30
0.0
 10
4.7004037267
 20
2.5335498702
 30
0.0
  0
SPLINE
  5
30A
100
AcDbEntity
  8
ALL_ASSEMBLY_MEMBERS
100
AcDbSpline
 62
7
  6
CONTINUOUS
 70
0
 71
3
 72
21
 73
17
 74
0
 42
0.0000001
 43
0.0000001
 44
0.0000000001
 40
0.0
 40
0.0
 40
0.0
 40
0.0
 40
0.1257271838
 40
0.1887563717
 40
0.2516907572
 40
0.3145149295
 40
0.3772427321
 40
0.4398896835
 40
0.5024603443
 40
0.5649370481
 40
0.6273048897
 40
0.6895786825
 40
0.7517918342
 40
0.8139808029
 40
0.876158668
 40
1.0
 40
1.0
 40
1.0
 40
1.0
 10
4.3334037267
 20
2.471513293
 30
0.0
 10
4.329291001
 20
2.471513293
 30
0.0
 10
4.3230955754
 20
2.4721197809
 30
0.0
 10
4.3150921478
 20
2.4740872055
 30
0.0
 10
4.3092571368
 20
2.4761420373
 30
0.0
 10
4.3036597373
 20
2.4787499368
 30
0.0
 10
4.2983489139
 20
2.4818829547
 30
0.0
 10
4.2933770107
 20
2.4855160542
 30
0.0
 10
4.2887903093
 20
2.4896122102
 30
0.0
 10
4.2846297838
 20
2.4941282581
 30
0.0
 10
4.280939244
 20
2.4990240042
 30
0.0
 10
4.2777564035
 20
2.504253974
 30
0.0
 10
4.2751068753
 20
2.5097664646
 30
0.0
 10
4.273019102
 20
2.5155134239
 30
0.0
 10
4.271021006
 20
2.5233921104
 30
0.0
 10
4.2704037267
 20
2.5294988336
 30
0.0
 10
4.2704037267
 20
2.5335498702
 30
0.0
  0
SPLINE
  5
30B
100
AcDbEntity
  8
ALL_ASSEMBLY_MEMBERS
100
AcDbSpline
 62
7
  6
CONTINUOUS
 70
0
 71
3
 72
31
 73
27
 74
0
 42
0.0000001
 43
0.0000001
 44
0.0000000001
 40
0.0
 40
0.0
 40
0.0
 40
0.0
 40
0.0041151122
 40
0.0083110469
 40
0.0172139592
 40
0.027212256
 40
0.0386449779
 40
0.0517323412
 40
0.0666044375
 40
0.0833354977
 40
0.1019661232
 40
0.1225123207
 40
0.1449630028
 40
0.1692938329
 40
0.195473561
 40
0.2234631848
 40
0.2532083705
 40
0.3177200511
 40
0.3884888366
 40
0.4648920701
 40
0.5462554889
 40
0.6318219282
 40
0.7208079749
 40
0.8124196762
 40
0.9058181041
 40
1.0
 40
1.0
 40
1.0
 40
1.0
 10
4.7004037267
 20
2.5335498702
 30
0.0
 10
4.7004037267
 20
2.5338416683
 30
0.0
 10
4.7003615135
 20
2.5344318345
 30
0.0
 10
4.7001056128
 20
2.5356287581
 30
0.0
 10
4.6994420085
 20
2.5371455809
 30
0.0
 10
4.6981706485
 20
2.5388953457
 30
0.0
 10
4.6964212338
 20
2.5406192967
 30
0.0
 10
4.6941973537
 20
2.5423184496
 30
0.0
 10
4.6915035035
 20
2.5439944763
 30
0.0
 10
4.6883441695
 20
2.5456453347
 30
0.0
 10
4.6847249341
 20
2.547267859
 30
0.0
 10
4.68065303
 20
2.5488580018
 30
0.0
 10
4.6761379297
 20
2.5504125873
 30
0.0
 10
4.6711902663
 20
2.551927777
 30
0.0
 10
4.6658212827
 20
2.5533995901
 30
0.0
 10
4.6600433848
 20
2.5548239627
 30
0.0
 10
4.6515813988
 20
2.5567070269
 30
0.0
 10
4.6400830578
 20
2.5588954066
 30
0.0
 10
4.6252514477
 20
2.5612178193
 30
0.0
 10
4.6091762245
 20
2.5632806875
 30
0.0
 10
4.5920123634
 20
2.5650611956
 30
0.0
 10
4.5739250082
 20
2.5665436912
 30
0.0
 10
4.5550866226
 20
2.5677116891
 30
0.0
 10
4.5356750848
 20
2.5685548712
 30
0.0
 10
4.5158834558
 20
2.56906307
 30
0.0
 10
4.5025820624
 20
2.5691769108
 30
0.0
 10
4.4959037267
 20
2.5691769108
 30
0.0
  0
SPLINE
  5
30C
100
AcDbEntity
  8
ALL_ASSEMBLY_MEMBERS
100
AcDbSpline
 62
7
  6
CONTINUOUS
 70
0
 71
3
 72
31
 73
27
 74
0
 42
0.0000001
 43
0.0000001
 44
0.0000000001
 40
0.0
 40
0.0
 40
0.0
 40
0.0
 40
0.0941818906
 40
0.1875803089
 40
0.2791920093
 40
0.3681780615
 40
0.4537445023
 40
0.5351079185
 40
0.6115111498
 40
0.6822799349
 40
0.7467916181
 40
0.7765368059
 40
0.8045264314
 40
0.8307061607
 40
0.855036992
 40
0.877487675
 40
0.8980338728
 40
0.9166644982
 40
0.9333955585
 40
0.948267655
 40
0.9613550184
 40
0.9727877411
 40
0.9827860393
 40
0.9916889527
 40
0.9958848877
 40
1.0
 40
1.0
 40
1.0
 40
1.0
 10
4.4749037267
 20
2.5691769108
 30
0.0
 10
4.4682253914
 20
2.5691769108
 30
0.0
 10
4.4549239991
 20
2.5690630701
 30
0.0
 10
4.4351323712
 20
2.5685548713
 30
0.0
 10
4.4157208337
 20
2.5677116892
 30
0.0
 10
4.3968824477
 20
2.5665436914
 30
0.0
 10
4.3787950922
 20
2.5650611959
 30
0.0
 10
4.3616312314
 20
2.5632806878
 30
0.0
 10
4.3455560085
 20
2.5612178197
 30
0.0
 10
4.3307243984
 20
2.5588954071
 30
0.0
 10
4.3192260571
 20
2.5567070273
 30
0.0
 10
4.3107640706
 20
2.5548239632
 30
0.0
 10
4.3049861725
 20
2.5533995906
 30
0.0
 10
4.2996171886
 20
2.5519277774
 30
0.0
 10
4.2946695249
 20
2.5504125876
 30
0.0
 10
4.2901544244
 20
2.5488580022
 30
0.0
 10
4.2860825202
 20
2.5472678594
 30
0.0
 10
4.2824632848
 20
2.5456453351
 30
0.0
 10
4.2793039507
 20
2.5439944769
 30
0.0
 10
4.2766101004
 20
2.5423184503
 30
0.0
 10
4.2743862203
 20
2.5406192973
 30
0.0
 10
4.2726368056
 20
2.538895346
 30
0.0
 10
4.2713654454
 20
2.5371455811
 30
0.0
 10
4.2707018408
 20
2.5356287582
 30
0.0
 10
4.2704459399
 20
2.5344318345
 30
0.0
 10
4.2704037267
 20
2.5338416683
 30
0.0
 10
4.2704037267
 20
2.5335498702
 30
0.0
  0
SPLINE
  5
30D
100
AcDbEntity
  8
ALL_ASSEMBLY_MEMBERS
100
AcDbSpline
 62
7
  6
CONTINUOUS
 70
0
 71
3
 72
19
 73
15
 74
0
 42
0.0000001
 43
0.0000001
 44
0.0000000001
 40
0.0
 40
0.0
 40
0.0
 40
0.0
 40
0.1379028075
 40
0.2712587087
 40
0.3363041453
 40
0.4002978925
 40
0.4632928696
 40
0.525355318
 40
0.6469354357
 40
0.7658983767
 40
0.8247492542
 40
0.8833171064
 40
0.9417008624
 40
1.0
 40
1.0
 40
1.0
 40
1.0
 10
4.6000740834
 20
4.1219388817
 30
0.0
 10
4.6050871384
 20
4.1189456901
 30
0.0
 10
4.6146657082
 20
4.1125668537
 30
0.0
 10
4.6256220506
 20
4.1034231899
 30
0.0
 10
4.6334993534
 20
4.0955811651
 30
0.0
 10
4.6389106794
 20
4.0895061456
 30
0.0
 10
4.6438571468
 20
4.0832061963
 30
0.0
 10
4.6497704429
 20
4.0745923315
 30
0.0
 10
4.6559724447
 20
4.0633346494
 30
0.0
 10
4.6605086018
 20
4.0514490522
 30
0.0
 10
4.663045751
 20
4.0417601187
 30
0.0
 10
4.6644039996
 20
4.0344347486
 30
0.0
 10
4.6652214017
 20
4.0270537103
 30
0.0
 10
4.6654037267
 20
4.0221115514
 30
0.0
 10
4.6654037267
 20
4.0196432284
 30
0.0
  0
LINE
  5
30E
100
AcDbEntity
  8
ALL_ASSEMBLY_MEMBERS
100
AcDbLine
 62
7
  6
CONTINUOUS
 10
4.5998588834
 20
4.1215929167
 11
4.5997742685
 21
4.1221174951
  0
LINE
  5
30F
100
AcDbEntity
  8
ALL_ASSEMBLY_MEMBERS
100
AcDbLine
 62
7
  6
CONTINUOUS
 10
4.3710331849
 20
4.1221174951
 11
4.37094857
 21
4.1215929167
  0
SPLINE
  5
310
100
AcDbEntity
  8
ALL_ASSEMBLY_MEMBERS
100
AcDbSpline
 62
7
  6
CONTINUOUS
 70
0
 71
3
 72
25
 73
21
 74
0
 42
0.0000001
 43
0.0000001
 44
0.0000000001
 40
0.0
 40
0.0
 40
0.0
 40
0.0
 40
0.0531516633
 40
0.1067660725
 40
0.1338492099
 40
0.1611579028
 40
0.2165902804
 40
0.2448111814
 40
0.2734031537
 40
0.3317656399
 40
0.3918245277
 40
0.4536440205
 40
0.5172179961
 40
0.5824870961
 40
0.6493241665
 40
0.717555337
 40
0.7869881938
 40
0.8574120014
 40
0.9285469907
 40
1.0
 40
1.0
 40
1.0
 40
1.0
 10
4.6654037267
 20
3.7402949513
 30
0.0
 10
4.6654037267
 20
3.7447302232
 30
0.0
 10
4.6648230311
 20
3.7536490622
 30
0.0
 10
4.6626766442
 20
3.7646412992
 30
0.0
 10
4.6601265883
 20
3.7732910926
 30
0.0
 10
4.6569946652
 20
3.781908748
 30
0.0
 10
4.6530406003
 20
3.7903098158
 30
0.0
 10
4.6483338426
 20
3.7984120571
 30
0.0
 10
4.6430413398
 20
3.8064400043
 30
0.0
 10
4.6354481537
 20
3.8161076881
 30
0.0
 10
4.6249664997
 20
3.8269286794
 30
0.0
 10
4.613142518
 20
3.8369489176
 30
0.0
 10
4.6000914547
 20
3.8460855345
 30
0.0
 10
4.5859272293
 20
3.8542494701
 30
0.0
 10
4.5707843176
 20
3.8613750153
 30
0.0
 10
4.5547979845
 20
3.8673946416
 30
0.0
 10
4.5381111185
 20
3.8722554188
 30
0.0
 10
4.5208725573
 20
3.8759134538
 30
0.0
 10
4.5032483007
 20
3.8783319809
 30
0.0
 10
4.4913635375
 20
3.8791095407
 30
0.0
 10
4.4854037267
 20
3.8792865415
 30
0.0
  0
SPLINE
  5
311
100
AcDbEntity
  8
ALL_ASSEMBLY_MEMBERS
100
AcDbSpline
 62
7
  6
CONTINUOUS
 70
0
 71
3
 72
28
 73
24
 74
0
 42
0.0000001
 43
0.0000001
 44
0.0000000001
 40
0.0
 40
0.0
 40
0.0
 40
0.0
 40
0.0181665062
 40
0.0365370799
 40
0.055279726
 40
0.0745499211
 40
0.0944884882
 40
0.1152201314
 40
0.1368500132
 40
0.1594639492
 40
0.2078795432
 40
0.2337894733
 40
0.2608525506
 40
0.3184410252
 40
0.3806035119
 40
0.4471271664
 40
0.5177118561
 40
0.5919469861
 40
0.6693610899
 40
0.7494505805
 40
0.8316856968
 40
0.9154525537
 40
1.0
 40
1.0
 40
1.0
 40
1.0
 10
4.6654037267
 20
3.5596221249
 30
0.0
 10
4.6654037267
 20
3.5609014373
 30
0.0
 10
4.6652581519
 20
3.5634766904
 30
0.0
 10
4.6646079193
 20
3.5673223556
 30
0.0
 10
4.6635283403
 20
3.5711510608
 30
0.0
 10
4.6620227292
 20
3.5749514181
 30
0.0
 10
4.6600938886
 20
3.5787129478
 30
0.0
 10
4.6577470311
 20
3.5824261061
 30
0.0
 10
4.654989897
 20
3.5860838639
 30
0.0
 10
4.6506779851
 20
3.5909880357
 30
0.0
 10
4.6456406619
 20
3.5956276491
 30
0.0
 10
4.6400011217
 20
3.600009543
 30
0.0
 10
4.6336084252
 20
3.6044600927
 30
0.0
 10
4.6247002167
 20
3.6097372287
 30
0.0
 10
4.6128950956
 20
3.6154840362
 30
0.0
 10
4.5998671613
 20
3.6207269358
 30
0.0
 10
4.5857319481
 20
3.6254128347
 30
0.0
 10
4.5706187196
 20
3.6295048276
 30
0.0
 10
4.5546632039
 20
3.6329627775
 30
0.0
 10
4.5380071363
 20
3.635755877
 30
0.0
 10
4.52079941
 20
3.6378582944
 30
0.0
 10
4.5032052817
 20
3.6392485431
 30
0.0
 10
4.4913568101
 20
3.6396949744
 30
0.0
 10
4.4854037267
 20
3.6397969589
 30
0.0
  0
SPLINE
  5
312
100
AcDbEntity
  8
ALL_ASSEMBLY_MEMBERS
100
AcDbSpline
 62
7
  6
CONTINUOUS
 70
0
 71
3
 72
17
 73
13
 74
0
 42
0.0000001
 43
0.0000001
 44
0.0000000001
 40
0.0
 40
0.0
 40
0.0
 40
0.0
 40
0.0439695576
 40
0.0911270982
 40
0.1413704349
 40
0.1945838129
 40
0.3093262846
 40
0.4340881688
 40
0.5673214145
 40
0.7073331237
 40
0.852302749
 40
1.0
 40
1.0
 40
1.0
 40
1.0
 10
4.6321057584
 20
2.7738121229
 30
0.0
 10
4.6300040215
 20
2.7743247953
 30
0.0
 10
4.6256326753
 20
2.7753244119
 30
0.0
 10
4.6188161336
 20
2.7767110778
 30
0.0
 10
4.611524113
 20
2.7780334068
 30
0.0
 10
4.6009255144
 20
2.7797469263
 30
0.0
 10
4.5866500208
 20
2.7816725615
 30
0.0
 10
4.5684105596
 20
2.7836019667
 30
0.0
 10
4.5488894013
 20
2.7851737814
 30
0.0
 10
4.5283452771
 20
2.7863601949
 30
0.0
 10
4.5070697485
 20
2.7871392231
 30
0.0
 10
4.4926710152
 20
2.7873781554
 30
0.0
 10
4.4854042788
 20
2.7874272168
 30
0.0
  0
SPLINE
  5
313
100
AcDbEntity
  8
ALL_ASSEMBLY_MEMBERS
100
AcDbSpline
 62
7
  6
CONTINUOUS
 70
0
 71
3
 72
25
 73
21
 74
0
 42
0.0000001
 43
0.0000001
 44
0.0000000001
 40
0.0
 40
0.0
 40
0.0
 40
0.0
 40
0.0531516634
 40
0.1067660725
 40
0.13384921
 40
0.1611579029
 40
0.2165902804
 40
0.2448111814
 40
0.2734031537
 40
0.33176564
 40
0.3918245278
 40
0.4536440206
 40
0.5172179962
 40
0.5824870962
 40
0.6493241666
 40
0.7175553371
 40
0.7869881939
 40
0.8574120015
 40
0.9285469907
 40
1.0
 40
1.0
 40
1.0
 40
1.0
 10
4.3054037267
 20
3.7402949513
 30
0.0
 10
4.3054037267
 20
3.7447302232
 30
0.0
 10
4.3059844223
 20
3.7536490622
 30
0.0
 10
4.3081308092
 20
3.7646412992
 30
0.0
 10
4.3106808651
 20
3.7732910926
 30
0.0
 10
4.3138127882
 20
3.781908748
 30
0.0
 10
4.3177668531
 20
3.7903098158
 30
0.0
 10
4.3224736108
 20
3.7984120571
 30
0.0
 10
4.3277661136
 20
3.8064400043
 30
0.0
 10
4.3353592997
 20
3.8161076881
 30
0.0
 10
4.3458409537
 20
3.8269286795
 30
0.0
 10
4.3576649354
 20
3.8369489177
 30
0.0
 10
4.3707159987
 20
3.8460855345
 30
0.0
 10
4.3848802241
 20
3.8542494701
 30
0.0
 10
4.4000231358
 20
3.8613750153
 30
0.0
 10
4.4160094689
 20
3.8673946416
 30
0.0
 10
4.4326963349
 20
3.8722554189
 30
0.0
 10
4.4499348961
 20
3.8759134538
 30
0.0
 10
4.4675591527
 20
3.8783319809
 30
0.0
 10
4.4794439159
 20
3.8791095407
 30
0.0
 10
4.4854037267
 20
3.8792865415
 30
0.0
  0
SPLINE
  5
314
100
AcDbEntity
  8
ALL_ASSEMBLY_MEMBERS
100
AcDbSpline
 62
7
  6
CONTINUOUS
 70
0
 71
3
 72
19
 73
15
 74
0
 42
0.0000001
 43
0.0000001
 44
0.0000000001
 40
0.0
 40
0.0
 40
0.0
 40
0.0
 40
0.0582991507
 40
0.1166830645
 40
0.1752511904
 40
0.2341023918
 40
0.3530656076
 40
0.4746456746
 40
0.5367080813
 40
0.5997029722
 40
0.6636965988
 40
0.7287419037
 40
0.8620974719
 40
1.0
 40
1.0
 40
1.0
 40
1.0
 10
4.3054037267
 20
4.0196432284
 30
0.0
 10
4.3054037267
 20
4.0221115521
 30
0.0
 10
4.3055860562
 20
4.0270537185
 30
0.0
 10
4.3064034693
 20
4.0344347751
 30
0.0
 10
4.3077617282
 20
4.0417601758
 30
0.0
 10
4.3102988726
 20
4.0514491496
 30
0.0
 10
4.3148350616
 20
4.0633347618
 30
0.0
 10
4.3210370786
 20
4.0745924447
 30
0.0
 10
4.3269503855
 20
4.0832062936
 30
0.0
 10
4.3318968443
 20
4.0895062368
 30
0.0
 10
4.3373081705
 20
4.0955812378
 30
0.0
 10
4.3451854602
 20
4.1034232413
 30
0.0
 10
4.3561417833
 20
4.1125668803
 30
0.0
 10
4.3657203329
 20
4.1189457012
 30
0.0
 10
4.3707333782
 20
4.1219388866
 30
0.0
  0
SPLINE
  5
315
100
AcDbEntity
  8
ALL_ASSEMBLY_MEMBERS
100
AcDbSpline
 62
7
  6
CONTINUOUS
 70
0
 71
3
 72
28
 73
24
 74
0
 42
0.0000001
 43
0.0000001
 44
0.0000000001
 40
0.0
 40
0.0
 40
0.0
 40
0.0
 40
0.0181665062
 40
0.0365370799
 40
0.0552797261
 40
0.0745499211
 40
0.0944884882
 40
0.1152201314
 40
0.1368500132
 40
0.1594639492
 40
0.2078795432
 40
0.2337894733
 40
0.2608525506
 40
0.3184410251
 40
0.3806035119
 40
0.4471271663
 40
0.5177118561
 40
0.591946986
 40
0.6693610899
 40
0.7494505805
 40
0.8316856968
 40
0.9154525537
 40
1.0
 40
1.0
 40
1.0
 40
1.0
 10
4.3054037267
 20
3.5596221249
 30
0.0
 10
4.3054037267
 20
3.5609014373
 30
0.0
 10
4.3055493016
 20
3.5634766904
 30
0.0
 10
4.3061995341
 20
3.5673223556
 30
0.0
 10
4.3072791131
 20
3.5711510608
 30
0.0
 10
4.3087847242
 20
3.5749514181
 30
0.0
 10
4.3107135648
 20
3.5787129478
 30
0.0
 10
4.3130604223
 20
3.5824261061
 30
0.0
 10
4.3158175564
 20
3.5860838639
 30
0.0
 10
4.3201294683
 20
3.5909880357
 30
0.0
 10
4.3251667915
 20
3.5956276492
 30
0.0
 10
4.3308063317
 20
3.600009543
 30
0.0
 10
4.3371990282
 20
3.6044600927
 30
0.0
 10
4.3461072367
 20
3.6097372287
 30
0.0
 10
4.3579123578
 20
3.6154840362
 30
0.0
 10
4.3709402921
 20
3.6207269358
 30
0.0
 10
4.3850755053
 20
3.6254128347
 30
0.0
 10
4.4001887338
 20
3.6295048276
 30
0.0
 10
4.4161442495
 20
3.6329627775
 30
0.0
 10
4.4328003171
 20
3.635755877
 30
0.0
 10
4.4500080434
 20
3.6378582944
 30
0.0
 10
4.4676021717
 20
3.6392485431
 30
0.0
 10
4.4794506433
 20
3.6396949744
 30
0.0
 10
4.4854037267
 20
3.6397969589
 30
0.0
  0
SPLINE
  5
316
100
AcDbEntity
  8
ALL_ASSEMBLY_MEMBERS
100
AcDbSpline
 62
7
  6
CONTINUOUS
 70
0
 71
3
 72
17
 73
13
 74
0
 42
0.0000001
 43
0.0000001
 44
0.0000000001
 40
0.0
 40
0.0
 40
0.0
 40
0.0
 40
0.1477020994
 40
0.2926696131
 40
0.4326892254
 40
0.5659304428
 40
0.6906942817
 40
0.8054349311
 40
0.8586456974
 40
0.908885084
 40
0.9560376953
 40
1.0
 40
1.0
 40
1.0
 40
1.0
 10
4.485404292
 20
2.7874271971
 30
0.0
 10
4.4781361462
 20
2.7873781268
 30
0.0
 10
4.4637349559
 20
2.7871392861
 30
0.0
 10
4.4424554799
 20
2.7863599645
 30
0.0
 10
4.4219073797
 20
2.7851731402
 30
0.0
 10
4.4023822265
 20
2.7836006741
 30
0.0
 10
4.3841394766
 20
2.7816704653
 30
0.0
 10
4.3698618676
 20
2.7797440472
 30
0.0
 10
4.3592620516
 20
2.7780297988
 30
0.0
 10
4.3519694989
 20
2.7767068784
 30
0.0
 10
4.3451527376
 20
2.7753196508
 30
0.0
 10
4.3407813578
 20
2.7743196257
 30
0.0
 10
4.33867968
 20
2.7738067467
 30
0.0
  0
SPLINE
  5
317
100
AcDbEntity
  8
ALL_ASSEMBLY_MEMBERS
100
AcDbSpline
 62
7
  6
CONTINUOUS
 70
0
 71
3
 72
21
 73
17
 74
0
 42
0.0000001
 43
0.0000001
 44
0.0000000001
 40
0.0
 40
0.0
 40
0.0
 40
0.0
 40
0.1257271803
 40
0.1887563646
 40
0.2516907466
 40
0.3145149169
 40
0.3772427186
 40
0.4398896702
 40
0.5024603313
 40
0.5649370353
 40
0.6273048773
 40
0.6895786714
 40
0.7517918252
 40
0.8139807969
 40
0.8761586649
 40
1.0
 40
1.0
 40
1.0
 40
1.0
 10
4.3334037267
 20
2.4068793954
 30
0.0
 10
4.3292910011
 20
2.4068793953
 30
0.0
 10
4.3230955757
 20
2.4074858831
 30
0.0
 10
4.3150921484
 20
2.4094533075
 30
0.0
 10
4.3092571377
 20
2.4115081393
 30
0.0
 10
4.3036597383
 20
2.4141160385
 30
0.0
 10
4.2983489149
 20
2.4172490562
 30
0.0
 10
4.2933770117
 20
2.4208821558
 30
0.0
 10
4.2887903101
 20
2.4249783116
 30
0.0
 10
4.2846297845
 20
2.4294943594
 30
0.0
 10
4.2809392446
 20
2.4343901056
 30
0.0
 10
4.277756404
 20
2.4396200754
 30
0.0
 10
4.2751068755
 20
2.4451325662
 30
0.0
 10
4.2730191022
 20
2.4508795257
 30
0.0
 10
4.2710210062
 20
2.4587582125
 30
0.0
 10
4.2704037267
 20
2.4648649359
 30
0.0
 10
4.2704037267
 20
2.4689159726
 30
0.0
  0
SPLINE
  5
318
100
AcDbEntity
  8
ALL_ASSEMBLY_MEMBERS
100
AcDbSpline
 62
7
  6
CONTINUOUS
 70
0
 71
3
 72
31
 73
27
 74
0
 42
0.0000001
 43
0.0000001
 44
0.0000000001
 40
0.0
 40
0.0
 40
0.0
 40
0.0
 40
0.0041151035
 40
0.0083109953
 40
0.0172136931
 40
0.0272117008
 40
0.0386443049
 40
0.0517319008
 40
0.0666044597
 40
0.0833360371
 40
0.1019670393
 40
0.1225132722
 40
0.1449636963
 40
0.1692941525
 40
0.1954735775
 40
0.2234630836
 40
0.2532082876
 40
0.3177201815
 40
0.3884890925
 40
0.4648924285
 40
0.5462561135
 40
0.6318228581
 40
0.7208090181
 40
0.812420418
 40
0.9058183362
 40
1.0
 40
1.0
 40
1.0
 40
1.0
 10
4.3334037267
 20
2.4068793954
 30
0.0
 10
4.3334037267
 20
2.4066774914
 30
0.0
 10
4.3334329284
 20
2.4062691394
 30
0.0
 10
4.3336099594
 20
2.4054409565
 30
0.0
 10
4.3340690619
 20
2.4043914194
 30
0.0
 10
4.3349487003
 20
2.4031806948
 30
0.0
 10
4.3361591735
 20
2.4019878445
 30
0.0
 10
4.3376979988
 20
2.4008121668
 30
0.0
 10
4.3395620362
 20
2.3996524824
 30
0.0
 10
4.3417481581
 20
2.3985102079
 30
0.0
 10
4.3442524724
 20
2.397387534
 30
0.0
 10
4.3470699564
 20
2.3962872546
 30
0.0
 10
4.3501940626
 20
2.3952115757
 30
0.0
 10
4.3536174569
 20
2.3941631572
 30
0.0
 10
4.3573323851
 20
2.3931447563
 30
0.0
 10
4.3613302757
 20
2.3921591869
 30
0.0
 10
4.3671853979
 20
2.3908562329
 30
0.0
 10
4.3751414835
 20
2.3893420256
 30
0.0
 10
4.3854039661
 20
2.3877350659
 30
0.0
 10
4.3965269478
 20
2.3863076974
 30
0.0
 10
4.4084032032
 20
2.3850757212
 30
0.0
 10
4.4209184527
 20
2.3840499403
 30
0.0
 10
4.4339533344
 20
2.3832417437
 30
0.0
 10
4.4473847591
 20
2.3826582993
 30
0.0
 10
4.4610791653
 20
2.3823066777
 30
0.0
 10
4.4702827855
 20
2.3822279223
 30
0.0
 10
4.4749037267
 20
2.3822279223
 30
0.0
  0
SPLINE
  5
319
100
AcDbEntity
  8
ALL_ASSEMBLY_MEMBERS
100
AcDbSpline
 62
7
  6
CONTINUOUS
 70
0
 71
3
 72
31
 73
27
 74
0
 42
0.0000001
 43
0.0000001
 44
0.0000000001
 40
0.0
 40
0.0
 40
0.0
 40
0.0
 40
0.0941815905
 40
0.1875792762
 40
0.279190433
 40
0.3681765316
 40
0.4537434078
 40
0.5351072468
 40
0.6115106557
 40
0.6822795671
 40
0.746791458
 40
0.7765367136
 40
0.8045263214
 40
0.8307059197
 40
0.8550365817
 40
0.8774871652
 40
0.898033436
 40
0.9166643321
 40
0.9333957329
 40
0.9482681137
 40
0.9613555931
 40
0.9727881879
 40
0.9827862486
 40
0.9916889932
 40
0.9958848948
 40
1.0
 40
1.0
 40
1.0
 40
1.0
 10
4.4749037267
 20
2.496164766
 30
0.0
 10
4.4702827891
 20
2.496164766
 30
0.0
 10
4.4610791839
 20
2.4960860152
 30
0.0
 10
4.4473848046
 20
2.4957343964
 30
0.0
 10
4.4339534068
 20
2.4951509385
 30
0.0
 10
4.4209185346
 20
2.4943427301
 30
0.0
 10
4.4084032735
 20
2.4933169577
 30
0.0
 10
4.3965269989
 20
2.4920849951
 30
0.0
 10
4.3854040056
 20
2.4906576302
 30
0.0
 10
4.3751415196
 20
2.4890506693
 30
0.0
 10
4.3671854321
 20
2.4875364599
 30
0.0
 10
4.3613303019
 20
2.4862335077
 30
0.0
 10
4.3573323948
 20
2.4852479385
 30
0.0
 10
4.3536174416
 20
2.48422954
 30
0.0
 10
4.3501940184
 20
2.4831811256
 30
0.0
 10
4.3470698898
 20
2.4821054512
 30
0.0
 10
4.3442523996
 20
2.4810051748
 30
0.0
 10
4.341748099
 20
2.4798824992
 30
0.0
 10
4.3395620042
 20
2.4787402213
 30
0.0
 10
4.3376979969
 20
2.4775805319
 30
0.0
 10
4.3361591963
 20
2.4764048469
 30
0.0
 10
4.3349487318
 20
2.4752119939
 30
0.0
 10
4.3340690854
 20
2.4740012708
 30
0.0
 10
4.3336099689
 20
2.4729517339
 30
0.0
 10
4.3334329301
 20
2.4721235496
 30
0.0
 10
4.3334037267
 20
2.471715197
 30
0.0
 10
4.3334037267
 20
2.471513293
 30
0.0
  0
SPLINE
  5
31A
100
AcDbEntity
  8
ALL_ASSEMBLY_MEMBERS
100
AcDbSpline
 62
7
  6
CONTINUOUS
 70
0
 71
3
 72
31
 73
27
 74
0
 42
0.0000001
 43
0.0000001
 44
0.0000000001
 40
0.0
 40
0.0
 40
0.0
 40
0.0
 40
0.0041151035
 40
0.0083109953
 40
0.0172136931
 40
0.0272117008
 40
0.0386443049
 40
0.0517319008
 40
0.0666044597
 40
0.0833360371
 40
0.1019670393
 40
0.1225132722
 40
0.1449636963
 40
0.1692941525
 40
0.1954735775
 40
0.2234630836
 40
0.2532082876
 40
0.3177201815
 40
0.3884890925
 40
0.4648924285
 40
0.5462561135
 40
0.6318228581
 40
0.7208090181
 40
0.812420418
 40
0.9058183362
 40
1.0
 40
1.0
 40
1.0
 40
1.0
 10
4.6374037267
 20
2.471513293
 30
0.0
 10
4.6374037267
 20
2.4717151969
 30
0.0
 10
4.637374525
 20
2.4721235489
 30
0.0
 10
4.6371974941
 20
2.4729517318
 30
0.0
 10
4.6367383915
 20
2.474001269
 30
0.0
 10
4.6358587532
 20
2.4752119935
 30
0.0
 10
4.6346482799
 20
2.4764048438
 30
0.0
 10
4.6331094547
 20
2.4775805215
 30
0.0
 10
4.6312454172
 20
2.4787402059
 30
0.0
 10
4.6290592953
 20
2.4798824804
 30
0.0
 10
4.626554981
 20
2.4810051543
 30
0.0
 10
4.623737497
 20
2.4821054337
 30
0.0
 10
4.6206133908
 20
2.4831811127
 30
0.0
 10
4.6171899965
 20
2.4842295312
 30
0.0
 10
4.6134750683
 20
2.485247932
 30
0.0
 10
4.6094771778
 20
2.4862335015
 30
0.0
 10
4.6036220555
 20
2.4875364555
 30
0.0
 10
4.5956659699
 20
2.4890506627
 30
0.0
 10
4.5854034873
 20
2.4906576224
 30
0.0
 10
4.5742805057
 20
2.4920849909
 30
0.0
 10
4.5624042502
 20
2.4933169671
 30
0.0
 10
4.5498890007
 20
2.494342748
 30
0.0
 10
4.536854119
 20
2.4951509446
 30
0.0
 10
4.5234226944
 20
2.4957343891
 30
0.0
 10
4.5097282881
 20
2.4960860106
 30
0.0
 10
4.5005246679
 20
2.496164766
 30
0.0
 10
4.4959037267
 20
2.496164766
 30
0.0
  0
SPLINE
  5
31B
100
AcDbEntity
  8
ALL_ASSEMBLY_MEMBERS
100
AcDbSpline
 62
7
  6
CONTINUOUS
 70
0
 71
3
 72
31
 73
27
 74
0
 42
0.0000001
 43
0.0000001
 44
0.0000000001
 40
0.0
 40
0.0
 40
0.0
 40
0.0
 40
0.0941815905
 40
0.1875792762
 40
0.279190433
 40
0.3681765316
 40
0.4537434078
 40
0.5351072468
 40
0.6115106557
 40
0.6822795671
 40
0.746791458
 40
0.7765367136
 40
0.8045263214
 40
0.8307059197
 40
0.8550365817
 40
0.8774871652
 40
0.898033436
 40
0.9166643321
 40
0.9333957329
 40
0.9482681137
 40
0.9613555931
 40
0.9727881879
 40
0.9827862486
 40
0.9916889932
 40
0.9958848948
 40
1.0
 40
1.0
 40
1.0
 40
1.0
 10
4.4959037267
 20
2.3822279223
 30
0.0
 10
4.5005246643
 20
2.3822279223
 30
0.0
 10
4.5097282695
 20
2.3823066731
 30
0.0
 10
4.5234226489
 20
2.382658292
 30
0.0
 10
4.5368540466
 20
2.3832417498
 30
0.0
 10
4.5498889189
 20
2.3840499583
 30
0.0
 10
4.56240418
 20
2.3850757307
 30
0.0
 10
4.5742804545
 20
2.3863076932
 30
0.0
 10
4.5854034478
 20
2.3877350582
 30
0.0
 10
4.5956659338
 20
2.389342019
 30
0.0
 10
4.6036220214
 20
2.3908562285
 30
0.0
 10
4.6094771515
 20
2.3921591807
 30
0.0
 10
4.6134750586
 20
2.3931447498
 30
0.0
 10
4.6171900118
 20
2.3941631484
 30
0.0
 10
4.620613435
 20
2.3952115627
 30
0.0
 10
4.6237375637
 20
2.3962872372
 30
0.0
 10
4.6265550538
 20
2.3973875135
 30
0.0
 10
4.6290593544
 20
2.3985101891
 30
0.0
 10
4.6312454492
 20
2.399652467
 30
0.0
 10
4.6331094565
 20
2.4008121564
 30
0.0
 10
4.6346482571
 20
2.4019878415
 30
0.0
 10
4.6358587217
 20
2.4031806945
 30
0.0
 10
4.6367383681
 20
2.4043914176
 30
0.0
 10
4.6371974845
 20
2.4054409544
 30
0.0
 10
4.6373745234
 20
2.4062691387
 30
0.0
 10
4.6374037267
 20
2.4066774913
 30
0.0
 10
4.6374037267
 20
2.4068793954
 30
0.0
  0
ENDSEC
  0
SECTION
  2
OBJECTS
  0
DICTIONARY
  5
C
100
AcDbDictionary
280
0
281
1
  3
ACAD_GROUP
350
D
  3
ACAD_MLINESTYLE
350
17
  3
ACAD_LAYOUT
350
1A
  3
ACAD_PLOTSETTINGS
350
19
  3
ACAD_PLOTSTYLENAME
350
E
  0
DICTIONARY
  5
D
102
{ACAD_REACTORS
330
C
102
}
100
AcDbDictionary
280
0
281
1
  0
ACDBDICTIONARYWDFLT
  5
E
102
{ACAD_REACTORS
330
C
102
}
100
AcDbDictionary
281
1
  3
Normal
350
F
100
AcDbDictionaryWithDefault
340
F
  0
DICTIONARY
  5
17
102
{ACAD_REACTORS
330
C
102
}
100
AcDbDictionary
280
0
281
1
  3
Standard
350
18
  0
DICTIONARY
  5
19
102
{ACAD_REACTORS
330
C
102
}
100
AcDbDictionary
281
1
  0
DICTIONARY
  5
1A
102
{ACAD_REACTORS
330
C
102
}
100
AcDbDictionary
281
1
  3
Model
350
31C
  3
Layout1
350
31D
  0
ACDBPLACEHOLDER
  5
F
102
{ACAD_REACTORS
330
E
102
}
  0
MLINESTYLE
  5
18
102
{ACAD_REACTORS
330
17
102
}
100
AcDbMlineStyle
  2
STANDARD
 70
0
  3

 62
256
 51
90.0
 52
90.0
 71
2
 49
0.5
 62
256
  6
BYLAYER
 49
-0.5
 62
256
  6
BYLAYER
  0
LAYOUT
  5
31C
102
{ACAD_REACTORS
330
1A
102
}
100
AcDbPlotSettings
  1

  2
none_device
  4
ANSI_A_(11.00_x_8.50_Inches)
  6

 40
0.0
 41
0.0
 42
0.0
 43
0.0
 44
279.4
 45
215.9
 46
0.0
 47
0.0
 48
0.0
 49
0.0
140
0.0
141
0.0
142
1.0
143
1.0
 70
1024
 72
0
 73
0
 74
0
  7

 75
0
147
1.0
148
0.0
149
0.0
100
AcDbLayout
  1
Model
 70
0
 71
0
 10
0.0
 20
0.0
 11
11.0
 21
8.5
 12
0.0
 22
0.0
 32
0.0
 14
0.0
 24
0.0
 34
0.0
 15
0.0
 25
0.0
 35
0.0
146
0.0
 13
0.0
 23
0.0
 33
0.0
 16
1.0
 26
0.0
 36
0.0
 17
0.0
 27
1.0
 37
0.0
 76
0
330
218
345
0
346
0
  0
LAYOUT
  5
31D
102
{ACAD_REACTORS
330
1A
102
}
100
AcDbPlotSettings
  1

  2
none_device
  4
ANSI_A_(11.00_x_8.50_Inches)
  6

 40
0.0
 41
0.0
 42
0.0
 43
0.0
 44
279.4
 45
215.9
 46
0.0
 47
0.0
 48
0.0
 49
0.0
140
0.0
141
0.0
142
1.0
143
1.0
 70
0
 72
0
 73
0
 74
0
  7

 75
0
147
1.0
148
0.0
149
0.0
100
AcDbLayout
  1
Layout1
 70
0
 71
1
 10
0.0
 20
0.0
 11
11.0
 21
8.5
 12
0.0
 22
0.0
 32
0.0
 14
0.0
 24
0.0
 34
0.0
 15
0.0
 25
0.0
 35
0.0
146
0.0
 13
0.0
 23
0.0
 33
0.0
 16
1.0
 26
0.0
 36
0.0
 17
0.0
 27
1.0
 37
0.0
 76
0
330
219
345
0
346
0
  0
ENDSEC
  0
EOF
