999
DXF file: 2141_front.dxf
999
Pro/ENGINEER 2018400 by Parametric Technology Corporation
  0
SECTION
  2
HEADER
  9
$ACADVER
  1
AC1027
  9
$DWGCODEPAGE
  3
ANSI_1252
  9
$EXTMAX
 10
11.0
 20
8.5
 30
0.0
  9
$EXTMIN
 10
0.0
 20
0.0
 30
0.0
  9
$LIMMIN
 10
0.0
 20
0.0
  9
$LIMMAX
 10
11.0
 20
8.5
  9
$VIEWCTR
 10
5.5
 20
4.25
  9
$VIEWSIZE
 40
8.5
  9
$CLAYER
  8
0
  9
$LTSCALE
 40
0.605
  9
$CELTYPE
  6
BYLAYER
  9
$DIMSCALE
 40
1.0
  9
$DIMASZ
 40
0.1
  9
$DIMEXO
 40
0.0625
  9
$DIMDLI
 40
0.418
  9
$DIMEXE
 40
0.125
  9
$DIMCEN
 40
0.099
  9
$DIMLFAC
 40
1.0
  9
$DIMBLK
  1
_FILLED
  9
$DIMALT
 70
1
  9
$DIMALTD
 70
1
  9
$DIMALTTD
 70
2
  9
$DIMALTF
 40
25.4
  9
$DIMTXT
 40
0.08
  9
$DIMTOL
 70
1
  9
$DIMLIM
 70
0
  9
$DIMTFAC
 40
1.0
  9
$DIMTP
 40
0.01
  9
$DIMTM
 40
0.01
  9
$DIMGAP
 40
0.09
  9
$DIMDSEP
 70
46
  9
$AUNITS
 70
0
  9
$PDMODE
 70
3
  9
$PDSIZE
 40
0.3125
  9
$HANDSEED
  5
487
  9
$TILEMODE
 70
1
  9
$MEASUREMENT
 70
0
  9
$INSUNITS
 70
1
  0
ENDSEC
  0
SECTION
  2
CLASSES
  0
CLASS
  1
ACDBDICTIONARYWDFLT
  2
AcDbDictionaryWithDefault
  3
AutoCAD 2000
 90
0
 91
1
280
0
281
0
  0
CLASS
  1
ACDBPLACEHOLDER
  2
AcDbPlaceHolder
  3
AutoCAD 2000
 90
0
 91
1
280
0
281
0
  0
CLASS
  1
LAYOUT
  2
AcDbLayout
  3
AutoCAD 2000
 90
0
 91
0
280
0
281
0
  0
ENDSEC
  0
SECTION
  2
TABLES
  0
TABLE
  2
VPORT
  5
8
100
AcDbSymbolTable
 70
2
  0
VPORT
  5
1F4
100
AcDbSymbolTableRecord
100
AcDbViewportTableRecord
  2
*ACTIVE
 70
0
 10
0.0
 20
0.0
 11
1.0
 21
1.0
 12
5.5
 22
4.25
 13
0.0
 23
0.0
 14
1.0
 24
1.0
 15
0.0
 25
0.0
 16
0.0
 26
0.0
 36
1.0
 17
0.0
 27
0.0
 37
0.0
 40
8.5
 41
1.2941176471
 42
50.0
 43
0.0
 44
0.0
 50
0.0
 51
0.0
 71
0
 72
100
 73
1
 74
1
 75
0
 76
0
 77
0
 78
0
  0
ENDTAB
  0
TABLE
  2
LTYPE
  5
5
100
AcDbSymbolTable
 70
6
  0
LTYPE
  5
14
100
AcDbSymbolTableRecord
100
AcDbLinetypeTableRecord
  2
BYBLOCK
 70
0
  3

 72
65
 73
0
 40
0.0
  0
LTYPE
  5
15
100
AcDbSymbolTableRecord
100
AcDbLinetypeTableRecord
  2
BYLAYER
 70
0
  3

 72
65
 73
0
 40
0.0
  0
LTYPE
  5
16
100
AcDbSymbolTableRecord
100
AcDbLinetypeTableRecord
  2
CONTINUOUS
 70
64
  3
Solid line
 72
65
 73
0
 40
0.0
  0
LTYPE
  5
1F5
100
AcDbSymbolTableRecord
100
AcDbLinetypeTableRecord
  2
CENTER
 70
64
  3
____ _ ____ _ ____ _ ____ _ ____ _ ____ _ ____
 72
65
 73
4
 40
0.6
 49
0.375
 74
0
 49
-0.075
 74
0
 49
0.075
 74
0
 49
-0.075
 74
0
  0
LTYPE
  5
1F6
100
AcDbSymbolTableRecord
100
AcDbLinetypeTableRecord
  2
HIDDEN
 70
64
  3
- - - - - - - - - - - - - - - - - - - -
 72
65
 73
2
 40
0.2
 49
0.1
 74
0
 49
-0.1
 74
0
  0
LTYPE
  5
1F7
100
AcDbSymbolTableRecord
100
AcDbLinetypeTableRecord
  2
PHANTOM
 70
64
  3
_____ _ _ _____ _ _ _____ _ _ _____
 72
65
 73
6
 40
0.8
 49
0.45
 74
0
 49
-0.05
 74
0
 49
0.1
 74
0
 49
-0.05
 74
0
 49
0.1
 74
0
 49
-0.05
 74
0
  0
LTYPE
  5
1F8
100
AcDbSymbolTableRecord
100
AcDbLinetypeTableRecord
  2
DOT
 70
64
  3
. . . . . . . . . . . . . . . . . . . .
 72
65
 73
2
 40
0.2
 49
0.1
 74
0
 49
-0.1
 74
0
  0
LTYPE
  5
1F9
100
AcDbSymbolTableRecord
100
AcDbLinetypeTableRecord
  2
DASHED
 70
64
  3
- - - - - - - - - - - - - - - - - - - -
 72
65
 73
2
 40
0.2
 49
0.1
 74
0
 49
-0.1
 74
0
  0
ENDTAB
  0
TABLE
  2
LAYER
  5
2
100
AcDbSymbolTable
 70
36
  0
LAYER
  5
10
100
AcDbSymbolTableRecord
100
AcDbLayerTableRecord
  2
0
 70
0
 62
7
  6
CONTINUOUS
370
-3
390
F
  0
LAYER
  5
1FA
100
AcDbSymbolTableRecord
100
AcDbLayerTableRecord
  2
DEFAULT_1
 70
0
 62
7
  6
CENTER
370
-3
390
F
  0
LAYER
  5
1FB
100
AcDbSymbolTableRecord
100
AcDbLayerTableRecord
  2
DEFAULT_2
 70
0
 62
8
  6
HIDDEN
370
-3
390
F
  0
LAYER
  5
1FC
100
AcDbSymbolTableRecord
100
AcDbLayerTableRecord
  2
DEFAULT_3
 70
0
 62
7
  6
PHANTOM
370
-3
390
F
  0
LAYER
  5
1FD
100
AcDbSymbolTableRecord
100
AcDbLayerTableRecord
  2
DEFAULT_COORDINATE_SYSTEM
 70
0
 62
7
  6
CONTINUOUS
370
-3
390
F
  0
LAYER
  5
1FE
100
AcDbSymbolTableRecord
100
AcDbLayerTableRecord
  2
DEFAULT_DATUM_AXES
 70
0
 62
7
  6
CONTINUOUS
370
-3
390
F
  0
LAYER
  5
1FF
100
AcDbSymbolTableRecord
100
AcDbLayerTableRecord
  2
DEFAULT_DATUM_PLANES
 70
0
 62
7
  6
CONTINUOUS
370
-3
390
F
  0
ENDTAB
  0
TABLE
  2
STYLE
  5
3
100
AcDbSymbolTable
 70
1
  0
STYLE
  5
11
100
AcDbSymbolTableRecord
100
AcDbTextStyleTableRecord
  2
STANDARD
 70
0
 40
0.0
 41
0.8
 50
0.0
 71
0
 42
0.2
  3
txt
  4

  0
STYLE
  5
200
100
AcDbSymbolTableRecord
100
AcDbTextStyleTableRecord
  2
TEXTSTYLE_1
 70
0
 40
0.0
 41
0.8
 50
0.0
 71
0
 42
0.2
  3
gdt
  4

  0
ENDTAB
  0
TABLE
  2
VIEW
  5
6
100
AcDbSymbolTable
 70
0
  0
ENDTAB
  0
TABLE
  2
UCS
  5
7
100
AcDbSymbolTable
 70
0
  0
ENDTAB
  0
TABLE
  2
APPID
  5
9
100
AcDbSymbolTable
 70
1
  0
APPID
  5
201
100
AcDbSymbolTableRecord
100
AcDbRegAppTableRecord
  2
ACAD
 70
0
  0
ENDTAB
  0
TABLE
  2
BLOCK_RECORD
  5
1
100
AcDbSymbolTable
 70
0
  0
BLOCK_RECORD
  5
202
100
AcDbSymbolTableRecord
100
AcDbBlockTableRecord
  2
*Model_Space
  0
BLOCK_RECORD
  5
203
100
AcDbSymbolTableRecord
100
AcDbBlockTableRecord
  2
*Paper_Space
  0
BLOCK_RECORD
  5
204
100
AcDbSymbolTableRecord
100
AcDbBlockTableRecord
  2
_FILLED
  0
ENDTAB
  0
TABLE
  2
DIMSTYLE
  5
A
100
AcDbSymbolTable
 70
1
100
AcDbDimStyleTable
 71
0
  0
DIMSTYLE
105
205
100
AcDbSymbolTableRecord
100
AcDbDimStyleTableRecord
  2
STANDARD
 70
0
  3

  4

 40
1.0
 41
0.1
 42
0.0625
 43
0.38
 44
0.125
 45
0.0
 46
0.0
 47
0.01
 48
0.01
140
0.08
141
0.09
142
0.0
143
25.4
144
1.0
145
0.0
146
1.0
147
0.09
 71
1.0
 72
0.0
 73
1
 74
1
 75
0
 76
0
 77
0
 78
4
 79
1
170
1
171
1
172
0
173
0
174
0
175
0
176
0
177
0
178
0
270
2
179
2
271
2
272
2
273
2
274
2
275
0
280
0
281
0
282
0
283
1
284
4
285
0
286
0
287
3
288
0
340
11
278
46
341
204
342
204
343
204
344
204
  0
ENDTAB
  0
ENDSEC
  0
SECTION
  2
BLOCKS
  0
BLOCK
  5
20
100
AcDbEntity
  8
0
100
AcDbBlockBegin
  2
*Model_Space
 70
0
 10
0.0
 20
0.0
 30
0.0
  3
*Model_Space
  1

  0
ENDBLK
  5
21
100
AcDbEntity
  8
0
100
AcDbBlockEnd
  0
BLOCK
  5
1C
100
AcDbEntity
  8
0
100
AcDbBlockBegin
  2
*Paper_Space
 70
0
 10
0.0
 20
0.0
 30
0.0
  3
*Paper_Space
  1

  0
ENDBLK
  5
1D
100
AcDbEntity
  8
0
100
AcDbBlockEnd
  0
BLOCK
  5
206
100
AcDbEntity
  8
0
100
AcDbBlockBegin
  2
_FILLED
 70
64
 10
0.0
 20
0.0
  3
_FILLED
  1

  0
SOLID
  5
207
100
AcDbEntity
  8
0
  6
BYBLOCK
 62
0
100
AcDbTrace
 10
0.0
 20
0.0
 11
-1.0
 21
0.2
 12
-1.0
 22
-0.2
 13
-1.0
 23
-0.2
  0
ENDBLK
  5
208
100
AcDbEntity
  8
0
  6
BYBLOCK
 62
0
100
AcDbBlockEnd
  0
ENDSEC
  0
SECTION
  2
ENTITIES
  0
MTEXT
  5
209
100
AcDbEntity
  8
0
100
AcDbMText
 62
2
  6
CONTINUOUS
  7
STANDARD
 71
3
 72
1
 10
5.5
 20
1.7656152486
 30
0.0
 11
1.0
 21
0.0
 31
0.0
 73
2
 44
0.9
  1
SCALE  .750
 40
0.08
 41
0.704
  0
LINE
  5
20A
100
AcDbEntity
  8
0
100
AcDbLine
 62
7
  6
CONTINUOUS
 10
0.0
 20
0.0
 11
0.0
 21
8.5
  0
LINE
  5
20B
100
AcDbEntity
  8
0
100
AcDbLine
 62
7
  6
CONTINUOUS
 10
0.0
 20
0.0
 11
11.0
 21
0.0
  0
LINE
  5
20C
100
AcDbEntity
  8
0
100
AcDbLine
 62
7
  6
CONTINUOUS
 10
0.0
 20
8.5
 11
11.0
 21
8.5
  0
LINE
  5
20D
100
AcDbEntity
  8
0
100
AcDbLine
 62
7
  6
CONTINUOUS
 10
11.0
 20
0.0
 11
11.0
 21
8.5
  0
LINE
  5
20E
100
AcDbEntity
  8
0
100
AcDbLine
 62
7
  6
CONTINUOUS
 10
2.9493944099
 20
2.7816944412
 11
2.9493944099
 21
3.4761944412
  0
LINE
  5
20F
100
AcDbEntity
  8
0
100
AcDbLine
 62
7
  6
CONTINUOUS
 10
3.4286019904
 20
2.6403630105
 11
3.4304402371
 21
2.6158530543
  0
LINE
  5
210
100
AcDbEntity
  8
0
100
AcDbLine
 62
7
  6
CONTINUOUS
 10
3.1800194099
 20
2.6485430353
 11
2.9493944099
 21
2.7816944412
  0
LINE
  5
211
100
AcDbEntity
  8
0
100
AcDbLine
 62
7
  6
CONTINUOUS
 10
3.5025914915
 20
2.6405004338
 11
3.504440045
 21
2.6158530543
  0
LINE
  5
212
100
AcDbEntity
  8
0
100
AcDbLine
 62
7
  6
CONTINUOUS
 10
3.5933456909
 20
2.6319592724
 11
3.5933424786
 21
2.6319753703
  0
LINE
  5
213
100
AcDbEntity
  8
0
100
AcDbLine
 62
7
  6
CONTINUOUS
 10
3.6473610401
 20
2.6404460398
 11
3.649205514
 21
2.6158530543
  0
LINE
  5
214
100
AcDbEntity
  8
0
100
AcDbLine
 62
7
  6
CONTINUOUS
 10
3.7419211722
 20
2.6121709447
 11
3.743613764
 21
2.5896030543
  0
LINE
  5
215
100
AcDbEntity
  8
0
100
AcDbLine
 62
7
  6
CONTINUOUS
 10
3.5897719847
 20
2.632795024
 11
3.5885013369
 21
2.6158530543
  0
LINE
  5
216
100
AcDbEntity
  8
0
100
AcDbLine
 62
7
  6
CONTINUOUS
 10
3.7889269931
 20
2.6123914613
 11
3.7906361237
 21
2.5896030543
  0
LINE
  5
217
100
AcDbEntity
  8
0
100
AcDbLine
 62
7
  6
CONTINUOUS
 10
3.8565833376
 20
2.6402045341
 11
3.8584096986
 21
2.6158530543
  0
LINE
  5
218
100
AcDbEntity
  8
0
100
AcDbLine
 62
7
  6
CONTINUOUS
 10
3.9273106027
 20
2.6054444412
 11
3.9284987067
 21
2.5896030543
  0
LINE
  5
219
100
AcDbEntity
  8
0
100
AcDbLine
 62
7
  6
CONTINUOUS
 10
3.7345865593
 20
2.6334497658
 11
3.733266806
 21
2.6158530543
  0
LINE
  5
21A
100
AcDbEntity
  8
0
100
AcDbLine
 62
7
  6
CONTINUOUS
 10
4.0804623289
 20
2.5899995377
 11
4.0821795651
 21
2.5671030543
  0
LINE
  5
21B
100
AcDbEntity
  8
0
100
AcDbLine
 62
7
  6
CONTINUOUS
 10
3.8758855197
 20
2.6054444412
 11
3.8746974156
 21
2.5896030543
  0
LINE
  5
21C
100
AcDbEntity
  8
0
100
AcDbLine
 62
7
  6
CONTINUOUS
 10
6.5420767907
 20
2.608594103
 11
6.5903830489
 21
2.6122477571
  0
LINE
  5
21D
100
AcDbEntity
  8
0
100
AcDbLine
 62
7
  6
CONTINUOUS
 10
5.5536920427
 20
2.5304444412
 11
5.4920677353
 21
2.5304444412
  0
LINE
  5
21E
100
AcDbEntity
  8
0
100
AcDbLine
 62
7
  6
CONTINUOUS
 10
5.1964565637
 20
2.5304444412
 11
5.1348322562
 21
2.5304444412
  0
LINE
  5
21F
100
AcDbEntity
  8
0
100
AcDbLine
 62
7
  6
CONTINUOUS
 10
4.8392210846
 20
2.5304444412
 11
4.7775967771
 21
2.5304444412
  0
LINE
  5
220
100
AcDbEntity
  8
0
100
AcDbLine
 62
7
  6
CONTINUOUS
 10
3.7387694128
 20
2.6124121165
 11
3.7892119011
 21
2.6085941127
  0
LINE
  5
221
100
AcDbEntity
  8
0
100
AcDbLine
 62
7
  6
CONTINUOUS
 10
4.0773355052
 20
2.5900069997
 11
4.0773352111
 21
2.5900086938
  0
LINE
  5
222
100
AcDbEntity
  8
0
100
AcDbLine
 62
7
  6
CONTINUOUS
 10
4.1211142158
 20
2.6397884698
 11
4.1229093719
 21
2.6158530543
  0
LINE
  5
223
100
AcDbEntity
  8
0
100
AcDbLine
 62
7
  6
CONTINUOUS
 10
4.1466183019
 20
2.6054444412
 11
4.1478064059
 21
2.5896030543
  0
LINE
  5
224
100
AcDbEntity
  8
0
100
AcDbLine
 62
7
  6
CONTINUOUS
 10
4.2068850454
 20
2.5791944412
 11
4.2077918995
 21
2.5671030543
  0
LINE
  5
225
100
AcDbEntity
  8
0
100
AcDbLine
 62
7
  6
CONTINUOUS
 10
4.0706444099
 20
3.4761944412
 11
4.0706444099
 21
3.6944444412
  0
LINE
  5
226
100
AcDbEntity
  8
0
100
AcDbLine
 62
7
  6
CONTINUOUS
 10
3.943848241
 20
2.6342163939
 11
3.9424709905
 21
2.6158530543
  0
LINE
  5
227
100
AcDbEntity
  8
0
100
AcDbLine
 62
7
  6
CONTINUOUS
 10
4.0138426319
 20
2.6067048308
 11
4.0125599987
 21
2.5896030543
  0
LINE
  5
228
100
AcDbEntity
  8
0
100
AcDbLine
 62
7
  6
CONTINUOUS
 10
5.3043944099
 20
2.5572204708
 11
5.3341362949
 21
2.5596253291
  0
LINE
  5
229
100
AcDbEntity
  8
0
100
AcDbLine
 62
7
  6
CONTINUOUS
 10
5.8877148443
 20
2.5710016405
 11
5.9482033124
 21
2.573435031
  0
LINE
  5
22A
100
AcDbEntity
  8
0
100
AcDbLine
 62
7
  6
CONTINUOUS
 10
6.9475622628
 20
2.6436598505
 11
7.1512694099
 21
2.6485430353
  0
LINE
  5
22B
100
AcDbEntity
  8
0
100
AcDbLine
 62
7
  6
CONTINUOUS
 10
5.9314565637
 20
2.5379444412
 11
5.8698322562
 21
2.5379444412
  0
LINE
  5
22C
100
AcDbEntity
  8
0
100
AcDbLine
 62
7
  6
CONTINUOUS
 10
5.8329852355
 20
2.5379444412
 11
5.771360928
 21
2.5379444412
  0
LINE
  5
22D
100
AcDbEntity
  8
0
100
AcDbLine
 62
7
  6
CONTINUOUS
 10
5.5639565637
 20
2.5379444412
 11
5.5023322562
 21
2.5379444412
  0
LINE
  5
22E
100
AcDbEntity
  8
0
100
AcDbLine
 62
7
  6
CONTINUOUS
 10
5.1964565637
 20
2.5379444412
 11
5.1348322562
 21
2.5379444412
  0
LINE
  5
22F
100
AcDbEntity
  8
0
100
AcDbLine
 62
7
  6
CONTINUOUS
 10
4.8289565637
 20
2.5379444412
 11
4.7673322562
 21
2.5379444412
  0
LINE
  5
230
100
AcDbEntity
  8
0
100
AcDbLine
 62
7
  6
CONTINUOUS
 10
4.5599278919
 20
2.5379444412
 11
4.4983035844
 21
2.5379444412
  0
LINE
  5
231
100
AcDbEntity
  8
0
100
AcDbLine
 62
7
  6
CONTINUOUS
 10
4.4614565637
 20
2.5379444412
 11
4.3998322562
 21
2.5379444412
  0
LINE
  5
232
100
AcDbEntity
  8
0
100
AcDbLine
 62
7
  6
CONTINUOUS
 10
5.4947854551
 20
2.5408530543
 11
5.480849243
 21
2.5408530543
  0
LINE
  5
233
100
AcDbEntity
  8
0
100
AcDbLine
 62
7
  6
CONTINUOUS
 10
5.2076750559
 20
2.5408530543
 11
5.2040033648
 21
2.5408530543
  0
LINE
  5
234
100
AcDbEntity
  8
0
100
AcDbLine
 62
7
  6
CONTINUOUS
 10
5.1272854551
 20
2.5408530543
 11
5.123613764
 21
2.5408530543
  0
LINE
  5
235
100
AcDbEntity
  8
0
100
AcDbLine
 62
7
  6
CONTINUOUS
 10
4.8504395769
 20
2.5408530543
 11
4.8365033648
 21
2.5408530543
  0
LINE
  5
236
100
AcDbEntity
  8
0
100
AcDbLine
 62
7
  6
CONTINUOUS
 10
5.9426750559
 20
2.5483530543
 11
5.858613764
 21
2.5483530543
  0
LINE
  5
237
100
AcDbEntity
  8
0
100
AcDbLine
 62
7
  6
CONTINUOUS
 10
5.8442037277
 20
2.5483530543
 11
5.7601424357
 21
2.5483530543
  0
LINE
  5
238
100
AcDbEntity
  8
0
100
AcDbLine
 62
7
  6
CONTINUOUS
 10
5.5751750559
 20
2.5483530543
 11
5.491113764
 21
2.5483530543
  0
LINE
  5
239
100
AcDbEntity
  8
0
100
AcDbLine
 62
7
  6
CONTINUOUS
 10
5.2076750559
 20
2.5483530543
 11
5.123613764
 21
2.5483530543
  0
LINE
  5
23A
100
AcDbEntity
  8
0
100
AcDbLine
 62
7
  6
CONTINUOUS
 10
4.8401750559
 20
2.5483530543
 11
4.756113764
 21
2.5483530543
  0
LINE
  5
23B
100
AcDbEntity
  8
0
100
AcDbLine
 62
7
  6
CONTINUOUS
 10
4.5711463841
 20
2.5483530543
 11
4.4870850922
 21
2.5483530543
  0
LINE
  5
23C
100
AcDbEntity
  8
0
100
AcDbLine
 62
7
  6
CONTINUOUS
 10
4.4726750559
 20
2.5483530543
 11
4.388613764
 21
2.5483530543
  0
LINE
  5
23D
100
AcDbEntity
  8
0
100
AcDbLine
 62
7
  6
CONTINUOUS
 10
6.2378907625
 20
2.5566944412
 11
6.176266455
 21
2.5566944412
  0
LINE
  5
23E
100
AcDbEntity
  8
0
100
AcDbLine
 62
7
  6
CONTINUOUS
 10
6.1122784282
 20
2.5566944412
 11
6.0506541207
 21
2.5566944412
  0
LINE
  5
23F
100
AcDbEntity
  8
0
100
AcDbLine
 62
7
  6
CONTINUOUS
 10
5.8762044609
 20
2.5566944412
 11
5.8145801534
 21
2.5566944412
  0
LINE
  5
240
100
AcDbEntity
  8
0
100
AcDbLine
 62
7
  6
CONTINUOUS
 10
5.5581428652
 20
2.5566944412
 11
5.4965185578
 21
2.5566944412
  0
LINE
  5
241
100
AcDbEntity
  8
0
100
AcDbLine
 62
7
  6
CONTINUOUS
 10
5.1964565637
 20
2.5566944412
 11
5.1348322562
 21
2.5566944412
  0
LINE
  5
242
100
AcDbEntity
  8
0
100
AcDbLine
 62
7
  6
CONTINUOUS
 10
4.8347702621
 20
2.5566944412
 11
4.7731459546
 21
2.5566944412
  0
LINE
  5
243
100
AcDbEntity
  8
0
100
AcDbLine
 62
7
  6
CONTINUOUS
 10
4.5167086664
 20
2.5566944412
 11
4.4550843589
 21
2.5566944412
  0
LINE
  5
244
100
AcDbEntity
  8
0
100
AcDbLine
 62
7
  6
CONTINUOUS
 10
4.2806346992
 20
2.5566944412
 11
4.2190103917
 21
2.5566944412
  0
LINE
  5
245
100
AcDbEntity
  8
0
100
AcDbLine
 62
7
  6
CONTINUOUS
 10
4.1550223649
 20
2.5566944412
 11
4.0933980574
 21
2.5566944412
  0
LINE
  5
246
100
AcDbEntity
  8
0
100
AcDbLine
 62
7
  6
CONTINUOUS
 10
5.1223862077
 20
2.5572204708
 11
5.0268944099
 21
2.5572204708
  0
LINE
  5
247
100
AcDbEntity
  8
0
100
AcDbLine
 62
7
  6
CONTINUOUS
 10
5.2089026122
 20
2.5572204708
 11
5.3043944099
 21
2.5572204708
  0
LINE
  5
248
100
AcDbEntity
  8
0
100
AcDbLine
 62
7
  6
CONTINUOUS
 10
4.8518474975
 20
2.5596253291
 11
5.1222058433
 21
2.5596253291
  0
LINE
  5
249
100
AcDbEntity
  8
0
100
AcDbLine
 62
7
  6
CONTINUOUS
 10
5.2090829765
 20
2.5596253291
 11
5.4794413224
 21
2.5596253291
  0
LINE
  5
24A
100
AcDbEntity
  8
0
100
AcDbLine
 62
7
  6
CONTINUOUS
 10
4.8518568918
 20
2.5597505864
 11
5.122196449
 21
2.5597505864
  0
LINE
  5
24B
100
AcDbEntity
  8
0
100
AcDbLine
 62
7
  6
CONTINUOUS
 10
5.2090923708
 20
2.5597505864
 11
5.4794319281
 21
2.5597505864
  0
LINE
  5
24C
100
AcDbEntity
  8
0
100
AcDbLine
 62
7
  6
CONTINUOUS
 10
5.6271334021
 20
2.5625145318
 11
5.5762371667
 21
2.5625145318
  0
LINE
  5
24D
100
AcDbEntity
  8
0
100
AcDbLine
 62
7
  6
CONTINUOUS
 10
5.4866668448
 20
2.5625145318
 11
5.2087371667
 21
2.5625145318
  0
LINE
  5
24E
100
AcDbEntity
  8
0
100
AcDbLine
 62
7
  6
CONTINUOUS
 10
5.1225516531
 20
2.5625145318
 11
4.8446219751
 21
2.5625145318
  0
LINE
  5
24F
100
AcDbEntity
  8
0
100
AcDbLine
 62
7
  6
CONTINUOUS
 10
4.7550516531
 20
2.5625145318
 11
4.7041554178
 21
2.5625145318
  0
LINE
  5
250
100
AcDbEntity
  8
0
100
AcDbLine
 62
7
  6
CONTINUOUS
 10
6.2491092547
 20
2.5671030543
 11
6.1650479628
 21
2.5671030543
  0
LINE
  5
251
100
AcDbEntity
  8
0
100
AcDbLine
 62
7
  6
CONTINUOUS
 10
6.1234969204
 20
2.5671030543
 11
6.0394356285
 21
2.5671030543
  0
LINE
  5
252
100
AcDbEntity
  8
0
100
AcDbLine
 62
7
  6
CONTINUOUS
 10
5.8874229532
 20
2.5671030543
 11
5.8033616612
 21
2.5671030543
  0
LINE
  5
253
100
AcDbEntity
  8
0
100
AcDbLine
 62
7
  6
CONTINUOUS
 10
5.5693613575
 20
2.5671030543
 11
5.4853000655
 21
2.5671030543
  0
LINE
  5
254
100
AcDbEntity
  8
0
100
AcDbLine
 62
7
  6
CONTINUOUS
 10
5.2076750559
 20
2.5671030543
 11
5.123613764
 21
2.5671030543
  0
LINE
  5
255
100
AcDbEntity
  8
0
100
AcDbLine
 62
7
  6
CONTINUOUS
 10
4.8459887544
 20
2.5671030543
 11
4.7619274624
 21
2.5671030543
  0
LINE
  5
256
100
AcDbEntity
  8
0
100
AcDbLine
 62
7
  6
CONTINUOUS
 10
4.5279271587
 20
2.5671030543
 11
4.4438658667
 21
2.5671030543
  0
LINE
  5
257
100
AcDbEntity
  8
0
100
AcDbLine
 62
7
  6
CONTINUOUS
 10
4.2918531914
 20
2.5671030543
 11
4.2077918995
 21
2.5671030543
  0
LINE
  5
258
100
AcDbEntity
  8
0
100
AcDbLine
 62
7
  6
CONTINUOUS
 10
4.1662408571
 20
2.5671030543
 11
4.0821795651
 21
2.5671030543
  0
LINE
  5
259
100
AcDbEntity
  8
0
100
AcDbLine
 62
7
  6
CONTINUOUS
 10
4.5727231328
 20
2.56937637
 11
4.7545370153
 21
2.56937637
  0
LINE
  5
25A
100
AcDbEntity
  8
0
100
AcDbLine
 62
7
  6
CONTINUOUS
 10
4.846159253
 20
2.56937637
 11
5.1220370153
 21
2.56937637
  0
LINE
  5
25B
100
AcDbEntity
  8
0
100
AcDbLine
 62
7
  6
CONTINUOUS
 10
5.2092518046
 20
2.56937637
 11
5.4851295668
 21
2.56937637
  0
LINE
  5
25C
100
AcDbEntity
  8
0
100
AcDbLine
 62
7
  6
CONTINUOUS
 10
5.5767518046
 20
2.56937637
 11
5.7585656871
 21
2.56937637
  0
LINE
  5
25D
100
AcDbEntity
  8
0
100
AcDbLine
 62
7
  6
CONTINUOUS
 10
4.5759699853
 20
2.5699183576
 11
4.7544963662
 21
2.5699183576
  0
LINE
  5
25E
100
AcDbEntity
  8
0
100
AcDbLine
 62
7
  6
CONTINUOUS
 10
4.8461999021
 20
2.5699183576
 11
5.1219963662
 21
2.5699183576
  0
LINE
  5
25F
100
AcDbEntity
  8
0
100
AcDbLine
 62
7
  6
CONTINUOUS
 10
5.2092924537
 20
2.5699183576
 11
5.4850889178
 21
2.5699183576
  0
LINE
  5
260
100
AcDbEntity
  8
0
100
AcDbLine
 62
7
  6
CONTINUOUS
 10
5.5767924537
 20
2.5699183576
 11
5.7553188345
 21
2.5699183576
  0
LINE
  5
261
100
AcDbEntity
  8
0
100
AcDbLine
 62
7
  6
CONTINUOUS
 10
5.9482033124
 20
2.573435031
 11
5.8878978514
 21
2.573435031
  0
LINE
  5
262
100
AcDbEntity
  8
0
100
AcDbLine
 62
7
  6
CONTINUOUS
 10
5.8028867629
 20
2.573435031
 11
5.5698362557
 21
2.573435031
  0
LINE
  5
263
100
AcDbEntity
  8
0
100
AcDbLine
 62
7
  6
CONTINUOUS
 10
5.4848251673
 20
2.573435031
 11
5.2081499542
 21
2.573435031
  0
LINE
  5
264
100
AcDbEntity
  8
0
100
AcDbLine
 62
7
  6
CONTINUOUS
 10
5.1231388657
 20
2.573435031
 11
4.8464636526
 21
2.573435031
  0
LINE
  5
265
100
AcDbEntity
  8
0
100
AcDbLine
 62
7
  6
CONTINUOUS
 10
4.7614525641
 20
2.573435031
 11
4.5284020569
 21
2.573435031
  0
LINE
  5
266
100
AcDbEntity
  8
0
100
AcDbLine
 62
7
  6
CONTINUOUS
 10
4.4433909685
 20
2.573435031
 11
4.3830855075
 21
2.573435031
  0
LINE
  5
267
100
AcDbEntity
  8
0
100
AcDbLine
 62
7
  6
CONTINUOUS
 10
6.5764565637
 20
2.5791944412
 11
6.529543271
 21
2.5791944412
  0
LINE
  5
268
100
AcDbEntity
  8
0
100
AcDbLine
 62
7
  6
CONTINUOUS
 10
6.529434204
 20
2.5791944412
 11
6.4678098965
 21
2.5791944412
  0
LINE
  5
269
100
AcDbEntity
  8
0
100
AcDbLine
 62
7
  6
CONTINUOUS
 10
6.3915716209
 20
2.5791944412
 11
6.3299473134
 21
2.5791944412
  0
LINE
  5
26A
100
AcDbEntity
  8
0
100
AcDbLine
 62
7
  6
CONTINUOUS
 10
6.1722639217
 20
2.5791944412
 11
6.1106396142
 21
2.5791944412
  0
LINE
  5
26B
100
AcDbEntity
  8
0
100
AcDbLine
 62
7
  6
CONTINUOUS
 10
5.8864565637
 20
2.5791944412
 11
5.8248322562
 21
2.5791944412
  0
LINE
  5
26C
100
AcDbEntity
  8
0
100
AcDbLine
 62
7
  6
CONTINUOUS
 10
5.5536268459
 20
2.5791944412
 11
5.4920025384
 21
2.5791944412
  0
LINE
  5
26D
100
AcDbEntity
  8
0
100
AcDbLine
 62
7
  6
CONTINUOUS
 10
5.1964565637
 20
2.5791944412
 11
5.1348322562
 21
2.5791944412
  0
LINE
  5
26E
100
AcDbEntity
  8
0
100
AcDbLine
 62
7
  6
CONTINUOUS
 10
4.8392862814
 20
2.5791944412
 11
4.777661974
 21
2.5791944412
  0
LINE
  5
26F
100
AcDbEntity
  8
0
100
AcDbLine
 62
7
  6
CONTINUOUS
 10
4.5064565637
 20
2.5791944412
 11
4.4448322562
 21
2.5791944412
  0
LINE
  5
270
100
AcDbEntity
  8
0
100
AcDbLine
 62
7
  6
CONTINUOUS
 10
4.2206492056
 20
2.5791944412
 11
4.1590248982
 21
2.5791944412
  0
LINE
  5
271
100
AcDbEntity
  8
0
100
AcDbLine
 62
7
  6
CONTINUOUS
 10
4.0013415065
 20
2.5791944412
 11
3.939717199
 21
2.5791944412
  0
LINE
  5
272
100
AcDbEntity
  8
0
100
AcDbLine
 62
7
  6
CONTINUOUS
 10
3.8634789234
 20
2.5791944412
 11
3.8018546159
 21
2.5791944412
  0
LINE
  5
273
100
AcDbEntity
  8
0
100
AcDbLine
 62
7
  6
CONTINUOUS
 10
3.8017455699
 20
2.5791944412
 11
3.7548322562
 21
2.5791944412
  0
LINE
  5
274
100
AcDbEntity
  8
0
100
AcDbLine
 62
7
  6
CONTINUOUS
 10
4.2931046263
 20
2.5837888521
 11
4.435762762
 21
2.5837888521
  0
LINE
  5
275
100
AcDbEntity
  8
0
100
AcDbLine
 62
7
  6
CONTINUOUS
 10
4.5291785935
 20
2.5837888521
 11
4.7606760276
 21
2.5837888521
  0
LINE
  5
276
100
AcDbEntity
  8
0
100
AcDbLine
 62
7
  6
CONTINUOUS
 10
4.8483557757
 20
2.5837888521
 11
5.1223623291
 21
2.5837888521
  0
LINE
  5
277
100
AcDbEntity
  8
0
100
AcDbLine
 62
7
  6
CONTINUOUS
 10
5.2089264908
 20
2.5837888521
 11
5.4829330442
 21
2.5837888521
  0
LINE
  5
278
100
AcDbEntity
  8
0
100
AcDbLine
 62
7
  6
CONTINUOUS
 10
5.5706127923
 20
2.5837888521
 11
5.8021102264
 21
2.5837888521
  0
LINE
  5
279
100
AcDbEntity
  8
0
100
AcDbLine
 62
7
  6
CONTINUOUS
 10
5.8955260579
 20
2.5837888521
 11
6.0381841936
 21
2.5837888521
  0
LINE
  5
27A
100
AcDbEntity
  8
0
100
AcDbLine
 62
7
  6
CONTINUOUS
 10
4.2966975454
 20
2.5849467859
 11
4.4350171662
 21
2.5849467859
  0
LINE
  5
27B
100
AcDbEntity
  8
0
100
AcDbLine
 62
7
  6
CONTINUOUS
 10
4.5294421375
 20
2.5849467859
 11
4.7605891825
 21
2.5849467859
  0
LINE
  5
27C
100
AcDbEntity
  8
0
100
AcDbLine
 62
7
  6
CONTINUOUS
 10
4.8491013715
 20
2.5849467859
 11
5.1222754841
 21
2.5849467859
  0
LINE
  5
27D
100
AcDbEntity
  8
0
100
AcDbLine
 62
7
  6
CONTINUOUS
 10
5.2090133358
 20
2.5849467859
 11
5.4821874484
 21
2.5849467859
  0
LINE
  5
27E
100
AcDbEntity
  8
0
100
AcDbLine
 62
7
  6
CONTINUOUS
 10
5.5706996374
 20
2.5849467859
 11
5.8018466824
 21
2.5849467859
  0
LINE
  5
27F
100
AcDbEntity
  8
0
100
AcDbLine
 62
7
  6
CONTINUOUS
 10
5.8962716537
 20
2.5849467859
 11
6.0345912744
 21
2.5849467859
  0
LINE
  5
280
100
AcDbEntity
  8
0
100
AcDbLine
 62
7
  6
CONTINUOUS
 10
6.5876750559
 20
2.5896030543
 11
6.4565914042
 21
2.5896030543
  0
LINE
  5
281
100
AcDbEntity
  8
0
100
AcDbLine
 62
7
  6
CONTINUOUS
 10
6.4027901131
 20
2.5896030543
 11
6.3187288212
 21
2.5896030543
  0
LINE
  5
282
100
AcDbEntity
  8
0
100
AcDbLine
 62
7
  6
CONTINUOUS
 10
6.183482414
 20
2.5896030543
 11
6.099421122
 21
2.5896030543
  0
LINE
  5
283
100
AcDbEntity
  8
0
100
AcDbLine
 62
7
  6
CONTINUOUS
 10
5.8976750559
 20
2.5896030543
 11
5.813613764
 21
2.5896030543
  0
LINE
  5
284
100
AcDbEntity
  8
0
100
AcDbLine
 62
7
  6
CONTINUOUS
 10
5.5648453382
 20
2.5896030543
 11
5.4807840462
 21
2.5896030543
  0
LINE
  5
285
100
AcDbEntity
  8
0
100
AcDbLine
 62
7
  6
CONTINUOUS
 10
5.2076750559
 20
2.5896030543
 11
5.123613764
 21
2.5896030543
  0
LINE
  5
286
100
AcDbEntity
  8
0
100
AcDbLine
 62
7
  6
CONTINUOUS
 10
4.8505047737
 20
2.5896030543
 11
4.7664434817
 21
2.5896030543
  0
LINE
  5
287
100
AcDbEntity
  8
0
100
AcDbLine
 62
7
  6
CONTINUOUS
 10
4.5176750559
 20
2.5896030543
 11
4.433613764
 21
2.5896030543
  0
LINE
  5
288
100
AcDbEntity
  8
0
100
AcDbLine
 62
7
  6
CONTINUOUS
 10
4.2318676979
 20
2.5896030543
 11
4.1478064059
 21
2.5896030543
  0
LINE
  5
289
100
AcDbEntity
  8
0
100
AcDbLine
 62
7
  6
CONTINUOUS
 10
4.0125599987
 20
2.5896030543
 11
3.9284987067
 21
2.5896030543
  0
LINE
  5
28A
100
AcDbEntity
  8
0
100
AcDbLine
 62
7
  6
CONTINUOUS
 10
3.8746974156
 20
2.5896030543
 11
3.743613764
 21
2.5896030543
  0
LINE
  5
28B
100
AcDbEntity
  8
0
100
AcDbLine
 62
7
  6
CONTINUOUS
 10
6.2693093859
 20
2.5900069997
 11
6.2539533147
 21
2.5900069997
  0
LINE
  5
28C
100
AcDbEntity
  8
0
100
AcDbLine
 62
7
  6
CONTINUOUS
 10
6.2510696357
 20
2.5900069997
 11
6.1835127099
 21
2.5900069997
  0
LINE
  5
28D
100
AcDbEntity
  8
0
100
AcDbLine
 62
7
  6
CONTINUOUS
 10
6.0993908261
 20
2.5900069997
 11
5.8977053518
 21
2.5900069997
  0
LINE
  5
28E
100
AcDbEntity
  8
0
100
AcDbLine
 62
7
  6
CONTINUOUS
 10
5.813583468
 20
2.5900069997
 11
5.5648756341
 21
2.5900069997
  0
LINE
  5
28F
100
AcDbEntity
  8
0
100
AcDbLine
 62
7
  6
CONTINUOUS
 10
5.4807537503
 20
2.5900069997
 11
5.2077053518
 21
2.5900069997
  0
LINE
  5
290
100
AcDbEntity
  8
0
100
AcDbLine
 62
7
  6
CONTINUOUS
 10
5.123583468
 20
2.5900069997
 11
4.8505350696
 21
2.5900069997
  0
LINE
  5
291
100
AcDbEntity
  8
0
100
AcDbLine
 62
7
  6
CONTINUOUS
 10
4.7664131858
 20
2.5900069997
 11
4.5177053518
 21
2.5900069997
  0
LINE
  5
292
100
AcDbEntity
  8
0
100
AcDbLine
 62
7
  6
CONTINUOUS
 10
4.433583468
 20
2.5900069997
 11
4.2318979938
 21
2.5900069997
  0
LINE
  5
293
100
AcDbEntity
  8
0
100
AcDbLine
 62
7
  6
CONTINUOUS
 10
4.14777611
 20
2.5900069997
 11
4.0802191842
 21
2.5900069997
  0
LINE
  5
294
100
AcDbEntity
  8
0
100
AcDbLine
 62
7
  6
CONTINUOUS
 10
4.0773355052
 20
2.5900069997
 11
4.061979434
 21
2.5900069997
  0
LINE
  5
295
100
AcDbEntity
  8
0
100
AcDbLine
 62
7
  6
CONTINUOUS
 10
3.8831896061
 20
2.603621176
 11
3.9274473476
 21
2.603621176
  0
LINE
  5
296
100
AcDbEntity
  8
0
100
AcDbLine
 62
7
  6
CONTINUOUS
 10
4.0136113578
 20
2.603621176
 11
4.1467550468
 21
2.603621176
  0
LINE
  5
297
100
AcDbEntity
  8
0
100
AcDbLine
 62
7
  6
CONTINUOUS
 10
4.232919057
 20
2.603621176
 11
4.4325624048
 21
2.603621176
  0
LINE
  5
298
100
AcDbEntity
  8
0
100
AcDbLine
 62
7
  6
CONTINUOUS
 10
4.518726415
 20
2.603621176
 11
4.7653921226
 21
2.603621176
  0
LINE
  5
299
100
AcDbEntity
  8
0
100
AcDbLine
 62
7
  6
CONTINUOUS
 10
4.8515561328
 20
2.603621176
 11
5.1225624048
 21
2.603621176
  0
LINE
  5
29A
100
AcDbEntity
  8
0
100
AcDbLine
 62
7
  6
CONTINUOUS
 10
5.208726415
 20
2.603621176
 11
5.4797326871
 21
2.603621176
  0
LINE
  5
29B
100
AcDbEntity
  8
0
100
AcDbLine
 62
7
  6
CONTINUOUS
 10
5.5658966973
 20
2.603621176
 11
5.8125624048
 21
2.603621176
  0
LINE
  5
29C
100
AcDbEntity
  8
0
100
AcDbLine
 62
7
  6
CONTINUOUS
 10
5.898726415
 20
2.603621176
 11
6.0983697629
 21
2.603621176
  0
LINE
  5
29D
100
AcDbEntity
  8
0
100
AcDbLine
 62
7
  6
CONTINUOUS
 10
6.1845337731
 20
2.603621176
 11
6.3176774621
 21
2.603621176
  0
LINE
  5
29E
100
AcDbEntity
  8
0
100
AcDbLine
 62
7
  6
CONTINUOUS
 10
6.4038414723
 20
2.603621176
 11
6.4481617995
 21
2.603621176
  0
LINE
  5
29F
100
AcDbEntity
  8
0
100
AcDbLine
 62
7
  6
CONTINUOUS
 10
6.8896300905
 20
2.6054444412
 11
6.8280057831
 21
2.6054444412
  0
LINE
  5
2A0
100
AcDbEntity
  8
0
100
AcDbLine
 62
7
  6
CONTINUOUS
 10
6.8156302827
 20
2.6054444412
 11
6.7540059752
 21
2.6054444412
  0
LINE
  5
2A1
100
AcDbEntity
  8
0
100
AcDbLine
 62
7
  6
CONTINUOUS
 10
6.6708648136
 20
2.6054444412
 11
6.6092405061
 21
2.6054444412
  0
LINE
  5
2A2
100
AcDbEntity
  8
0
100
AcDbLine
 62
7
  6
CONTINUOUS
 10
6.4616606291
 20
2.6054444412
 11
6.4000363216
 21
2.6054444412
  0
LINE
  5
2A3
100
AcDbEntity
  8
0
100
AcDbLine
 62
7
  6
CONTINUOUS
 10
6.1971609557
 20
2.6054444412
 11
6.1355366482
 21
2.6054444412
  0
LINE
  5
2A4
100
AcDbEntity
  8
0
100
AcDbLine
 62
7
  6
CONTINUOUS
 10
5.8889256985
 20
2.6054444412
 11
5.827301391
 21
2.6054444412
  0
LINE
  5
2A5
100
AcDbEntity
  8
0
100
AcDbLine
 62
7
  6
CONTINUOUS
 10
5.5504262173
 20
2.6054444412
 11
5.4888019098
 21
2.6054444412
  0
LINE
  5
2A6
100
AcDbEntity
  8
0
100
AcDbLine
 62
7
  6
CONTINUOUS
 10
5.1964565637
 20
2.6054444412
 11
5.1348322562
 21
2.6054444412
  0
LINE
  5
2A7
100
AcDbEntity
  8
0
100
AcDbLine
 62
7
  6
CONTINUOUS
 10
4.8424869101
 20
2.6054444412
 11
4.7808626026
 21
2.6054444412
  0
LINE
  5
2A8
100
AcDbEntity
  8
0
100
AcDbLine
 62
7
  6
CONTINUOUS
 10
4.5039874288
 20
2.6054444412
 11
4.4423631214
 21
2.6054444412
  0
LINE
  5
2A9
100
AcDbEntity
  8
0
100
AcDbLine
 62
7
  6
CONTINUOUS
 10
4.1957521717
 20
2.6054444412
 11
4.1341278642
 21
2.6054444412
  0
LINE
  5
2AA
100
AcDbEntity
  8
0
100
AcDbLine
 62
7
  6
CONTINUOUS
 10
3.9312524983
 20
2.6054444412
 11
3.8696281908
 21
2.6054444412
  0
LINE
  5
2AB
100
AcDbEntity
  8
0
100
AcDbLine
 62
7
  6
CONTINUOUS
 10
3.7220483137
 20
2.6054444412
 11
3.6604240062
 21
2.6054444412
  0
LINE
  5
2AC
100
AcDbEntity
  8
0
100
AcDbLine
 62
7
  6
CONTINUOUS
 10
3.5772828447
 20
2.6054444412
 11
3.5156585372
 21
2.6054444412
  0
LINE
  5
2AD
100
AcDbEntity
  8
0
100
AcDbLine
 62
7
  6
CONTINUOUS
 10
3.5032830368
 20
2.6054444412
 11
3.4416587293
 21
2.6054444412
  0
LINE
  5
2AE
100
AcDbEntity
  8
0
100
AcDbLine
 62
7
  6
CONTINUOUS
 10
4.0171512516
 20
2.6056266838
 11
4.1321165583
 21
2.6056266838
  0
LINE
  5
2AF
100
AcDbEntity
  8
0
100
AcDbLine
 62
7
  6
CONTINUOUS
 10
4.2336113015
 20
2.6056266838
 11
4.4324119917
 21
2.6056266838
  0
LINE
  5
2B0
100
AcDbEntity
  8
0
100
AcDbLine
 62
7
  6
CONTINUOUS
 10
4.5188768281
 20
2.6056266838
 11
4.7652417095
 21
2.6056266838
  0
LINE
  5
2B1
100
AcDbEntity
  8
0
100
AcDbLine
 62
7
  6
CONTINUOUS
 10
4.8517065459
 20
2.6056266838
 11
5.1224119917
 21
2.6056266838
  0
LINE
  5
2B2
100
AcDbEntity
  8
0
100
AcDbLine
 62
7
  6
CONTINUOUS
 10
5.2088768281
 20
2.6056266838
 11
5.479582274
 21
2.6056266838
  0
LINE
  5
2B3
100
AcDbEntity
  8
0
100
AcDbLine
 62
7
  6
CONTINUOUS
 10
5.5660471104
 20
2.6056266838
 11
5.8124119917
 21
2.6056266838
  0
LINE
  5
2B4
100
AcDbEntity
  8
0
100
AcDbLine
 62
7
  6
CONTINUOUS
 10
5.8988768281
 20
2.6056266838
 11
6.0976775184
 21
2.6056266838
  0
LINE
  5
2B5
100
AcDbEntity
  8
0
100
AcDbLine
 62
7
  6
CONTINUOUS
 10
6.1991722616
 20
2.6056266838
 11
6.3141375682
 21
2.6056266838
  0
LINE
  5
2B6
100
AcDbEntity
  8
0
100
AcDbLine
 62
7
  6
CONTINUOUS
 10
6.5903830489
 20
2.6122477571
 11
6.5454970502
 21
2.6122477571
  0
LINE
  5
2B7
100
AcDbEntity
  8
0
100
AcDbLine
 62
7
  6
CONTINUOUS
 10
6.5382153813
 20
2.6122477571
 11
6.4719931561
 21
2.6122477571
  0
LINE
  5
2B8
100
AcDbEntity
  8
0
100
AcDbLine
 62
7
  6
CONTINUOUS
 10
6.3897037945
 20
2.6122477571
 11
6.2074934828
 21
2.6122477571
  0
LINE
  5
2B9
100
AcDbEntity
  8
0
100
AcDbLine
 62
7
  6
CONTINUOUS
 10
6.1252041212
 20
2.6122477571
 11
5.8992582256
 21
2.6122477571
  0
LINE
  5
2BA
100
AcDbEntity
  8
0
100
AcDbLine
 62
7
  6
CONTINUOUS
 10
5.816968864
 20
2.6122477571
 11
5.5607587444
 21
2.6122477571
  0
LINE
  5
2BB
100
AcDbEntity
  8
0
100
AcDbLine
 62
7
  6
CONTINUOUS
 10
5.4784693828
 20
2.6122477571
 11
5.2067890907
 21
2.6122477571
  0
LINE
  5
2BC
100
AcDbEntity
  8
0
100
AcDbLine
 62
7
  6
CONTINUOUS
 10
5.1244997291
 20
2.6122477571
 11
4.8528194371
 21
2.6122477571
  0
LINE
  5
2BD
100
AcDbEntity
  8
0
100
AcDbLine
 62
7
  6
CONTINUOUS
 10
4.7705300755
 20
2.6122477571
 11
4.5143199559
 21
2.6122477571
  0
LINE
  5
2BE
100
AcDbEntity
  8
0
100
AcDbLine
 62
7
  6
CONTINUOUS
 10
4.4320305943
 20
2.6122477571
 11
4.2060846987
 21
2.6122477571
  0
LINE
  5
2BF
100
AcDbEntity
  8
0
100
AcDbLine
 62
7
  6
CONTINUOUS
 10
4.1237953371
 20
2.6122477571
 11
3.9415850254
 21
2.6122477571
  0
LINE
  5
2C0
100
AcDbEntity
  8
0
100
AcDbLine
 62
7
  6
CONTINUOUS
 10
3.8592956638
 20
2.6122477571
 11
3.7930734386
 21
2.6122477571
  0
LINE
  5
2C1
100
AcDbEntity
  8
0
100
AcDbLine
 62
7
  6
CONTINUOUS
 10
3.7857917697
 20
2.6122477571
 11
3.740905771
 21
2.6122477571
  0
LINE
  5
2C2
100
AcDbEntity
  8
0
100
AcDbLine
 62
7
  6
CONTINUOUS
 10
6.9008485828
 20
2.6158530543
 11
6.7427874829
 21
2.6158530543
  0
LINE
  5
2C3
100
AcDbEntity
  8
0
100
AcDbLine
 62
7
  6
CONTINUOUS
 10
6.6820833059
 20
2.6158530543
 11
6.5980220139
 21
2.6158530543
  0
LINE
  5
2C4
100
AcDbEntity
  8
0
100
AcDbLine
 62
7
  6
CONTINUOUS
 10
6.4728791213
 20
2.6158530543
 11
6.3888178293
 21
2.6158530543
  0
LINE
  5
2C5
100
AcDbEntity
  8
0
100
AcDbLine
 62
7
  6
CONTINUOUS
 10
6.2083794479
 20
2.6158530543
 11
6.124318156
 21
2.6158530543
  0
LINE
  5
2C6
100
AcDbEntity
  8
0
100
AcDbLine
 62
7
  6
CONTINUOUS
 10
5.9001441908
 20
2.6158530543
 11
5.8160828988
 21
2.6158530543
  0
LINE
  5
2C7
100
AcDbEntity
  8
0
100
AcDbLine
 62
7
  6
CONTINUOUS
 10
5.5616447095
 20
2.6158530543
 11
5.4775834176
 21
2.6158530543
  0
LINE
  5
2C8
100
AcDbEntity
  8
0
100
AcDbLine
 62
7
  6
CONTINUOUS
 10
5.2076750559
 20
2.6158530543
 11
5.123613764
 21
2.6158530543
  0
LINE
  5
2C9
100
AcDbEntity
  8
0
100
AcDbLine
 62
7
  6
CONTINUOUS
 10
4.8537054023
 20
2.6158530543
 11
4.7696441103
 21
2.6158530543
  0
LINE
  5
2CA
100
AcDbEntity
  8
0
100
AcDbLine
 62
7
  6
CONTINUOUS
 10
4.5152059211
 20
2.6158530543
 11
4.4311446291
 21
2.6158530543
  0
LINE
  5
2CB
100
AcDbEntity
  8
0
100
AcDbLine
 62
7
  6
CONTINUOUS
 10
4.2069706639
 20
2.6158530543
 11
4.1229093719
 21
2.6158530543
  0
LINE
  5
2CC
100
AcDbEntity
  8
0
100
AcDbLine
 62
7
  6
CONTINUOUS
 10
3.9424709905
 20
2.6158530543
 11
3.8584096986
 21
2.6158530543
  0
LINE
  5
2CD
100
AcDbEntity
  8
0
100
AcDbLine
 62
7
  6
CONTINUOUS
 10
3.733266806
 20
2.6158530543
 11
3.649205514
 21
2.6158530543
  0
LINE
  5
2CE
100
AcDbEntity
  8
0
100
AcDbLine
 62
7
  6
CONTINUOUS
 10
3.5885013369
 20
2.6158530543
 11
3.4304402371
 21
2.6158530543
  0
LINE
  5
2CF
100
AcDbEntity
  8
0
100
AcDbLine
 62
7
  6
CONTINUOUS
 10
6.6941345229
 20
2.6276933617
 11
6.6829713289
 21
2.6276933617
  0
LINE
  5
2D0
100
AcDbEntity
  8
0
100
AcDbLine
 62
7
  6
CONTINUOUS
 10
6.5971339908
 20
2.6276933617
 11
6.4737671444
 21
2.6276933617
  0
LINE
  5
2D1
100
AcDbEntity
  8
0
100
AcDbLine
 62
7
  6
CONTINUOUS
 10
6.3879298063
 20
2.6276933617
 11
6.209267471
 21
2.6276933617
  0
LINE
  5
2D2
100
AcDbEntity
  8
0
100
AcDbLine
 62
7
  6
CONTINUOUS
 10
6.1234301329
 20
2.6276933617
 11
5.9010322138
 21
2.6276933617
  0
LINE
  5
2D3
100
AcDbEntity
  8
0
100
AcDbLine
 62
7
  6
CONTINUOUS
 10
5.8151948757
 20
2.6276933617
 11
5.5625327326
 21
2.6276933617
  0
LINE
  5
2D4
100
AcDbEntity
  8
0
100
AcDbLine
 62
7
  6
CONTINUOUS
 10
5.4766953945
 20
2.6276933617
 11
5.208563079
 21
2.6276933617
  0
LINE
  5
2D5
100
AcDbEntity
  8
0
100
AcDbLine
 62
7
  6
CONTINUOUS
 10
5.1227257409
 20
2.6276933617
 11
4.8545934254
 21
2.6276933617
  0
LINE
  5
2D6
100
AcDbEntity
  8
0
100
AcDbLine
 62
7
  6
CONTINUOUS
 10
4.7687560873
 20
2.6276933617
 11
4.5160939441
 21
2.6276933617
  0
LINE
  5
2D7
100
AcDbEntity
  8
0
100
AcDbLine
 62
7
  6
CONTINUOUS
 10
4.4302566061
 20
2.6276933617
 11
4.207858687
 21
2.6276933617
  0
LINE
  5
2D8
100
AcDbEntity
  8
0
100
AcDbLine
 62
7
  6
CONTINUOUS
 10
4.1220213489
 20
2.6276933617
 11
3.9433590136
 21
2.6276933617
  0
LINE
  5
2D9
100
AcDbEntity
  8
0
100
AcDbLine
 62
7
  6
CONTINUOUS
 10
3.8575216755
 20
2.6276933617
 11
3.734154829
 21
2.6276933617
  0
LINE
  5
2DA
100
AcDbEntity
  8
0
100
AcDbLine
 62
7
  6
CONTINUOUS
 10
3.648317491
 20
2.6276933617
 11
3.637154297
 21
2.6276933617
  0
LINE
  5
2DB
100
AcDbEntity
  8
0
100
AcDbLine
 62
7
  6
CONTINUOUS
 10
3.5894791042
 20
2.6288899508
 11
3.6482277468
 21
2.6288899508
  0
LINE
  5
2DC
100
AcDbEntity
  8
0
100
AcDbLine
 62
7
  6
CONTINUOUS
 10
3.7342445732
 20
2.6288899508
 11
3.8574319313
 21
2.6288899508
  0
LINE
  5
2DD
100
AcDbEntity
  8
0
100
AcDbLine
 62
7
  6
CONTINUOUS
 10
3.9434487578
 20
2.6288899508
 11
4.1219316047
 21
2.6288899508
  0
LINE
  5
2DE
100
AcDbEntity
  8
0
100
AcDbLine
 62
7
  6
CONTINUOUS
 10
4.2079484311
 20
2.6288899508
 11
4.4301668619
 21
2.6288899508
  0
LINE
  5
2DF
100
AcDbEntity
  8
0
100
AcDbLine
 62
7
  6
CONTINUOUS
 10
4.5161836883
 20
2.6288899508
 11
4.7686663431
 21
2.6288899508
  0
LINE
  5
2E0
100
AcDbEntity
  8
0
100
AcDbLine
 62
7
  6
CONTINUOUS
 10
4.8546831695
 20
2.6288899508
 11
5.1226359967
 21
2.6288899508
  0
LINE
  5
2E1
100
AcDbEntity
  8
0
100
AcDbLine
 62
7
  6
CONTINUOUS
 10
5.2086528232
 20
2.6288899508
 11
5.4766056503
 21
2.6288899508
  0
LINE
  5
2E2
100
AcDbEntity
  8
0
100
AcDbLine
 62
7
  6
CONTINUOUS
 10
5.5626224768
 20
2.6288899508
 11
5.8151051316
 21
2.6288899508
  0
LINE
  5
2E3
100
AcDbEntity
  8
0
100
AcDbLine
 62
7
  6
CONTINUOUS
 10
5.901121958
 20
2.6288899508
 11
6.1233403887
 21
2.6288899508
  0
LINE
  5
2E4
100
AcDbEntity
  8
0
100
AcDbLine
 62
7
  6
CONTINUOUS
 10
6.2093572152
 20
2.6288899508
 11
6.3878400621
 21
2.6288899508
  0
LINE
  5
2E5
100
AcDbEntity
  8
0
100
AcDbLine
 62
7
  6
CONTINUOUS
 10
6.4738568885
 20
2.6288899508
 11
6.5970442467
 21
2.6288899508
  0
LINE
  5
2E6
100
AcDbEntity
  8
0
100
AcDbLine
 62
7
  6
CONTINUOUS
 10
6.6830610731
 20
2.6288899508
 11
6.7418097157
 21
2.6288899508
  0
LINE
  5
2E7
100
AcDbEntity
  8
0
100
AcDbLine
 62
7
  6
CONTINUOUS
 10
3.5933424786
 20
2.6319753703
 11
3.6479963403
 21
2.6319753703
  0
LINE
  5
2E8
100
AcDbEntity
  8
0
100
AcDbLine
 62
7
  6
CONTINUOUS
 10
3.7371977823
 20
2.6319753703
 11
3.8572005249
 21
2.6319753703
  0
LINE
  5
2E9
100
AcDbEntity
  8
0
100
AcDbLine
 62
7
  6
CONTINUOUS
 10
3.9436801642
 20
2.6319753703
 11
4.1217001982
 21
2.6319753703
  0
LINE
  5
2EA
100
AcDbEntity
  8
0
100
AcDbLine
 62
7
  6
CONTINUOUS
 10
4.2081798376
 20
2.6319753703
 11
4.4299354554
 21
2.6319753703
  0
LINE
  5
2EB
100
AcDbEntity
  8
0
100
AcDbLine
 62
7
  6
CONTINUOUS
 10
4.5164150948
 20
2.6319753703
 11
4.7684349366
 21
2.6319753703
  0
LINE
  5
2EC
100
AcDbEntity
  8
0
100
AcDbLine
 62
7
  6
CONTINUOUS
 10
4.854914576
 20
2.6319753703
 11
5.1224045903
 21
2.6319753703
  0
LINE
  5
2ED
100
AcDbEntity
  8
0
100
AcDbLine
 62
7
  6
CONTINUOUS
 10
5.2088842296
 20
2.6319753703
 11
5.4763742439
 21
2.6319753703
  0
LINE
  5
2EE
100
AcDbEntity
  8
0
100
AcDbLine
 62
7
  6
CONTINUOUS
 10
5.5628538832
 20
2.6319753703
 11
5.8148737251
 21
2.6319753703
  0
LINE
  5
2EF
100
AcDbEntity
  8
0
100
AcDbLine
 62
7
  6
CONTINUOUS
 10
5.9013533645
 20
2.6319753703
 11
6.1231089823
 21
2.6319753703
  0
LINE
  5
2F0
100
AcDbEntity
  8
0
100
AcDbLine
 62
7
  6
CONTINUOUS
 10
6.2095886216
 20
2.6319753703
 11
6.3876086556
 21
2.6319753703
  0
LINE
  5
2F1
100
AcDbEntity
  8
0
100
AcDbLine
 62
7
  6
CONTINUOUS
 10
6.474088295
 20
2.6319753703
 11
6.5940910376
 21
2.6319753703
  0
LINE
  5
2F2
100
AcDbEntity
  8
0
100
AcDbLine
 62
7
  6
CONTINUOUS
 10
6.6832924796
 20
2.6319753703
 11
6.7379463413
 21
2.6319753703
  0
LINE
  5
2F3
100
AcDbEntity
  8
0
100
AcDbLine
 62
7
  6
CONTINUOUS
 10
3.383726557
 20
2.6436598505
 11
6.9475622628
 21
2.6436598505
  0
LINE
  5
2F4
100
AcDbEntity
  8
0
100
AcDbLine
 62
7
  6
CONTINUOUS
 10
3.1800194099
 20
2.6485430353
 11
7.1512694099
 21
2.6485430353
  0
LINE
  5
2F5
100
AcDbEntity
  8
0
100
AcDbLine
 62
7
  6
CONTINUOUS
 10
3.383726557
 20
2.6436598505
 11
3.1800194099
 21
2.6485430353
  0
LINE
  5
2F6
100
AcDbEntity
  8
0
100
AcDbLine
 62
7
  6
CONTINUOUS
 10
4.3830855075
 20
2.573435031
 11
4.4435734714
 21
2.5710016583
  0
LINE
  5
2F7
100
AcDbEntity
  8
0
100
AcDbLine
 62
7
  6
CONTINUOUS
 10
5.0268944099
 20
2.5572204708
 11
4.997152525
 21
2.5596253291
  0
LINE
  5
2F8
100
AcDbEntity
  8
0
100
AcDbLine
 62
7
  6
CONTINUOUS
 10
4.3867437787
 20
2.5732861914
 11
4.388613764
 21
2.5483530543
  0
LINE
  5
2F9
100
AcDbEntity
  8
0
100
AcDbLine
 62
7
  6
CONTINUOUS
 10
4.4293923037
 20
2.6392173938
 11
4.4311446291
 21
2.6158530543
  0
LINE
  5
2FA
100
AcDbEntity
  8
0
100
AcDbLine
 62
7
  6
CONTINUOUS
 10
4.431961815
 20
2.6116290403
 11
4.433613764
 21
2.5896030543
  0
LINE
  5
2FB
100
AcDbEntity
  8
0
100
AcDbLine
 62
7
  6
CONTINUOUS
 10
4.1671477111
 20
2.5791944412
 11
4.1662408571
 21
2.5671030543
  0
LINE
  5
2FC
100
AcDbEntity
  8
0
100
AcDbLine
 62
7
  6
CONTINUOUS
 10
4.2084113668
 20
2.6350624258
 11
4.2069706639
 21
2.6158530543
  0
LINE
  5
2FD
100
AcDbEntity
  8
0
100
AcDbLine
 62
7
  6
CONTINUOUS
 10
4.2332095847
 20
2.6074948781
 11
4.2318676979
 21
2.5896030543
  0
LINE
  5
2FE
100
AcDbEntity
  8
0
100
AcDbLine
 62
7
  6
CONTINUOUS
 10
2.9493944099
 20
2.7816944412
 11
7.3818944099
 21
2.7816944412
  0
LINE
  5
2FF
100
AcDbEntity
  8
0
100
AcDbLine
 62
7
  6
CONTINUOUS
 10
4.4429469808
 20
2.5793548669
 11
4.4438658667
 21
2.5671030543
  0
LINE
  5
300
100
AcDbEntity
  8
0
100
AcDbLine
 62
7
  6
CONTINUOUS
 10
4.4864594882
 20
2.5566944412
 11
4.4870850922
 21
2.5483530543
  0
LINE
  5
301
100
AcDbEntity
  8
0
100
AcDbLine
 62
7
  6
CONTINUOUS
 10
4.2932457492
 20
2.5856704908
 11
4.2918531914
 21
2.5671030543
  0
LINE
  5
302
100
AcDbEntity
  8
0
100
AcDbLine
 62
7
  6
CONTINUOUS
 10
4.7542669294
 20
2.5729775146
 11
4.756113764
 21
2.5483530543
  0
LINE
  5
303
100
AcDbEntity
  8
0
100
AcDbLine
 62
7
  6
CONTINUOUS
 10
4.760275747
 20
2.5891259259
 11
4.7619274624
 21
2.5671030543
  0
LINE
  5
304
100
AcDbEntity
  8
0
100
AcDbLine
 62
7
  6
CONTINUOUS
 10
4.7648410344
 20
2.610969018
 11
4.7664434817
 21
2.5896030543
  0
LINE
  5
305
100
AcDbEntity
  8
0
100
AcDbLine
 62
7
  6
CONTINUOUS
 10
4.6406444099
 20
4.2891944412
 11
4.6406444099
 21
3.8849444412
  0
LINE
  5
306
100
AcDbEntity
  8
0
100
AcDbLine
 62
7
  6
CONTINUOUS
 10
4.6406444099
 20
3.6944444412
 11
4.6406444099
 21
3.8549444412
  0
LINE
  5
307
100
AcDbEntity
  8
0
100
AcDbLine
 62
7
  6
CONTINUOUS
 10
4.4733006599
 20
2.5566944412
 11
4.4726750559
 21
2.5483530543
  0
LINE
  5
308
100
AcDbEntity
  8
0
100
AcDbLine
 62
7
  6
CONTINUOUS
 10
4.5167133723
 20
2.6359524035
 11
4.5152059211
 21
2.6158530543
  0
LINE
  5
309
100
AcDbEntity
  8
0
100
AcDbLine
 62
7
  6
CONTINUOUS
 10
4.5190829228
 20
2.6083746125
 11
4.5176750559
 21
2.5896030543
  0
LINE
  5
30A
100
AcDbEntity
  8
0
100
AcDbLine
 62
7
  6
CONTINUOUS
 10
4.5293814889
 20
2.5864941241
 11
4.5279271587
 21
2.5671030543
  0
LINE
  5
30B
100
AcDbEntity
  8
0
100
AcDbLine
 62
7
  6
CONTINUOUS
 10
4.5727955952
 20
2.5703425352
 11
4.5711463841
 21
2.5483530543
  0
LINE
  5
30C
100
AcDbEntity
  8
0
100
AcDbLine
 62
7
  6
CONTINUOUS
 10
5.5050194099
 20
4.7475097514
 11
5.4918944099
 21
4.7343847514
  0
LINE
  5
30D
100
AcDbEntity
  8
0
100
AcDbLine
 62
7
  6
CONTINUOUS
 10
4.767944337
 20
2.6385166992
 11
4.7696441103
 21
2.6158530543
  0
LINE
  5
30E
100
AcDbEntity
  8
0
100
AcDbLine
 62
7
  6
CONTINUOUS
 10
4.8262694099
 20
4.7475097514
 11
4.8262694099
 21
4.8281347514
  0
LINE
  5
30F
100
AcDbEntity
  8
0
100
AcDbLine
 62
7
  6
CONTINUOUS
 10
4.8393944099
 20
4.7343847514
 11
4.8393944099
 21
4.5271336082
  0
LINE
  5
310
100
AcDbEntity
  8
0
100
AcDbLine
 62
7
  6
CONTINUOUS
 10
5.4248396981
 20
4.4479550396
 11
5.4637214661
 21
4.4868368075
  0
LINE
  5
311
100
AcDbEntity
  8
0
100
AcDbLine
 62
7
  6
CONTINUOUS
 10
4.9707886941
 20
4.0266944412
 11
4.9707886941
 21
4.2891944412
  0
LINE
  5
312
100
AcDbEntity
  8
0
100
AcDbLine
 62
7
  6
CONTINUOUS
 10
4.8409389264
 20
2.5585379937
 11
4.8401750559
 21
2.5483530543
  0
LINE
  5
313
100
AcDbEntity
  8
0
100
AcDbLine
 62
7
  6
CONTINUOUS
 10
4.8471349713
 20
2.5823859472
 11
4.8459887544
 21
2.5671030543
  0
LINE
  5
314
100
AcDbEntity
  8
0
100
AcDbLine
 62
7
  6
CONTINUOUS
 10
4.8519810147
 20
2.6092862684
 11
4.8505047737
 21
2.5896030543
  0
LINE
  5
315
100
AcDbEntity
  8
0
100
AcDbLine
 62
7
  6
CONTINUOUS
 10
4.8552800867
 20
2.6368488459
 11
4.8537054023
 21
2.6158530543
  0
LINE
  5
316
100
AcDbEntity
  8
0
100
AcDbLine
 62
7
  6
CONTINUOUS
 10
4.8519165851
 20
2.5605464969
 11
4.8504395769
 21
2.5408530543
  0
LINE
  5
317
100
AcDbEntity
  8
0
100
AcDbLine
 62
7
  6
CONTINUOUS
 10
2.9493944099
 20
3.4761944412
 11
7.3818944099
 21
3.4761944412
  0
LINE
  5
318
100
AcDbEntity
  8
0
100
AcDbLine
 62
7
  6
CONTINUOUS
 10
5.1220433187
 20
2.5617923243
 11
5.123613764
 21
2.5408530543
  0
LINE
  5
319
100
AcDbEntity
  8
0
100
AcDbLine
 62
7
  6
CONTINUOUS
 10
5.1218259611
 20
2.5721904261
 11
5.123613764
 21
2.5483530543
  0
LINE
  5
31A
100
AcDbEntity
  8
0
100
AcDbLine
 62
7
  6
CONTINUOUS
 10
5.1220217891
 20
2.5883293851
 11
5.123613764
 21
2.5671030543
  0
LINE
  5
31B
100
AcDbEntity
  8
0
100
AcDbLine
 62
7
  6
CONTINUOUS
 10
5.1220711887
 20
2.6101707238
 11
5.123613764
 21
2.5896030543
  0
LINE
  5
31C
100
AcDbEntity
  8
0
100
AcDbLine
 62
7
  6
CONTINUOUS
 10
5.1219740418
 20
2.6377160157
 11
5.123613764
 21
2.6158530543
  0
LINE
  5
31D
100
AcDbEntity
  8
0
100
AcDbLine
 62
7
  6
CONTINUOUS
 10
4.0706444029
 20
3.6944444412
 11
6.260644417
 21
3.6944444412
  0
LINE
  5
31E
100
AcDbEntity
  8
0
100
AcDbLine
 62
7
  6
CONTINUOUS
 10
5.209314735
 20
2.6377154425
 11
5.2076750559
 21
2.6158530543
  0
LINE
  5
31F
100
AcDbEntity
  8
0
100
AcDbLine
 62
7
  6
CONTINUOUS
 10
5.2092176023
 20
2.6101703395
 11
5.2076750559
 21
2.5896030543
  0
LINE
  5
320
100
AcDbEntity
  8
0
100
AcDbLine
 62
7
  6
CONTINUOUS
 10
5.2092670069
 20
2.5883290672
 11
5.2076750559
 21
2.5671030543
  0
LINE
  5
321
100
AcDbEntity
  8
0
100
AcDbLine
 62
7
  6
CONTINUOUS
 10
5.2094628603
 20
2.572190446
 11
5.2076750559
 21
2.5483530543
  0
LINE
  5
322
100
AcDbEntity
  8
0
100
AcDbLine
 62
7
  6
CONTINUOUS
 10
5.2092454967
 20
2.5617922647
 11
5.2076750559
 21
2.5408530543
  0
LINE
  5
323
100
AcDbEntity
  8
0
100
AcDbLine
 62
7
  6
CONTINUOUS
 10
5.6906444099
 20
3.8549444412
 11
4.6406444099
 21
3.8549444412
  0
LINE
  5
324
100
AcDbEntity
  8
0
100
AcDbLine
 62
7
  6
CONTINUOUS
 10
5.4793722348
 20
2.5605464969
 11
5.480849243
 21
2.5408530543
  0
LINE
  5
325
100
AcDbEntity
  8
0
100
AcDbLine
 62
7
  6
CONTINUOUS
 10
5.4760087374
 20
2.6368487903
 11
5.4775834176
 21
2.6158530543
  0
LINE
  5
326
100
AcDbEntity
  8
0
100
AcDbLine
 62
7
  6
CONTINUOUS
 10
5.4793077675
 20
2.6092867708
 11
5.4807840462
 21
2.5896030543
  0
LINE
  5
327
100
AcDbEntity
  8
0
100
AcDbLine
 62
7
  6
CONTINUOUS
 10
5.4841538486
 20
2.5823859472
 11
5.4853000655
 21
2.5671030543
  0
LINE
  5
328
100
AcDbEntity
  8
0
100
AcDbLine
 62
7
  6
CONTINUOUS
 10
5.4903498935
 20
2.5585379937
 11
5.491113764
 21
2.5483530543
  0
LINE
  5
329
100
AcDbEntity
  8
0
100
AcDbLine
 62
7
  6
CONTINUOUS
 10
5.3605001258
 20
4.0266944412
 11
5.3605001258
 21
4.2891944412
  0
LINE
  5
32A
100
AcDbEntity
  8
0
100
AcDbLine
 62
7
  6
CONTINUOUS
 10
5.4918944099
 20
4.5271336082
 11
5.4918944099
 21
4.7343847514
  0
LINE
  5
32B
100
AcDbEntity
  8
0
100
AcDbLine
 62
7
  6
CONTINUOUS
 10
5.5050194099
 20
4.7475097514
 11
5.5050194099
 21
4.8281347514
  0
LINE
  5
32C
100
AcDbEntity
  8
0
100
AcDbLine
 62
7
  6
CONTINUOUS
 10
5.6756444099
 20
3.8699444412
 11
4.6556444099
 21
3.8699444412
  0
LINE
  5
32D
100
AcDbEntity
  8
0
100
AcDbLine
 62
7
  6
CONTINUOUS
 10
4.6406444099
 20
3.8849444412
 11
5.6906444099
 21
3.8849444412
  0
LINE
  5
32E
100
AcDbEntity
  8
0
100
AcDbLine
 62
7
  6
CONTINUOUS
 10
5.3605001258
 20
4.0266944412
 11
4.9707886941
 21
4.0266944412
  0
LINE
  5
32F
100
AcDbEntity
  8
0
100
AcDbLine
 62
7
  6
CONTINUOUS
 10
5.7584932249
 20
2.5703425325
 11
5.7601424357
 21
2.5483530543
  0
LINE
  5
330
100
AcDbEntity
  8
0
100
AcDbLine
 62
7
  6
CONTINUOUS
 10
5.5633444615
 20
2.638516414
 11
5.5616447095
 21
2.6158530543
  0
LINE
  5
331
100
AcDbEntity
  8
0
100
AcDbLine
 62
7
  6
CONTINUOUS
 10
5.5664477826
 20
2.6109689796
 11
5.5648453382
 21
2.5896030543
  0
LINE
  5
332
100
AcDbEntity
  8
0
100
AcDbLine
 62
7
  6
CONTINUOUS
 10
5.5710130517
 20
2.5891256438
 11
5.5693613575
 21
2.5671030543
  0
LINE
  5
333
100
AcDbEntity
  8
0
100
AcDbLine
 62
7
  6
CONTINUOUS
 10
5.5770218682
 20
2.5729772177
 11
5.5751750559
 21
2.5483530543
  0
LINE
  5
334
100
AcDbEntity
  8
0
100
AcDbLine
 62
7
  6
CONTINUOUS
 10
4.9064491218
 20
4.4479550396
 11
4.8675673538
 21
4.4868368075
  0
LINE
  5
335
100
AcDbEntity
  8
0
100
AcDbLine
 62
7
  6
CONTINUOUS
 10
4.8393944099
 20
4.7343847514
 11
4.8262694099
 21
4.7475097514
  0
LINE
  5
336
100
AcDbEntity
  8
0
100
AcDbLine
 62
7
  6
CONTINUOUS
 10
5.8019073177
 20
2.5864943009
 11
5.8033616612
 21
2.5671030543
  0
LINE
  5
337
100
AcDbEntity
  8
0
100
AcDbLine
 62
7
  6
CONTINUOUS
 10
5.8122058804
 20
2.608374835
 11
5.813613764
 21
2.5896030543
  0
LINE
  5
338
100
AcDbEntity
  8
0
100
AcDbLine
 62
7
  6
CONTINUOUS
 10
5.8145754943
 20
2.6359517805
 11
5.8160828988
 21
2.6158530543
  0
LINE
  5
339
100
AcDbEntity
  8
0
100
AcDbLine
 62
7
  6
CONTINUOUS
 10
5.8579881599
 20
2.5566944412
 11
5.858613764
 21
2.5483530543
  0
LINE
  5
33A
100
AcDbEntity
  8
0
100
AcDbLine
 62
7
  6
CONTINUOUS
 10
5.6906444099
 20
4.2891944412
 11
5.6906444099
 21
3.8849444412
  0
LINE
  5
33B
100
AcDbEntity
  8
0
100
AcDbLine
 62
7
  6
CONTINUOUS
 10
5.6906444099
 20
3.6944444412
 11
5.6906444099
 21
3.8549444412
  0
LINE
  5
33C
100
AcDbEntity
  8
0
100
AcDbLine
 62
7
  6
CONTINUOUS
 10
4.6406444099
 20
4.2891944412
 11
5.6906444099
 21
4.2891944412
  0
LINE
  5
33D
100
AcDbEntity
  8
0
100
AcDbLine
 62
7
  6
CONTINUOUS
 10
5.4248588368
 20
4.3630830958
 11
4.9064299831
 21
4.3630830958
  0
LINE
  5
33E
100
AcDbEntity
  8
0
100
AcDbLine
 62
7
  6
CONTINUOUS
 10
6.0380430859
 20
2.5856702884
 11
6.0394356285
 21
2.5671030543
  0
LINE
  5
33F
100
AcDbEntity
  8
0
100
AcDbLine
 62
7
  6
CONTINUOUS
 10
6.0980792372
 20
2.6074948515
 11
6.099421122
 21
2.5896030543
  0
LINE
  5
340
100
AcDbEntity
  8
0
100
AcDbLine
 62
7
  6
CONTINUOUS
 10
5.8448293317
 20
2.5566944412
 11
5.8442037277
 21
2.5483530543
  0
LINE
  5
341
100
AcDbEntity
  8
0
100
AcDbLine
 62
7
  6
CONTINUOUS
 10
5.8883418391
 20
2.5793548669
 11
5.8874229532
 21
2.5671030543
  0
LINE
  5
342
100
AcDbEntity
  8
0
100
AcDbLine
 62
7
  6
CONTINUOUS
 10
5.8993270178
 20
2.6116292131
 11
5.8976750559
 21
2.5896030543
  0
LINE
  5
343
100
AcDbEntity
  8
0
100
AcDbLine
 62
7
  6
CONTINUOUS
 10
5.9018965523
 20
2.6392178753
 11
5.9001441908
 21
2.6158530543
  0
LINE
  5
344
100
AcDbEntity
  8
0
100
AcDbLine
 62
7
  6
CONTINUOUS
 10
5.4248396981
 20
4.4479550396
 11
4.9064491218
 21
4.4479550396
  0
LINE
  5
345
100
AcDbEntity
  8
0
100
AcDbLine
 62
7
  6
CONTINUOUS
 10
4.8675673538
 20
4.4868368075
 11
5.4637214661
 21
4.4868368075
  0
LINE
  5
346
100
AcDbEntity
  8
0
100
AcDbLine
 62
7
  6
CONTINUOUS
 10
6.1228774825
 20
2.6350620344
 11
6.124318156
 21
2.6158530543
  0
LINE
  5
347
100
AcDbEntity
  8
0
100
AcDbLine
 62
7
  6
CONTINUOUS
 10
6.1641411087
 20
2.5791944412
 11
6.1650479628
 21
2.5671030543
  0
LINE
  5
348
100
AcDbEntity
  8
0
100
AcDbLine
 62
7
  6
CONTINUOUS
 10
5.9445450412
 20
2.5732861915
 11
5.9426750559
 21
2.5483530543
  0
LINE
  5
349
100
AcDbEntity
  8
0
100
AcDbLine
 62
7
  6
CONTINUOUS
 10
4.8393944099
 20
4.5865388637
 11
5.4918944099
 21
4.5865388637
  0
LINE
  5
34A
100
AcDbEntity
  8
0
100
AcDbLine
 62
7
  6
CONTINUOUS
 10
6.3174461846
 20
2.606704875
 11
6.3187288212
 21
2.5896030543
  0
LINE
  5
34B
100
AcDbEntity
  8
0
100
AcDbLine
 62
7
  6
CONTINUOUS
 10
6.387440597
 20
2.6342161519
 11
6.3888178293
 21
2.6158530543
  0
LINE
  5
34C
100
AcDbEntity
  8
0
100
AcDbLine
 62
7
  6
CONTINUOUS
 10
6.2606444099
 20
3.4761944412
 11
6.2606444099
 21
3.6944444412
  0
LINE
  5
34D
100
AcDbEntity
  8
0
100
AcDbLine
 62
7
  6
CONTINUOUS
 10
6.1244037744
 20
2.5791944412
 11
6.1234969204
 21
2.5671030543
  0
LINE
  5
34E
100
AcDbEntity
  8
0
100
AcDbLine
 62
7
  6
CONTINUOUS
 10
6.184670518
 20
2.6054444412
 11
6.183482414
 21
2.5896030543
  0
LINE
  5
34F
100
AcDbEntity
  8
0
100
AcDbLine
 62
7
  6
CONTINUOUS
 10
6.2101746303
 20
2.6397888188
 11
6.2083794479
 21
2.6158530543
  0
LINE
  5
350
100
AcDbEntity
  8
0
100
AcDbLine
 62
7
  6
CONTINUOUS
 10
6.2508264914
 20
2.5899995436
 11
6.2491092547
 21
2.5671030543
  0
LINE
  5
351
100
AcDbEntity
  8
0
100
AcDbLine
 62
7
  6
CONTINUOUS
 10
5.5050194099
 20
4.8281347514
 11
4.8262694099
 21
4.8281347514
  0
LINE
  5
352
100
AcDbEntity
  8
0
100
AcDbLine
 62
7
  6
CONTINUOUS
 10
6.4554033002
 20
2.6054444412
 11
6.4565914042
 21
2.5896030543
  0
LINE
  5
353
100
AcDbEntity
  8
0
100
AcDbLine
 62
7
  6
CONTINUOUS
 10
6.5967022796
 20
2.6334495113
 11
6.5980220139
 21
2.6158530543
  0
LINE
  5
354
100
AcDbEntity
  8
0
100
AcDbLine
 62
7
  6
CONTINUOUS
 10
6.4039782172
 20
2.6054444412
 11
6.4027901131
 21
2.5896030543
  0
LINE
  5
355
100
AcDbEntity
  8
0
100
AcDbLine
 62
7
  6
CONTINUOUS
 10
6.2539536087
 20
2.5900086938
 11
6.2539533147
 21
2.5900069997
  0
LINE
  5
356
100
AcDbEntity
  8
0
100
AcDbLine
 62
7
  6
CONTINUOUS
 10
6.7415168503
 20
2.6327948227
 11
6.7427874829
 21
2.6158530543
  0
LINE
  5
357
100
AcDbEntity
  8
0
100
AcDbLine
 62
7
  6
CONTINUOUS
 10
6.4747054899
 20
2.6402046352
 11
6.4728791213
 21
2.6158530543
  0
LINE
  5
358
100
AcDbEntity
  8
0
100
AcDbLine
 62
7
  6
CONTINUOUS
 10
6.5423618267
 20
2.6123914613
 11
6.5406526962
 21
2.5896030543
  0
LINE
  5
359
100
AcDbEntity
  8
0
100
AcDbLine
 62
7
  6
CONTINUOUS
 10
6.5893676482
 20
2.6121709507
 11
6.5876750559
 21
2.5896030543
  0
LINE
  5
35A
100
AcDbEntity
  8
0
100
AcDbLine
 62
7
  6
CONTINUOUS
 10
6.683927779
 20
2.6404460294
 11
6.6820833059
 21
2.6158530543
  0
LINE
  5
35B
100
AcDbEntity
  8
0
100
AcDbLine
 62
7
  6
CONTINUOUS
 10
6.8286973255
 20
2.6405003949
 11
6.8268487749
 21
2.6158530543
  0
LINE
  5
35C
100
AcDbEntity
  8
0
100
AcDbLine
 62
7
  6
CONTINUOUS
 10
6.902686828
 20
2.6403629911
 11
6.9008485828
 21
2.6158530543
  0
LINE
  5
35D
100
AcDbEntity
  8
0
100
AcDbLine
 62
7
  6
CONTINUOUS
 10
6.7379463413
 20
2.6319753703
 11
6.7379431289
 21
2.6319592726
  0
LINE
  5
35E
100
AcDbEntity
  8
0
100
AcDbLine
 62
7
  6
CONTINUOUS
 10
7.1512694099
 20
2.6485430353
 11
7.3818944099
 21
2.7816944412
  0
LINE
  5
35F
100
AcDbEntity
  8
0
100
AcDbLine
 62
7
  6
CONTINUOUS
 10
7.3818944099
 20
2.7816944412
 11
7.3818944099
 21
3.4761944412
  0
ARC
  5
360
100
AcDbEntity
  8
0
100
AcDbCircle
 62
7
  6
CONTINUOUS
 10
3.8831270204
 20
3.353621176
 40
0.75
100
AcDbArc
 50
269.436568511
 51
270.0
  0
ARC
  5
361
100
AcDbEntity
  8
0
100
AcDbCircle
 62
7
  6
CONTINUOUS
 10
3.7992333934
 20
3.3599708819
 40
0.75
100
AcDbArc
 50
264.9067277485
 51
265.3758736767
  0
ARC
  5
362
100
AcDbEntity
  8
0
100
AcDbCircle
 62
7
  6
CONTINUOUS
 10
3.7992333934
 20
3.3599708819
 40
0.75
100
AcDbArc
 50
257.5196096022
 51
258.4056086725
  0
ARC
  5
363
100
AcDbEntity
  8
0
100
AcDbCircle
 62
7
  6
CONTINUOUS
 10
4.1072135914
 20
3.338641671
 40
0.75
100
AcDbArc
 50
262.7784664521
 51
266.542266468
  0
ARC
  5
364
100
AcDbEntity
  8
0
100
AcDbCircle
 62
7
  6
CONTINUOUS
 10
3.6168944099
 20
2.5361586717
 40
0.09375
100
AcDbArc
 50
77.5196096022
 51
81.5486214431
  0
ARC
  5
365
100
AcDbEntity
  8
0
100
AcDbCircle
 62
7
  6
CONTINUOUS
 10
4.2300143743
 20
2.6474518079
 40
0.0419795056
100
AcDbArc
 50
274.1724142541
 51
274.915297334
  0
ARC
  5
366
100
AcDbEntity
  8
0
100
AcDbCircle
 62
7
  6
CONTINUOUS
 10
4.0933980574
 20
2.5679444412
 40
0.01125
100
AcDbArc
 50
184.2891533288
 51
270.0
  0
ARC
  5
367
100
AcDbEntity
  8
0
100
AcDbCircle
 62
7
  6
CONTINUOUS
 10
4.1550223649
 20
2.5679444412
 40
0.01125
100
AcDbArc
 50
270.0
 51
355.7108466712
  0
ARC
  5
368
100
AcDbEntity
  8
0
100
AcDbCircle
 62
7
  6
CONTINUOUS
 10
4.2190103917
 20
2.5679444412
 40
0.01125
100
AcDbArc
 50
184.2891533288
 51
270.0
  0
ARC
  5
369
100
AcDbEntity
  8
0
100
AcDbCircle
 62
7
  6
CONTINUOUS
 10
4.2806346992
 20
2.5679444412
 40
0.01125
100
AcDbArc
 50
270.0
 51
355.7108466712
  0
ARC
  5
36A
100
AcDbEntity
  8
0
100
AcDbCircle
 62
7
  6
CONTINUOUS
 10
3.8018546159
 20
2.5904444412
 40
0.01125
100
AcDbArc
 50
184.2891533288
 51
270.0
  0
ARC
  5
36B
100
AcDbEntity
  8
0
100
AcDbCircle
 62
7
  6
CONTINUOUS
 10
3.8634789234
 20
2.5904444412
 40
0.01125
100
AcDbArc
 50
270.0
 51
355.7108466712
  0
ARC
  5
36C
100
AcDbEntity
  8
0
100
AcDbCircle
 62
7
  6
CONTINUOUS
 10
3.7548322562
 20
2.5904444412
 40
0.01125
100
AcDbArc
 50
184.2891533288
 51
270.0
  0
ARC
  5
36D
100
AcDbEntity
  8
0
100
AcDbCircle
 62
7
  6
CONTINUOUS
 10
4.1590248982
 20
2.5904444412
 40
0.01125
100
AcDbArc
 50
184.2891533288
 51
270.0
  0
ARC
  5
36E
100
AcDbEntity
  8
0
100
AcDbCircle
 62
7
  6
CONTINUOUS
 10
4.2206492056
 20
2.5904444412
 40
0.01125
100
AcDbArc
 50
270.0
 51
355.7108466712
  0
ARC
  5
36F
100
AcDbEntity
  8
0
100
AcDbCircle
 62
7
  6
CONTINUOUS
 10
3.939717199
 20
2.5904444412
 40
0.01125
100
AcDbArc
 50
184.2891533288
 51
270.0
  0
ARC
  5
370
100
AcDbEntity
  8
0
100
AcDbCircle
 62
7
  6
CONTINUOUS
 10
4.0013415065
 20
2.5904444412
 40
0.01125
100
AcDbArc
 50
270.0
 51
355.7108466712
  0
ARC
  5
371
100
AcDbEntity
  8
0
100
AcDbCircle
 62
7
  6
CONTINUOUS
 10
3.5156585372
 20
2.6166944412
 40
0.01125
100
AcDbArc
 50
184.2891533288
 51
270.0
  0
ARC
  5
372
100
AcDbEntity
  8
0
100
AcDbCircle
 62
7
  6
CONTINUOUS
 10
3.5772828447
 20
2.6166944412
 40
0.01125
100
AcDbArc
 50
270.0
 51
355.7108466712
  0
ARC
  5
373
100
AcDbEntity
  8
0
100
AcDbCircle
 62
7
  6
CONTINUOUS
 10
3.4416587293
 20
2.6166944412
 40
0.01125
100
AcDbArc
 50
184.2891533288
 51
270.0
  0
ARC
  5
374
100
AcDbEntity
  8
0
100
AcDbCircle
 62
7
  6
CONTINUOUS
 10
3.5032830368
 20
2.6166944412
 40
0.01125
100
AcDbArc
 50
270.0
 51
303.3724401711
  0
ARC
  5
375
100
AcDbEntity
  8
0
100
AcDbCircle
 62
7
  6
CONTINUOUS
 10
4.1341278642
 20
2.6166944412
 40
0.01125
100
AcDbArc
 50
184.2891533288
 51
270.0
  0
ARC
  5
376
100
AcDbEntity
  8
0
100
AcDbCircle
 62
7
  6
CONTINUOUS
 10
4.1957521717
 20
2.6166944412
 40
0.01125
100
AcDbArc
 50
270.0
 51
355.7108466712
  0
ARC
  5
377
100
AcDbEntity
  8
0
100
AcDbCircle
 62
7
  6
CONTINUOUS
 10
3.8696281908
 20
2.6166944412
 40
0.01125
100
AcDbArc
 50
184.2891533288
 51
270.0
  0
ARC
  5
378
100
AcDbEntity
  8
0
100
AcDbCircle
 62
7
  6
CONTINUOUS
 10
3.9312524983
 20
2.6166944412
 40
0.01125
100
AcDbArc
 50
270.0
 51
355.7108466712
  0
ARC
  5
379
100
AcDbEntity
  8
0
100
AcDbCircle
 62
7
  6
CONTINUOUS
 10
3.6604240062
 20
2.6166944412
 40
0.01125
100
AcDbArc
 50
184.2891533288
 51
270.0
  0
ARC
  5
37A
100
AcDbEntity
  8
0
100
AcDbCircle
 62
7
  6
CONTINUOUS
 10
3.7220483137
 20
2.6166944412
 40
0.01125
100
AcDbArc
 50
270.0
 51
355.7108466712
  0
ARC
  5
37B
100
AcDbEntity
  8
0
100
AcDbCircle
 62
7
  6
CONTINUOUS
 10
4.415159002
 20
3.3227489111
 40
0.75
100
AcDbArc
 50
260.6280914035
 51
267.549018051
  0
ARC
  5
37C
100
AcDbEntity
  8
0
100
AcDbCircle
 62
7
  6
CONTINUOUS
 10
4.7230697316
 20
3.312275993
 40
0.75
100
AcDbArc
 50
262.1107693362
 51
268.5548996513
  0
ARC
  5
37D
100
AcDbEntity
  8
0
100
AcDbCircle
 62
7
  6
CONTINUOUS
 10
4.766929369
 20
2.3339635242
 40
0.2393736214
100
AcDbArc
 50
91.3086749266
 51
92.2457207259
  0
ARC
  5
37E
100
AcDbEntity
  8
0
100
AcDbCircle
 62
7
  6
CONTINUOUS
 10
4.7759486815
 20
2.4095744508
 40
0.1802842626
100
AcDbArc
 50
93.0230985517
 51
93.1492372134
  0
ARC
  5
37F
100
AcDbEntity
  8
0
100
AcDbCircle
 62
7
  6
CONTINUOUS
 10
4.5257650307
 20
2.6345966913
 40
0.0497858838
100
AcDbArc
 50
274.0336343809
 51
274.2356327294
  0
ARC
  5
380
100
AcDbEntity
  8
0
100
AcDbCircle
 62
7
  6
CONTINUOUS
 10
4.5259667795
 20
2.6320583691
 40
0.0472395955
100
AcDbArc
 50
274.2189905134
 51
274.8303286534
  0
ARC
  5
381
100
AcDbEntity
  8
0
100
AcDbCircle
 62
7
  6
CONTINUOUS
 10
5.1348322562
 20
2.5416944412
 40
0.01125
100
AcDbArc
 50
184.2891533288
 51
270.0
  0
ARC
  5
382
100
AcDbEntity
  8
0
100
AcDbCircle
 62
7
  6
CONTINUOUS
 10
4.7775967771
 20
2.5416944412
 40
0.01125
100
AcDbArc
 50
199.4448450068
 51
270.0
  0
ARC
  5
383
100
AcDbEntity
  8
0
100
AcDbCircle
 62
7
  6
CONTINUOUS
 10
4.8392210846
 20
2.5416944412
 40
0.01125
100
AcDbArc
 50
270.0
 51
355.7108466712
  0
ARC
  5
384
100
AcDbEntity
  8
0
100
AcDbCircle
 62
7
  6
CONTINUOUS
 10
4.3998322562
 20
2.5491944412
 40
0.01125
100
AcDbArc
 50
184.2891533288
 51
270.0
  0
ARC
  5
385
100
AcDbEntity
  8
0
100
AcDbCircle
 62
7
  6
CONTINUOUS
 10
4.4614565637
 20
2.5491944412
 40
0.01125
100
AcDbArc
 50
270.0
 51
355.7108466712
  0
ARC
  5
386
100
AcDbEntity
  8
0
100
AcDbCircle
 62
7
  6
CONTINUOUS
 10
5.1348322562
 20
2.5491944412
 40
0.01125
100
AcDbArc
 50
184.2891533288
 51
270.0
  0
ARC
  5
387
100
AcDbEntity
  8
0
100
AcDbCircle
 62
7
  6
CONTINUOUS
 10
4.7673322562
 20
2.5491944412
 40
0.01125
100
AcDbArc
 50
184.2891533288
 51
270.0
  0
ARC
  5
388
100
AcDbEntity
  8
0
100
AcDbCircle
 62
7
  6
CONTINUOUS
 10
4.8289565637
 20
2.5491944412
 40
0.01125
100
AcDbArc
 50
270.0
 51
355.7108466712
  0
ARC
  5
389
100
AcDbEntity
  8
0
100
AcDbCircle
 62
7
  6
CONTINUOUS
 10
4.4983035844
 20
2.5491944412
 40
0.01125
100
AcDbArc
 50
184.2891533288
 51
270.0
  0
ARC
  5
38A
100
AcDbEntity
  8
0
100
AcDbCircle
 62
7
  6
CONTINUOUS
 10
4.5599278919
 20
2.5491944412
 40
0.01125
100
AcDbArc
 50
270.0
 51
355.7108466712
  0
ARC
  5
38B
100
AcDbEntity
  8
0
100
AcDbCircle
 62
7
  6
CONTINUOUS
 10
5.1348322562
 20
2.5679444412
 40
0.01125
100
AcDbArc
 50
184.2891533288
 51
270.0
  0
ARC
  5
38C
100
AcDbEntity
  8
0
100
AcDbCircle
 62
7
  6
CONTINUOUS
 10
4.7731459546
 20
2.5679444412
 40
0.01125
100
AcDbArc
 50
184.2891533288
 51
270.0
  0
ARC
  5
38D
100
AcDbEntity
  8
0
100
AcDbCircle
 62
7
  6
CONTINUOUS
 10
4.8347702621
 20
2.5679444412
 40
0.01125
100
AcDbArc
 50
270.0
 51
355.7108466712
  0
ARC
  5
38E
100
AcDbEntity
  8
0
100
AcDbCircle
 62
7
  6
CONTINUOUS
 10
4.4550843589
 20
2.5679444412
 40
0.01125
100
AcDbArc
 50
184.2891533288
 51
270.0
  0
ARC
  5
38F
100
AcDbEntity
  8
0
100
AcDbCircle
 62
7
  6
CONTINUOUS
 10
4.5167086664
 20
2.5679444412
 40
0.01125
100
AcDbArc
 50
270.0
 51
355.7108466712
  0
ARC
  5
390
100
AcDbEntity
  8
0
100
AcDbCircle
 62
7
  6
CONTINUOUS
 10
5.1348322562
 20
2.5904444412
 40
0.01125
100
AcDbArc
 50
184.2891533288
 51
270.0
  0
ARC
  5
391
100
AcDbEntity
  8
0
100
AcDbCircle
 62
7
  6
CONTINUOUS
 10
4.777661974
 20
2.5904444412
 40
0.01125
100
AcDbArc
 50
184.2891533288
 51
270.0
  0
ARC
  5
392
100
AcDbEntity
  8
0
100
AcDbCircle
 62
7
  6
CONTINUOUS
 10
4.8392862814
 20
2.5904444412
 40
0.01125
100
AcDbArc
 50
270.0
 51
355.7108466712
  0
ARC
  5
393
100
AcDbEntity
  8
0
100
AcDbCircle
 62
7
  6
CONTINUOUS
 10
4.4448322562
 20
2.5904444412
 40
0.01125
100
AcDbArc
 50
184.2891533288
 51
270.0
  0
ARC
  5
394
100
AcDbEntity
  8
0
100
AcDbCircle
 62
7
  6
CONTINUOUS
 10
4.5064565637
 20
2.5904444412
 40
0.01125
100
AcDbArc
 50
270.0
 51
355.7108466712
  0
ARC
  5
395
100
AcDbEntity
  8
0
100
AcDbCircle
 62
7
  6
CONTINUOUS
 10
5.1348322562
 20
2.6166944412
 40
0.01125
100
AcDbArc
 50
184.2891533288
 51
270.0
  0
ARC
  5
396
100
AcDbEntity
  8
0
100
AcDbCircle
 62
7
  6
CONTINUOUS
 10
4.7808626026
 20
2.6166944412
 40
0.01125
100
AcDbArc
 50
184.2891533288
 51
270.0
  0
ARC
  5
397
100
AcDbEntity
  8
0
100
AcDbCircle
 62
7
  6
CONTINUOUS
 10
4.8424869101
 20
2.6166944412
 40
0.01125
100
AcDbArc
 50
270.0
 51
355.7108466712
  0
ARC
  5
398
100
AcDbEntity
  8
0
100
AcDbCircle
 62
7
  6
CONTINUOUS
 10
4.4423631214
 20
2.6166944412
 40
0.01125
100
AcDbArc
 50
184.2891533288
 51
270.0
  0
ARC
  5
399
100
AcDbEntity
  8
0
100
AcDbCircle
 62
7
  6
CONTINUOUS
 10
4.5039874288
 20
2.6166944412
 40
0.01125
100
AcDbArc
 50
270.0
 51
355.7108466712
  0
ARC
  5
39A
100
AcDbEntity
  8
0
100
AcDbCircle
 62
7
  6
CONTINUOUS
 10
4.9672694099
 20
4.5865388637
 40
0.141
100
AcDbArc
 50
204.9175653171
 51
225.0
  0
ARC
  5
39B
100
AcDbEntity
  8
0
100
AcDbCircle
 62
7
  6
CONTINUOUS
 10
4.8640227149
 20
4.4055286327
 40
0.06
100
AcDbArc
 50
314.9741595356
 51
45.0
  0
ARC
  5
39C
100
AcDbEntity
  8
0
100
AcDbCircle
 62
7
  6
CONTINUOUS
 10
4.6556444099
 20
3.8549444412
 40
0.015
100
AcDbArc
 50
90.0
 51
180.0
  0
ARC
  5
39D
100
AcDbEntity
  8
0
100
AcDbCircle
 62
7
  6
CONTINUOUS
 10
4.6556444099
 20
3.8849444412
 40
0.015
100
AcDbArc
 50
180.0
 51
270.0
  0
ARC
  5
39E
100
AcDbEntity
  8
0
100
AcDbCircle
 62
7
  6
CONTINUOUS
 10
5.8055717184
 20
2.6352597188
 40
0.0504506403
100
AcDbArc
 50
265.7656980747
 51
265.9650348181
  0
ARC
  5
39F
100
AcDbEntity
  8
0
100
AcDbCircle
 62
7
  6
CONTINUOUS
 10
5.4920677353
 20
2.5416944412
 40
0.01125
100
AcDbArc
 50
184.2891533288
 51
270.0
  0
ARC
  5
3A0
100
AcDbEntity
  8
0
100
AcDbCircle
 62
7
  6
CONTINUOUS
 10
5.5536920427
 20
2.5416944412
 40
0.01125
100
AcDbArc
 50
270.0
 51
340.5551549932
  0
ARC
  5
3A1
100
AcDbEntity
  8
0
100
AcDbCircle
 62
7
  6
CONTINUOUS
 10
5.1964565637
 20
2.5416944412
 40
0.01125
100
AcDbArc
 50
270.0
 51
355.7108466712
  0
ARC
  5
3A2
100
AcDbEntity
  8
0
100
AcDbCircle
 62
7
  6
CONTINUOUS
 10
5.8698322562
 20
2.5491944412
 40
0.01125
100
AcDbArc
 50
184.2891533288
 51
270.0
  0
ARC
  5
3A3
100
AcDbEntity
  8
0
100
AcDbCircle
 62
7
  6
CONTINUOUS
 10
5.9314565637
 20
2.5491944412
 40
0.01125
100
AcDbArc
 50
270.0
 51
355.7108466712
  0
ARC
  5
3A4
100
AcDbEntity
  8
0
100
AcDbCircle
 62
7
  6
CONTINUOUS
 10
5.771360928
 20
2.5491944412
 40
0.01125
100
AcDbArc
 50
184.2891533288
 51
270.0
  0
ARC
  5
3A5
100
AcDbEntity
  8
0
100
AcDbCircle
 62
7
  6
CONTINUOUS
 10
5.8329852355
 20
2.5491944412
 40
0.01125
100
AcDbArc
 50
270.0
 51
355.7108466712
  0
ARC
  5
3A6
100
AcDbEntity
  8
0
100
AcDbCircle
 62
7
  6
CONTINUOUS
 10
5.5023322562
 20
2.5491944412
 40
0.01125
100
AcDbArc
 50
184.2891533288
 51
270.0
  0
ARC
  5
3A7
100
AcDbEntity
  8
0
100
AcDbCircle
 62
7
  6
CONTINUOUS
 10
5.5639565637
 20
2.5491944412
 40
0.01125
100
AcDbArc
 50
270.0
 51
355.7108466712
  0
ARC
  5
3A8
100
AcDbEntity
  8
0
100
AcDbCircle
 62
7
  6
CONTINUOUS
 10
5.1964565637
 20
2.5491944412
 40
0.01125
100
AcDbArc
 50
270.0
 51
355.7108466712
  0
ARC
  5
3A9
100
AcDbEntity
  8
0
100
AcDbCircle
 62
7
  6
CONTINUOUS
 10
5.8145801534
 20
2.5679444412
 40
0.01125
100
AcDbArc
 50
184.2891533288
 51
270.0
  0
ARC
  5
3AA
100
AcDbEntity
  8
0
100
AcDbCircle
 62
7
  6
CONTINUOUS
 10
5.8762044609
 20
2.5679444412
 40
0.01125
100
AcDbArc
 50
270.0
 51
355.7108466712
  0
ARC
  5
3AB
100
AcDbEntity
  8
0
100
AcDbCircle
 62
7
  6
CONTINUOUS
 10
5.4965185578
 20
2.5679444412
 40
0.01125
100
AcDbArc
 50
184.2891533288
 51
270.0
  0
ARC
  5
3AC
100
AcDbEntity
  8
0
100
AcDbCircle
 62
7
  6
CONTINUOUS
 10
5.5581428652
 20
2.5679444412
 40
0.01125
100
AcDbArc
 50
270.0
 51
355.7108466712
  0
ARC
  5
3AD
100
AcDbEntity
  8
0
100
AcDbCircle
 62
7
  6
CONTINUOUS
 10
5.1964565637
 20
2.5679444412
 40
0.01125
100
AcDbArc
 50
270.0
 51
355.7108466712
  0
ARC
  5
3AE
100
AcDbEntity
  8
0
100
AcDbCircle
 62
7
  6
CONTINUOUS
 10
5.8248322562
 20
2.5904444412
 40
0.01125
100
AcDbArc
 50
184.2891533288
 51
270.0
  0
ARC
  5
3AF
100
AcDbEntity
  8
0
100
AcDbCircle
 62
7
  6
CONTINUOUS
 10
5.8864565637
 20
2.5904444412
 40
0.01125
100
AcDbArc
 50
270.0
 51
355.7108466712
  0
ARC
  5
3B0
100
AcDbEntity
  8
0
100
AcDbCircle
 62
7
  6
CONTINUOUS
 10
5.4920025384
 20
2.5904444412
 40
0.01125
100
AcDbArc
 50
184.2891533288
 51
270.0
  0
ARC
  5
3B1
100
AcDbEntity
  8
0
100
AcDbCircle
 62
7
  6
CONTINUOUS
 10
5.5536268459
 20
2.5904444412
 40
0.01125
100
AcDbArc
 50
270.0
 51
355.7108466712
  0
ARC
  5
3B2
100
AcDbEntity
  8
0
100
AcDbCircle
 62
7
  6
CONTINUOUS
 10
5.1964565637
 20
2.5904444412
 40
0.01125
100
AcDbArc
 50
270.0
 51
355.7108466712
  0
ARC
  5
3B3
100
AcDbEntity
  8
0
100
AcDbCircle
 62
7
  6
CONTINUOUS
 10
5.827301391
 20
2.6166944412
 40
0.01125
100
AcDbArc
 50
184.2891533288
 51
270.0
  0
ARC
  5
3B4
100
AcDbEntity
  8
0
100
AcDbCircle
 62
7
  6
CONTINUOUS
 10
5.8889256985
 20
2.6166944412
 40
0.01125
100
AcDbArc
 50
270.0
 51
355.7108466712
  0
ARC
  5
3B5
100
AcDbEntity
  8
0
100
AcDbCircle
 62
7
  6
CONTINUOUS
 10
5.4888019098
 20
2.6166944412
 40
0.01125
100
AcDbArc
 50
184.2891533288
 51
270.0
  0
ARC
  5
3B6
100
AcDbEntity
  8
0
100
AcDbCircle
 62
7
  6
CONTINUOUS
 10
5.5504262173
 20
2.6166944412
 40
0.01125
100
AcDbArc
 50
270.0
 51
355.7108466712
  0
ARC
  5
3B7
100
AcDbEntity
  8
0
100
AcDbCircle
 62
7
  6
CONTINUOUS
 10
5.1964565637
 20
2.6166944412
 40
0.01125
100
AcDbArc
 50
270.0
 51
355.7108466712
  0
ARC
  5
3B8
100
AcDbEntity
  8
0
100
AcDbCircle
 62
7
  6
CONTINUOUS
 10
5.9161298179
 20
3.3227489111
 40
0.75
100
AcDbArc
 50
272.450981949
 51
279.3719085964
  0
ARC
  5
3B9
100
AcDbEntity
  8
0
100
AcDbCircle
 62
7
  6
CONTINUOUS
 10
5.6082190883
 20
3.312275993
 40
0.75
100
AcDbArc
 50
271.4451003487
 51
277.8892306638
  0
ARC
  5
3BA
100
AcDbEntity
  8
0
100
AcDbCircle
 62
7
  6
CONTINUOUS
 10
5.1656444099
 20
4.1036347514
 40
0.36675
100
AcDbArc
 50
30.394893546
 51
45.0258404644
  0
ARC
  5
3BB
100
AcDbEntity
  8
0
100
AcDbCircle
 62
7
  6
CONTINUOUS
 10
5.1656444099
 20
4.1036347514
 40
0.36675
100
AcDbArc
 50
134.9741595356
 51
149.605106454
  0
ARC
  5
3BC
100
AcDbEntity
  8
0
100
AcDbCircle
 62
7
  6
CONTINUOUS
 10
5.3640194099
 20
4.5865388637
 40
0.141
100
AcDbArc
 50
315.0
 51
335.0824346829
  0
ARC
  5
3BD
100
AcDbEntity
  8
0
100
AcDbCircle
 62
7
  6
CONTINUOUS
 10
5.467266105
 20
4.4055286327
 40
0.06
100
AcDbArc
 50
135.0
 51
225.0258404644
  0
ARC
  5
3BE
100
AcDbEntity
  8
0
100
AcDbCircle
 62
7
  6
CONTINUOUS
 10
5.6756444099
 20
3.8549444412
 40
0.015
100
AcDbArc
 50
0.0
 51
90.0
  0
ARC
  5
3BF
100
AcDbEntity
  8
0
100
AcDbCircle
 62
7
  6
CONTINUOUS
 10
5.6756444099
 20
3.8849444412
 40
0.015
100
AcDbArc
 50
270.0
 51
360.0
  0
ARC
  5
3C0
100
AcDbEntity
  8
0
100
AcDbCircle
 62
7
  6
CONTINUOUS
 10
6.4157266906
 20
1.8914038764
 40
0.7212199678
100
AcDbArc
 50
92.0645993725
 51
92.5056100669
  0
ARC
  5
3C1
100
AcDbEntity
  8
0
100
AcDbCircle
 62
7
  6
CONTINUOUS
 10
6.5632557562
 20
2.0306709201
 40
0.5821156567
100
AcDbArc
 50
92.4654046215
 51
93.1007838285
  0
ARC
  5
3C2
100
AcDbEntity
  8
0
100
AcDbCircle
 62
7
  6
CONTINUOUS
 10
6.7143944099
 20
2.5361586717
 40
0.09375
100
AcDbArc
 50
98.4513785569
 51
102.4803903978
  0
ARC
  5
3C3
100
AcDbEntity
  8
0
100
AcDbCircle
 62
7
  6
CONTINUOUS
 10
6.101412806
 20
2.6491928055
 40
0.0437259572
100
AcDbArc
 50
265.0995385498
 51
265.8127498713
  0
ARC
  5
3C4
100
AcDbEntity
  8
0
100
AcDbCircle
 62
7
  6
CONTINUOUS
 10
6.176266455
 20
2.5679444412
 40
0.01125
100
AcDbArc
 50
184.2891533288
 51
270.0
  0
ARC
  5
3C5
100
AcDbEntity
  8
0
100
AcDbCircle
 62
7
  6
CONTINUOUS
 10
6.2378907625
 20
2.5679444412
 40
0.01125
100
AcDbArc
 50
270.0
 51
355.7108466712
  0
ARC
  5
3C6
100
AcDbEntity
  8
0
100
AcDbCircle
 62
7
  6
CONTINUOUS
 10
6.0506541207
 20
2.5679444412
 40
0.01125
100
AcDbArc
 50
184.2891533288
 51
270.0
  0
ARC
  5
3C7
100
AcDbEntity
  8
0
100
AcDbCircle
 62
7
  6
CONTINUOUS
 10
6.1122784282
 20
2.5679444412
 40
0.01125
100
AcDbArc
 50
270.0
 51
355.7108466712
  0
ARC
  5
3C8
100
AcDbEntity
  8
0
100
AcDbCircle
 62
7
  6
CONTINUOUS
 10
6.5764565637
 20
2.5904444412
 40
0.01125
100
AcDbArc
 50
270.0
 51
355.7108466712
  0
ARC
  5
3C9
100
AcDbEntity
  8
0
100
AcDbCircle
 62
7
  6
CONTINUOUS
 10
6.4678098965
 20
2.5904444412
 40
0.01125
100
AcDbArc
 50
184.2891533288
 51
270.0
  0
ARC
  5
3CA
100
AcDbEntity
  8
0
100
AcDbCircle
 62
7
  6
CONTINUOUS
 10
6.529434204
 20
2.5904444412
 40
0.01125
100
AcDbArc
 50
270.0
 51
355.7108466712
  0
ARC
  5
3CB
100
AcDbEntity
  8
0
100
AcDbCircle
 62
7
  6
CONTINUOUS
 10
6.3299473134
 20
2.5904444412
 40
0.01125
100
AcDbArc
 50
184.2891533288
 51
270.0
  0
ARC
  5
3CC
100
AcDbEntity
  8
0
100
AcDbCircle
 62
7
  6
CONTINUOUS
 10
6.3915716209
 20
2.5904444412
 40
0.01125
100
AcDbArc
 50
270.0
 51
355.7108466712
  0
ARC
  5
3CD
100
AcDbEntity
  8
0
100
AcDbCircle
 62
7
  6
CONTINUOUS
 10
6.1106396142
 20
2.5904444412
 40
0.01125
100
AcDbArc
 50
184.2891533288
 51
270.0
  0
ARC
  5
3CE
100
AcDbEntity
  8
0
100
AcDbCircle
 62
7
  6
CONTINUOUS
 10
6.1722639217
 20
2.5904444412
 40
0.01125
100
AcDbArc
 50
270.0
 51
355.7108466712
  0
ARC
  5
3CF
100
AcDbEntity
  8
0
100
AcDbCircle
 62
7
  6
CONTINUOUS
 10
6.8280057831
 20
2.6166944412
 40
0.01125
100
AcDbArc
 50
236.6275598289
 51
270.0
  0
ARC
  5
3D0
100
AcDbEntity
  8
0
100
AcDbCircle
 62
7
  6
CONTINUOUS
 10
6.8896300905
 20
2.6166944412
 40
0.01125
100
AcDbArc
 50
270.0
 51
355.7108466712
  0
ARC
  5
3D1
100
AcDbEntity
  8
0
100
AcDbCircle
 62
7
  6
CONTINUOUS
 10
6.7540059752
 20
2.6166944412
 40
0.01125
100
AcDbArc
 50
184.2891533288
 51
270.0
  0
ARC
  5
3D2
100
AcDbEntity
  8
0
100
AcDbCircle
 62
7
  6
CONTINUOUS
 10
6.8156302827
 20
2.6166944412
 40
0.01125
100
AcDbArc
 50
270.0
 51
355.7108466712
  0
ARC
  5
3D3
100
AcDbEntity
  8
0
100
AcDbCircle
 62
7
  6
CONTINUOUS
 10
6.6092405061
 20
2.6166944412
 40
0.01125
100
AcDbArc
 50
184.2891533288
 51
270.0
  0
ARC
  5
3D4
100
AcDbEntity
  8
0
100
AcDbCircle
 62
7
  6
CONTINUOUS
 10
6.6708648136
 20
2.6166944412
 40
0.01125
100
AcDbArc
 50
270.0
 51
355.7108466712
  0
ARC
  5
3D5
100
AcDbEntity
  8
0
100
AcDbCircle
 62
7
  6
CONTINUOUS
 10
6.4000363216
 20
2.6166944412
 40
0.01125
100
AcDbArc
 50
184.2891533288
 51
270.0
  0
ARC
  5
3D6
100
AcDbEntity
  8
0
100
AcDbCircle
 62
7
  6
CONTINUOUS
 10
6.4616606291
 20
2.6166944412
 40
0.01125
100
AcDbArc
 50
270.0
 51
355.7108466712
  0
ARC
  5
3D7
100
AcDbEntity
  8
0
100
AcDbCircle
 62
7
  6
CONTINUOUS
 10
6.1355366482
 20
2.6166944412
 40
0.01125
100
AcDbArc
 50
184.2891533288
 51
270.0
  0
ARC
  5
3D8
100
AcDbEntity
  8
0
100
AcDbCircle
 62
7
  6
CONTINUOUS
 10
6.1971609557
 20
2.6166944412
 40
0.01125
100
AcDbArc
 50
270.0
 51
355.7108466712
  0
ARC
  5
3D9
100
AcDbEntity
  8
0
100
AcDbCircle
 62
7
  6
CONTINUOUS
 10
6.52741591
 20
3.4446666504
 40
0.834797026
100
AcDbArc
 50
274.3258192995
 51
274.4728802641
  0
ARC
  5
3DA
100
AcDbEntity
  8
0
100
AcDbCircle
 62
7
  6
CONTINUOUS
 10
6.4481617995
 20
3.353621176
 40
0.75
100
AcDbArc
 50
270.0
 51
270.563431489
  0
ARC
  5
3DB
100
AcDbEntity
  8
0
100
AcDbCircle
 62
7
  6
CONTINUOUS
 10
6.5320554265
 20
3.3599708819
 40
0.75
100
AcDbArc
 50
274.6241263233
 51
275.0932722515
  0
ARC
  5
3DC
100
AcDbEntity
  8
0
100
AcDbCircle
 62
7
  6
CONTINUOUS
 10
6.5320554265
 20
3.3599708819
 40
0.75
100
AcDbArc
 50
281.5943913275
 51
282.4803903978
  0
ARC
  5
3DD
100
AcDbEntity
  8
0
100
AcDbCircle
 62
7
  6
CONTINUOUS
 10
6.2240752285
 20
3.338641671
 40
0.75
100
AcDbArc
 50
273.457733532
 51
277.2215335479
  0
ARC
  5
3DE
100
AcDbEntity
  8
0
100
AcDbCircle
 62
7
  6
CONTINUOUS
 10
5.1656444099
 20
20.8558908697
 40
18.2991964286
100
AcDbArc
 50
268.5548996513
 51
268.7145570226
  0
ARC
  5
3DF
100
AcDbEntity
  8
0
100
AcDbCircle
 62
7
  6
CONTINUOUS
 10
5.1656444099
 20
20.8558908697
 40
18.2991964286
100
AcDbArc
 50
266.542266468
 51
266.6004864405
  0
ARC
  5
3E0
100
AcDbEntity
  8
0
100
AcDbCircle
 62
7
  6
CONTINUOUS
 10
5.1656444099
 20
20.8558908697
 40
18.2991964286
100
AcDbArc
 50
273.3995135595
 51
273.457733532
  0
ARC
  5
3E1
100
AcDbEntity
  8
0
100
AcDbCircle
 62
7
  6
CONTINUOUS
 10
5.1656444099
 20
20.8558908697
 40
18.2991964286
100
AcDbArc
 50
271.2854429774
 51
271.4451003487
  0
ARC
  5
3E2
100
AcDbEntity
  8
0
100
AcDbCircle
 62
7
  6
CONTINUOUS
 10
5.1656444099
 20
20.8558908697
 40
18.2991964286
100
AcDbArc
 50
275.4467810755
 51
275.5881369289
  0
ARC
  5
3E3
100
AcDbEntity
  8
0
100
AcDbCircle
 62
7
  6
CONTINUOUS
 10
5.1656444099
 20
20.8558908697
 40
18.2991964286
100
AcDbArc
 50
264.4118630711
 51
264.5532189245
  0
SPLINE
  5
3E4
100
AcDbEntity
  8
0
100
AcDbSpline
 62
7
  6
CONTINUOUS
 70
0
 71
3
 72
11
 73
7
 74
0
 42
0.0000001
 43
0.0000001
 44
0.0000000001
 40
0.0
 40
0.0
 40
0.0
 40
0.0
 40
0.2610383952
 40
0.5176094977
 40
0.7653329239
 40
1.0
 40
1.0
 40
1.0
 40
1.0
 10
5.1656444099
 20
2.6405051467
 30
0.0
 10
5.1636041849
 20
2.6405051467
 30
0.0
 10
5.1595586063
 20
2.6404805635
 30
0.0
 10
5.1535777746
 20
2.6403703097
 30
0.0
 10
5.1478048838
 20
2.6401888168
 30
0.0
 10
5.1440383575
 20
2.6400170161
 30
0.0
 10
5.1422069099
 20
2.6399181907
 30
0.0
  0
SPLINE
  5
3E5
100
AcDbEntity
  8
0
100
AcDbSpline
 62
7
  6
CONTINUOUS
 70
0
 71
3
 72
35
 73
31
 74
0
 42
0.0000001
 43
0.0000001
 44
0.0000000001
 40
0.0
 40
0.0
 40
0.0
 40
0.0
 40
0.1084876145
 40
0.2123529038
 40
0.311158965
 40
0.4044972253
 40
0.4919832045
 40
0.5732621696
 40
0.6480100346
 40
0.7159366163
 40
0.7767891803
 40
0.8044961909
 40
0.8303597596
 40
0.8543621312
 40
0.8764892805
 40
0.8967325485
 40
0.9150894502
 40
0.9315658191
 40
0.9461792648
 40
0.9589640611
 40
0.9646900905
 40
0.9699851488
 40
0.9748639605
 40
0.9793460131
 40
0.9834567824
 40
0.9872296091
 40
0.9907079827
 40
0.9939477719
 40
0.9970180932
 40
1.0
 40
1.0
 40
1.0
 40
1.0
 10
5.1422069099
 20
2.6399181907
 30
0.0
 10
5.1413368438
 20
2.6398712417
 30
0.0
 10
5.1396341383
 20
2.6397725606
 30
0.0
 10
5.1371405469
 20
2.6396060294
 30
0.0
 10
5.1347699892
 20
2.6394247465
 30
0.0
 10
5.1325325557
 20
2.6392295309
 30
0.0
 10
5.13043771
 20
2.6390212645
 30
0.0
 10
5.1284942899
 20
2.6388008941
 30
0.0
 10
5.1267104376
 20
2.6385694425
 30
0.0
 10
5.1250936078
 20
2.6383279649
 30
0.0
 10
5.1238550807
 20
2.6381132089
 30
0.0
 10
5.1229534107
 20
2.6379353691
 30
0.0
 10
5.1223442758
 20
2.6378043206
 30
0.0
 10
5.1217814568
 20
2.6376715613
 30
0.0
 10
5.12126552
 20
2.6375372346
 30
0.0
 10
5.1207969724
 20
2.6374015023
 30
0.0
 10
5.1203762622
 20
2.6372645251
 30
0.0
 10
5.1200037476
 20
2.637126465
 30
0.0
 10
5.1196797502
 20
2.6369874785
 30
0.0
 10
5.1194422495
 20
2.6368669562
 30
0.0
 10
5.1192778417
 20
2.6367692171
 30
0.0
 10
5.1191714641
 20
2.6366984504
 30
0.0
 10
5.1190774283
 20
2.6366275131
 30
0.0
 10
5.1189957442
 20
2.6365563982
 30
0.0
 10
5.1189264216
 20
2.6364850892
 30
0.0
 10
5.1188694841
 20
2.63641355
 30
0.0
 10
5.1188249857
 20
2.6363417332
 30
0.0
 10
5.1187930205
 20
2.6362695914
 30
0.0
 10
5.1187737341
 20
2.6361971639
 30
0.0
 10
5.1187694105
 20
2.6361484537
 30
0.0
 10
5.1187694101
 20
2.6361245042
 30
0.0
  0
SPLINE
  5
3E6
100
AcDbEntity
  8
0
100
AcDbSpline
 62
7
  6
CONTINUOUS
 70
0
 71
3
 72
74
 73
70
 74
0
 42
0.0000001
 43
0.0000001
 44
0.0000000001
 40
0.0
 40
0.0
 40
0.0
 40
0.0
 40
0.0002901844
 40
0.0006047178
 40
0.0009581231
 40
0.0013607118
 40
0.0018194682
 40
0.0023390961
 40
0.002922791
 40
0.0035727503
 40
0.0050769752
 40
0.0068601266
 40
0.0089263109
 40
0.0112774697
 40
0.0139144214
 40
0.0168370676
 40
0.020044677
 40
0.0235361866
 40
0.0313642789
 40
0.0403059759
 40
0.0503416811
 40
0.0614484918
 40
0.0736005731
 40
0.0867692925
 40
0.1009234082
 40
0.116029308
 40
0.1489505349
 40
0.1852200847
 40
0.2244936368
 40
0.266398833
 40
0.3105387576
 40
0.3564954731
 40
0.4038335622
 40
0.4521039671
 40
0.5008478415
 40
0.5496005587
 40
0.5978958694
 40
0.6452702794
 40
0.691267412
 40
0.7354426008
 40
0.777367491
 40
0.8166344832
 40
0.8528614727
 40
0.8697235746
 40
0.8856961087
 40
0.9007403323
 40
0.9148199156
 40
0.9279011174
 40
0.9399527868
 40
0.9509465452
 40
0.9608571226
 40
0.9696624537
 40
0.9773440059
 40
0.9807588429
 40
0.9838878031
 40
0.9867300633
 40
0.989285156
 40
0.991553372
 40
0.9935359905
 40
0.9952356109
 40
0.9966574206
 40
0.9972671723
 40
0.9978117864
 40
0.9982940327
 40
0.9987179747
 40
0.9990896304
 40
0.9994179187
 40
0.9997156952
 40
1.0
 40
1.0
 40
1.0
 40
1.0
 10
3.73811116
 20
2.6323316074
 30
0.0
 10
3.73811116
 20
2.632340744
 30
0.0
 10
3.7381085385
 20
2.6323598509
 30
0.0
 10
3.7380973522
 20
2.6323881049
 30
0.0
 10
3.7380791033
 20
2.6324166363
 30
0.0
 10
3.7380538944
 20
2.6324455385
 30
0.0
 10
3.7380217368
 20
2.6324749098
 30
0.0
 10
3.7379826123
 20
2.6325047937
 30
0.0
 10
3.7379365057
 20
2.6325352149
 30
0.0
 10
3.7378619985
 20
2.6325786407
 30
0.0
 10
3.7377506894
 20
2.6326335265
 30
0.0
 10
3.737595212
 20
2.6326987965
 30
0.0
 10
3.7374119421
 20
2.6327662246
 30
0.0
 10
3.7372009644
 20
2.6328357614
 30
0.0
 10
3.7369623682
 20
2.6329073364
 30
0.0
 10
3.7366962885
 20
2.6329808927
 30
0.0
 10
3.7364028812
 20
2.6330563795
 30
0.0
 10
3.7359582265
 20
2.6331636643
 30
0.0
 10
3.7353351996
 20
2.6333010851
 30
0.0
 10
3.7345077103
 20
2.6334673396
 30
0.0
 10
3.73357635
 20
2.6336401317
 30
0.0
 10
3.7325433987
 20
2.6338190133
 30
0.0
 10
3.7314113679
 20
2.6340035123
 30
0.0
 10
3.7301830116
 20
2.6341931615
 30
0.0
 10
3.7288613103
 20
2.6343874934
 30
0.0
 10
3.7269225467
 20
2.6346600958
 30
0.0
 10
3.7242911593
 20
2.635007303
 30
0.0
 10
3.7209015658
 20
2.6354240504
 30
0.0
 10
3.7172279527
 20
2.6358478697
 30
0.0
 10
3.7133053251
 20
2.636274674
 30
0.0
 10
3.7091709808
 20
2.6367003448
 30
0.0
 10
3.7048641992
 20
2.6371207977
 30
0.0
 10
3.7004259013
 20
2.6375320034
 30
0.0
 10
3.695898301
 20
2.6379300197
 30
0.0
 10
3.6913245417
 20
2.6383110267
 30
0.0
 10
3.6867483206
 20
2.63867136
 30
0.0
 10
3.6822134973
 20
2.6390075432
 30
0.0
 10
3.6777636914
 20
2.6393163262
 30
0.0
 10
3.6734418651
 20
2.6395947154
 30
0.0
 10
3.6692899015
 20
2.6398400082
 30
0.0
 10
3.6653481785
 20
2.6400498341
 30
0.0
 10
3.6616551454
 20
2.6402221579
 30
0.0
 10
3.6587494253
 20
2.6403357602
 30
0.0
 10
3.656576081
 20
2.6404055883
 30
0.0
 10
3.655069123
 20
2.6404463742
 30
0.0
 10
3.6536495468
 20
2.640476759
 30
0.0
 10
3.6523208285
 20
2.6404966732
 30
0.0
 10
3.6510862174
 20
2.6405060817
 30
0.0
 10
3.6499487267
 20
2.6405049803
 30
0.0
 10
3.6489111254
 20
2.6404933945
 30
0.0
 10
3.6479759217
 20
2.6404714001
 30
0.0
 10
3.6471453699
 20
2.6404390869
 30
0.0
 10
3.646519756
 20
2.6404024578
 30
0.0
 10
3.6460732464
 20
2.6403670527
 30
0.0
 10
3.6457790373
 20
2.6403390161
 30
0.0
 10
3.6455123022
 20
2.6403084857
 30
0.0
 10
3.6452731848
 20
2.6402754885
 30
0.0
 10
3.6450618074
 20
2.6402400638
 30
0.0
 10
3.6448782418
 20
2.6402022721
 30
0.0
 10
3.6447225547
 20
2.6401621498
 30
0.0
 10
3.6446108658
 20
2.6401252031
 30
0.0
 10
3.6445360644
 20
2.6400937248
 30
0.0
 10
3.6444898952
 20
2.6400707428
 30
0.0
 10
3.6444507034
 20
2.6400471587
 30
0.0
 10
3.6444184648
 20
2.6400229363
 30
0.0
 10
3.6443931598
 20
2.6399980093
 30
0.0
 10
3.6443748239
 20
2.6399722485
 30
0.0
 10
3.6443636427
 20
2.6399455606
 30
0.0
 10
3.64436116
 20
2.6399271423
 30
0.0
 10
3.64436116
 20
2.6399181907
 30
0.0
  0
LINE
  5
3E7
100
AcDbEntity
  8
0
100
AcDbLine
 62
7
  6
CONTINUOUS
 10
3.5933424786
 20
2.6319753703
 11
3.5923213597
 21
2.6323316074
  0
SPLINE
  5
3E8
100
AcDbEntity
  8
0
100
AcDbSpline
 62
7
  6
CONTINUOUS
 70
0
 71
3
 72
57
 73
53
 74
0
 42
0.0000001
 43
0.0000001
 44
0.0000000001
 40
0.0
 40
0.0
 40
0.0
 40
0.0
 40
0.0054296151
 40
0.0118785743
 40
0.0193339063
 40
0.0277809636
 40
0.0372021407
 40
0.0475776121
 40
0.0588855545
 40
0.0711019956
 40
0.0981551614
 40
0.1285088054
 40
0.1619076169
 40
0.1980716903
 40
0.2366991304
 40
0.2774685896
 40
0.3640657002
 40
0.455000605
 40
0.5011587592
 40
0.5472681166
 40
0.5929455367
 40
0.6378104136
 40
0.6814876975
 40
0.7236109727
 40
0.7638255773
 40
0.801791706
 40
0.8371874237
 40
0.8697118579
 40
0.8990880366
 40
0.9250656603
 40
0.9367098504
 40
0.9474240548
 40
0.9571857919
 40
0.9659746436
 40
0.9737725999
 40
0.980564168
 40
0.9835784196
 40
0.9863365555
 40
0.9888374609
 40
0.9910802816
 40
0.9930646258
 40
0.9947904492
 40
0.996258362
 40
0.9974702425
 40
0.9979813856
 40
0.9984303253
 40
0.9988183736
 40
0.9991476358
 40
0.9994215979
 40
0.9996463527
 40
0.9998329022
 40
1.0
 40
1.0
 40
1.0
 40
1.0
 10
3.5923213597
 20
2.6323316074
 30
0.0
 10
3.5921568185
 20
2.6323685748
 30
0.0
 10
3.5917955991
 20
2.6324438985
 30
0.0
 10
3.5912054752
 20
2.632555198
 30
0.0
 10
3.5905214958
 20
2.6326741625
 30
0.0
 10
3.5897451502
 20
2.6328004917
 30
0.0
 10
3.5888780964
 20
2.632933874
 30
0.0
 10
3.5879222031
 20
2.6330740002
 30
0.0
 10
3.5868795245
 20
2.6332205588
 30
0.0
 10
3.5853227996
 20
2.6334313743
 30
0.0
 10
3.5831779635
 20
2.6337072801
 30
0.0
 10
3.5803782676
 20
2.634048564
 30
0.0
 10
3.5772956791
 20
2.6344073824
 30
0.0
 10
3.5739560983
 20
2.6347806924
 30
0.0
 10
3.5703874577
 20
2.6351653408
 30
0.0
 10
3.5652594859
 20
2.6356998306
 30
0.0
 10
3.5585122511
 20
2.6363701107
 30
0.0
 10
3.5515948005
 20
2.6370188938
 30
0.0
 10
3.5459273974
 20
2.637528159
 30
0.0
 10
3.541659055
 20
2.6379004647
 30
0.0
 10
3.537429771
 20
2.6382581186
 30
0.0
 10
3.5332748192
 20
2.6385981267
 30
0.0
 10
3.5292289662
 20
2.6389176388
 30
0.0
 10
3.525326186
 20
2.6392139678
 30
0.0
 10
3.5215993733
 20
2.6394846162
 30
0.0
 10
3.5180800588
 20
2.6397273013
 30
0.0
 10
3.5147981238
 20
2.6399399756
 30
0.0
 10
3.5117815223
 20
2.6401208679
 30
0.0
 10
3.5090560178
 20
2.640268465
 30
0.0
 10
3.5069773359
 20
2.6403660836
 30
0.0
 10
3.505477197
 20
2.6404254704
 30
0.0
 10
3.5044801203
 20
2.640459333
 30
0.0
 10
3.5035714918
 20
2.6404841304
 30
0.0
 10
3.5027532499
 20
2.6404998307
 30
0.0
 10
3.5020271383
 20
2.6405064205
 30
0.0
 10
3.5014803478
 20
2.6405043187
 30
0.0
 10
3.5010901679
 20
2.6404974792
 30
0.0
 10
3.5008332965
 20
2.6404902673
 30
0.0
 10
3.5006004756
 20
2.6404807864
 30
0.0
 10
3.5003918223
 20
2.6404690488
 30
0.0
 10
3.5002074386
 20
2.6404550763
 30
0.0
 10
3.5000473983
 20
2.6404389072
 30
0.0
 10
3.499911769
 20
2.6404205633
 30
0.0
 10
3.4998142124
 20
2.6404026946
 30
0.0
 10
3.4997486398
 20
2.6403867653
 30
0.0
 10
3.499708444
 20
2.6403749636
 30
0.0
 10
3.4996743533
 20
2.640362629
 30
0.0
 10
3.4996463321
 20
2.6403497554
 30
0.0
 10
3.4996243126
 20
2.6403363101
 30
0.0
 10
3.4996082066
 20
2.6403221652
 30
0.0
 10
3.4995980462
 20
2.6403069924
 30
0.0
 10
3.4995956908
 20
2.6402959083
 30
0.0
 10
3.499595691
 20
2.6402907182
 30
0.0
  0
SPLINE
  5
3E9
100
AcDbEntity
  8
0
100
AcDbSpline
 62
7
  6
CONTINUOUS
 70
0
 71
3
 72
48
 73
44
 74
0
 42
0.0000001
 43
0.0000001
 44
0.0000000001
 40
0.0
 40
0.0
 40
0.0
 40
0.0
 40
0.0691213901
 40
0.1448175193
 40
0.22555531
 40
0.3097073137
 40
0.395582162
 40
0.4814553059
 40
0.5656002154
 40
0.6064922958
 40
0.6463200517
 40
0.6848812639
 40
0.7219795238
 40
0.7574253037
 40
0.7910369041
 40
0.8226414612
 40
0.8520759071
 40
0.8791878807
 40
0.9038366673
 40
0.9151967465
 40
0.9258940023
 40
0.9359143791
 40
0.9452449171
 40
0.9538733147
 40
0.9617884471
 40
0.9689798713
 40
0.9754383785
 40
0.9811554639
 40
0.9861239363
 40
0.9903373685
 40
0.9921593641
 40
0.9937907981
 40
0.9952311848
 40
0.9964802477
 40
0.9975378283
 40
0.9984039112
 40
0.9987652353
 40
0.9990788792
 40
0.9993450402
 40
0.9995640535
 40
0.9997365427
 40
0.9998638342
 40
1.0
 40
1.0
 40
1.0
 40
1.0
 10
3.5031084796
 20
2.633624022
 30
0.0
 10
3.5013244523
 20
2.6338048363
 30
0.0
 10
3.4975862307
 20
2.6341790041
 30
0.0
 10
3.4917628022
 20
2.634750692
 30
0.0
 10
3.4855503194
 20
2.6353502913
 30
0.0
 10
3.4790740827
 20
2.6359656884
 30
0.0
 10
3.4724643531
 20
2.6365844905
 30
0.0
 10
3.4658539684
 20
2.637194253
 30
0.0
 10
3.4604049117
 20
2.6376892413
 30
0.0
 10
3.4561450483
 20
2.6380713698
 30
0.0
 10
3.453062785
 20
2.6383454283
 30
0.0
 10
3.4500783361
 20
2.6386082923
 30
0.0
 10
3.4472069027
 20
2.6388586213
 30
0.0
 10
3.4444631576
 20
2.6390951359
 30
0.0
 10
3.4418611662
 20
2.6393166235
 30
0.0
 10
3.4394143122
 20
2.6395219458
 30
0.0
 10
3.4371352228
 20
2.6397100465
 30
0.0
 10
3.4350356965
 20
2.6398799541
 30
0.0
 10
3.4334032847
 20
2.6400089437
 30
0.0
 10
3.4321952159
 20
2.6401022113
 30
0.0
 10
3.4313654314
 20
2.6401651686
 30
0.0
 10
3.4305880594
 20
2.6402229782
 30
0.0
 10
3.4298641192
 20
2.6402755654
 30
0.0
 10
3.4291945547
 20
2.6403228627
 30
0.0
 10
3.4285802457
 20
2.6403648111
 30
0.0
 10
3.4280219929
 20
2.6404013587
 30
0.0
 10
3.4275205308
 20
2.6404324635
 30
0.0
 10
3.4270765119
 20
2.640458095
 30
0.0
 10
3.4266905207
 20
2.640478228
 30
0.0
 10
3.4264053353
 20
2.6404909914
 30
0.0
 10
3.4262065694
 20
2.6404982132
 30
0.0
 10
3.426079667
 20
2.6405019705
 30
0.0
 10
3.4259675969
 20
2.6405043433
 30
0.0
 10
3.425870393
 20
2.6405053408
 30
0.0
 10
3.4257880818
 20
2.6405049664
 30
0.0
 10
3.4257288175
 20
2.6405034753
 30
0.0
 10
3.4256888839
 20
2.6405014293
 30
0.0
 10
3.4256645432
 20
2.6404996558
 30
0.0
 10
3.4256438891
 20
2.640497524
 30
0.0
 10
3.4256270935
 20
2.6404951398
 30
0.0
 10
3.4256136493
 20
2.6404922558
 30
0.0
 10
3.4256035298
 20
2.6404892002
 30
0.0
 10
3.4255958828
 20
2.6404846786
 30
0.0
 10
3.4255958831
 20
2.6404811462
 30
0.0
  0
SPLINE
  5
3EA
100
AcDbEntity
  8
0
100
AcDbSpline
 62
7
  6
CONTINUOUS
 70
0
 71
3
 72
31
 73
27
 74
0
 42
0.0000001
 43
0.0000001
 44
0.0000000001
 40
0.0
 40
0.0
 40
0.0
 40
0.0
 40
0.2289398756
 40
0.4296914839
 40
0.5191774799
 40
0.6012531219
 40
0.6758153142
 40
0.7427744128
 40
0.8020504997
 40
0.8535760444
 40
0.8764147392
 40
0.8972968966
 40
0.9162179814
 40
0.9331747853
 40
0.948166852
 40
0.9611958917
 40
0.9722668489
 40
0.9813914212
 40
0.9852315945
 40
0.9885966422
 40
0.9914946576
 40
0.9939385276
 40
0.9959500687
 40
0.99756893
 40
0.9988714416
 40
1.0
 40
1.0
 40
1.0
 40
1.0
 10
6.5382153813
 20
2.6122477571
 30
0.0
 10
6.5387724712
 20
2.6122712516
 30
0.0
 10
6.5398181456
 20
2.6123133414
 30
0.0
 10
6.54108186
 20
2.6123571212
 30
0.0
 10
6.5419882682
 20
2.6123829095
 30
0.0
 10
6.5425875407
 20
2.6123970626
 30
0.0
 10
6.5431320306
 20
2.6124067403
 30
0.0
 10
6.5436210525
 20
2.61241192
 30
0.0
 10
6.5440539963
 20
2.6124125896
 30
0.0
 10
6.5443794738
 20
2.6124093154
 30
0.0
 10
6.544611392
 20
2.6124041241
 30
0.0
 10
6.5447638823
 20
2.612399264
 30
0.0
 10
6.5449019963
 20
2.6123932913
 30
0.0
 10
6.5450256934
 20
2.6123862148
 30
0.0
 10
6.5451349393
 20
2.6123780507
 30
0.0
 10
6.5452297121
 20
2.6123688246
 30
0.0
 10
6.545309989
 20
2.6123585532
 30
0.0
 10
6.5453677258
 20
2.6123486953
 30
0.0
 10
6.5454065436
 20
2.6123399973
 30
0.0
 10
6.5454303132
 20
2.6123335984
 30
0.0
 10
6.5454504657
 20
2.6123269513
 30
0.0
 10
6.5454670196
 20
2.6123200565
 30
0.0
 10
6.5454800179
 20
2.6123129036
 30
0.0
 10
6.5454895213
 20
2.6123054314
 30
0.0
 10
6.5454955865
 20
2.6122974358
 30
0.0
 10
6.545497045
 20
2.6122914625
 30
0.0
 10
6.5454970447
 20
2.6122887139
 30
0.0
  0
LINE
  5
3EB
100
AcDbEntity
  8
0
100
AcDbLine
 62
7
  6
CONTINUOUS
 10
6.2510696357
 20
2.5900069997
 11
6.2539536085
 21
2.5900086862
  0
SPLINE
  5
3EC
100
AcDbEntity
  8
0
100
AcDbSpline
 62
7
  6
CONTINUOUS
 70
0
 71
3
 72
11
 73
7
 74
0
 42
0.0000001
 43
0.0000001
 44
0.0000000001
 40
0.0
 40
0.0
 40
0.0
 40
0.0
 40
0.3203522407
 40
0.5860861399
 40
0.8070311871
 40
1.0
 40
1.0
 40
1.0
 40
1.0
 10
4.5759699853
 20
2.5699183576
 30
0.0
 10
4.5759731514
 20
2.5699161097
 30
0.0
 10
4.5759787567
 20
2.5699117113
 30
0.0
 10
4.5759854848
 20
2.5699045391
 30
0.0
 10
4.5759897054
 20
2.5698973536
 30
0.0
 10
4.5759907382
 20
2.5698923111
 30
0.0
 10
4.5759907382
 20
2.5698899722
 30
0.0
  0
SPLINE
  5
3ED
100
AcDbEntity
  8
0
100
AcDbSpline
 62
7
  6
CONTINUOUS
 70
0
 71
3
 72
17
 73
13
 74
0
 42
0.0000001
 43
0.0000001
 44
0.0000000001
 40
0.0
 40
0.0
 40
0.0
 40
0.0
 40
0.1158905691
 40
0.2457879449
 40
0.3841826781
 40
0.5252301457
 40
0.6629752549
 40
0.7915807707
 40
0.8507210438
 40
0.9055582657
 40
0.9554986254
 40
1.0
 40
1.0
 40
1.0
 40
1.0
 10
6.8281808311
 20
2.6336240718
 30
0.0
 10
6.8308269254
 20
2.6338922573
 30
0.0
 10
6.8364399608
 20
2.6344508518
 30
0.0
 10
6.8452156613
 20
2.6353019115
 30
0.0
 10
6.8545679274
 20
2.6361886915
 30
0.0
 10
6.8641012589
 20
2.6370736363
 30
0.0
 10
6.8734125937
 20
2.6379192915
 30
0.0
 10
6.8808533365
 20
2.6385788323
 30
0.0
 10
6.8863997803
 20
2.6390591358
 30
0.0
 10
6.890148107
 20
2.6393779674
 30
0.0
 10
6.8935622012
 20
2.6396621894
 30
0.0
 10
6.8957225291
 20
2.6398372499
 30
0.0
 10
6.8967406084
 20
2.6399181907
 30
0.0
  0
SPLINE
  5
3EE
100
AcDbEntity
  8
0
100
AcDbSpline
 62
7
  6
CONTINUOUS
 70
0
 71
3
 72
42
 73
38
 74
0
 42
0.0000001
 43
0.0000001
 44
0.0000000001
 40
0.0
 40
0.0
 40
0.0
 40
0.0
 40
0.0003956962
 40
0.0006453878
 40
0.0009344988
 40
0.0016390019
 40
0.0025202879
 40
0.0035834019
 40
0.0048309217
 40
0.006264242
 40
0.0078841207
 40
0.0116842405
 40
0.0162304493
 40
0.0215191073
 40
0.0275445296
 40
0.0342997249
 40
0.041776343
 40
0.0499649958
 40
0.0588552112
 40
0.0786936047
 40
0.1011890916
 40
0.1262252628
 40
0.1536727613
 40
0.1833901504
 40
0.2152247632
 40
0.2490135688
 40
0.2845840245
 40
0.3217549639
 40
0.3603374443
 40
0.4409480669
 40
0.524784193
 40
0.6101494239
 40
0.6953137732
 40
0.7785454334
 40
0.8581439043
 40
0.9324739642
 40
1.0
 40
1.0
 40
1.0
 40
1.0
 10
6.7379463413
 20
2.6319753703
 30
0.0
 10
6.7379501254
 20
2.6319850373
 30
0.0
 10
6.7379606375
 20
2.6319989925
 30
0.0
 10
6.7379786606
 20
2.6320155367
 30
0.0
 10
6.7380048459
 20
2.6320351151
 30
0.0
 10
6.7380475184
 20
2.6320598109
 30
0.0
 10
6.7381105357
 20
2.6320892247
 30
0.0
 10
6.7381884574
 20
2.6321200023
 30
0.0
 10
6.738281297
 20
2.6321521395
 30
0.0
 10
6.7383890673
 20
2.6321856037
 30
0.0
 10
6.7385620736
 20
2.6322346115
 30
0.0
 10
6.738815764
 20
2.6322981316
 30
0.0
 10
6.739164926
 20
2.63237601
 30
0.0
 10
6.7395727211
 20
2.6324588367
 30
0.0
 10
6.7400386149
 20
2.6325464837
 30
0.0
 10
6.7405620028
 20
2.6326387932
 30
0.0
 10
6.7411421938
 20
2.6327356277
 30
0.0
 10
6.7417784203
 20
2.6328368484
 30
0.0
 10
6.7427358928
 20
2.6329828763
 30
0.0
 10
6.7440660986
 20
2.6331742932
 30
0.0
 10
6.7458175744
 20
2.6334117081
 30
0.0
 10
6.7477685571
 20
2.6336631545
 30
0.0
 10
6.7499089042
 20
2.6339273043
 30
0.0
 10
6.752227543
 20
2.6342027602
 30
0.0
 10
6.7547125247
 20
2.6344880894
 30
0.0
 10
6.7573510917
 20
2.6347818169
 30
0.0
 10
6.760129743
 20
2.635082433
 30
0.0
 10
6.763034301
 20
2.6353884017
 30
0.0
 10
6.7671151069
 20
2.6358075545
 30
0.0
 10
6.7724157655
 20
2.6363323294
 30
0.0
 10
6.778940563
 20
2.636949633
 30
0.0
 10
6.785586834
 20
2.6375507852
 30
0.0
 10
6.7922196936
 20
2.6381235576
 30
0.0
 10
6.7987041005
 20
2.6386562695
 30
0.0
 10
6.8049074344
 20
2.6391380464
 30
0.0
 10
6.8107021344
 20
2.6395590256
 30
0.0
 10
6.8144155464
 20
2.6398070091
 30
0.0
 10
6.8161836261
 20
2.6399181907
 30
0.0
  0
SPLINE
  5
3EF
100
AcDbEntity
  8
0
100
AcDbSpline
 62
7
  6
CONTINUOUS
 70
0
 71
3
 72
37
 73
33
 74
0
 42
0.0000001
 43
0.0000001
 44
0.0000000001
 40
0.0
 40
0.0
 40
0.0
 40
0.0
 40
0.0004986378
 40
0.0011287437
 40
0.0018952949
 40
0.0028009607
 40
0.0050350242
 40
0.007837635
 40
0.0112106785
 40
0.0151543501
 40
0.0196675868
 40
0.024748437
 40
0.0303945979
 40
0.0366030367
 40
0.0506928035
 40
0.0669860194
 40
0.085445082
 40
0.1060268177
 40
0.1286827829
 40
0.153359577
 40
0.1799989943
 40
0.2085380511
 40
0.2389092314
 40
0.3048567292
 40
0.3772182393
 40
0.4553100864
 40
0.5383942436
 40
0.6256858119
 40
0.7163600598
 40
0.8095603091
 40
0.9044058694
 40
1.0
 40
1.0
 40
1.0
 40
1.0
 10
5.7553188345
 20
2.5699183576
 30
0.0
 10
5.7553253032
 20
2.5699229502
 30
0.0
 10
5.7553409564
 20
2.5699319007
 30
0.0
 10
5.755368551
 20
2.5699441068
 30
0.0
 10
5.7554030106
 20
2.5699565972
 30
0.0
 10
5.7554624151
 20
2.5699749091
 30
0.0
 10
5.7555542261
 20
2.5699977128
 30
0.0
 10
5.755685301
 20
2.5700246346
 30
0.0
 10
5.755843877
 20
2.5700525444
 30
0.0
 10
5.7560298688
 20
2.5700814128
 30
0.0
 10
5.7562431893
 20
2.5701111851
 30
0.0
 10
5.7564837164
 20
2.570141832
 30
0.0
 10
5.7567513106
 20
2.5701733239
 30
0.0
 10
5.7571616194
 20
2.5702183302
 30
0.0
 10
5.7577409339
 20
2.570275936
 30
0.0
 10
5.7585148764
 20
2.5703455651
 30
0.0
 10
5.7593922378
 20
2.5704180729
 30
0.0
 10
5.7603709326
 20
2.5704932707
 30
0.0
 10
5.7614486369
 20
2.5705709569
 30
0.0
 10
5.7626227917
 20
2.5706509357
 30
0.0
 10
5.7638906111
 20
2.5707330076
 30
0.0
 10
5.7652490872
 20
2.5708169739
 30
0.0
 10
5.7672320586
 20
2.570934436
 30
0.0
 10
5.7699115537
 20
2.5710838002
 30
0.0
 10
5.7733497689
 20
2.5712628155
 30
0.0
 10
5.7770608375
 20
2.5714444401
 30
0.0
 10
5.7810096644
 20
2.5716269354
 30
0.0
 10
5.7851589145
 20
2.5718085516
 30
0.0
 10
5.7894693655
 20
2.5719875582
 30
0.0
 10
5.7939002707
 20
2.5721622525
 30
0.0
 10
5.7984097363
 20
2.5723309751
 30
0.0
 10
5.8014376691
 20
2.5724383267
 30
0.0
 10
5.8029576371
 20
2.5724907324
 30
0.0
  0
SPLINE
  5
3F0
100
AcDbEntity
  8
0
100
AcDbSpline
 62
7
  6
CONTINUOUS
 70
0
 71
3
 72
30
 73
26
 74
0
 42
0.0000001
 43
0.0000001
 44
0.0000000001
 40
0.0
 40
0.0
 40
0.0
 40
0.0
 40
0.2255695031
 40
0.4244322765
 40
0.5134110721
 40
0.5952137222
 40
0.6697020766
 40
0.736751624
 40
0.7962553713
 40
0.8481221572
 40
0.8711697676
 40
0.8922837163
 40
0.9114601606
 40
0.9286972297
 40
0.9439956858
 40
0.9573618843
 40
0.9688095308
 40
0.9783638994
 40
0.9860740267
 40
0.9892680416
 40
0.9920466293
 40
0.9944426278
 40
0.9965074186
 40
0.9983210236
 40
1.0
 40
1.0
 40
1.0
 40
1.0
 10
5.5698263158
 20
2.5732747108
 30
0.0
 10
5.5705996833
 20
2.5732564131
 30
0.0
 10
5.5720547408
 20
2.5732168668
 30
0.0
 10
5.5738143394
 20
2.573152742
 30
0.0
 10
5.5750806931
 20
2.573094486
 30
0.0
 10
5.5759206546
 20
2.573049704
 30
0.0
 10
5.5766851374
 20
2.5730023025
 30
0.0
 10
5.577372811
 20
2.5729523865
 30
0.0
 10
5.5779824761
 20
2.5729000691
 30
0.0
 10
5.5784410792
 20
2.5728529446
 30
0.0
 10
5.5787680408
 20
2.5728134813
 30
0.0
 10
5.5789833244
 20
2.5727845131
 30
0.0
 10
5.5791784069
 20
2.5727550208
 30
0.0
 10
5.5793532106
 20
2.5727250243
 30
0.0
 10
5.5795076728
 20
2.5726945492
 30
0.0
 10
5.5796417439
 20
2.5726636261
 30
0.0
 10
5.5797554274
 20
2.5726323037
 30
0.0
 10
5.5798487121
 20
2.5726006079
 30
0.0
 10
5.5799131626
 20
2.5725724435
 30
0.0
 10
5.5799538947
 20
2.5725490462
 30
0.0
 10
5.5799773968
 20
2.5725324816
 30
0.0
 10
5.5799958494
 20
2.5725157502
 30
0.0
 10
5.5800092567
 20
2.5724987478
 30
0.0
 10
5.580017515
 20
2.5724813509
 30
0.0
 10
5.5800194082
 20
2.5724693084
 30
0.0
 10
5.5800194078
 20
2.5724635504
 30
0.0
  0
SPLINE
  5
3F1
100
AcDbEntity
  8
0
100
AcDbSpline
 62
7
  6
CONTINUOUS
 70
0
 71
3
 72
25
 73
21
 74
0
 42
0.0000001
 43
0.0000001
 44
0.0000000001
 40
0.0
 40
0.0
 40
0.0
 40
0.0
 40
0.2257531508
 40
0.423101008
 40
0.5109551994
 40
0.5915196354
 40
0.6647483585
 40
0.7306074827
 40
0.7890724025
 40
0.8401395108
 40
0.8838282939
 40
0.9201982636
 40
0.9356813375
 40
0.9493974495
 40
0.9613901537
 40
0.9717269734
 40
0.9805159216
 40
0.9879338457
 40
0.9942742866
 40
1.0
 40
1.0
 40
1.0
 40
1.0
 10
5.2080693954
 20
2.5723227311
 30
0.0
 10
5.2084129737
 20
2.5722933367
 30
0.0
 10
5.2090565998
 20
2.5722346316
 30
0.0
 10
5.2098327322
 20
2.5721519807
 30
0.0
 10
5.210387294
 20
2.5720840058
 30
0.0
 10
5.2107530997
 20
2.5720346345
 30
0.0
 10
5.2110849256
 20
2.5719849253
 30
0.0
 10
5.2113825334
 20
2.5719349307
 30
0.0
 10
5.2116457157
 20
2.5718847032
 30
0.0
 10
5.2118743169
 20
2.5718343232
 30
0.0
 10
5.2120681967
 20
2.5717838498
 30
0.0
 10
5.2122074502
 20
2.5717397803
 30
0.0
 10
5.2123009192
 20
2.5717037085
 30
0.0
 10
5.2123584337
 20
2.5716781117
 30
0.0
 10
5.2124072318
 20
2.5716525062
 30
0.0
 10
5.2124473495
 20
2.5716268703
 30
0.0
 10
5.2124788505
 20
2.5716011505
 30
0.0
 10
5.2125017891
 20
2.5715751774
 30
0.0
 10
5.2125160571
 20
2.5715486646
 30
0.0
 10
5.2125194101
 20
2.5715301251
 30
0.0
 10
5.2125194099
 20
2.5715213792
 30
0.0
  0
SPLINE
  5
3F2
100
AcDbEntity
  8
0
100
AcDbSpline
 62
7
  6
CONTINUOUS
 70
0
 71
3
 72
27
 73
23
 74
0
 42
0.0000001
 43
0.0000001
 44
0.0000000001
 40
0.0
 40
0.0
 40
0.0
 40
0.0
 40
0.229398868
 40
0.4295393906
 40
0.5184814219
 40
0.5999300839
 40
0.6738403407
 40
0.740170085
 40
0.7988866566
 40
0.8499685369
 40
0.893403072
 40
0.929200251
 40
0.9442485133
 40
0.9574090781
 40
0.9686998998
 40
0.978152215
 40
0.9858213206
 40
0.991813027
 40
0.9942481793
 40
0.9963686192
 40
0.9982501487
 40
1.0
 40
1.0
 40
1.0
 40
1.0
 10
5.2086856843
 20
2.5618230041
 30
0.0
 10
5.2089820808
 20
2.5618075108
 30
0.0
 10
5.2095369753
 20
2.5617766277
 30
0.0
 10
5.2102064069
 20
2.5617332271
 30
0.0
 10
5.2106844862
 20
2.5616976029
 30
0.0
 10
5.2109995146
 20
2.5616717765
 30
0.0
 10
5.2112851663
 20
2.5616458054
 30
0.0
 10
5.2115412612
 20
2.5616197129
 30
0.0
 10
5.2117676384
 20
2.5615935269
 30
0.0
 10
5.2119641666
 20
2.5615672949
 30
0.0
 10
5.2121307291
 20
2.5615410452
 30
0.0
 10
5.2122505799
 20
2.5615181175
 30
0.0
 10
5.2123312353
 20
2.5614992913
 30
0.0
 10
5.2123805986
 20
2.5614860102
 30
0.0
 10
5.2124224291
 20
2.5614727522
 30
0.0
 10
5.2124567695
 20
2.5614595249
 30
0.0
 10
5.2124836467
 20
2.5614463372
 30
0.0
 10
5.2125010568
 20
2.5614346452
 30
0.0
 10
5.2125107841
 20
2.5614250119
 30
0.0
 10
5.2125156992
 20
2.561418228
 30
0.0
 10
5.2125187173
 20
2.561411351
 30
0.0
 10
5.21251941
 20
2.5614066305
 30
0.0
 10
5.2125194099
 20
2.5614043665
 30
0.0
  0
LINE
  5
3F3
100
AcDbEntity
  8
0
100
AcDbLine
 62
7
  6
CONTINUOUS
 10
6.242986942
 20
2.5896863347
 11
6.2510696357
 21
2.5900069997
  0
SPLINE
  5
3F4
100
AcDbEntity
  8
0
100
AcDbSpline
 62
7
  6
CONTINUOUS
 70
0
 71
3
 72
16
 73
12
 74
0
 42
0.0000001
 43
0.0000001
 44
0.0000000001
 40
0.0
 40
0.0
 40
0.0
 40
0.0
 40
0.123644309
 40
0.2560501068
 40
0.3930797395
 40
0.5304527273
 40
0.6638748821
 40
0.7891679414
 40
0.9023981254
 40
0.9533574589
 40
1.0
 40
1.0
 40
1.0
 40
1.0
 10
6.1827400604
 20
2.5863515408
 30
0.0
 10
6.1852220103
 20
2.5865081776
 30
0.0
 10
6.1903621886
 20
2.5868261258
 30
0.0
 10
6.1982541783
 20
2.5872984566
 30
0.0
 10
6.2064226769
 20
2.5877724592
 30
0.0
 10
6.2146124032
 20
2.5882332976
 30
0.0
 10
6.2225672341
 20
2.5886665768
 30
0.0
 10
6.2300379796
 20
2.589058753
 30
0.0
 10
6.2358530964
 20
2.5893506898
 30
0.0
 10
6.2400887551
 20
2.5895536267
 30
0.0
 10
6.2420497592
 20
2.5896441302
 30
0.0
 10
6.242986942
 20
2.5896863347
 30
0.0
  0
SPLINE
  5
3F5
100
AcDbEntity
  8
0
100
AcDbSpline
 62
7
  6
CONTINUOUS
 70
0
 71
3
 72
18
 73
14
 74
0
 42
0.0000001
 43
0.0000001
 44
0.0000000001
 40
0.0
 40
0.0
 40
0.0
 40
0.0
 40
0.0540268993
 40
0.1117922667
 40
0.2364845268
 40
0.3697228312
 40
0.5068622766
 40
0.6431195442
 40
0.7737295118
 40
0.8354721224
 40
0.8941056966
 40
0.9491106497
 40
1.0
 40
1.0
 40
1.0
 40
1.0
 10
6.4678615907
 20
2.6073092202
 30
0.0
 10
6.4690108792
 20
2.6074127332
 30
0.0
 10
6.4713893361
 20
2.6076230117
 30
0.0
 10
6.4764219005
 20
2.6080540597
 30
0.0
 10
6.4831422379
 20
2.6086046978
 30
0.0
 10
6.4915549258
 20
2.609260032
 30
0.0
 10
6.5002163039
 20
2.6099026891
 30
0.0
 10
6.5088239413
 20
2.6105101857
 30
0.0
 10
6.5158270175
 20
2.6109779108
 30
0.0
 10
6.5211769677
 20
2.6113176246
 30
0.0
 10
6.5249158968
 20
2.6115461328
 30
0.0
 10
6.5284240038
 20
2.6117511841
 30
0.0
 10
6.5306823051
 20
2.6118762658
 30
0.0
 10
6.5317676806
 20
2.6119343189
 30
0.0
  0
SPLINE
  5
3F6
100
AcDbEntity
  8
0
100
AcDbSpline
 62
7
  6
CONTINUOUS
 70
0
 71
3
 72
23
 73
19
 74
0
 42
0.0000001
 43
0.0000001
 44
0.0000000001
 40
0.0
 40
0.0
 40
0.0
 40
0.0
 40
0.2182755484
 40
0.4092592531
 40
0.4944383787
 40
0.5727171971
 40
0.6440938724
 40
0.7085885448
 40
0.7662436053
 40
0.817137712
 40
0.8614080453
 40
0.8992786453
 40
0.931128951
 40
0.9450020471
 40
0.9576542814
 40
0.9799357873
 40
0.9901022033
 40
1.0
 40
1.0
 40
1.0
 40
1.0
 10
5.898990966
 20
2.6116718507
 30
0.0
 10
5.8992644574
 20
2.6116386695
 30
0.0
 10
5.8997766412
 20
2.6115712847
 30
0.0
 10
5.9003930432
 20
2.6114730779
 30
0.0
 10
5.9008326826
 20
2.6113901741
 30
0.0
 10
5.9011227116
 20
2.6113289316
 30
0.0
 10
5.9013856768
 20
2.6112662786
 30
0.0
 10
5.9016214484
 20
2.6112022632
 30
0.0
 10
5.9018299288
 20
2.6111369368
 30
0.0
 10
5.9020110494
 20
2.6110703464
 30
0.0
 10
5.902164827
 20
2.6110025348
 30
0.0
 10
5.902291283
 20
2.6109335048
 30
0.0
 10
5.902377734
 20
2.6108723208
 30
0.0
 10
5.9024318205
 20
2.6108220905
 30
0.0
 10
5.9024724324
 20
2.6107757272
 30
0.0
 10
5.9025022267
 20
2.6107260596
 30
0.0
 10
5.9025170109
 20
2.6106744307
 30
0.0
 10
5.9025194069
 20
2.6106490431
 30
0.0
 10
5.9025194069
 20
2.6106365506
 30
0.0
  0
SPLINE
  5
3F7
100
AcDbEntity
  8
0
100
AcDbSpline
 62
7
  6
CONTINUOUS
 70
0
 71
3
 72
28
 73
24
 74
0
 42
0.0000001
 43
0.0000001
 44
0.0000000001
 40
0.0
 40
0.0
 40
0.0
 40
0.0
 40
0.2234631651
 40
0.3252912883
 40
0.4203045159
 40
0.5083581064
 40
0.589322839
 40
0.6630820272
 40
0.7295368052
 40
0.7886056856
 40
0.8402300137
 40
0.8843815413
 40
0.9036590284
 40
0.9210795533
 40
0.9366579718
 40
0.9504177197
 40
0.9623966584
 40
0.9726568685
 40
0.9813001435
 40
0.9885000746
 40
0.9945595624
 40
0.9973196598
 40
1.0
 40
1.0
 40
1.0
 40
1.0
 10
5.5648458277
 20
2.5896079401
 30
0.0
 10
5.5655581421
 20
2.5895703182
 30
0.0
 10
5.5665947655
 20
2.5895097372
 30
0.0
 10
5.5679331229
 20
2.5894158243
 30
0.0
 10
5.568839719
 20
2.5893442836
 30
0.0
 10
5.5696792207
 20
2.5892695681
 30
0.0
 10
5.5704502908
 20
2.5891918141
 30
0.0
 10
5.5711517128
 20
2.589111168
 30
0.0
 10
5.5717823834
 20
2.5890277912
 30
0.0
 10
5.5723413417
 20
2.5889418738
 30
0.0
 10
5.572827733
 20
2.5888535896
 30
0.0
 10
5.5731866533
 20
2.5887751605
 30
0.0
 10
5.57343644
 20
2.5887101455
 30
0.0
 10
5.5735965746
 20
2.5886631011
 30
0.0
 10
5.5737381103
 20
2.5886155772
 30
0.0
 10
5.573861028
 20
2.5885675948
 30
0.0
 10
5.5739653424
 20
2.588519166
 30
0.0
 10
5.5740511251
 20
2.5884702948
 30
0.0
 10
5.5741185129
 20
2.5884208436
 30
0.0
 10
5.5741676838
 20
2.5883705753
 30
0.0
 10
5.5741940446
 20
2.5883258158
 30
0.0
 10
5.5742040775
 20
2.5882903221
 30
0.0
 10
5.5742057095
 20
2.5882729151
 30
0.0
 10
5.57420571
 20
2.5882643593
 30
0.0
  0
SPLINE
  5
3F8
100
AcDbEntity
  8
0
100
AcDbSpline
 62
7
  6
CONTINUOUS
 70
0
 71
3
 72
28
 73
24
 74
0
 42
0.0000001
 43
0.0000001
 44
0.0000000001
 40
0.0
 40
0.0
 40
0.0
 40
0.0
 40
0.2205045271
 40
0.3210255453
 40
0.4148596285
 40
0.5018758405
 40
0.5819559903
 40
0.6550004867
 40
0.7209267679
 40
0.7796764343
 40
0.8312198853
 40
0.8542927777
 40
0.8755730023
 40
0.8950729158
 40
0.9128109798
 40
0.9288144669
 40
0.9431247579
 40
0.9558027421
 40
0.9669383694
 40
0.9766676117
 40
0.9851972583
 40
0.992833656
 40
1.0
 40
1.0
 40
1.0
 40
1.0
 10
5.560477742
 20
2.6116399523
 30
0.0
 10
5.561179559
 20
2.6115844869
 30
0.0
 10
5.5622007511
 20
2.6114960143
 30
0.0
 10
5.563518394
 20
2.6113609667
 30
0.0
 10
5.5644109398
 20
2.6112589321
 30
0.0
 10
5.5652373038
 20
2.6111531885
 30
0.0
 10
5.5659962127
 20
2.6110439128
 30
0.0
 10
5.5666865009
 20
2.6109313103
 30
0.0
 10
5.5673071375
 20
2.6108155964
 30
0.0
 10
5.5678571925
 20
2.6106969873
 30
0.0
 10
5.5682701092
 20
2.6105924714
 30
0.0
 10
5.5685639864
 20
2.6105064737
 30
0.0
 10
5.5687579955
 20
2.610443755
 30
0.0
 10
5.5689338161
 20
2.6103804467
 30
0.0
 10
5.5690913999
 20
2.6103165718
 30
0.0
 10
5.5692307134
 20
2.6102521513
 30
0.0
 10
5.5693517471
 20
2.610187201
 30
0.0
 10
5.5694545182
 20
2.610121717
 30
0.0
 10
5.5695390652
 20
2.6100556422
 30
0.0
 10
5.5696054234
 20
2.6099888346
 30
0.0
 10
5.5696535351
 20
2.6099209936
 30
0.0
 10
5.5696829968
 20
2.6098518387
 30
0.0
 10
5.5696896919
 20
2.6098043575
 30
0.0
 10
5.569689691
 20
2.6097814775
 30
0.0
  0
SPLINE
  5
3F9
100
AcDbEntity
  8
0
100
AcDbSpline
 62
7
  6
CONTINUOUS
 70
0
 71
3
 72
25
 73
21
 74
0
 42
0.0000001
 43
0.0000001
 44
0.0000000001
 40
0.0
 40
0.0
 40
0.0
 40
0.0
 40
0.2217852649
 40
0.4160733782
 40
0.502736691
 40
0.5823384165
 40
0.6548394555
 40
0.720212208
 40
0.7784514021
 40
0.8295742739
 40
0.873638321
 40
0.9107639005
 40
0.9267961504
 40
0.9411969295
 40
0.9540325272
 40
0.9653978022
 40
0.9754307284
 40
0.9843333539
 40
0.9923945442
 40
1.0
 40
1.0
 40
1.0
 40
1.0
 10
5.2075489887
 20
2.588552319
 30
0.0
 10
5.2079323932
 20
2.5885080425
 30
0.0
 10
5.2086510499
 20
2.588419466
 30
0.0
 10
5.2095170555
 20
2.5882945898
 30
0.0
 10
5.210136028
 20
2.588191732
 30
0.0
 10
5.2105447568
 20
2.5881168877
 30
0.0
 10
5.2109156456
 20
2.5880414585
 30
0.0
 10
5.2112484068
 20
2.5879655144
 30
0.0
 10
5.2115427902
 20
2.5878891487
 30
0.0
 10
5.2117986236
 20
2.5878124588
 30
0.0
 10
5.212015749
 20
2.5877355276
 30
0.0
 10
5.2121713085
 20
2.5876684366
 30
0.0
 10
5.2122754258
 20
2.5876137115
 30
0.0
 10
5.2123398584
 20
2.5875746387
 30
0.0
 10
5.212394553
 20
2.5875355011
 30
0.0
 10
5.2124395286
 20
2.5874962562
 30
0.0
 10
5.2124747953
 20
2.5874568286
 30
0.0
 10
5.2125003055
 20
2.5874170751
 30
0.0
 10
5.2125158673
 20
2.5873768953
 30
0.0
 10
5.2125194074
 20
2.5873495256
 30
0.0
 10
5.2125194079
 20
2.5873362905
 30
0.0
  0
SPLINE
  5
3FA
100
AcDbEntity
  8
0
100
AcDbSpline
 62
7
  6
CONTINUOUS
 70
0
 71
3
 72
27
 73
23
 74
0
 42
0.0000001
 43
0.0000001
 44
0.0000000001
 40
0.0
 40
0.0
 40
0.0
 40
0.0
 40
0.218746569
 40
0.3182399197
 40
0.4110183722
 40
0.4970004297
 40
0.5761179967
 40
0.6483169764
 40
0.7135630468
 40
0.7718433398
 40
0.8231794422
 40
0.8676373019
 40
0.8873320849
 40
0.9053705647
 40
0.9217914625
 40
0.9366491557
 40
0.9500188336
 40
0.9620051263
 40
0.9727547938
 40
0.9824730834
 40
0.9914375683
 40
1.0
 40
1.0
 40
1.0
 40
1.0
 10
5.2059581231
 20
2.6106728927
 30
0.0
 10
5.2064621467
 20
2.610608637
 30
0.0
 10
5.2071946413
 20
2.6105086784
 30
0.0
 10
5.2081380496
 20
2.6103620658
 30
0.0
 10
5.2087753006
 20
2.6102539919
 30
0.0
 10
5.209364223
 20
2.6101444323
 30
0.0
 10
5.2099041825
 20
2.6100335202
 30
0.0
 10
5.210394608
 20
2.609921395
 30
0.0
 10
5.2108349888
 20
2.6098082088
 30
0.0
 10
5.2112249058
 20
2.6096941148
 30
0.0
 10
5.2115639828
 20
2.6095792687
 30
0.0
 10
5.2118132086
 20
2.6094794503
 30
0.0
 10
5.2119860624
 20
2.6093982785
 30
0.0
 10
5.2120974593
 20
2.6093397451
 30
0.0
 10
5.2121959291
 20
2.609281084
 30
0.0
 10
5.2122814698
 20
2.6092222914
 30
0.0
 10
5.2123540898
 20
2.6091633511
 30
0.0
 10
5.212413795
 20
2.6091042148
 30
0.0
 10
5.2124605637
 20
2.6090447937
 30
0.0
 10
5.2124943026
 20
2.6089849524
 30
0.0
 10
5.2125147819
 20
2.6089246447
 30
0.0
 10
5.2125194088
 20
2.6088838043
 30
0.0
 10
5.2125194094
 20
2.6088639156
 30
0.0
  0
SPLINE
  5
3FB
100
AcDbEntity
  8
0
100
AcDbSpline
 62
7
  6
CONTINUOUS
 70
0
 71
3
 72
18
 73
14
 74
0
 42
0.0000001
 43
0.0000001
 44
0.0000000001
 40
0.0
 40
0.0
 40
0.0
 40
0.0
 40
0.2036458728
 40
0.3829317045
 40
0.5381685518
 40
0.6699005414
 40
0.7791121794
 40
0.8258299195
 40
0.8677104587
 40
0.9052505966
 40
0.9391433272
 40
0.9703272066
 40
1.0
 40
1.0
 40
1.0
 40
1.0
 10
4.8499685406
 20
2.586912823
 30
0.0
 10
4.8500362841
 20
2.5868925627
 30
0.0
 10
4.8501631061
 20
2.5868525207
 30
0.0
 10
4.850338896
 20
2.5867889855
 30
0.0
 10
4.8504880971
 20
2.5867258696
 30
0.0
 10
4.8506106958
 20
2.5866632015
 30
0.0
 10
4.8506948517
 20
2.5866088195
 30
0.0
 10
4.8507476985
 20
2.5865648199
 30
0.0
 10
4.8507785408
 20
2.5865336053
 30
0.0
 10
4.8508026959
 20
2.5865024015
 30
0.0
 10
4.8508201199
 20
2.5864711319
 30
0.0
 10
4.8508307024
 20
2.5864397664
 30
0.0
 10
4.8508331063
 20
2.5864185716
 30
0.0
 10
4.8508331068
 20
2.5864082688
 30
0.0
  0
SPLINE
  5
3FC
100
AcDbEntity
  8
0
100
AcDbSpline
 62
7
  6
CONTINUOUS
 70
0
 71
3
 72
24
 73
20
 74
0
 42
0.0000001
 43
0.0000001
 44
0.0000000001
 40
0.0
 40
0.0
 40
0.0
 40
0.0
 40
0.2161917418
 40
0.3143912802
 40
0.4059258985
 40
0.4907559965
 40
0.5688571654
 40
0.6402164117
 40
0.7048400945
 40
0.7627610613
 40
0.8140441279
 40
0.8588100654
 40
0.897262514
 40
0.9297463662
 40
0.9568614952
 40
0.9687317889
 40
0.9797078785
 40
0.990033377
 40
1.0
 40
1.0
 40
1.0
 40
1.0
 10
4.8511000781
 20
2.6094541492
 30
0.0
 10
4.8514288287
 20
2.6093952181
 30
0.0
 10
4.851906083
 20
2.6093046846
 30
0.0
 10
4.8525195849
 20
2.6091746693
 30
0.0
 10
4.8529331057
 20
2.609080127
 30
0.0
 10
4.853314686
 20
2.6089854707
 30
0.0
 10
4.853664065
 20
2.6088907776
 30
0.0
 10
4.8539810104
 20
2.6087961237
 30
0.0
 10
4.854265321
 20
2.6087015861
 30
0.0
 10
4.8545168337
 20
2.6086072522
 30
0.0
 10
4.8547354353
 20
2.6085131883
 30
0.0
 10
4.8549210686
 20
2.6084194712
 30
0.0
 10
4.8550738113
 20
2.6083260836
 30
0.0
 10
4.8551937486
 20
2.6082329719
 30
0.0
 10
4.855269753
 20
2.6081517625
 30
0.0
 10
4.855311612
 20
2.6080866711
 30
0.0
 10
4.8553331646
 20
2.6080399615
 30
0.0
 10
4.8553461893
 20
2.6079932155
 30
0.0
 10
4.8553491248
 20
2.6079617971
 30
0.0
 10
4.8553491251
 20
2.6079463998
 30
0.0
  0
SPLINE
  5
3FD
100
AcDbEntity
  8
0
100
AcDbSpline
 62
7
  6
CONTINUOUS
 70
0
 71
3
 72
28
 73
24
 74
0
 42
0.0000001
 43
0.0000001
 44
0.0000000001
 40
0.0
 40
0.0
 40
0.0
 40
0.0
 40
0.2205676368
 40
0.3212798402
 40
0.4153880805
 40
0.5027412972
 40
0.5832028502
 40
0.6566522708
 40
0.7229850653
 40
0.7821189018
 40
0.8339953789
 40
0.8572045576
 40
0.8785940638
 40
0.8981697374
 40
0.9159420812
 40
0.9319284679
 40
0.9461576308
 40
0.9586737053
 40
0.9695447801
 40
0.9788795638
 40
0.9868534908
 40
0.993749144
 40
1.0
 40
1.0
 40
1.0
 40
1.0
 10
4.5125224628
 20
2.6093645868
 30
0.0
 10
4.5132817661
 20
2.6092724898
 30
0.0
 10
4.5143869349
 20
2.6091311236
 30
0.0
 10
4.5158131681
 20
2.6089291044
 30
0.0
 10
4.5167805945
 20
2.6087821755
 30
0.0
 10
4.5176769681
 20
2.6086354659
 30
0.0
 10
4.5185007589
 20
2.6084892395
 30
0.0
 10
4.5192505616
 20
2.6083437745
 30
0.0
 10
4.5199251162
 20
2.6081993555
 30
0.0
 10
4.5205232812
 20
2.6080562641
 30
0.0
 10
4.5209725703
 20
2.6079343035
 30
0.0
 10
4.5212925535
 20
2.6078365727
 30
0.0
 10
4.521503796
 20
2.6077664915
 30
0.0
 10
4.5216952654
 20
2.6076969191
 30
0.0
 10
4.5218668942
 20
2.6076278862
 30
0.0
 10
4.5220186313
 20
2.6075594235
 30
0.0
 10
4.5221504519
 20
2.6074915604
 30
0.0
 10
4.5222623631
 20
2.6074243117
 30
0.0
 10
4.5223544083
 20
2.6073576442
 30
0.0
 10
4.5224266734
 20
2.6072914457
 30
0.0
 10
4.5224792098
 20
2.6072253785
 30
0.0
 10
4.5225117357
 20
2.6071589412
 30
0.0
 10
4.5225194079
 20
2.607113129
 30
0.0
 10
4.5225194075
 20
2.6070914527
 30
0.0
  0
SPLINE
  5
3FE
100
AcDbEntity
  8
0
100
AcDbSpline
 62
7
  6
CONTINUOUS
 70
0
 71
3
 72
32
 73
28
 74
0
 42
0.0000001
 43
0.0000001
 44
0.0000000001
 40
0.0
 40
0.0
 40
0.0
 40
0.0
 40
0.2210118465
 40
0.3225918725
 40
0.4178522559
 40
0.5065384718
 40
0.5884144686
 40
0.6632634986
 40
0.7308893998
 40
0.7911185058
 40
0.8438012736
 40
0.867273806
 40
0.8888167549
 40
0.9084198962
 40
0.9260769208
 40
0.9417845227
 40
0.9555448669
 40
0.9673682923
 40
0.9772770812
 40
0.9815278907
 40
0.9853209309
 40
0.9886699869
 40
0.9915954799
 40
0.9941286512
 40
0.9963180251
 40
0.998238545
 40
1.0
 40
1.0
 40
1.0
 40
1.0
 10
4.5173686087
 20
2.5877056939
 30
0.0
 10
4.5185177407
 20
2.5876167697
 30
0.0
 10
4.5201945424
 20
2.5874804257
 30
0.0
 10
4.5223650109
 20
2.587286768
 30
0.0
 10
4.5238473459
 20
2.5871458397
 30
0.0
 10
4.5252264896
 20
2.5870055052
 30
0.0
 10
4.5264987053
 20
2.5868661593
 30
0.0
 10
4.5276605429
 20
2.5867282035
 30
0.0
 10
4.528708859
 20
2.5865920547
 30
0.0
 10
4.529640812
 20
2.5864581147
 30
0.0
 10
4.5303430233
 20
2.5863448007
 30
0.0
 10
4.5308444735
 20
2.5862545603
 30
0.0
 10
4.5311752836
 20
2.5861902861
 30
0.0
 10
4.5314753201
 20
2.5861268358
 30
0.0
 10
4.5317443887
 20
2.5860642659
 30
0.0
 10
4.5319823211
 20
2.5860026345
 30
0.0
 10
4.5321889986
 20
2.5859420145
 30
0.0
 10
4.5323643123
 20
2.5858824678
 30
0.0
 10
4.5324900296
 20
2.5858315532
 30
0.0
 10
4.5325742856
 20
2.5857906551
 30
0.0
 10
4.5326262858
 20
2.5857618417
 30
0.0
 10
4.5326704135
 20
2.5857333004
 30
0.0
 10
4.5327066924
 20
2.585705004
 30
0.0
 10
4.5327351564
 20
2.5856768982
 30
0.0
 10
4.532755813
 20
2.5856488487
 30
0.0
 10
4.5327685376
 20
2.5856206928
 30
0.0
 10
4.5327715118
 20
2.5856014051
 30
0.0
 10
4.5327715122
 20
2.5855922192
 30
0.0
  0
SPLINE
  5
3FF
100
AcDbEntity
  8
0
100
AcDbSpline
 62
7
  6
CONTINUOUS
 70
0
 71
3
 72
35
 73
31
 74
0
 42
0.0000001
 43
0.0000001
 44
0.0000000001
 40
0.0
 40
0.0
 40
0.0
 40
0.0
 40
0.2083619355
 40
0.3067234157
 40
0.4004201872
 40
0.4888981474
 40
0.5716347986
 40
0.6481422468
 40
0.7179705299
 40
0.7807106736
 40
0.8093072834
 40
0.8359988564
 40
0.8607477955
 40
0.8835194032
 40
0.9042832671
 40
0.9230126204
 40
0.9396859
 40
0.9542872559
 40
0.9668086793
 40
0.972290547
 40
0.9772553919
 40
0.9817068505
 40
0.9856512263
 40
0.9890985199
 40
0.9920645199
 40
0.9945751919
 40
0.9966746564
 40
0.9984388314
 40
0.9992350733
 40
1.0
 40
1.0
 40
1.0
 40
1.0
 10
4.2050884874
 20
2.6104187384
 30
0.0
 10
4.2073082202
 20
2.6102591737
 30
0.0
 10
4.2105748257
 20
2.6100098718
 30
0.0
 10
4.2148365002
 20
2.609650473
 30
0.0
 10
4.2178207647
 20
2.6093815778
 30
0.0
 10
4.2206371515
 20
2.6091097754
 30
0.0
 10
4.2232689048
 20
2.6088367111
 30
0.0
 10
4.2257003638
 20
2.608564068
 30
0.0
 10
4.2279170389
 20
2.608293517
 30
0.0
 10
4.2296231901
 20
2.6080647361
 30
0.0
 10
4.2308706215
 20
2.6078827024
 30
0.0
 10
4.2317154308
 20
2.6077519461
 30
0.0
 10
4.2324975134
 20
2.6076229111
 30
0.0
 10
4.2332156983
 20
2.6074957953
 30
0.0
 10
4.2338689097
 20
2.607370814
 30
0.0
 10
4.2344561742
 20
2.6072481748
 30
0.0
 10
4.2349766369
 20
2.6071281116
 30
0.0
 10
4.2354295337
 20
2.6070108344
 30
0.0
 10
4.2357635126
 20
2.6069117672
 30
0.0
 10
4.2359958654
 20
2.6068329826
 30
0.0
 10
4.2361449751
 20
2.6067773413
 30
0.0
 10
4.236276771
 20
2.6067225219
 30
0.0
 10
4.2363912334
 20
2.6066685466
 30
0.0
 10
4.2364883729
 20
2.6066154304
 30
0.0
 10
4.2365682387
 20
2.6065631738
 30
0.0
 10
4.2366309336
 20
2.6065116588
 30
0.0
 10
4.2366765945
 20
2.6064607126
 30
0.0
 10
4.2367011143
 20
2.6064166145
 30
0.0
 10
4.2367105068
 20
2.6063822041
 30
0.0
 10
4.2367120513
 20
2.6063654949
 30
0.0
 10
4.236712051
 20
2.6063573249
 30
0.0
  0
SPLINE
  5
400
100
AcDbEntity
  8
0
100
AcDbSpline
 62
7
  6
CONTINUOUS
 70
0
 71
3
 72
43
 73
39
 74
0
 42
0.0000001
 43
0.0000001
 44
0.0000000001
 40
0.0
 40
0.0
 40
0.0
 40
0.0
 40
0.0836687426
 40
0.1702346846
 40
0.2583946329
 40
0.3468237001
 40
0.434195101
 40
0.519199676
 40
0.6005648761
 40
0.6770730549
 40
0.7131446932
 40
0.7475793265
 40
0.7802479518
 40
0.811028132
 40
0.8398044792
 40
0.8664690896
 40
0.8909219922
 40
0.9130716157
 40
0.9328352004
 40
0.9501393289
 40
0.957848938
 40
0.9649206442
 40
0.9713483709
 40
0.9771265412
 40
0.9822507303
 40
0.9867173286
 40
0.9905242592
 40
0.993671334
 40
0.9949983722
 40
0.9961621955
 40
0.9971644223
 40
0.9980077758
 40
0.9986971409
 40
0.9992418176
 40
0.9994657297
 40
0.9996622474
 40
0.999837488
 40
1.0
 40
1.0
 40
1.0
 40
1.0
 10
4.2318625134
 20
2.5894899497
 30
0.0
 10
4.2336758072
 20
2.5894208092
 30
0.0
 10
4.2373648895
 20
2.5892723316
 30
0.0
 10
4.2429635479
 20
2.5890257399
 30
0.0
 10
4.2486644078
 20
2.588754079
 30
0.0
 10
4.2543817206
 20
2.588461439
 30
0.0
 10
4.2600296264
 20
2.5881522281
 30
0.0
 10
4.2655234134
 20
2.5878311139
 30
0.0
 10
4.2707807431
 20
2.587502941
 30
0.0
 10
4.2749776907
 20
2.5872225131
 30
0.0
 10
4.2781582098
 20
2.5869976312
 30
0.0
 10
4.2803898551
 20
2.5868336075
 30
0.0
 10
4.2825065621
 20
2.5866715164
 30
0.0
 10
4.2845003766
 20
2.5865119715
 30
0.0
 10
4.2863637989
 20
2.5863555829
 30
0.0
 10
4.288089812
 20
2.5862029531
 30
0.0
 10
4.289671908
 20
2.5860546746
 30
0.0
 10
4.291104117
 20
2.5859113412
 30
0.0
 10
4.2923810232
 20
2.5857735204
 30
0.0
 10
4.2933455016
 20
2.585659818
 30
0.0
 10
4.2940357175
 20
2.5855712407
 30
0.0
 10
4.2944914874
 20
2.5855090873
 30
0.0
 10
4.2949052037
 20
2.5854486959
 30
0.0
 10
4.2952764794
 20
2.5853901316
 30
0.0
 10
4.2956049643
 20
2.5853334699
 30
0.0
 10
4.2958903704
 20
2.5852788023
 30
0.0
 10
4.2961324376
 20
2.5852262026
 30
0.0
 10
4.2963066052
 20
2.5851820897
 30
0.0
 10
4.2964238014
 20
2.5851471504
 30
0.0
 10
4.2964956316
 20
2.5851230085
 30
0.0
 10
4.2965565217
 20
2.5850994366
 30
0.0
 10
4.2966065236
 20
2.5850764404
 30
0.0
 10
4.2966456725
 20
2.5850540289
 30
0.0
 10
4.2966709349
 20
2.5850346669
 30
0.0
 10
4.2966850212
 20
2.5850191027
 30
0.0
 10
4.2966921568
 20
2.5850082537
 30
0.0
 10
4.29669653
 20
2.5849974263
 30
0.0
 10
4.2966975454
 20
2.5849900731
 30
0.0
 10
4.2966975454
 20
2.5849865485
 30
0.0
  0
SPLINE
  5
401
100
AcDbEntity
  8
0
100
AcDbSpline
 62
7
  6
CONTINUOUS
 70
0
 71
3
 72
43
 73
39
 74
0
 42
0.0000001
 43
0.0000001
 44
0.0000000001
 40
0.0
 40
0.0
 40
0.0
 40
0.0
 40
0.0712102525
 40
0.1484706947
 40
0.2302641043
 40
0.3149889917
 40
0.4009920322
 40
0.4866005349
 40
0.5701542851
 40
0.6500363267
 40
0.7247023982
 40
0.7596237607
 40
0.7927092141
 40
0.8237985013
 40
0.8527409119
 40
0.8793960891
 40
0.9036347481
 40
0.9253394995
 40
0.9444056644
 40
0.9529203404
 40
0.9607424952
 40
0.9678630459
 40
0.9742742469
 40
0.9799693617
 40
0.9849433924
 40
0.9891930082
 40
0.991046052
 40
0.9927182098
 40
0.9942101595
 40
0.9955232459
 40
0.9966597071
 40
0.9976232328
 40
0.9984202115
 40
0.9990624312
 40
0.9993325265
 40
0.9995741397
 40
0.9997937658
 40
1.0
 40
1.0
 40
1.0
 40
1.0
 10
3.941544156
 20
2.6121556895
 30
0.0
 10
3.943352963
 20
2.6120910241
 30
0.0
 10
3.9471236686
 20
2.611939495
 30
0.0
 10
3.9529698708
 20
2.6116638509
 30
0.0
 10
3.9591573054
 20
2.6113343915
 30
0.0
 10
3.9655646386
 20
2.6109575282
 30
0.0
 10
3.9720666604
 20
2.6105406101
 30
0.0
 10
3.9785367193
 20
2.6100917834
 30
0.0
 10
3.9848491332
 20
2.609619831
 30
0.0
 10
3.9908815074
 20
2.6091339766
 30
0.0
 10
3.9956792173
 20
2.6087167183
 30
0.0
 10
3.999290058
 20
2.6083817045
 30
0.0
 10
4.0017970402
 20
2.6081385123
 30
0.0
 10
4.0041516682
 20
2.6078989471
 30
0.0
 10
4.006342473
 20
2.6076641901
 30
0.0
 10
4.0083587614
 20
2.6074354123
 30
0.0
 10
4.0101906747
 20
2.6072137805
 30
0.0
 10
4.0118292254
 20
2.6070004173
 30
0.0
 10
4.013069552
 20
2.6068244775
 30
0.0
 10
4.0139589238
 20
2.6066875308
 30
0.0
 10
4.0145473596
 20
2.6065914409
 30
0.0
 10
4.015082056
 20
2.6064981808
 30
0.0
 10
4.0155623502
 20
2.6064078813
 30
0.0
 10
4.0159876639
 20
2.6063206843
 30
0.0
 10
4.0163574755
 20
2.606236724
 30
0.0
 10
4.0166302518
 20
2.6061667834
 30
0.0
 10
4.0168200809
 20
2.6061118089
 30
0.0
 10
4.016941683
 20
2.6060733551
 30
0.0
 10
4.0170491236
 20
2.60603579
 30
0.0
 10
4.0171423914
 20
2.6059991301
 30
0.0
 10
4.0172214886
 20
2.605963399
 30
0.0
 10
4.017286478
 20
2.6059285991
 30
0.0
 10
4.0173374094
 20
2.6058947281
 30
0.0
 10
4.0173700681
 20
2.605865636
 30
0.0
 10
4.017388192
 20
2.6058424737
 30
0.0
 10
4.0173974262
 20
2.6058262446
 30
0.0
 10
4.0174030544
 20
2.6058101278
 30
0.0
 10
4.0174043527
 20
2.6057992707
 30
0.0
 10
4.0174043527
 20
2.6057940288
 30
0.0
  0
SPLINE
  5
402
100
AcDbEntity
  8
0
100
AcDbSpline
 62
7
  6
CONTINUOUS
 70
0
 71
3
 72
19
 73
15
 74
0
 42
0.0000001
 43
0.0000001
 44
0.0000000001
 40
0.0
 40
0.0
 40
0.0
 40
0.0
 40
0.0140338984
 40
0.029985174
 40
0.0674359324
 40
0.1118943252
 40
0.162815896
 40
0.2195778973
 40
0.2814872052
 40
0.4176769926
 40
0.5647834613
 40
0.7156976632
 40
0.8631400385
 40
1.0
 40
1.0
 40
1.0
 40
1.0
 10
4.0802191842
 20
2.5900069997
 30
0.0
 10
4.0805391483
 20
2.5899974983
 30
0.0
 10
4.0812227424
 20
2.5899755336
 30
0.0
 10
4.0827599459
 20
2.5899208157
 30
0.0
 10
4.0849903274
 20
2.5898319962
 30
0.0
 10
4.0880172732
 20
2.5897005958
 30
0.0
 10
4.0914838623
 20
2.5895406991
 30
0.0
 10
4.0953476845
 20
2.5893542348
 30
0.0
 10
4.10115366
 20
2.5890637403
 30
0.0
 10
4.1090168446
 20
2.5886520942
 30
0.0
 10
4.1189061287
 20
2.5881105638
 30
0.0
 10
4.1290504518
 20
2.5875327515
 30
0.0
 10
4.1389601777
 20
2.5869465691
 30
0.0
 10
4.1454327126
 20
2.5865481951
 30
0.0
 10
4.1485482118
 20
2.5863515753
 30
0.0
  0
SPLINE
  5
403
100
AcDbEntity
  8
0
100
AcDbSpline
 62
7
  6
CONTINUOUS
 70
0
 71
3
 72
20
 73
16
 74
0
 42
0.0000001
 43
0.0000001
 44
0.0000000001
 40
0.0
 40
0.0
 40
0.0
 40
0.0
 40
0.0415728515
 40
0.0891860274
 40
0.1422829446
 40
0.2002426964
 40
0.2623894721
 40
0.3280004825
 40
0.4665429616
 40
0.6094889084
 40
0.7502809883
 40
0.817842491
 40
0.8824715166
 40
0.9434248327
 40
1.0
 40
1.0
 40
1.0
 40
1.0
 10
3.7930734386
 20
2.6122477571
 30
0.0
 10
3.7940499748
 20
2.612206573
 30
0.0
 10
3.7961445931
 20
2.6121101386
 30
0.0
 10
3.7994853702
 20
2.6119387061
 30
0.0
 10
3.8032100771
 20
2.6117319925
 30
0.0
 10
3.80727515
 20
2.611492358
 30
0.0
 10
3.81163315
 20
2.6112225593
 30
0.0
 10
3.817881048
 20
2.6108193552
 30
0.0
 10
3.8260227255
 20
2.6102645434
 30
0.0
 10
3.8359249523
 20
2.6095481218
 30
0.0
 10
3.8441601994
 20
2.6089181884
 30
0.0
 10
3.8505578034
 20
2.6084069261
 30
0.0
 10
3.8550834183
 20
2.6080341697
 30
0.0
 10
3.8593506483
 20
2.6076711391
 30
0.0
 10
3.8621031482
 20
2.6074284773
 30
0.0
 10
3.863427904
 20
2.6073091594
 30
0.0
  0
SPLINE
  5
404
100
AcDbEntity
  8
0
100
AcDbSpline
 62
7
  6
CONTINUOUS
 70
0
 71
3
 72
37
 73
33
 74
0
 42
0.0000001
 43
0.0000001
 44
0.0000000001
 40
0.0
 40
0.0
 40
0.0
 40
0.0
 40
0.0955944522
 40
0.1904403323
 40
0.2836409264
 40
0.3743153886
 40
0.4616069919
 40
0.5446908934
 40
0.6227823138
 40
0.6951434561
 40
0.7610906441
 40
0.7914617302
 40
0.8200007105
 40
0.8466400776
 40
0.8713168495
 40
0.8939728151
 40
0.9145545693
 40
0.933013667
 40
0.9493069299
 40
0.9633967493
 40
0.9696052191
 40
0.9752514062
 40
0.9803322848
 40
0.9848455497
 40
0.9887892429
 40
0.9921623104
 40
0.9949649426
 40
0.997199021
 40
0.9981046934
 40
0.9988712501
 40
0.99950136
 40
1.0
 40
1.0
 40
1.0
 40
1.0
 10
4.5283311976
 20
2.5724907319
 30
0.0
 10
4.5298511703
 20
2.572438326
 30
0.0
 10
4.5328791123
 20
2.5723309741
 30
0.0
 10
4.5373885922
 20
2.5721622508
 30
0.0
 10
4.54181951
 20
2.571987556
 30
0.0
 10
4.546129969
 20
2.5718085488
 30
0.0
 10
4.5502792178
 20
2.5716269326
 30
0.0
 10
4.5542280331
 20
2.5714444377
 30
0.0
 10
4.5579390839
 20
2.5712628138
 30
0.0
 10
4.5613772805
 20
2.5710837994
 30
0.0
 10
4.5640567625
 20
2.5709344359
 30
0.0
 10
4.5660397256
 20
2.5708169743
 30
0.0
 10
4.5673981978
 20
2.5707330083
 30
0.0
 10
4.5686660145
 20
2.5706509366
 30
0.0
 10
4.5698401678
 20
2.570570958
 30
0.0
 10
4.5709178716
 20
2.5704932719
 30
0.0
 10
4.571896567
 20
2.5704180741
 30
0.0
 10
4.5727739297
 20
2.5703455663
 30
0.0
 10
4.5735478741
 20
2.5702759371
 30
0.0
 10
4.5741271906
 20
2.5702183312
 30
0.0
 10
4.574537501
 20
2.5701733248
 30
0.0
 10
4.5748050964
 20
2.5701418328
 30
0.0
 10
4.5750456248
 20
2.5701111859
 30
0.0
 10
4.5752589465
 20
2.5700814135
 30
0.0
 10
4.5754449394
 20
2.570052545
 30
0.0
 10
4.5756035164
 20
2.5700246351
 30
0.0
 10
4.5757345922
 20
2.5699977132
 30
0.0
 10
4.5758264039
 20
2.5699749094
 30
0.0
 10
4.5758858087
 20
2.5699565974
 30
0.0
 10
4.5759202686
 20
2.5699441068
 30
0.0
 10
4.5759478634
 20
2.5699319008
 30
0.0
 10
4.5759635167
 20
2.5699229502
 30
0.0
 10
4.5759699853
 20
2.5699183576
 30
0.0
  0
SPLINE
  5
405
100
AcDbEntity
  8
0
100
AcDbSpline
 62
7
  6
CONTINUOUS
 70
0
 71
3
 72
27
 73
23
 74
0
 42
0.0000001
 43
0.0000001
 44
0.0000000001
 40
0.0
 40
0.0
 40
0.0
 40
0.0
 40
0.0017501197
 40
0.0036318289
 40
0.005752302
 40
0.0081873702
 40
0.0141788558
 40
0.021848274
 40
0.0313015049
 40
0.0425929245
 40
0.0557532038
 40
0.0708008016
 40
0.1065980565
 40
0.1500334655
 40
0.2011139502
 40
0.2598309836
 40
0.3261610189
 40
0.4000699001
 40
0.4815194456
 40
0.5704612061
 40
0.7706019534
 40
1.0
 40
1.0
 40
1.0
 40
1.0
 10
5.1187694126
 20
2.5614043665
 30
0.0
 10
5.1187694128
 20
2.5614066302
 30
0.0
 10
5.1187701054
 20
2.5614113497
 30
0.0
 10
5.1187731218
 20
2.5614182257
 30
0.0
 10
5.1187780342
 20
2.5614250086
 30
0.0
 10
5.1187877566
 20
2.5614346407
 30
0.0
 10
5.1188051601
 20
2.5614463315
 30
0.0
 10
5.11883203
 20
2.5614595169
 30
0.0
 10
5.1188663622
 20
2.5614727415
 30
0.0
 10
5.1189081814
 20
2.5614859974
 30
0.0
 10
5.1189575289
 20
2.5614992769
 30
0.0
 10
5.1190381583
 20
2.561518101
 30
0.0
 10
5.1191579733
 20
2.5615410249
 30
0.0
 10
5.1193244852
 20
2.5615672696
 30
0.0
 10
5.1195209541
 20
2.5615934992
 30
0.0
 10
5.1197472627
 20
2.5616196805
 30
0.0
 10
5.1200032802
 20
2.561645769
 30
0.0
 10
5.1202888462
 20
2.5616717373
 30
0.0
 10
5.1206037796
 20
2.5616975592
 30
0.0
 10
5.1210817172
 20
2.561733179
 30
0.0
 10
5.1217509481
 20
2.5617765731
 30
0.0
 10
5.1223056764
 20
2.5618074529
 30
0.0
 10
5.1226019835
 20
2.561822944
 30
0.0
  0
SPLINE
  5
406
100
AcDbEntity
  8
0
100
AcDbSpline
 62
7
  6
CONTINUOUS
 70
0
 71
3
 72
27
 73
23
 74
0
 42
0.0000001
 43
0.0000001
 44
0.0000000001
 40
0.0
 40
0.0
 40
0.0
 40
0.0
 40
0.0021038534
 40
0.0043103242
 40
0.0067175254
 40
0.0094016611
 40
0.0157972253
 40
0.0237825339
 40
0.033494169
 40
0.0450063845
 40
0.0583623756
 40
0.073587465
 40
0.1096967026
 40
0.1533998858
 40
0.2047034639
 40
0.2635867416
 40
0.3300087464
 40
0.4039144438
 40
0.4852359613
 40
0.5738926892
 40
0.7728598023
 40
1.0
 40
1.0
 40
1.0
 40
1.0
 10
4.7512694129
 20
2.5724635504
 30
0.0
 10
4.7512694128
 20
2.57246802
 30
0.0
 10
4.751270519
 20
2.5724772107
 30
0.0
 10
4.7512754337
 20
2.5724907189
 30
0.0
 10
4.7512835175
 20
2.5725040457
 30
0.0
 10
4.7512993912
 20
2.5725226873
 30
0.0
 10
4.7513280379
 20
2.5725453739
 30
0.0
 10
4.7513725854
 20
2.5725707613
 30
0.0
 10
4.7514294037
 20
2.5725959161
 30
0.0
 10
4.7514985549
 20
2.5726208342
 30
0.0
 10
4.7515801092
 20
2.5726455175
 30
0.0
 10
4.751713155
 20
2.5726800745
 30
0.0
 10
4.7519108865
 20
2.5727214141
 30
0.0
 10
4.7521856125
 20
2.5727676688
 30
0.0
 10
4.7525094611
 20
2.5728127657
 30
0.0
 10
4.7528821123
 20
2.5728566259
 30
0.0
 10
4.7533032074
 20
2.5728991511
 30
0.0
 10
4.7537723106
 20
2.5729402719
 30
0.0
 10
4.7542889278
 20
2.5729799292
 30
0.0
 10
4.7550709694
 20
2.5730328297
 30
0.0
 10
4.756162919
 20
2.5730937308
 30
0.0
 10
4.7570673019
 20
2.5731339144
 30
0.0
 10
4.7575494691
 20
2.5731532984
 30
0.0
  0
SPLINE
  5
407
100
AcDbEntity
  8
0
100
AcDbSpline
 62
7
  6
CONTINUOUS
 70
0
 71
3
 72
25
 73
21
 74
0
 42
0.0000001
 43
0.0000001
 44
0.0000000001
 40
0.0
 40
0.0
 40
0.0
 40
0.0
 40
0.0057243978
 40
0.0120635761
 40
0.0194803676
 40
0.028268486
 40
0.0386049763
 40
0.0505974844
 40
0.064313172
 40
0.0797957922
 40
0.1161657055
 40
0.1598548114
 40
0.2109217193
 40
0.2693877009
 40
0.335247076
 40
0.4084763194
 40
0.4890419409
 40
0.576896203
 40
0.7742457318
 40
1.0
 40
1.0
 40
1.0
 40
1.0
 10
5.1187694103
 20
2.5715213792
 30
0.0
 10
5.1187694108
 20
2.5715301276
 30
0.0
 10
5.1187727661
 20
2.5715486723
 30
0.0
 10
5.1187870409
 20
2.5715751924
 30
0.0
 10
5.1188099908
 20
2.5716011726
 30
0.0
 10
5.1188415085
 20
2.5716268993
 30
0.0
 10
5.1188816487
 20
2.5716525413
 30
0.0
 10
5.1189304734
 20
2.5716781533
 30
0.0
 10
5.1189880181
 20
2.5717037571
 30
0.0
 10
5.1190815365
 20
2.5717398391
 30
0.0
 10
5.1192208644
 20
2.5717839196
 30
0.0
 10
5.1194148466
 20
2.5718344055
 30
0.0
 10
5.1196435688
 20
2.5718847996
 30
0.0
 10
5.1199068899
 20
2.5719350385
 30
0.0
 10
5.1202046545
 20
2.5719850464
 30
0.0
 10
5.1205366547
 20
2.5720347679
 30
0.0
 10
5.1209026517
 20
2.5720841505
 30
0.0
 10
5.1214575032
 20
2.5721521425
 30
0.0
 10
5.1222340386
 20
2.5722348115
 30
0.0
 10
5.122877999
 20
2.5722935295
 30
0.0
 10
5.1232217552
 20
2.5723229303
 30
0.0
  0
SPLINE
  5
408
100
AcDbEntity
  8
0
100
AcDbSpline
 62
7
  6
CONTINUOUS
 70
0
 71
3
 72
11
 73
7
 74
0
 42
0.0000001
 43
0.0000001
 44
0.0000000001
 40
0.0
 40
0.0
 40
0.0
 40
0.0
 40
0.1929920178
 40
0.4139410117
 40
0.6796634744
 40
1.0
 40
1.0
 40
1.0
 40
1.0
 10
5.7552980871
 20
2.5698899723
 30
0.0
 10
5.7552980868
 20
2.5698923113
 30
0.0
 10
5.7552991187
 20
2.5698973539
 30
0.0
 10
5.7553033378
 20
2.5699045398
 30
0.0
 10
5.7553100644
 20
2.5699117119
 30
0.0
 10
5.7553156689
 20
2.56991611
 30
0.0
 10
5.7553188345
 20
2.5699183576
 30
0.0
  0
SPLINE
  5
409
100
AcDbEntity
  8
0
100
AcDbSpline
 62
7
  6
CONTINUOUS
 70
0
 71
3
 72
28
 73
24
 74
0
 42
0.0000001
 43
0.0000001
 44
0.0000000001
 40
0.0
 40
0.0
 40
0.0
 40
0.0
 40
0.0027342513
 40
0.0055461718
 40
0.0116972962
 40
0.0189686589
 40
0.0276644858
 40
0.0379619939
 40
0.0499652027
 40
0.0637377966
 40
0.0793201145
 40
0.0967369764
 40
0.1160036013
 40
0.1601163436
 40
0.2116847094
 40
0.2706865153
 40
0.3370678197
 40
0.410754355
 40
0.4916514594
 40
0.5796505892
 40
0.6746284114
 40
0.7764471051
 40
1.0
 40
1.0
 40
1.0
 40
1.0
 10
4.7570831084
 20
2.5882643593
 30
0.0
 10
4.7570831083
 20
2.5882727234
 30
0.0
 10
4.7570846656
 20
2.5882897277
 30
0.0
 10
4.7570942348
 20
2.5883243773
 30
0.0
 10
4.7571193638
 20
2.5883680979
 30
0.0
 10
4.757166365
 20
2.5884173139
 30
0.0
 10
4.7572308019
 20
2.588465731
 30
0.0
 10
4.7573128326
 20
2.5885135793
 30
0.0
 10
4.7574125792
 20
2.5885609999
 30
0.0
 10
4.7575301107
 20
2.5886079956
 30
0.0
 10
4.757665447
 20
2.5886545518
 30
0.0
 10
4.7578185725
 20
2.5887006514
 30
0.0
 10
4.7580574064
 20
2.5887643781
 30
0.0
 10
4.7584006495
 20
2.5888413098
 30
0.0
 10
4.7588658863
 20
2.588927989
 30
0.0
 10
4.7594006141
 20
2.5890124276
 30
0.0
 10
4.760004056
 20
2.5890944665
 30
0.0
 10
4.7606753336
 20
2.5891739187
 30
0.0
 10
4.7614134424
 20
2.589250639
 30
0.0
 10
4.762217269
 20
2.589324482
 30
0.0
 10
4.7630855919
 20
2.5893953235
 30
0.0
 10
4.7643680771
 20
2.5894885343
 30
0.0
 10
4.7653616064
 20
2.5895488809
 30
0.0
 10
4.7660444254
 20
2.5895864533
 30
0.0
  0
SPLINE
  5
40A
100
AcDbEntity
  8
0
100
AcDbSpline
 62
7
  6
CONTINUOUS
 70
0
 71
3
 72
25
 73
21
 74
0
 42
0.0000001
 43
0.0000001
 44
0.0000000001
 40
0.0
 40
0.0
 40
0.0
 40
0.0
 40
0.0076044467
 40
0.0156648816
 40
0.024566904
 40
0.034598949
 40
0.0459632156
 40
0.0587984254
 40
0.0731992817
 40
0.0892315417
 40
0.1263559943
 40
0.1704206249
 40
0.2215433702
 40
0.2797827172
 40
0.3451564332
 40
0.4176572263
 40
0.4972602602
 40
0.5839236739
 40
0.7782135254
 40
1.0
 40
1.0
 40
1.0
 40
1.0
 10
5.1187694101
 20
2.5873362905
 30
0.0
 10
5.1187694098
 20
2.5873495276
 30
0.0
 10
5.1187729513
 20
2.5873769025
 30
0.0
 10
5.1187885213
 20
2.587417088
 30
0.0
 10
5.1188140412
 20
2.5874568466
 30
0.0
 10
5.1188493167
 20
2.5874962808
 30
0.0
 10
5.1188943035
 20
2.5875355329
 30
0.0
 10
5.1189490155
 20
2.5875746758
 30
0.0
 10
5.1190134697
 20
2.5876137537
 30
0.0
 10
5.1191176194
 20
2.587668486
 30
0.0
 10
5.1192732249
 20
2.5877355908
 30
0.0
 10
5.1194904169
 20
2.5878125297
 30
0.0
 10
5.1197463277
 20
2.5878892326
 30
0.0
 10
5.1200408005
 20
2.5879656094
 30
0.0
 10
5.1203736619
 20
2.5880415628
 30
0.0
 10
5.1207446629
 20
2.5881170049
 30
0.0
 10
5.121153514
 20
2.5881918573
 30
0.0
 10
5.1217726725
 20
2.588294731
 30
0.0
 10
5.122638936
 20
2.5884196216
 30
0.0
 10
5.1233578066
 20
2.5885082095
 30
0.0
 10
5.1237413244
 20
2.5885524912
 30
0.0
  0
SPLINE
  5
40B
100
AcDbEntity
  8
0
100
AcDbSpline
 62
7
  6
CONTINUOUS
 70
0
 71
3
 72
18
 73
14
 74
0
 42
0.0000001
 43
0.0000001
 44
0.0000000001
 40
0.0
 40
0.0
 40
0.0
 40
0.0
 40
0.0296594153
 40
0.0608315739
 40
0.0947150699
 40
0.1322476893
 40
0.174121054
 40
0.2208328461
 40
0.3300434809
 40
0.4617826685
 40
0.6170264304
 40
0.7963310459
 40
1.0
 40
1.0
 40
1.0
 40
1.0
 10
5.4804557121
 20
2.5864082688
 30
0.0
 10
5.4804557117
 20
2.586418578
 30
0.0
 10
5.4804581176
 20
2.5864397872
 30
0.0
 10
5.4804687156
 20
2.5864711727
 30
0.0
 10
5.480486164
 20
2.5865024614
 30
0.0
 10
5.4805103501
 20
2.5865336841
 30
0.0
 10
5.480541229
 20
2.5865649187
 30
0.0
 10
5.4805941403
 20
2.5866089488
 30
0.0
 10
5.4806784033
 20
2.5866633636
 30
0.0
 10
5.4808011536
 20
2.5867260694
 30
0.0
 10
5.4809505376
 20
2.5867892288
 30
0.0
 10
5.4811265453
 20
2.5868528022
 30
0.0
 10
5.4812535243
 20
2.5868928695
 30
0.0
 10
5.4813213515
 20
2.586913143
 30
0.0
  0
SPLINE
  5
40C
100
AcDbEntity
  8
0
100
AcDbSpline
 62
7
  6
CONTINUOUS
 70
0
 71
3
 72
32
 73
28
 74
0
 42
0.0000001
 43
0.0000001
 44
0.0000000001
 40
0.0
 40
0.0
 40
0.0
 40
0.0
 40
0.001761412
 40
0.0036818889
 40
0.0058713308
 40
0.0084046086
 40
0.0113300865
 40
0.0146789902
 40
0.0184719345
 40
0.0227228367
 40
0.0326318025
 40
0.0444549497
 40
0.0582155262
 40
0.0739230613
 40
0.0915799916
 40
0.1111833983
 40
0.1327260973
 40
0.1561987997
 40
0.2088814648
 40
0.2691107178
 40
0.3367369038
 40
0.4115859487
 40
0.4934618661
 40
0.5821481973
 40
0.6774087456
 40
0.7789886528
 40
1.0
 40
1.0
 40
1.0
 40
1.0
 10
5.7985173091
 20
2.5855922192
 30
0.0
 10
5.7985173088
 20
2.585601405
 30
0.0
 10
5.7985202805
 20
2.5856206929
 30
0.0
 10
5.7985330045
 20
2.5856488498
 30
0.0
 10
5.7985536638
 20
2.5856768988
 30
0.0
 10
5.7985821301
 20
2.585705004
 30
0.0
 10
5.798618409
 20
2.5857333008
 30
0.0
 10
5.7986625351
 20
2.5857618431
 30
0.0
 10
5.798714535
 20
2.585790657
 30
0.0
 10
5.7987987936
 20
2.5858315545
 30
0.0
 10
5.798924513
 20
2.5858824683
 30
0.0
 10
5.7990998286
 20
2.5859420185
 30
0.0
 10
5.7993065091
 20
2.5860026364
 30
0.0
 10
5.7995444446
 20
2.5860642693
 30
0.0
 10
5.799813517
 20
2.5861268403
 30
0.0
 10
5.8001135573
 20
2.5861902894
 30
0.0
 10
5.8004443722
 20
2.586254566
 30
0.0
 10
5.8009458282
 20
2.5863448054
 30
0.0
 10
5.8016480492
 20
2.5864581218
 30
0.0
 10
5.8025800158
 20
2.5865920623
 30
0.0
 10
5.8036283474
 20
2.5867282119
 30
0.0
 10
5.8047902009
 20
2.586866169
 30
0.0
 10
5.8060624328
 20
2.5870055163
 30
0.0
 10
5.8074415949
 20
2.5871458518
 30
0.0
 10
5.8089239495
 20
2.5872867806
 30
0.0
 10
5.8110944429
 20
2.5874804399
 30
0.0
 10
5.8127712626
 20
2.587616784
 30
0.0
 10
5.8139204064
 20
2.587705709
 30
0.0
  0
SPLINE
  5
40D
100
AcDbEntity
  8
0
100
AcDbSpline
 62
7
  6
CONTINUOUS
 70
0
 71
3
 72
42
 73
38
 74
0
 42
0.0000001
 43
0.0000001
 44
0.0000000001
 40
0.0
 40
0.0
 40
0.0
 40
0.0
 40
0.0001627484
 40
0.0003381292
 40
0.000534645
 40
0.0007584011
 40
0.0013023309
 40
0.001990385
 40
0.0028318156
 40
0.0038315215
 40
0.0049923102
 40
0.0063158447
 40
0.0094542659
 40
0.0132505087
 40
0.0177045217
 40
0.0228141388
 40
0.028576025
 40
0.0349855714
 40
0.0420375535
 40
0.0497256939
 40
0.0669825566
 40
0.0866935693
 40
0.1087861535
 40
0.1331785009
 40
0.1597800593
 40
0.1884919687
 40
0.2192075177
 40
0.251812567
 40
0.3222000476
 40
0.3986098768
 40
0.4799084519
 40
0.5648898253
 40
0.6522930044
 40
0.7408198304
 40
0.8291537418
 40
0.9159789708
 40
1.0
 40
1.0
 40
1.0
 40
1.0
 10
6.0345912799
 20
2.5849865488
 30
0.0
 10
6.0345912802
 20
2.5849900582
 30
0.0
 10
6.0345922857
 20
2.5849973772
 30
0.0
 10
6.0345966178
 20
2.5850081571
 30
0.0
 10
6.0346036887
 20
2.5850189587
 30
0.0
 10
6.0346176467
 20
2.5850344502
 30
0.0
 10
6.0346426879
 20
2.5850537225
 30
0.0
 10
6.0346815009
 20
2.5850760275
 30
0.0
 10
6.0347310694
 20
2.5850989131
 30
0.0
 10
6.0347914293
 20
2.58512237
 30
0.0
 10
6.0348626349
 20
2.585146392
 30
0.0
 10
6.03497881
 20
2.5851811531
 30
0.0
 10
6.0351514631
 20
2.5852250401
 30
0.0
 10
6.0353914312
 20
2.5852773633
 30
0.0
 10
6.0356743646
 20
2.5853317366
 30
0.0
 10
6.0360000106
 20
2.5853880911
 30
0.0
 10
6.036368083
 20
2.5854463309
 30
0.0
 10
6.0367782423
 20
2.5855063873
 30
0.0
 10
6.0372301035
 20
2.5855681899
 30
0.0
 10
6.0379144335
 20
2.585656269
 30
0.0
 10
6.0388707419
 20
2.585769325
 30
0.0
 10
6.0401369164
 20
2.5859063598
 30
0.0
 10
6.0415572169
 20
2.5860488777
 30
0.0
 10
6.043126319
 20
2.5861963197
 30
0.0
 10
6.0448383527
 20
2.5863481002
 30
0.0
 10
6.0466869192
 20
2.586503634
 30
0.0
 10
6.0486651177
 20
2.5866623305
 30
0.0
 10
6.0515398878
 20
2.5868830145
 30
0.0
 10
6.0553984615
 20
2.5871610502
 30
0.0
 10
6.0603060371
 20
2.5874898551
 30
0.0
 10
6.0655290884
 20
2.5878167881
 30
0.0
 10
6.0709900383
 20
2.5881369474
 30
0.0
 10
6.0766077624
 20
2.5884455299
 30
0.0
 10
6.0822987411
 20
2.5887379219
 30
0.0
 10
6.0879782623
 20
2.5890097564
 30
0.0
 10
6.0935616531
 20
2.5892569766
 30
0.0
 10
6.0972426999
 20
2.5894061081
 30
0.0
 10
6.0990531575
 20
2.5894756673
 30
0.0
  0
LINE
  5
40E
100
AcDbEntity
  8
0
100
AcDbLine
 62
7
  6
CONTINUOUS
 10
6.0990531575
 20
2.5894756673
 11
6.0994265485
 21
2.589489959
  0
LINE
  5
40F
100
AcDbEntity
  8
0
100
AcDbLine
 62
7
  6
CONTINUOUS
 10
4.0773352114
 20
2.5900086862
 11
4.0802191842
 21
2.5900069997
  0
SPLINE
  5
410
100
AcDbEntity
  8
0
100
AcDbSpline
 62
7
  6
CONTINUOUS
 70
0
 71
3
 72
23
 73
19
 74
0
 42
0.0000001
 43
0.0000001
 44
0.0000000001
 40
0.0
 40
0.0
 40
0.0
 40
0.0
 40
0.0098999256
 40
0.0200683829
 40
0.0423533483
 40
0.0550069997
 40
0.0688813182
 40
0.1007334701
 40
0.1386051299
 40
0.1828759483
 40
0.2337701109
 40
0.2914248045
 40
0.3559186052
 40
0.4272941535
 40
0.505571488
 40
0.5907487859
 40
0.781730021
 40
1.0
 40
1.0
 40
1.0
 40
1.0
 10
4.4287694127
 20
2.6106365506
 30
0.0
 10
4.4287694128
 20
2.61064904
 30
0.0
 10
4.4287718079
 20
2.6106744209
 30
0.0
 10
4.4287865844
 20
2.6107260358
 30
0.0
 10
4.4288163625
 20
2.6107756915
 30
0.0
 10
4.4288569545
 20
2.6108220442
 30
0.0
 10
4.4289110133
 20
2.610872262
 30
0.0
 10
4.4289974205
 20
2.6109334314
 30
0.0
 10
4.4291238131
 20
2.6110024459
 30
0.0
 10
4.4292775138
 20
2.6110702424
 30
0.0
 10
4.4294585439
 20
2.6111368183
 30
0.0
 10
4.4296669201
 20
2.611202131
 30
0.0
 10
4.4299025738
 20
2.6112661334
 30
0.0
 10
4.4301654076
 20
2.611328774
 30
0.0
 10
4.4304552917
 20
2.6113900049
 30
0.0
 10
4.4308947136
 20
2.6114728946
 30
0.0
 10
4.4315108103
 20
2.6115710844
 30
0.0
 10
4.4320227415
 20
2.6116384606
 30
0.0
 10
4.4322960967
 20
2.6116716375
 30
0.0
  0
SPLINE
  5
411
100
AcDbEntity
  8
0
100
AcDbSpline
 62
7
  6
CONTINUOUS
 70
0
 71
3
 72
28
 73
24
 74
0
 42
0.0000001
 43
0.0000001
 44
0.0000000001
 40
0.0
 40
0.0
 40
0.0
 40
0.0
 40
0.0071662855
 40
0.014802619
 40
0.0233322974
 40
0.0330615395
 40
0.0441970303
 40
0.0568750299
 40
0.0711853854
 40
0.0871888039
 40
0.104926807
 40
0.124426776
 40
0.145707032
 40
0.1687798507
 40
0.2203233669
 40
0.2790729857
 40
0.3449992956
 40
0.4180437869
 40
0.4981239887
 40
0.5851401846
 40
0.6789742119
 40
0.7794950717
 40
1.0
 40
1.0
 40
1.0
 40
1.0
 10
4.7615991297
 20
2.6097814775
 30
0.0
 10
4.761599129
 20
2.6098043576
 30
0.0
 10
4.7616058224
 20
2.6098518392
 30
0.0
 10
4.7616352843
 20
2.6099209951
 30
0.0
 10
4.761683398
 20
2.6099888358
 30
0.0
 10
4.7617497572
 20
2.6100556436
 30
0.0
 10
4.7618343043
 20
2.61012172
 30
0.0
 10
4.7619370772
 20
2.6101872038
 30
0.0
 10
4.7620581129
 20
2.6102521541
 30
0.0
 10
4.7621974281
 20
2.6103165754
 30
0.0
 10
4.7623550137
 20
2.6103804509
 30
0.0
 10
4.762530837
 20
2.6104437593
 30
0.0
 10
4.7627248489
 20
2.6105064783
 30
0.0
 10
4.76301873
 20
2.6105924771
 30
0.0
 10
4.7634316523
 20
2.6106969929
 30
0.0
 10
4.7639817147
 20
2.6108156031
 30
0.0
 10
4.7646023596
 20
2.6109313173
 30
0.0
 10
4.7652926572
 20
2.6110439206
 30
0.0
 10
4.7660515763
 20
2.6111531967
 30
0.0
 10
4.7668779512
 20
2.6112589408
 30
0.0
 10
4.7677705081
 20
2.6113609755
 30
0.0
 10
4.769088169
 20
2.611496024
 30
0.0
 10
4.7701093753
 20
2.6115844965
 30
0.0
 10
4.7708112029
 20
2.6116399621
 30
0.0
  0
SPLINE
  5
412
100
AcDbEntity
  8
0
100
AcDbSpline
 62
7
  6
CONTINUOUS
 70
0
 71
3
 72
27
 73
23
 74
0
 42
0.0000001
 43
0.0000001
 44
0.0000000001
 40
0.0
 40
0.0
 40
0.0
 40
0.0
 40
0.0085629282
 40
0.0175279637
 40
0.0272467928
 40
0.0379967402
 40
0.0499831654
 40
0.0633532027
 40
0.0782112738
 40
0.0946322821
 40
0.1126706171
 40
0.1323655307
 40
0.1768236449
 40
0.2281594193
 40
0.2864397659
 40
0.351685331
 40
0.4238842212
 40
0.5030012367
 40
0.5889830983
 40
0.6817609999
 40
0.7812540761
 40
1.0
 40
1.0
 40
1.0
 40
1.0
 10
5.1187694101
 20
2.6088639156
 30
0.0
 10
5.1187694097
 20
2.6088838029
 30
0.0
 10
5.1187740352
 20
2.6089246406
 30
0.0
 10
5.1187945136
 20
2.6089849437
 30
0.0
 10
5.1188282492
 20
2.6090447799
 30
0.0
 10
5.1188750098
 20
2.6091041974
 30
0.0
 10
5.1189347052
 20
2.6091633307
 30
0.0
 10
5.1190073159
 20
2.609222266
 30
0.0
 10
5.1190928456
 20
2.6092810541
 30
0.0
 10
5.1191913011
 20
2.6093397111
 30
0.0
 10
5.1193026811
 20
2.6093982416
 30
0.0
 10
5.1194755108
 20
2.6094794069
 30
0.0
 10
5.1197247018
 20
2.6095792179
 30
0.0
 10
5.1200637311
 20
2.6096940578
 30
0.0
 10
5.1204535932
 20
2.6098081426
 30
0.0
 10
5.1208939124
 20
2.6099213229
 30
0.0
 10
5.1213842692
 20
2.6100334397
 30
0.0
 10
5.1219241539
 20
2.6101443461
 30
0.0
 10
5.1225129944
 20
2.6102538982
 30
0.0
 10
5.1231501576
 20
2.6103619665
 30
0.0
 10
5.1240934367
 20
2.6105085704
 30
0.0
 10
5.1248258316
 20
2.6106085242
 30
0.0
 10
5.1253297867
 20
2.6106727766
 30
0.0
  0
SPLINE
  5
413
100
AcDbEntity
  8
0
100
AcDbSpline
 62
7
  6
CONTINUOUS
 70
0
 71
3
 72
24
 73
20
 74
0
 42
0.0000001
 43
0.0000001
 44
0.0000000001
 40
0.0
 40
0.0
 40
0.0
 40
0.0
 40
0.0099643099
 40
0.0202876803
 40
0.0312617511
 40
0.043129959
 40
0.0702421631
 40
0.1027244705
 40
0.1411750869
 40
0.1859409793
 40
0.2372240797
 40
0.2951452652
 40
0.3597704811
 40
0.4311305063
 40
0.5092335075
 40
0.5940657454
 40
0.6856018864
 40
0.7838040336
 40
1.0
 40
1.0
 40
1.0
 40
1.0
 10
5.4759396928
 20
2.6079463998
 30
0.0
 10
5.4759396933
 20
2.6079618015
 30
0.0
 10
5.4759426317
 20
2.6079932296
 30
0.0
 10
5.4759556662
 20
2.608039989
 30
0.0
 10
5.4759772317
 20
2.6080867116
 30
0.0
 10
5.4760191119
 20
2.6081518247
 30
0.0
 10
5.4760951628
 20
2.6082330575
 30
0.0
 10
5.4762151694
 20
2.6083261932
 30
0.0
 10
5.4763679973
 20
2.6084196114
 30
0.0
 10
5.4765537376
 20
2.6085133526
 30
0.0
 10
5.4767724634
 20
2.6086074445
 30
0.0
 10
5.4770241191
 20
2.6087018068
 30
0.0
 10
5.4773085912
 20
2.6087963695
 30
0.0
 10
5.4776257159
 20
2.6088910524
 30
0.0
 10
5.4779752924
 20
2.6089857716
 30
0.0
 10
5.4783570876
 20
2.6090804539
 30
0.0
 10
5.4787708406
 20
2.6091750239
 30
0.0
 10
5.479384685
 20
2.6093050733
 30
0.0
 10
5.4798622048
 20
2.6093956322
 30
0.0
 10
5.4801911375
 20
2.6094545787
 30
0.0
  0
SPLINE
  5
414
100
AcDbEntity
  8
0
100
AcDbSpline
 62
7
  6
CONTINUOUS
 70
0
 71
3
 72
28
 73
24
 74
0
 42
0.0000001
 43
0.0000001
 44
0.0000000001
 40
0.0
 40
0.0
 40
0.0
 40
0.0
 40
0.00625054
 40
0.0131457417
 40
0.0211193651
 40
0.0304541734
 40
0.0413250084
 40
0.0538407709
 40
0.0680700991
 40
0.0840565273
 40
0.1018285708
 40
0.1214044338
 40
0.1427941969
 40
0.1660031769
 40
0.2178800982
 40
0.277013918
 40
0.343347309
 40
0.4167968916
 40
0.4972586689
 40
0.5846123049
 40
0.6787204548
 40
0.7794329175
 40
1.0
 40
1.0
 40
1.0
 40
1.0
 10
5.8087694116
 20
2.6070914527
 30
0.0
 10
5.8087694123
 20
2.6071131307
 30
0.0
 10
5.8087770888
 20
2.6071589453
 30
0.0
 10
5.8088096143
 20
2.6072253892
 30
0.0
 10
5.8088621588
 20
2.6072914615
 30
0.0
 10
5.8089344366
 20
2.6073576624
 30
0.0
 10
5.8090264934
 20
2.6074243359
 30
0.0
 10
5.8091384194
 20
2.6074915909
 30
0.0
 10
5.8092702598
 20
2.6075594573
 30
0.0
 10
5.8094220183
 20
2.6076279248
 30
0.0
 10
5.8095936702
 20
2.6076969648
 30
0.0
 10
5.8097851672
 20
2.6077665413
 30
0.0
 10
5.8099964399
 20
2.6078366271
 30
0.0
 10
5.8103164679
 20
2.6079343675
 30
0.0
 10
5.8107658195
 20
2.6080563346
 30
0.0
 10
5.8113640681
 20
2.6081994392
 30
0.0
 10
5.8120387161
 20
2.6083438673
 30
0.0
 10
5.8127886223
 20
2.6084893441
 30
0.0
 10
5.8136125257
 20
2.6086355812
 30
0.0
 10
5.8145090207
 20
2.6087823006
 30
0.0
 10
5.8154765775
 20
2.6089292408
 30
0.0
 10
5.8169029989
 20
2.6091312726
 30
0.0
 10
5.818008313
 20
2.6092726483
 30
0.0
 10
5.8187677149
 20
2.6093647515
 30
0.0
  0
SPLINE
  5
415
100
AcDbEntity
  8
0
100
AcDbSpline
 62
7
  6
CONTINUOUS
 70
0
 71
3
 72
35
 73
31
 74
0
 42
0.0000001
 43
0.0000001
 44
0.0000000001
 40
0.0
 40
0.0
 40
0.0
 40
0.0
 40
0.0007649313
 40
0.0015611655
 40
0.0033252769
 40
0.0054247744
 40
0.0079355218
 40
0.0109014515
 40
0.0143486976
 40
0.0182931653
 40
0.0227446441
 40
0.0277093838
 40
0.0331912969
 40
0.0457127462
 40
0.0603141464
 40
0.0769873644
 40
0.0957168572
 40
0.1164806349
 40
0.1392523708
 40
0.1640012717
 40
0.1906929264
 40
0.2192895697
 40
0.2820298393
 40
0.351858222
 40
0.428365727
 40
0.5111023671
 40
0.59958026
 40
0.693276945
 40
0.7916383161
 40
1.0
 40
1.0
 40
1.0
 40
1.0
 10
6.0945767703
 20
2.606357325
 30
0.0
 10
6.0945767705
 20
2.606365495
 30
0.0
 10
6.0945783158
 20
2.6063822041
 30
0.0
 10
6.0945877066
 20
2.6064166141
 30
0.0
 10
6.0946122225
 20
2.6064607144
 30
0.0
 10
6.0946578864
 20
2.6065116593
 30
0.0
 10
6.0947205831
 20
2.6065631727
 30
0.0
 10
6.0948004472
 20
2.6066154314
 30
0.0
 10
6.0948975866
 20
2.6066685481
 30
0.0
 10
6.0950120508
 20
2.606722522
 30
0.0
 10
6.0951438472
 20
2.6067773413
 30
0.0
 10
6.0952929562
 20
2.6068329844
 30
0.0
 10
6.0955253098
 20
2.6069117676
 30
0.0
 10
6.0958592906
 20
2.6070108361
 30
0.0
 10
6.096312189
 20
2.6071281126
 30
0.0
 10
6.0968326541
 20
2.6072481776
 30
0.0
 10
6.0974199204
 20
2.6073708152
 30
0.0
 10
6.0980731352
 20
2.6074957986
 30
0.0
 10
6.0987913224
 20
2.6076229132
 30
0.0
 10
6.0995734088
 20
2.6077519497
 30
0.0
 10
6.1004182213
 20
2.6078827057
 30
0.0
 10
6.1016656585
 20
2.6080647402
 30
0.0
 10
6.1033718172
 20
2.6082935215
 30
0.0
 10
6.1055885013
 20
2.6085640731
 30
0.0
 10
6.1080199685
 20
2.6088367167
 30
0.0
 10
6.1106517286
 20
2.6091097814
 30
0.0
 10
6.1134681212
 20
2.609381584
 30
0.0
 10
6.116452391
 20
2.6096504793
 30
0.0
 10
6.1207140723
 20
2.6100098781
 30
0.0
 10
6.1239806828
 20
2.6102591801
 30
0.0
 10
6.1262004189
 20
2.6104187447
 30
0.0
  0
SPLINE
  5
416
100
AcDbEntity
  8
0
100
AcDbSpline
 62
7
  6
CONTINUOUS
 70
0
 71
3
 72
40
 73
36
 74
0
 42
0.0000001
 43
0.0000001
 44
0.0000000001
 40
0.0
 40
0.0
 40
0.0
 40
0.0
 40
0.0004258903
 40
0.0009303038
 40
0.0015555288
 40
0.0023240109
 40
0.0032476771
 40
0.004333245
 40
0.0055847095
 40
0.0070044465
 40
0.0103537261
 40
0.0143874523
 40
0.0191063265
 40
0.0245085306
 40
0.0305901608
 40
0.0373461461
 40
0.0447700806
 40
0.0528547601
 40
0.0709725267
 40
0.0916245436
 40
0.1147238753
 40
0.1401726423
 40
0.1678627242
 40
0.1976764227
 40
0.2294870108
 40
0.2631593768
 40
0.335510269
 40
0.4135028171
 40
0.4958155823
 40
0.5810534048
 40
0.6677695238
 40
0.7544888044
 40
0.8397318639
 40
0.9220398618
 40
1.0
 40
1.0
 40
1.0
 40
1.0
 10
6.3138844672
 20
2.6057940288
 30
0.0
 10
6.3138844672
 20
2.6058040655
 30
0.0
 10
6.3138897126
 20
2.6058260817
 30
0.0
 10
6.3139103528
 20
2.6058569195
 30
0.0
 10
6.3139429322
 20
2.6058878958
 30
0.0
 10
6.3139876444
 20
2.6059194713
 30
0.0
 10
6.3140446266
 20
2.6059518363
 30
0.0
 10
6.3141139886
 20
2.6059850146
 30
0.0
 10
6.3141957685
 20
2.6060190084
 30
0.0
 10
6.3143289002
 20
2.6060681453
 30
0.0
 10
6.3145269128
 20
2.6061303644
 30
0.0
 10
6.3148022946
 20
2.6062047098
 30
0.0
 10
6.3151268186
 20
2.6062820706
 30
0.0
 10
6.3155001502
 20
2.6063623319
 30
0.0
 10
6.3159219192
 20
2.6064453624
 30
0.0
 10
6.3163916725
 20
2.6065310462
 30
0.0
 10
6.3169089063
 20
2.6066192801
 30
0.0
 10
6.3176913305
 20
2.6067450112
 30
0.0
 10
6.3187836913
 20
2.6069064957
 30
0.0
 10
6.3202285378
 20
2.607102313
 30
0.0
 10
6.3218466021
 20
2.6073058629
 30
0.0
 10
6.3236309159
 20
2.6075162362
 30
0.0
 10
6.3255738216
 20
2.6077324854
 30
0.0
 10
6.3276669946
 20
2.6079536608
 30
0.0
 10
6.3299014859
 20
2.6081788039
 30
0.0
 10
6.3331347494
 20
2.6084905027
 30
0.0
 10
6.3374537469
 20
2.6088811413
 30
0.0
 10
6.3429174203
 20
2.609339856
 30
0.0
 10
6.3486863902
 20
2.6097911162
 30
0.0
 10
6.3546626735
 20
2.6102271885
 30
0.0
 10
6.3607446563
 20
2.6106405902
 30
0.0
 10
6.3668287117
 20
2.6110242396
 30
0.0
 10
6.3728108956
 20
2.6113715657
 30
0.0
 10
6.3785886849
 20
2.6116766196
 30
0.0
 10
6.3823614783
 20
2.6118541601
 30
0.0
 10
6.3841969672
 20
2.6119343189
 30
0.0
  0
SPLINE
  5
417
100
AcDbEntity
  8
0
100
AcDbSpline
 62
7
  6
CONTINUOUS
 70
0
 71
3
 72
31
 73
27
 74
0
 42
0.0000001
 43
0.0000001
 44
0.0000000001
 40
0.0
 40
0.0
 40
0.0
 40
0.0
 40
0.0011285584
 40
0.00243107
 40
0.0040499312
 40
0.0060614722
 40
0.0085053422
 40
0.0114033574
 40
0.014768405
 40
0.0186085781
 40
0.0277331503
 40
0.0388041075
 40
0.0518331471
 40
0.0668252137
 40
0.0837820174
 40
0.1027031019
 40
0.1235852586
 40
0.1464239528
 40
0.1979494967
 40
0.2572255829
 40
0.3241846823
 40
0.3987468754
 40
0.4808225171
 40
0.5703085122
 40
0.7710601234
 40
1.0
 40
1.0
 40
1.0
 40
1.0
 10
3.7857917752
 20
2.6122887139
 30
0.0
 10
3.7857917749
 20
2.6122914625
 30
0.0
 10
3.7857932334
 20
2.6122974358
 30
0.0
 10
3.7857992985
 20
2.6123054314
 30
0.0
 10
3.7858088019
 20
2.6123129036
 30
0.0
 10
3.7858218003
 20
2.6123200565
 30
0.0
 10
3.7858383542
 20
2.6123269513
 30
0.0
 10
3.7858585066
 20
2.6123335984
 30
0.0
 10
3.7858822763
 20
2.6123399973
 30
0.0
 10
3.7859210941
 20
2.6123486953
 30
0.0
 10
3.7859788309
 20
2.6123585532
 30
0.0
 10
3.7860591077
 20
2.6123688246
 30
0.0
 10
3.7861538806
 20
2.6123780507
 30
0.0
 10
3.7862631265
 20
2.6123862148
 30
0.0
 10
3.7863868236
 20
2.6123932913
 30
0.0
 10
3.7865249376
 20
2.612399264
 30
0.0
 10
3.7866774279
 20
2.6124041241
 30
0.0
 10
3.786909346
 20
2.6124093154
 30
0.0
 10
3.7872348236
 20
2.6124125896
 30
0.0
 10
3.7876677673
 20
2.61241192
 30
0.0
 10
3.7881567892
 20
2.6124067403
 30
0.0
 10
3.7887012792
 20
2.6123970626
 30
0.0
 10
3.7893005516
 20
2.6123829095
 30
0.0
 10
3.7902069599
 20
2.6123571212
 30
0.0
 10
3.7914706742
 20
2.6123133414
 30
0.0
 10
3.7925163487
 20
2.6122712516
 30
0.0
 10
3.7930734386
 20
2.6122477571
 30
0.0
  0
SPLINE
  5
418
100
AcDbEntity
  8
0
100
AcDbSpline
 62
7
  6
CONTINUOUS
 70
0
 71
3
 72
61
 73
57
 74
0
 42
0.0000001
 43
0.0000001
 44
0.0000000001
 40
0.0
 40
0.0
 40
0.0
 40
0.0
 40
0.0003631047
 40
0.0007423102
 40
0.0015860101
 40
0.0025934766
 40
0.0038000196
 40
0.0052257918
 40
0.0068826126
 40
0.0087776019
 40
0.0109149591
 40
0.0132972122
 40
0.0159257608
 40
0.018801074
 40
0.0219231099
 40
0.0289047756
 40
0.0368627859
 40
0.0457846393
 40
0.0556546215
 40
0.066454143
 40
0.0781621985
 40
0.0907556457
 40
0.1042091904
 40
0.1184956324
 40
0.1335860207
 40
0.166053811
 40
0.2013476725
 40
0.2391787323
 40
0.2792368369
 40
0.3211930781
 40
0.3647022056
 40
0.4094053386
 40
0.4549327263
 40
0.5009065363
 40
0.5469439384
 40
0.5926602017
 40
0.6376719734
 40
0.681600627
 40
0.7240756707
 40
0.7647381757
 40
0.8032442351
 40
0.8392683722
 40
0.8725067194
 40
0.9026803535
 40
0.9165384663
 40
0.9295386947
 40
0.9416546246
 40
0.952862057
 40
0.9631390197
 40
0.9679225044
 40
0.9724662996
 40
0.9808271302
 40
0.9882081978
 40
0.994600579
 40
0.9974245202
 40
1.0
 40
1.0
 40
1.0
 40
1.0
 10
3.9473153446
 20
2.6328697345
 30
0.0
 10
3.9473153445
 20
2.6328810426
 30
0.0
 10
3.9473131746
 20
2.6329042081
 30
0.0
 10
3.9473000186
 20
2.6329520364
 30
0.0
 10
3.9472657239
 20
2.6330135228
 30
0.0
 10
3.9472019899
 20
2.6330848733
 30
0.0
 10
3.947114475
 20
2.6331573971
 30
0.0
 10
3.9470030117
 20
2.6332313195
 30
0.0
 10
3.9468674696
 20
2.6333067804
 30
0.0
 10
3.9467078039
 20
2.6333837598
 30
0.0
 10
3.9465240334
 20
2.6334622317
 30
0.0
 10
3.9463162152
 20
2.6335421458
 30
0.0
 10
3.9460844356
 20
2.6336234492
 30
0.0
 10
3.9458288068
 20
2.6337060997
 30
0.0
 10
3.9454416731
 20
2.6338224064
 30
0.0
 10
3.9448986425
 20
2.6339694843
 30
0.0
 10
3.9441764427
 20
2.6341448043
 30
0.0
 10
3.943362923
 20
2.6343244417
 30
0.0
 10
3.9424597912
 20
2.6345079875
 30
0.0
 10
3.9414689306
 20
2.6346950161
 30
0.0
 10
3.9403924184
 20
2.6348851139
 30
0.0
 10
3.939232507
 20
2.635077864
 30
0.0
 10
3.9379916207
 20
2.6352728519
 30
0.0
 10
3.9366723481
 20
2.6354696665
 30
0.0
 10
3.9347654707
 20
2.635740618
 30
0.0
 10
3.9322074717
 20
2.6360792245
 30
0.0
 10
3.928943128
 20
2.6364771306
 30
0.0
 10
3.9254404866
 20
2.6368725002
 30
0.0
 10
3.9217285037
 20
2.6372620075
 30
0.0
 10
3.9178378615
 20
2.6376423663
 30
0.0
 10
3.9138007538
 20
2.6380103806
 30
0.0
 10
3.9096506431
 20
2.6383629556
 30
0.0
 10
3.9054220098
 20
2.6386971221
 30
0.0
 10
3.9011500877
 20
2.6390100596
 30
0.0
 10
3.8968705882
 20
2.639299121
 30
0.0
 10
3.8926194085
 20
2.639561854
 30
0.0
 10
3.8884323321
 20
2.639796024
 30
0.0
 10
3.8843447197
 20
2.6399996388
 30
0.0
 10
3.8803911956
 20
2.6401709669
 30
0.0
 10
3.8766053312
 20
2.6403085587
 30
0.0
 10
3.8730193322
 20
2.6404112632
 30
0.0
 10
3.8696637305
 20
2.6404782598
 30
0.0
 10
3.8665671021
 20
2.6405090287
 30
0.0
 10
3.8641606137
 20
2.6405043232
 30
0.0
 10
3.8623846156
 20
2.6404806354
 30
0.0
 10
3.861171116
 20
2.6404542412
 30
0.0
 10
3.8600404303
 20
2.6404188057
 30
0.0
 10
3.8589949384
 20
2.6403744155
 30
0.0
 10
3.8581781087
 20
2.6403290534
 30
0.0
 10
3.8575689605
 20
2.6402878566
 30
0.0
 10
3.8570196997
 20
2.6402458767
 30
0.0
 10
3.856390464
 20
2.6401889187
 30
0.0
 10
3.8557055712
 20
2.6401102481
 30
0.0
 10
3.8551940034
 20
2.6400352999
 30
0.0
 10
3.8548326014
 20
2.6399699662
 30
0.0
 10
3.8546679313
 20
2.6399357797
 30
0.0
 10
3.8545896758
 20
2.6399181907
 30
0.0
  0
SPLINE
  5
419
100
AcDbEntity
  8
0
100
AcDbSpline
 62
7
  6
CONTINUOUS
 70
0
 71
3
 72
19
 73
15
 74
0
 42
0.0000001
 43
0.0000001
 44
0.0000000001
 40
0.0
 40
0.0
 40
0.0
 40
0.0
 40
0.0315429345
 40
0.0640019795
 40
0.0986385492
 40
0.136496111
 40
0.1783772528
 40
0.2248757597
 40
0.2764231319
 40
0.3333330052
 40
0.4640656047
 40
0.6183619596
 40
0.7968877036
 40
1.0
 40
1.0
 40
1.0
 40
1.0
 10
3.8535653446
 20
2.6393798554
 30
0.0
 10
3.8535653448
 20
2.6393926179
 30
0.0
 10
3.8535681033
 20
2.6394185963
 30
0.0
 10
3.8535805724
 20
2.6394567769
 30
0.0
 10
3.8536012045
 20
2.6394941427
 30
0.0
 10
3.8536298467
 20
2.6395306948
 30
0.0
 10
3.8536664254
 20
2.639566512
 30
0.0
 10
3.8537109236
 20
2.6396016528
 30
0.0
 10
3.8537633432
 20
2.6396361624
 30
0.0
 10
3.8538477906
 20
2.6396835641
 30
0.0
 10
3.8539742555
 20
2.6397402928
 30
0.0
 10
3.8541510649
 20
2.639803231
 30
0.0
 10
3.8543593841
 20
2.6398637844
 30
0.0
 10
3.8545094956
 20
2.6399001692
 30
0.0
 10
3.8545896758
 20
2.6399181907
 30
0.0
  0
SPLINE
  5
41A
100
AcDbEntity
  8
0
100
AcDbSpline
 62
7
  6
CONTINUOUS
 70
0
 71
3
 72
57
 73
53
 74
0
 42
0.0000001
 43
0.0000001
 44
0.0000000001
 40
0.0
 40
0.0
 40
0.0
 40
0.0
 40
0.0008471961
 40
0.0017682316
 40
0.0028112232
 40
0.0040095081
 40
0.0053848574
 40
0.0069514167
 40
0.0087184968
 40
0.0106921723
 40
0.0128764697
 40
0.0152740875
 40
0.0178866552
 40
0.0207150532
 40
0.0270202497
 40
0.034188317
 40
0.0422128921
 40
0.0510840449
 40
0.0607892119
 40
0.0713135859
 40
0.0826402439
 40
0.0947506136
 40
0.1076243346
 40
0.1212395211
 40
0.1505994792
 40
0.1826276877
 40
0.2171008845
 40
0.2537774612
 40
0.2923992924
 40
0.3326934686
 40
0.3743741921
 40
0.4171446715
 40
0.4606992347
 40
0.5047254287
 40
0.5489062891
 40
0.5929226615
 40
0.6364556693
 40
0.6791891859
 40
0.7208123407
 40
0.76102212
 40
0.799525856
 40
0.8360437526
 40
0.8703112498
 40
0.8865232355
 40
0.9020815838
 40
0.931127449
 40
0.9445640314
 40
0.957244637
 40
0.9691474982
 40
0.9802527227
 40
0.9905427565
 40
1.0
 40
1.0
 40
1.0
 40
1.0
 10
4.2118150176
 20
2.6335501186
 30
0.0
 10
4.211815017
 20
2.6335756604
 30
0.0
 10
4.2118071471
 20
2.6336291871
 30
0.0
 10
4.2117735127
 20
2.6337077522
 30
0.0
 10
4.2117187982
 20
2.6337864395
 30
0.0
 10
4.2116433449
 20
2.6338655861
 30
0.0
 10
4.2115471931
 20
2.6339455076
 30
0.0
 10
4.2114302989
 20
2.6340263237
 30
0.0
 10
4.211292633
 20
2.6341080703
 30
0.0
 10
4.2111342026
 20
2.634190743
 30
0.0
 10
4.2109550406
 20
2.6342743153
 30
0.0
 10
4.2107552007
 20
2.6343587464
 30
0.0
 10
4.2105347589
 20
2.6344440026
 30
0.0
 10
4.2102012134
 20
2.6345630777
 30
0.0
 10
4.2097327991
 20
2.6347123221
 30
0.0
 10
4.2091089407
 20
2.6348883379
 30
0.0
 10
4.20840566
 20
2.6350667613
 30
0.0
 10
4.2076242027
 20
2.6352472479
 30
0.0
 10
4.2067659414
 20
2.635429432
 30
0.0
 10
4.2058324052
 20
2.6356129618
 30
0.0
 10
4.2048252572
 20
2.635797493
 30
0.0
 10
4.2037462951
 20
2.635982677
 30
0.0
 10
4.2025974434
 20
2.6361681785
 30
0.0
 10
4.2009328865
 20
2.6364219043
 30
0.0
 10
4.1986934147
 20
2.6367355935
 30
0.0
 10
4.1958262436
 20
2.6370993235
 30
0.0
 10
4.1927360858
 20
2.6374564803
 30
0.0
 10
4.1894449233
 20
2.6378044527
 30
0.0
 10
4.1859761856
 20
2.6381406832
 30
0.0
 10
4.1823546163
 20
2.6384627133
 30
0.0
 10
4.1786061113
 20
2.638768187
 30
0.0
 10
4.1747575488
 20
2.6390548674
 30
0.0
 10
4.1708366103
 20
2.6393206509
 30
0.0
 10
4.1668715889
 20
2.6395635827
 30
0.0
 10
4.1628911908
 20
2.6397818716
 30
0.0
 10
4.1589243256
 20
2.6399739058
 30
0.0
 10
4.1549998896
 20
2.6401382652
 30
0.0
 10
4.1511465445
 20
2.6402737349
 30
0.0
 10
4.1473924914
 20
2.640379317
 30
0.0
 10
4.1437652463
 20
2.64045424
 30
0.0
 10
4.1402914134
 20
2.6404979728
 30
0.0
 10
4.1369964753
 20
2.6405102178
 30
0.0
 10
4.1343736213
 20
2.6404938873
 30
0.0
 10
4.1323828832
 20
2.6404640928
 30
0.0
 10
4.1305497652
 20
2.6404252224
 30
0.0
 10
4.1288006803
 20
2.6403709217
 30
0.0
 10
4.1271391523
 20
2.6402984558
 30
0.0
 10
4.1259944781
 20
2.6402379914
 30
0.0
 10
4.1249206342
 20
2.6401701364
 30
0.0
 10
4.1239195288
 20
2.6400950214
 30
0.0
 10
4.1229929795
 20
2.6400128022
 30
0.0
 10
4.1224008339
 20
2.6399507351
 30
0.0
 10
4.1221175746
 20
2.6399181907
 30
0.0
  0
SPLINE
  5
41B
100
AcDbEntity
  8
0
100
AcDbSpline
 62
7
  6
CONTINUOUS
 70
0
 71
3
 72
24
 73
20
 74
0
 42
0.0000001
 43
0.0000001
 44
0.0000000001
 40
0.0
 40
0.0
 40
0.0
 40
0.0
 40
0.0105919685
 40
0.0213983306
 40
0.044741758
 40
0.0578095773
 40
0.0720277711
 40
0.1043828735
 40
0.1425558133
 40
0.1869702071
 40
0.2378797521
 40
0.2954385872
 40
0.3597405885
 40
0.4308337851
 40
0.5087397773
 40
0.5934608165
 40
0.6849831165
 40
0.7832826284
 40
1.0
 40
1.0
 40
1.0
 40
1.0
 10
4.1180650179
 20
2.6386992536
 30
0.0
 10
4.118065018
 20
2.6387146884
 30
0.0
 10
4.1180677514
 20
2.6387459401
 30
0.0
 10
4.1180845953
 20
2.6388092103
 30
0.0
 10
4.1181186793
 20
2.6388702814
 30
0.0
 10
4.1181655873
 20
2.6389272993
 30
0.0
 10
4.1182275915
 20
2.6389884257
 30
0.0
 10
4.1183268738
 20
2.6390627189
 30
0.0
 10
4.1184724081
 20
2.6391461506
 30
0.0
 10
4.1186493196
 20
2.6392275402
 30
0.0
 10
4.1188576228
 20
2.6393068923
 30
0.0
 10
4.1190973272
 20
2.6393841715
 30
0.0
 10
4.119368344
 20
2.6394593074
 30
0.0
 10
4.1196705406
 20
2.639532243
 30
0.0
 10
4.1200037462
 20
2.6396029116
 30
0.0
 10
4.1203677653
 20
2.6396712515
 30
0.0
 10
4.1207623814
 20
2.6397372153
 30
0.0
 10
4.12134831
 20
2.6398247852
 30
0.0
 10
4.1218038348
 20
2.6398821444
 30
0.0
 10
4.1221175746
 20
2.6399181907
 30
0.0
  0
SPLINE
  5
41C
100
AcDbEntity
  8
0
100
AcDbSpline
 62
7
  6
CONTINUOUS
 70
0
 71
3
 72
51
 73
47
 74
0
 42
0.0000001
 43
0.0000001
 44
0.0000000001
 40
0.0
 40
0.0
 40
0.0
 40
0.0
 40
0.0009267059
 40
0.0019072365
 40
0.0029805451
 40
0.0041764425
 40
0.0055163564
 40
0.0070153612
 40
0.0086840615
 40
0.0105298757
 40
0.0125579967
 40
0.0147721384
 40
0.0171749288
 40
0.0197680788
 40
0.025529122
 40
0.032059699
 40
0.0393583736
 40
0.0474201588
 40
0.0562373525
 40
0.0657999563
 40
0.0760962729
 40
0.0871127605
 40
0.0988346167
 40
0.1112454854
 40
0.1380628635
 40
0.1674109953
 40
0.1991183804
 40
0.2329977659
 40
0.2688475181
 40
0.3064529058
 40
0.3455874753
 40
0.3860143814
 40
0.4274878669
 40
0.4697547582
 40
0.5556281661
 40
0.6415238009
 40
0.6838161026
 40
0.7253208656
 40
0.7657809432
 40
0.804945887
 40
0.8425737403
 40
0.8784328192
 40
0.9123033463
 40
0.9439792821
 40
0.9732693668
 40
1.0
 40
1.0
 40
1.0
 40
1.0
 10
4.5200502744
 20
2.6343430377
 30
0.0
 10
4.5200502736
 20
2.6343694676
 30
0.0
 10
4.5200438199
 20
2.6344240343
 30
0.0
 10
4.520015616
 20
2.6345048053
 30
0.0
 10
4.5199692759
 20
2.6345855759
 30
0.0
 10
4.5199051025
 20
2.63466644
 30
0.0
 10
4.5198232135
 20
2.6347475916
 30
0.0
 10
4.5197236281
 20
2.6348291343
 30
0.0
 10
4.5196063417
 20
2.6349111152
 30
0.0
 10
4.5194713609
 20
2.6349935449
 30
0.0
 10
4.5193187082
 20
2.6350764148
 30
0.0
 10
4.5191484168
 20
2.6351596998
 30
0.0
 10
4.5189605348
 20
2.6352433731
 30
0.0
 10
4.5186765379
 20
2.635359527
 30
0.0
 10
4.5182772339
 20
2.6355041653
 30
0.0
 10
4.5177446383
 20
2.6356733637
 30
0.0
 10
4.5171438163
 20
2.6358434301
 30
0.0
 10
4.5164756481
 20
2.6360140813
 30
0.0
 10
4.5157411047
 20
2.6361850212
 30
0.0
 10
4.5149412795
 20
2.6363559717
 30
0.0
 10
4.5140773704
 20
2.6365266495
 30
0.0
 10
4.5131506745
 20
2.6366967859
 30
0.0
 10
4.5121625893
 20
2.6368661105
 30
0.0
 10
4.5107278214
 20
2.6370964289
 30
0.0
 10
4.5087923398
 20
2.6373785141
 30
0.0
 10
4.5063070263
 20
2.6377017271
 30
0.0
 10
4.5036176478
 20
2.6380157012
 30
0.0
 10
4.5007404749
 20
2.6383184598
 30
0.0
 10
4.4976929422
 20
2.6386080819
 30
0.0
 10
4.494493573
 20
2.6388827431
 30
0.0
 10
4.4911618704
 20
2.6391407131
 30
0.0
 10
4.4877182085
 20
2.6393803644
 30
0.0
 10
4.4841837132
 20
2.6396001911
 30
0.0
 10
4.4793535661
 20
2.6398663739
 30
0.0
 10
4.4732551101
 20
2.6401395895
 30
0.0
 10
4.4671528426
 20
2.6403319421
 30
0.0
 10
4.4623142041
 20
2.6404345797
 30
0.0
 10
4.4587706699
 20
2.640484635
 30
0.0
 10
4.4553160526
 20
2.6405078784
 30
0.0
 10
4.4519719262
 20
2.6405041704
 30
0.0
 10
4.4487591613
 20
2.6404735577
 30
0.0
 10
4.4456977786
 20
2.6404162648
 30
0.0
 10
4.4428068104
 20
2.6403326975
 30
0.0
 10
4.4401041765
 20
2.6402234452
 30
0.0
 10
4.4376065627
 20
2.6400892744
 30
0.0
 10
4.4360125722
 20
2.6399786109
 30
0.0
 10
4.4352526035
 20
2.6399181907
 30
0.0
  0
SPLINE
  5
41D
100
AcDbEntity
  8
0
100
AcDbSpline
 62
7
  6
CONTINUOUS
 70
0
 71
3
 72
28
 73
24
 74
0
 42
0.0000001
 43
0.0000001
 44
0.0000000001
 40
0.0
 40
0.0
 40
0.0
 40
0.0
 40
0.0083681088
 40
0.0170934886
 40
0.0265563921
 40
0.037056822
 40
0.0488143417
 40
0.0619839772
 40
0.0766748183
 40
0.0929639414
 40
0.1109051485
 40
0.1305366615
 40
0.1518860434
 40
0.1749722893
 40
0.2263957882
 40
0.2848620235
 40
0.3503672304
 40
0.4228746326
 40
0.5023194005
 40
0.588615726
 40
0.681657537
 40
0.7813284214
 40
1.0
 40
1.0
 40
1.0
 40
1.0
 10
4.4263002751
 20
2.6379061449
 30
0.0
 10
4.4263002754
 20
2.6379323621
 30
0.0
 10
4.4263065857
 20
2.6379861095
 30
0.0
 10
4.4263347814
 20
2.6380650216
 30
0.0
 10
4.4263812343
 20
2.6381425348
 30
0.0
 10
4.4264455763
 20
2.6382187198
 30
0.0
 10
4.4265276611
 20
2.6382937885
 30
0.0
 10
4.4266274618
 20
2.6383678733
 30
0.0
 10
4.4267449911
 20
2.6384410403
 30
0.0
 10
4.4268802576
 20
2.6385133058
 30
0.0
 10
4.4270332489
 20
2.6385846691
 30
0.0
 10
4.427203939
 20
2.6386551114
 30
0.0
 10
4.4273922885
 20
2.6387246111
 30
0.0
 10
4.427677303
 20
2.6388194161
 30
0.0
 10
4.4280780544
 20
2.6389339604
 30
0.0
 10
4.4286123392
 20
2.6390628907
 30
0.0
 10
4.429215253
 20
2.6391875167
 30
0.0
 10
4.4298859431
 20
2.6393076082
 30
0.0
 10
4.430623461
 20
2.6394229433
 30
0.0
 10
4.4314267183
 20
2.6395333107
 30
0.0
 10
4.4322945291
 20
2.6396385272
 30
0.0
 10
4.4335760738
 20
2.6397759702
 30
0.0
 10
4.434569662
 20
2.6398638945
 30
0.0
 10
4.4352526035
 20
2.6399181907
 30
0.0
  0
SPLINE
  5
41E
100
AcDbEntity
  8
0
100
AcDbSpline
 62
7
  6
CONTINUOUS
 70
0
 71
3
 72
48
 73
44
 74
0
 42
0.0000001
 43
0.0000001
 44
0.0000000001
 40
0.0
 40
0.0
 40
0.0
 40
0.0
 40
0.0009806485
 40
0.0020011975
 40
0.003093861
 40
0.0042849547
 40
0.0055947216
 40
0.0070382778
 40
0.0086268101
 40
0.0103685723
 40
0.0122695843
 40
0.0143343037
 40
0.0189666373
 40
0.0242835533
 40
0.0302933487
 40
0.0369987037
 40
0.0443986203
 40
0.0524891858
 40
0.0612644613
 40
0.0707165752
 40
0.0808363075
 40
0.0916129233
 40
0.1030346676
 40
0.1277602206
 40
0.1548976703
 40
0.1843165263
 40
0.2158728339
 40
0.2494102677
 40
0.2847611477
 40
0.3217473898
 40
0.3601815234
 40
0.3998676638
 40
0.4406026244
 40
0.5243757354
 40
0.6097725167
 40
0.6950224995
 40
0.7783546819
 40
0.8187585828
 40
0.8580398804
 40
0.8959955588
 40
0.9324302527
 40
0.9671572355
 40
1.0
 40
1.0
 40
1.0
 40
1.0
 10
4.8585497552
 20
2.6352138497
 30
0.0
 10
4.8585497544
 20
2.6352396668
 30
0.0
 10
4.8585444581
 20
2.6352924831
 30
0.0
 10
4.8585210188
 20
2.6353709257
 30
0.0
 10
4.8584822918
 20
2.6354492221
 30
0.0
 10
4.8584284909
 20
2.6355273635
 30
0.0
 10
4.8583597383
 20
2.6356054534
 30
0.0
 10
4.8582760809
 20
2.635683564
 30
0.0
 10
4.8581775323
 20
2.6357617397
 30
0.0
 10
4.8580640993
 20
2.6358399937
 30
0.0
 10
4.8579358014
 20
2.6359183333
 30
0.0
 10
4.8577372038
 20
2.6360270882
 30
0.0
 10
4.8574506767
 20
2.6361617133
 30
0.0
 10
4.8570604268
 20
2.6363178066
 30
0.0
 10
4.8566119307
 20
2.6364738269
 30
0.0
 10
4.8561056926
 20
2.6366295659
 30
0.0
 10
4.8555422717
 20
2.636784788
 30
0.0
 10
4.8549223431
 20
2.6369392776
 30
0.0
 10
4.8542466626
 20
2.6370928121
 30
0.0
 10
4.8535160656
 20
2.6372451853
 30
0.0
 10
4.8527314639
 20
2.6373961833
 30
0.0
 10
4.8518938394
 20
2.6375456129
 30
0.0
 10
4.8506751365
 20
2.6377478672
 30
0.0
 10
4.8490271487
 20
2.6379934916
 30
0.0
 10
4.8469053727
 20
2.6382718683
 30
0.0
 10
4.8446010911
 20
2.6385395699
 30
0.0
 10
4.8421259994
 20
2.638795161
 30
0.0
 10
4.8394926898
 20
2.6390372565
 30
0.0
 10
4.836714614
 20
2.6392645581
 30
0.0
 10
4.8338060106
 20
2.6394758476
 30
0.0
 10
4.83078184
 20
2.6396699919
 30
0.0
 10
4.8276577062
 20
2.6398459568
 30
0.0
 10
4.8233401543
 20
2.6400570186
 30
0.0
 10
4.8178179067
 20
2.6402678595
 30
0.0
 10
4.8111217836
 20
2.6404345446
 30
0.0
 10
4.80443566
 20
2.6405135186
 30
0.0
 10
4.7989335798
 20
2.6405048723
 30
0.0
 10
4.7946421853
 20
2.6404514526
 30
0.0
 10
4.7915456899
 20
2.640389424
 30
0.0
 10
4.7885542473
 20
2.6403053903
 30
0.0
 10
4.785683459
 20
2.6401998132
 30
0.0
 10
4.7829482593
 20
2.6400732816
 30
0.0
 10
4.781172193
 20
2.6399724544
 30
0.0
 10
4.7803092591
 20
2.6399181907
 30
0.0
  0
LINE
  5
41F
100
AcDbEntity
  8
0
100
AcDbLine
 62
7
  6
CONTINUOUS
 10
6.9056929367
 20
2.6404811462
 11
6.8967406084
 21
2.6399181907
  0
SPLINE
  5
420
100
AcDbEntity
  8
0
100
AcDbSpline
 62
7
  6
CONTINUOUS
 70
0
 71
3
 72
32
 73
28
 74
0
 42
0.0000001
 43
0.0000001
 44
0.0000000001
 40
0.0
 40
0.0
 40
0.0
 40
0.0
 40
0.0034887171
 40
0.007037963
 40
0.0145635577
 40
0.0230398528
 40
0.0327810388
 40
0.0439925563
 40
0.0568068783
 40
0.0638439703
 40
0.0713106613
 40
0.0875546485
 40
0.1055763057
 40
0.1253967431
 40
0.1470282897
 40
0.1704761427
 40
0.1957395505
 40
0.2228144062
 40
0.2823604062
 40
0.3490187681
 40
0.4226541668
 40
0.5031008376
 40
0.5901672774
 40
0.6836382225
 40
0.7832738263
 40
0.8888239797
 40
1.0
 40
1.0
 40
1.0
 40
1.0
 10
4.7647997564
 20
2.6370352042
 30
0.0
 10
4.7647997567
 20
2.637053895
 30
0.0
 10
4.7648024838
 20
2.637091657
 30
0.0
 10
4.7648190945
 20
2.637168122
 30
0.0
 10
4.7648623477
 20
2.6372648314
 30
0.0
 10
4.7649453548
 20
2.6373759639
 30
0.0
 10
4.7650596713
 20
2.6374853359
 30
0.0
 10
4.7652052231
 20
2.6375933445
 30
0.0
 10
4.7653478155
 20
2.6376795387
 30
0.0
 10
4.7654769529
 20
2.6377484517
 30
0.0
 10
4.7656247953
 20
2.6378211723
 30
0.0
 10
4.765829755
 20
2.6379107908
 30
0.0
 10
4.7661004631
 20
2.6380143654
 30
0.0
 10
4.7664022764
 20
2.6381167183
 30
0.0
 10
4.76673502
 20
2.638217772
 30
0.0
 10
4.7670985016
 20
2.638317448
 30
0.0
 10
4.7674924958
 20
2.6384156819
 30
0.0
 10
4.7680769623
 20
2.6385488841
 30
0.0
 10
4.7688824374
 20
2.6387095698
 30
0.0
 10
4.7699378464
 20
2.6388901079
 30
0.0
 10
4.7711077867
 20
2.6390633671
 30
0.0
 10
4.7723891615
 20
2.6392288292
 30
0.0
 10
4.7737785728
 20
2.6393859837
 30
0.0
 10
4.7752722872
 20
2.6395343604
 30
0.0
 10
4.7768663094
 20
2.6396735265
 30
0.0
 10
4.778556286
 20
2.6398030654
 30
0.0
 10
4.7797148083
 20
2.63988081
 30
0.0
 10
4.7803092591
 20
2.6399181907
 30
0.0
  0
SPLINE
  5
421
100
AcDbEntity
  8
0
100
AcDbSpline
 62
7
  6
CONTINUOUS
 70
0
 71
3
 72
38
 73
34
 74
0
 42
0.0000001
 43
0.0000001
 44
0.0000000001
 40
0.0
 40
0.0
 40
0.0
 40
0.0
 40
0.0022754296
 40
0.0046983691
 40
0.0073918731
 40
0.0104460535
 40
0.0139222384
 40
0.0178613641
 40
0.0222907661
 40
0.0272284538
 40
0.0326865377
 40
0.0386730036
 40
0.045192579
 40
0.0522480077
 40
0.0598403728
 40
0.0679691854
 40
0.0858293318
 40
0.1058079412
 40
0.1278729265
 40
0.1519833262
 40
0.17809069
 40
0.2061401898
 40
0.2360709515
 40
0.2678164461
 40
0.3013051362
 40
0.3732011614
 40
0.4510945712
 40
0.5342550763
 40
0.6218954352
 40
0.7131797365
 40
0.807232598
 40
0.9031473275
 40
1.0
 40
1.0
 40
1.0
 40
1.0
 10
5.2125194099
 20
2.6361245042
 30
0.0
 10
5.2125194102
 20
2.6361605636
 30
0.0
 10
5.2125092761
 20
2.6362353325
 30
0.0
 10
5.212464869
 20
2.6363447808
 30
0.0
 10
5.2123922434
 20
2.6364528554
 30
0.0
 10
5.2122919787
 20
2.6365598705
 30
0.0
 10
5.2121642226
 20
2.6366662308
 30
0.0
 10
5.2120089607
 20
2.6367721102
 30
0.0
 10
5.2118261761
 20
2.636877565
 30
0.0
 10
5.2116158941
 20
2.6369825929
 30
0.0
 10
5.2113781731
 20
2.6370871488
 30
0.0
 10
5.2111131075
 20
2.6371911724
 30
0.0
 10
5.2108208237
 20
2.6372946071
 30
0.0
 10
5.2105014696
 20
2.6373973833
 30
0.0
 10
5.2101552168
 20
2.6374994382
 30
0.0
 10
5.2096416014
 20
2.6376388766
 30
0.0
 10
5.2089332099
 20
2.6378093548
 30
0.0
 10
5.2080040368
 20
2.6380043392
 30
0.0
 10
5.2069730857
 20
2.6381950722
 30
0.0
 10
5.2058427379
 20
2.6383810636
 30
0.0
 10
5.2046156056
 20
2.6385618227
 30
0.0
 10
5.2032945534
 20
2.638736885
 30
0.0
 10
5.2018826792
 20
2.6389058024
 30
0.0
 10
5.2003833089
 20
2.6390681575
 30
0.0
 10
5.1982205233
 20
2.6392803704
 30
0.0
 10
5.1953261417
 20
2.6395239301
 30
0.0
 10
5.1916431521
 20
2.639777921
 30
0.0
 10
5.1877080373
 20
2.6399974153
 30
0.0
 10
5.1835586361
 20
2.64018017
 30
0.0
 10
5.1792350084
 20
2.6403242971
 30
0.0
 10
5.1747790723
 20
2.6404283147
 30
0.0
 10
5.1702341209
 20
2.6404911567
 30
0.0
 10
5.1671792619
 20
2.6405051467
 30
0.0
 10
5.1656444099
 20
2.6405051467
 30
0.0
  0
SPLINE
  5
422
100
AcDbEntity
  8
0
100
AcDbSpline
 62
7
  6
CONTINUOUS
 70
0
 71
3
 72
32
 73
28
 74
0
 42
0.0000001
 43
0.0000001
 44
0.0000000001
 40
0.0
 40
0.0
 40
0.0
 40
0.0
 40
0.0011447248
 40
0.0024645993
 40
0.004110578
 40
0.006162769
 40
0.0086624405
 40
0.011632113
 40
0.0150847137
 40
0.0190281304
 40
0.0284050635
 40
0.0397870362
 40
0.0531814556
 40
0.0685886378
 40
0.0860046997
 40
0.1054213724
 40
0.126828732
 40
0.1502143576
 40
0.2028599056
 40
0.2632226206
 40
0.3311415477
 40
0.4064319302
 40
0.4888869454
 40
0.5782795724
 40
0.674362757
 40
0.7768677584
 40
1.0
 40
1.0
 40
1.0
 40
1.0
 10
6.8316931287
 20
2.6402907182
 30
0.0
 10
6.8316931284
 20
2.6402966585
 30
0.0
 10
6.8316899246
 20
2.6403095704
 30
0.0
 10
6.8316765398
 20
2.6403266807
 30
0.0
 10
6.8316556254
 20
2.6403424698
 30
0.0
 10
6.8316270418
 20
2.6403574179
 30
0.0
 10
6.8315906466
 20
2.6403716563
 30
0.0
 10
6.8315463428
 20
2.6403852073
 30
0.0
 10
6.8314940924
 20
2.6403980699
 30
0.0
 10
6.8314087537
 20
2.6404152881
 30
0.0
 10
6.831281902
 20
2.6404342253
 30
0.0
 10
6.8311056566
 20
2.6404531304
 30
0.0
 10
6.8308977286
 20
2.640469189
 30
0.0
 10
6.8306582428
 20
2.6404823702
 30
0.0
 10
6.8303873406
 20
2.640492625
 30
0.0
 10
6.8300851998
 20
2.6404999334
 30
0.0
 10
6.829752023
 20
2.6405042777
 30
0.0
 10
6.8292463888
 20
2.6405061638
 30
0.0
 10
6.828538608
 20
2.6405002503
 30
0.0
 10
6.8275999037
 20
2.6404816591
 30
0.0
 10
6.8265439455
 20
2.6404512534
 30
0.0
 10
6.8253736702
 20
2.6404090963
 30
0.0
 10
6.8240923351
 20
2.6403552759
 30
0.0
 10
6.8227035095
 20
2.6402899274
 30
0.0
 10
6.8212110735
 20
2.6402132253
 30
0.0
 10
6.8190259868
 20
2.6400926264
 30
0.0
 10
6.8173392303
 20
2.6399908583
 30
0.0
 10
6.8161836261
 20
2.6399181907
 30
0.0
  0
SPLINE
  5
423
100
AcDbEntity
  8
0
100
AcDbSpline
 62
7
  6
CONTINUOUS
 70
0
 71
3
 72
41
 73
37
 74
0
 42
0.0000001
 43
0.0000001
 44
0.0000000001
 40
0.0
 40
0.0
 40
0.0
 40
0.0
 40
0.0005211765
 40
0.0011124295
 40
0.0018129994
 40
0.0026467217
 40
0.0036276789
 40
0.004764353
 40
0.0060619684
 40
0.007523883
 40
0.0091523179
 40
0.0109487239
 40
0.0150482241
 40
0.0198257933
 40
0.0252808535
 40
0.0314104538
 40
0.038210048
 40
0.0456736532
 40
0.0537943285
 40
0.0719737112
 40
0.092674329
 40
0.1158097671
 40
0.1412824907
 40
0.1689847118
 40
0.1987990986
 40
0.2305994095
 40
0.2642511146
 40
0.3365325584
 40
0.4144244982
 40
0.4966138929
 40
0.5817146136
 40
0.6682883213
 40
0.7548668107
 40
0.8399754235
 40
0.9221574978
 40
1.0
 40
1.0
 40
1.0
 40
1.0
 10
6.5931776608
 20
2.6323316074
 30
0.0
 10
6.5931776599
 20
2.6323439229
 30
0.0
 10
6.5931826207
 20
2.6323703277
 30
0.0
 10
6.5932029661
 20
2.6324085239
 30
0.0
 10
6.5932355883
 20
2.6324470586
 30
0.0
 10
6.5932804345
 20
2.6324862929
 30
0.0
 10
6.5933375816
 20
2.6325264316
 30
0.0
 10
6.5934071058
 20
2.6325675304
 30
0.0
 10
6.5934890432
 20
2.6326096056
 30
0.0
 10
6.593583407
 20
2.6326526484
 30
0.0
 10
6.5936901929
 20
2.6326966489
 30
0.0
 10
6.5938565882
 20
2.6327593651
 30
0.0
 10
6.5940959497
 20
2.632839133
 30
0.0
 10
6.5944208642
 20
2.6329348264
 30
0.0
 10
6.5947945922
 20
2.633034061
 30
0.0
 10
6.5952167367
 20
2.6331367095
 30
0.0
 10
6.5956868549
 20
2.6332426247
 30
0.0
 10
6.5962044363
 20
2.6333516824
 30
0.0
 10
6.5969870207
 20
2.633507017
 30
0.0
 10
6.5980796435
 20
2.6337065442
 30
0.0
 10
6.599524992
 20
2.6339485211
 30
0.0
 10
6.6011433676
 20
2.6342000212
 30
0.0
 10
6.6029277793
 20
2.6344599228
 30
0.0
 10
6.6048705588
 20
2.6347270587
 30
0.0
 10
6.6069633791
 20
2.6350002583
 30
0.0
 10
6.6091972987
 20
2.6352783412
 30
0.0
 10
6.6124291163
 20
2.6356632674
 30
0.0
 10
6.6167461012
 20
2.636145691
 30
0.0
 10
6.6222075838
 20
2.6367122413
 30
0.0
 10
6.6279744174
 20
2.6372696192
 30
0.0
 10
6.6339490343
 20
2.6378083017
 30
0.0
 10
6.6400301876
 20
2.6383190634
 30
0.0
 10
6.646114496
 20
2.6387931582
 30
0.0
 10
6.6520980961
 20
2.6392224534
 30
0.0
 10
6.6578783556
 20
2.639599569
 30
0.0
 10
6.6616534102
 20
2.6398190792
 30
0.0
 10
6.6634901599
 20
2.6399181907
 30
0.0
  0
SPLINE
  5
424
100
AcDbEntity
  8
0
100
AcDbSpline
 62
7
  6
CONTINUOUS
 70
0
 71
3
 72
41
 73
37
 74
0
 42
0.0000001
 43
0.0000001
 44
0.0000000001
 40
0.0
 40
0.0
 40
0.0
 40
0.0
 40
0.0010175133
 40
0.0020576118
 40
0.0042940985
 40
0.0055342259
 40
0.006874044
 40
0.0098930909
 40
0.0134173546
 40
0.0174849441
 40
0.022119155
 40
0.027334241
 40
0.0331383506
 40
0.0395359539
 40
0.0465284192
 40
0.0541152016
 40
0.0622940621
 40
0.0710613238
 40
0.0903410264
 40
0.1119062605
 40
0.1356956205
 40
0.1616369419
 40
0.1896484769
 40
0.2196397109
 40
0.2515120156
 40
0.2851592207
 40
0.3204680877
 40
0.357318913
 40
0.3955859816
 40
0.4758386049
 40
0.5601204868
 40
0.6472639337
 40
0.7360582683
 40
0.8252689789
 40
0.9136571465
 40
1.0
 40
1.0
 40
1.0
 40
1.0
 10
5.5664890624
 20
2.6370352042
 30
0.0
 10
5.5664890618
 20
2.6370562137
 30
0.0
 10
5.5664856005
 20
2.6370987788
 30
0.0
 10
5.5664644424
 20
2.6371852021
 30
0.0
 10
5.5664217142
 20
2.6372695847
 30
0.0
 10
5.566362448
 20
2.6373495396
 30
0.0
 10
5.5662846064
 20
2.6374352708
 30
0.0
 10
5.566159872
 20
2.6375408405
 30
0.0
 10
5.5659764501
 20
2.6376612966
 30
0.0
 10
5.565753568
 20
2.6377804048
 30
0.0
 10
5.5654912589
 20
2.6378981494
 30
0.0
 10
5.5651895712
 20
2.6380144666
 30
0.0
 10
5.5648486713
 20
2.638129263
 30
0.0
 10
5.5644687792
 20
2.6382424209
 30
0.0
 10
5.5640501737
 20
2.638353839
 30
0.0
 10
5.5635931765
 20
2.6384634036
 30
0.0
 10
5.5630981525
 20
2.6385710164
 30
0.0
 10
5.5623643953
 20
2.6387163999
 30
0.0
 10
5.5613547657
 20
2.638890593
 30
0.0
 10
5.5600342611
 20
2.6390844879
 30
0.0
 10
5.5585736088
 20
2.6392685018
 30
0.0
 10
5.5569777289
 20
2.6394419424
 30
0.0
 10
5.5552520135
 20
2.6396041388
 30
0.0
 10
5.5534023403
 20
2.6397544827
 30
0.0
 10
5.5514350386
 20
2.6398924123
 30
0.0
 10
5.5493568712
 20
2.6400174172
 30
0.0
 10
5.5471750091
 20
2.6401290349
 30
0.0
 10
5.5448970052
 20
2.6402268595
 30
0.0
 10
5.5416909099
 20
2.6403402009
 30
0.0
 10
5.5375046175
 20
2.6404432979
 30
0.0
 10
5.5323082617
 20
2.6405061903
 30
0.0
 10
5.5269351615
 20
2.6405090643
 30
0.0
 10
5.5214605986
 20
2.6404518311
 30
0.0
 10
5.5159612694
 20
2.6403352783
 30
0.0
 10
5.5105141136
 20
2.6401610817
 30
0.0
 10
5.5069095411
 20
2.6400056844
 30
0.0
 10
5.5051288919
 20
2.6399181907
 30
0.0
  0
SPLINE
  5
425
100
AcDbEntity
  8
0
100
AcDbSpline
 62
7
  6
CONTINUOUS
 70
0
 71
3
 72
33
 73
29
 74
0
 42
0.0000001
 43
0.0000001
 44
0.0000000001
 40
0.0
 40
0.0
 40
0.0
 40
0.0
 40
0.0015216746
 40
0.0031809086
 40
0.0051195416
 40
0.0074283977
 40
0.0101614571
 40
0.0133507443
 40
0.0170159805
 40
0.0211698267
 40
0.0258206501
 40
0.0309737761
 40
0.0427985453
 40
0.0566598425
 40
0.0725590221
 40
0.0904902429
 40
0.1104418074
 40
0.1323979052
 40
0.156339193
 40
0.2100835939
 40
0.2714626384
 40
0.3402232385
 40
0.4160761628
 40
0.4986987057
 40
0.5877368493
 40
0.6828080558
 40
0.7835017931
 40
1.0
 40
1.0
 40
1.0
 40
1.0
 10
6.6869276596
 20
2.6399181907
 30
0.0
 10
6.686927659
 20
2.6399301443
 30
0.0
 10
6.6869230238
 20
2.6399553258
 30
0.0
 10
6.6869026726
 20
2.6399906689
 30
0.0
 10
6.6868699973
 20
2.6400240878
 30
0.0
 10
6.6868252309
 20
2.6400560869
 30
0.0
 10
6.6867682745
 20
2.6400869432
 30
0.0
 10
6.6866990267
 20
2.6401167487
 30
0.0
 10
6.6866174253
 20
2.6401455245
 30
0.0
 10
6.6865234412
 20
2.6401732647
 30
0.0
 10
6.6864170684
 20
2.6401999599
 30
0.0
 10
6.6862509596
 20
2.6402357982
 30
0.0
 10
6.6860121024
 20
2.6402768514
 30
0.0
 10
6.6856882336
 20
2.640319956
 30
0.0
 10
6.6853155576
 20
2.6403587312
 30
0.0
 10
6.6848944433
 20
2.6403931044
 30
0.0
 10
6.6844253053
 20
2.6404229974
 30
0.0
 10
6.6839086306
 20
2.6404483618
 30
0.0
 10
6.6831264017
 20
2.6404771812
 30
0.0
 10
6.6820341392
 20
2.6405000126
 30
0.0
 10
6.6805896086
 20
2.6405082143
 30
0.0
 10
6.6789714175
 20
2.640497914
 30
0.0
 10
6.6771865561
 20
2.6404691083
 30
0.0
 10
6.675242749
 20
2.6404218614
 30
0.0
 10
6.6731484254
 20
2.6403563479
 30
0.0
 10
6.6709126787
 20
2.6402728359
 30
0.0
 10
6.6676770553
 20
2.6401345507
 30
0.0
 10
6.6651884081
 20
2.6400098287
 30
0.0
 10
6.6634901599
 20
2.6399181907
 30
0.0
  0
SPLINE
  5
426
100
AcDbEntity
  8
0
100
AcDbSpline
 62
7
  6
CONTINUOUS
 70
0
 71
3
 72
37
 73
33
 74
0
 42
0.0000001
 43
0.0000001
 44
0.0000000001
 40
0.0
 40
0.0
 40
0.0
 40
0.0
 40
0.0025581286
 40
0.0052388107
 40
0.0081397642
 40
0.0113383648
 40
0.0148921107
 40
0.0188424899
 40
0.0232193201
 40
0.0280440005
 40
0.0333317039
 40
0.039093397
 40
0.0453370659
 40
0.0520682058
 40
0.0670049827
 40
0.0839204059
 40
0.1028141412
 40
0.1236761971
 40
0.146488467
 40
0.1712269931
 40
0.197862571
 40
0.2263614163
 40
0.2566860271
 40
0.288794766
 40
0.3581819964
 40
0.4341279753
 40
0.51619008
 40
0.6038834864
 40
0.6966846639
 40
0.7940357417
 40
0.8953457849
 40
1.0
 40
1.0
 40
1.0
 40
1.0
 10
5.4727390638
 20
2.6352138496
 30
0.0
 10
5.4727390643
 20
2.6352420816
 30
0.0
 10
5.4727454406
 20
2.6353000665
 30
0.0
 10
5.472773553
 20
2.635385948
 30
0.0
 10
5.4728198795
 20
2.6354715589
 30
0.0
 10
5.4728841268
 20
2.6355569362
 30
0.0
 10
5.4729661566
 20
2.6356422415
 30
0.0
 10
5.4730659273
 20
2.6357275753
 30
0.0
 10
5.4731834327
 20
2.6358129888
 30
0.0
 10
5.4733186654
 20
2.6358984937
 30
0.0
 10
5.4734716017
 20
2.6359840862
 30
0.0
 10
5.4736422085
 20
2.636069744
 30
0.0
 10
5.4738304406
 20
2.6361554418
 30
0.0
 10
5.4741148553
 20
2.6362738592
 30
0.0
 10
5.4745148703
 20
2.6364203973
 30
0.0
 10
5.4750485913
 20
2.6365904604
 30
0.0
 10
5.4756507109
 20
2.6367600029
 30
0.0
 10
5.4763203629
 20
2.636928735
 30
0.0
 10
5.4770565911
 20
2.6370963699
 30
0.0
 10
5.4778583111
 20
2.637262626
 30
0.0
 10
5.4787243334
 20
2.6374272308
 30
0.0
 10
5.4796533657
 20
2.6375899186
 30
0.0
 10
5.480644014
 20
2.6377504305
 30
0.0
 10
5.482082649
 20
2.637966836
 30
0.0
 10
5.4840235509
 20
2.6382280803
 30
0.0
 10
5.4865159811
 20
2.638521681
 30
0.0
 10
5.4892132407
 20
2.6388009925
 30
0.0
 10
5.492098943
 20
2.6390642273
 30
0.0
 10
5.4951555096
 20
2.6393096841
 30
0.0
 10
5.4983642285
 20
2.6395357877
 30
0.0
 10
5.5017054071
 20
2.6397410909
 30
0.0
 10
5.5039753018
 20
2.6398615081
 30
0.0
 10
5.5051288919
 20
2.6399181907
 30
0.0
  0
SPLINE
  5
427
100
AcDbEntity
  8
0
100
AcDbSpline
 62
7
  6
CONTINUOUS
 70
0
 71
3
 72
41
 73
37
 74
0
 42
0.0000001
 43
0.0000001
 44
0.0000000001
 40
0.0
 40
0.0
 40
0.0
 40
0.0
 40
0.0007070998
 40
0.0014619838
 40
0.0022948145
 40
0.0032281558
 40
0.0042780477
 40
0.0054556959
 40
0.0067688847
 40
0.0082231091
 40
0.0115686962
 40
0.0155136686
 40
0.0200681653
 40
0.025237153
 40
0.0310219343
 40
0.0374217196
 40
0.0444339543
 40
0.0520547708
 40
0.0691015531
 40
0.0885133253
 40
0.1102293276
 40
0.1341789844
 40
0.1602829768
 40
0.1884539434
 40
0.2185970561
 40
0.2506105471
 40
0.2843860399
 40
0.3198090158
 40
0.3951109645
 40
0.4754939698
 40
0.5598635853
 40
0.6470674731
 40
0.7359101562
 40
0.825168415
 40
0.9136075933
 40
1.0
 40
1.0
 40
1.0
 40
1.0
 10
6.3839734755
 20
2.6328697345
 30
0.0
 10
6.3839734751
 20
2.6328843534
 30
0.0
 10
6.3839771739
 20
2.6329146729
 30
0.0
 10
6.3839931682
 20
2.632959662
 30
0.0
 10
6.3840193928
 20
2.6330049791
 30
0.0
 10
6.3840556916
 20
2.6330507033
 30
0.0
 10
6.3841020213
 20
2.6330969519
 30
0.0
 10
6.384158386
 20
2.6331437845
 30
0.0
 10
6.3842247923
 20
2.6331912401
 30
0.0
 10
6.3843318392
 20
2.6332585329
 30
0.0
 10
6.3844918841
 20
2.6333431254
 30
0.0
 10
6.3847156034
 20
2.6334429955
 30
0.0
 10
6.3849791122
 20
2.6335453267
 30
0.0
 10
6.3852822271
 20
2.6336500082
 30
0.0
 10
6.3856247463
 20
2.6337569265
 30
0.0
 10
6.3860063906
 20
2.6338659632
 30
0.0
 10
6.386426839
 20
2.6339770147
 30
0.0
 10
6.3870628508
 20
2.6341335351
 30
0.0
 10
6.3879524806
 20
2.6343316672
 30
0.0
 10
6.3891318238
 20
2.634568001
 30
0.0
 10
6.3904553793
 20
2.6348099834
 30
0.0
 10
6.3919185554
 20
2.6350567318
 30
0.0
 10
6.3935163032
 20
2.6353073326
 30
0.0
 10
6.395243108
 20
2.6355608895
 30
0.0
 10
6.3970930243
 20
2.6358165035
 30
0.0
 10
6.3990596926
 20
2.6360732762
 30
0.0
 10
6.4011363616
 20
2.6363303163
 30
0.0
 10
6.4041033848
 20
2.6366793452
 30
0.0
 10
6.4080312014
 20
2.6371079226
 30
0.0
 10
6.4129698439
 20
2.6375996149
 30
0.0
 10
6.4181575276
 20
2.6380717153
 30
0.0
 10
6.4235230429
 20
2.6385176415
 30
0.0
 10
6.4289925152
 20
2.6389311496
 30
0.0
 10
6.4344903413
 20
2.6393064483
 30
0.0
 10
6.4399402091
 20
2.6396382707
 30
0.0
 10
6.4435496835
 20
2.6398305342
 30
0.0
 10
6.4453336469
 20
2.6399181907
 30
0.0
  0
SPLINE
  5
428
100
AcDbEntity
  8
0
100
AcDbSpline
 62
7
  6
CONTINUOUS
 70
0
 71
3
 72
39
 73
35
 74
0
 42
0.0000001
 43
0.0000001
 44
0.0000000001
 40
0.0
 40
0.0
 40
0.0
 40
0.0
 40
0.0010001915
 40
0.0020177263
 40
0.0041856944
 40
0.006654612
 40
0.0095235605
 40
0.0128553495
 40
0.0166893318
 40
0.0210500214
 40
0.0259530709
 40
0.0314082931
 40
0.0374213782
 40
0.0439955435
 40
0.0511317773
 40
0.0588295043
 40
0.0670871414
 40
0.0852693359
 40
0.1056472668
 40
0.1281781137
 40
0.1528099302
 40
0.1794829196
 40
0.2081301574
 40
0.2386779523
 40
0.2710464504
 40
0.3051500747
 40
0.378193111
 40
0.4570204185
 40
0.5407747496
 40
0.6285397927
 40
0.7193524992
 40
0.8122149348
 40
0.9061066574
 40
1.0
 40
1.0
 40
1.0
 40
1.0
 10
5.9049885439
 20
2.6379061449
 30
0.0
 10
5.9049885433
 20
2.6379235629
 30
0.0
 10
5.9049858246
 20
2.637958761
 30
0.0
 10
5.9049691949
 20
2.6380299819
 30
0.0
 10
5.9049257151
 20
2.6381197456
 30
0.0
 10
5.904842701
 20
2.6382217457
 30
0.0
 10
5.9047285916
 20
2.6383214191
 30
0.0
 10
5.9045833661
 20
2.6384192092
 30
0.0
 10
5.9044069165
 20
2.6385153666
 30
0.0
 10
5.9041991872
 20
2.6386099346
 30
0.0
 10
5.9039601929
 20
2.6387028822
 30
0.0
 10
5.9036900119
 20
2.6387941485
 30
0.0
 10
5.903388771
 20
2.6388836719
 30
0.0
 10
5.9030566327
 20
2.6389713761
 30
0.0
 10
5.9026937931
 20
2.6390571942
 30
0.0
 10
5.9023004755
 20
2.6391410663
 30
0.0
 10
5.9017167478
 20
2.6392538505
 30
0.0
 10
5.9009123878
 20
2.6393878892
 30
0.0
 10
5.8998587091
 20
2.639535478
 30
0.0
 10
5.8986906259
 20
2.6396740162
 30
0.0
 10
5.897411243
 20
2.6398030791
 30
0.0
 10
5.8960239718
 20
2.6399222554
 30
0.0
 10
5.8945325472
 20
2.6400311805
 30
0.0
 10
5.8929410066
 20
2.6401295233
 30
0.0
 10
5.8912536792
 20
2.6402169959
 30
0.0
 10
5.8888262786
 20
2.6403211542
 30
0.0
 10
5.8855889881
 20
2.6404201799
 30
0.0
 10
5.8814861636
 20
2.6404902551
 30
0.0
 10
5.8771264307
 20
2.6405130978
 30
0.0
 10
5.8725579973
 20
2.6404883765
 30
0.0
 10
5.8678314394
 20
2.6404162919
 30
0.0
 10
5.8629990984
 20
2.6402976233
 30
0.0
 10
5.8581144089
 20
2.6401336856
 30
0.0
 10
5.8548470907
 20
2.6399949377
 30
0.0
 10
5.8532137731
 20
2.6399181907
 30
0.0
  0
SPLINE
  5
429
100
AcDbEntity
  8
0
100
AcDbSpline
 62
7
  6
CONTINUOUS
 70
0
 71
3
 72
37
 73
33
 74
0
 42
0.0000001
 43
0.0000001
 44
0.0000000001
 40
0.0
 40
0.0
 40
0.0
 40
0.0
 40
0.0017646525
 40
0.0036594958
 40
0.0058222698
 40
0.0083471201
 40
0.011293196
 40
0.0146972558
 40
0.0185827066
 40
0.0229647075
 40
0.0278529798
 40
0.033253972
 40
0.0391719688
 40
0.0456093806
 40
0.060045414
 40
0.0765626408
 40
0.0951497398
 40
0.1157885406
 40
0.1384545465
 40
0.1631185326
 40
0.1897468883
 40
0.2183017802
 40
0.2487420601
 40
0.2810225659
 40
0.3509086354
 40
0.4275379776
 40
0.5104421171
 40
0.5991108646
 40
0.6929962617
 40
0.7915175238
 40
0.8940630228
 40
1.0
 40
1.0
 40
1.0
 40
1.0
 10
6.4777234748
 20
2.6393798554
 30
0.0
 10
6.4777234742
 20
2.6393990424
 30
0.0
 10
6.4777169379
 20
2.6394390892
 30
0.0
 10
6.4776880018
 20
2.6394962476
 30
0.0
 10
6.4776411126
 20
2.6395509848
 30
0.0
 10
6.4775766999
 20
2.6396038038
 30
0.0
 10
6.4774947353
 20
2.6396550896
 30
0.0
 10
6.4773951185
 20
2.6397049859
 30
0.0
 10
6.4772777774
 20
2.6397535344
 30
0.0
 10
6.4771426839
 20
2.6398007311
 30
0.0
 10
6.4769898448
 20
2.6398465625
 30
0.0
 10
6.476819287
 20
2.6398910044
 30
0.0
 10
6.4766310536
 20
2.6399340354
 30
0.0
 10
6.4763454935
 20
2.6399917174
 30
0.0
 10
6.4759444325
 20
2.6400589443
 30
0.0
 10
6.4754105704
 20
2.6401310697
 30
0.0
 10
6.4748080445
 20
2.6401972113
 30
0.0
 10
6.474137742
 20
2.6402572298
 30
0.0
 10
6.4734006498
 20
2.6403109925
 30
0.0
 10
6.4725978797
 20
2.6403583898
 30
0.0
 10
6.4717306519
 20
2.6403993278
 30
0.0
 10
6.4708002921
 20
2.6404337295
 30
0.0
 10
6.4698082324
 20
2.6404615308
 30
0.0
 10
6.4683666811
 20
2.640490487
 30
0.0
 10
6.4664226624
 20
2.6405084734
 30
0.0
 10
6.4639281552
 20
2.6405029022
 30
0.0
 10
6.4612296169
 20
2.6404706007
 30
0.0
 10
6.4583438689
 20
2.6404117343
 30
0.0
 10
6.4552889056
 20
2.6403266315
 30
0.0
 10
6.4520837945
 20
2.6402158053
 30
0.0
 10
6.4487485011
 20
2.6400799386
 30
0.0
 10
6.446484108
 20
2.6399747196
 30
0.0
 10
6.4453336469
 20
2.6399181907
 30
0.0
  0
SPLINE
  5
42A
100
AcDbEntity
  8
0
100
AcDbSpline
 62
7
  6
CONTINUOUS
 70
0
 71
3
 72
37
 73
33
 74
0
 42
0.0000001
 43
0.0000001
 44
0.0000000001
 40
0.0
 40
0.0
 40
0.0
 40
0.0
 40
0.0021749015
 40
0.0045161192
 40
0.0071406948
 40
0.0101321239
 40
0.0135462619
 40
0.0174200478
 40
0.02177801
 40
0.0266362622
 40
0.0320056234
 40
0.037893262
 40
0.0443034146
 40
0.0512385132
 40
0.066685524
 40
0.0842299072
 40
0.1038533005
 40
0.1255280161
 40
0.1492185354
 40
0.1748832053
 40
0.202474821
 40
0.2319409056
 40
0.263224549
 40
0.2962644093
 40
0.3673461586
 40
0.444617488
 40
0.5274528192
 40
0.6151761244
 40
0.7070669719
 40
0.802366521
 40
0.9002822895
 40
1.0
 40
1.0
 40
1.0
 40
1.0
 10
5.8112385449
 20
2.6343430377
 30
0.0
 10
5.8112385452
 20
2.6343740051
 30
0.0
 10
5.811247553
 20
2.6344385645
 30
0.0
 10
5.8112864528
 20
2.6345333891
 30
0.0
 10
5.8113499201
 20
2.6346279669
 30
0.0
 10
5.8114375127
 20
2.6347226155
 30
0.0
 10
5.8115491389
 20
2.6348176836
 30
0.0
 10
5.8116848253
 20
2.6349133109
 30
0.0
 10
5.8118445902
 20
2.6350095419
 30
0.0
 10
5.8120284148
 20
2.6351063722
 30
0.0
 10
5.8122362524
 20
2.6352037653
 30
0.0
 10
5.8124680286
 20
2.6353016695
 30
0.0
 10
5.8127236408
 20
2.635400043
 30
0.0
 10
5.8131101926
 20
2.6355367138
 30
0.0
 10
5.8136528773
 20
2.635706682
 30
0.0
 10
5.8143753669
 20
2.6359051962
 30
0.0
 10
5.8151892638
 20
2.6361044103
 30
0.0
 10
5.8160929187
 20
2.6363038734
 30
0.0
 10
5.8170845103
 20
2.636503125
 30
0.0
 10
5.8181620106
 20
2.6367017205
 30
0.0
 10
5.8193232116
 20
2.6368992221
 30
0.0
 10
5.8205657279
 20
2.6370952026
 30
0.0
 10
5.8218870039
 20
2.6372892449
 30
0.0
 10
5.8237971141
 20
2.6375512477
 30
0.0
 10
5.8263604068
 20
2.6378687924
 30
0.0
 10
5.8296326968
 20
2.6382272987
 30
0.0
 10
5.8331449468
 20
2.638568792
 30
0.0
 10
5.8368680464
 20
2.6388903353
 30
0.0
 10
5.8407710485
 20
2.639189142
 30
0.0
 10
5.8448213695
 20
2.6394626316
 30
0.0
 10
5.8489851003
 20
2.6397084447
 30
0.0
 10
5.8517955044
 20
2.6398515486
 30
0.0
 10
5.8532137731
 20
2.6399181907
 30
0.0
  0
SPLINE
  5
42B
100
AcDbEntity
  8
0
100
AcDbSpline
 62
7
  6
CONTINUOUS
 70
0
 71
3
 72
39
 73
35
 74
0
 42
0.0000001
 43
0.0000001
 44
0.0000000001
 40
0.0
 40
0.0
 40
0.0
 40
0.0
 40
0.0008913787
 40
0.0018166419
 40
0.0038522098
 40
0.0050013184
 40
0.0062535672
 40
0.0091002531
 40
0.012444675
 40
0.0163164761
 40
0.0207332954
 40
0.0257057148
 40
0.0312399377
 40
0.0373388675
 40
0.0440035046
 40
0.0512331633
 40
0.0673781175
 40
0.0857479842
 40
0.1063044687
 40
0.1289998762
 40
0.1537786489
 40
0.1805783143
 40
0.2093300647
 40
0.2399590846
 40
0.2723850149
 40
0.3065224009
 40
0.3795652141
 40
0.4583110672
 40
0.5419181208
 40
0.6294880737
 40
0.7200758442
 40
0.8126990011
 40
0.9063480621
 40
1.0
 40
1.0
 40
1.0
 40
1.0
 10
6.119473802
 20
2.6335501186
 30
0.0
 10
6.1194738019
 20
2.6335657163
 30
0.0
 10
6.1194766147
 20
2.6335975673
 30
0.0
 10
6.1194936802
 20
2.6336630436
 30
0.0
 10
6.1195278076
 20
2.6337274798
 30
0.0
 10
6.1195746282
 20
2.6337894583
 30
0.0
 10
6.1196366767
 20
2.6338573454
 30
0.0
 10
6.1197358769
 20
2.6339424081
 30
0.0
 10
6.1198814865
 20
2.634041821
 30
0.0
 10
6.1200585214
 20
2.6341426543
 30
0.0
 10
6.1202669538
 20
2.6342448944
 30
0.0
 10
6.1205067524
 20
2.6343484898
 30
0.0
 10
6.1207778029
 20
2.6344533598
 30
0.0
 10
6.1210799533
 20
2.6345594297
 30
0.0
 10
6.1214130153
 20
2.6346666193
 30
0.0
 10
6.1219168741
 20
2.6348164947
 30
0.0
 10
6.1226229523
 20
2.6350042629
 30
0.0
 10
6.1235609631
 20
2.6352255275
 30
0.0
 10
6.1246158085
 20
2.6354495158
 30
0.0
 10
6.125784636
 20
2.6356755758
 30
0.0
 10
6.1270643013
 20
2.6359030342
 30
0.0
 10
6.1284513449
 20
2.6361312401
 30
0.0
 10
6.1299420187
 20
2.6363595466
 30
0.0
 10
6.1315322928
 20
2.6365873139
 30
0.0
 10
6.1332178693
 20
2.6368139147
 30
0.0
 10
6.1356414602
 20
2.6371206063
 30
0.0
 10
6.1388734431
 20
2.6374944284
 30
0.0
 10
6.1429706148
 20
2.6379193901
 30
0.0
 10
6.1473250715
 20
2.6383254462
 30
0.0
 10
6.1518896149
 20
2.6387080853
 30
0.0
 10
6.1566146185
 20
2.6390630271
 30
0.0
 10
6.1614485093
 20
2.6393863117
 30
0.0
 10
6.1663383374
 20
2.6396743218
 30
0.0
 10
6.1696116108
 20
2.6398412725
 30
0.0
 10
6.1712485737
 20
2.6399181907
 30
0.0
  0
SPLINE
  5
42C
100
AcDbEntity
  8
0
100
AcDbSpline
 62
7
  6
CONTINUOUS
 70
0
 71
3
 72
38
 73
34
 74
0
 42
0.0000001
 43
0.0000001
 44
0.0000000001
 40
0.0
 40
0.0
 40
0.0
 40
0.0
 40
0.0009559825
 40
0.0019258061
 40
0.0039837788
 40
0.0063184082
 40
0.0090261549
 40
0.0121686339
 40
0.0157847919
 40
0.0198994475
 40
0.0245283956
 40
0.029682011
 40
0.0353669678
 40
0.0415870617
 40
0.048344401
 40
0.0634717847
 40
0.0807428879
 40
0.1001381988
 40
0.1216291926
 40
0.1451795267
 40
0.1707466727
 40
0.1982824572
 40
0.2277331275
 40
0.2590402929
 40
0.292140972
 40
0.3634483221
 40
0.441068612
 40
0.5243560035
 40
0.6126130926
 40
0.7050982905
 40
0.8010333661
 40
0.8996094133
 40
1.0
 40
1.0
 40
1.0
 40
1.0
 10
6.2132238013
 20
2.6386992536
 30
0.0
 10
6.2132238009
 20
2.6387127399
 30
0.0
 10
6.2132217257
 20
2.6387399542
 30
0.0
 10
6.2132090119
 20
2.638794889
 30
0.0
 10
6.2131757509
 20
2.638863928
 30
0.0
 10
6.2131120923
 20
2.6389420843
 30
0.0
 10
6.2130245698
 20
2.6390180428
 30
0.0
 10
6.212913178
 20
2.639092178
 30
0.0
 10
6.2127778167
 20
2.6391647057
 30
0.0
 10
6.2126184163
 20
2.6392356663
 30
0.0
 10
6.2124349661
 20
2.6393050604
 30
0.0
 10
6.2122274942
 20
2.6393728523
 30
0.0
 10
6.2119960636
 20
2.6394389987
 30
0.0
 10
6.2117407661
 20
2.6395034683
 30
0.0
 10
6.2113538986
 20
2.6395904271
 30
0.0
 10
6.2108109576
 20
2.6396929861
 30
0.0
 10
6.2100888024
 20
2.6398048145
 30
0.0
 10
6.2092749471
 20
2.6399091998
 30
0.0
 10
6.208371021
 20
2.640005876
 30
0.0
 10
6.2073788405
 20
2.6400945826
 30
0.0
 10
6.2063004375
 20
2.6401750964
 30
0.0
 10
6.2051380367
 20
2.6402472169
 30
0.0
 10
6.2038940518
 20
2.6403107714
 30
0.0
 10
6.202571078
 20
2.6403656124
 30
0.0
 10
6.2006575145
 20
2.6404284891
 30
0.0
 10
6.1980900587
 20
2.6404825943
 30
0.0
 10
6.1948141736
 20
2.6405100549
 30
0.0
 10
6.1912990768
 20
2.6405011286
 30
0.0
 10
6.1875745516
 20
2.6404558342
 30
0.0
 10
6.1836721798
 20
2.6403745003
 30
0.0
 10
6.1796250743
 20
2.6402577935
 30
0.0
 10
6.1754675126
 20
2.640106698
 30
0.0
 10
6.1726632543
 20
2.6399846643
 30
0.0
 10
6.1712485737
 20
2.6399181907
 30
0.0
  0
LINE
  5
42D
100
AcDbEntity
  8
0
100
AcDbLine
 62
7
  6
CONTINUOUS
 10
6.5940910376
 20
2.6319753703
 11
6.5968257626
 21
2.6317828777
  0
LINE
  5
42E
100
AcDbEntity
  8
0
100
AcDbLine
 62
7
  6
CONTINUOUS
 10
4.0171512516
 20
2.6056266838
 11
4.0137437674
 21
2.6053565628
  0
SPLINE
  5
42F
100
AcDbEntity
  8
0
100
AcDbSpline
 62
7
  6
CONTINUOUS
 70
0
 71
3
 72
24
 73
20
 74
0
 42
0.0000001
 43
0.0000001
 44
0.0000000001
 40
0.0
 40
0.0
 40
0.0
 40
0.0
 40
0.2211272051
 40
0.4146607644
 40
0.5009788525
 40
0.580291414
 40
0.6525786596
 40
0.7178316831
 40
0.7760606137
 40
0.827294991
 40
0.871596755
 40
0.9090867627
 40
0.939982786
 40
0.9530849263
 40
0.9647229711
 40
0.9750182443
 40
0.9841464307
 40
0.9923591961
 40
1.0
 40
1.0
 40
1.0
 40
1.0
 10
3.6474759819
 20
2.6388809245
 30
0.0
 10
3.6472344611
 20
2.6389298653
 30
0.0
 10
3.6467822271
 20
2.6390249997
 30
0.0
 10
3.6462382315
 20
2.6391508401
 30
0.0
 10
3.6458502244
 20
2.6392491798
 30
0.0
 10
3.645594271
 20
2.6393184251
 30
0.0
 10
3.6453622156
 20
2.6393859621
 30
0.0
 10
3.6451541771
 20
2.6394517514
 30
0.0
 10
3.6449702485
 20
2.639515741
 30
0.0
 10
3.6448105054
 20
2.6395778815
 30
0.0
 10
3.6446749606
 20
2.6396381241
 30
0.0
 10
3.6445636328
 20
2.6396964303
 30
0.0
 10
3.6444871103
 20
2.6397457687
 30
0.0
 10
3.6444389513
 20
2.6397849211
 30
0.0
 10
3.6444109378
 20
2.6398122127
 30
0.0
 10
3.6443889853
 20
2.6398390978
 30
0.0
 10
3.6443731154
 20
2.6398656573
 30
0.0
 10
3.6443634179
 20
2.6398919515
 30
0.0
 10
3.64436116
 20
2.6399096756
 30
0.0
 10
3.64436116
 20
2.6399181907
 30
0.0
  0
LINE
  5
430
100
AcDbEntity
  8
0
100
AcDbLine
 62
7
  6
CONTINUOUS
 10
4.8436187433
 20
2.560997374
 11
4.8519165836
 21
2.5605464969
  0
SPLINE
  5
431
100
AcDbEntity
  8
0
100
AcDbSpline
 62
7
  6
CONTINUOUS
 70
0
 71
3
 72
22
 73
18
 74
0
 42
0.0000001
 43
0.0000001
 44
0.0000000001
 40
0.0
 40
0.0
 40
0.0
 40
0.0
 40
0.2090438374
 40
0.3041117944
 40
0.3928514016
 40
0.475257934
 40
0.551345334
 40
0.6211460961
 40
0.6847171423
 40
0.7421539536
 40
0.7935997224
 40
0.8392699403
 40
0.8794914744
 40
0.9147547189
 40
0.9458004971
 40
0.9737193995
 40
1.0
 40
1.0
 40
1.0
 40
1.0
 10
4.8550433742
 20
2.6336562431
 30
0.0
 10
4.8553157021
 20
2.6337116294
 30
0.0
 10
4.85571084
 20
2.6337976354
 30
0.0
 10
4.856217763
 20
2.6339233821
 30
0.0
 10
4.8565593824
 20
2.6340159444
 30
0.0
 10
4.8568744358
 20
2.6341097112
 30
0.0
 10
4.8571627597
 20
2.6342046234
 30
0.0
 10
4.8574242122
 20
2.6343006181
 30
0.0
 10
4.8576586739
 20
2.6343976428
 30
0.0
 10
4.8578660581
 20
2.6344956385
 30
0.0
 10
4.8580463123
 20
2.6345945678
 30
0.0
 10
4.858199421
 20
2.634694429
 30
0.0
 10
4.8583254148
 20
2.6347952811
 30
0.0
 10
4.8584243143
 20
2.634897316
 30
0.0
 10
4.8584959825
 20
2.635000954
 30
0.0
 10
4.8585398127
 20
2.6351065359
 30
0.0
 10
4.8585497562
 20
2.6351789122
 30
0.0
 10
4.8585497552
 20
2.6352138497
 30
0.0
  0
LINE
  5
432
100
AcDbEntity
  8
0
100
AcDbLine
 62
7
  6
CONTINUOUS
 10
3.5026609598
 20
2.6395367297
 11
3.5006200222
 21
2.6399181907
  0
LINE
  5
433
100
AcDbEntity
  8
0
100
AcDbLine
 62
7
  6
CONTINUOUS
 10
6.9026648492
 20
2.6400377539
 11
6.9056929367
 21
2.6404811462
  0
SPLINE
  5
434
100
AcDbEntity
  8
0
100
AcDbSpline
 62
7
  6
CONTINUOUS
 70
0
 71
3
 72
25
 73
21
 74
0
 42
0.0000001
 43
0.0000001
 44
0.0000000001
 40
0.0
 40
0.0
 40
0.0
 40
0.0
 40
0.2265530938
 40
0.4243661167
 40
0.5123726681
 40
0.5930591906
 40
0.6663904103
 40
0.7323401047
 40
0.7908930342
 40
0.842042598
 40
0.8858010051
 40
0.9222119982
 40
0.9376912335
 40
0.9513767001
 40
0.9632999297
 40
0.9735103407
 40
0.982087775
 40
0.9891684386
 40
0.9949955731
 40
1.0
 40
1.0
 40
1.0
 40
1.0
 10
6.8286276197
 20
2.6395366899
 30
0.0
 10
6.8288651636
 20
2.6395758302
 30
0.0
 10
6.8293097789
 20
2.6396512253
 30
0.0
 10
6.8298454172
 20
2.639749041
 30
0.0
 10
6.8302275893
 20
2.6398241021
 30
0.0
 10
6.8304794404
 20
2.6398762473
 30
0.0
 10
6.8307077454
 20
2.6399264317
 30
0.0
 10
6.8309123858
 20
2.6399746228
 30
0.0
 10
6.8310932584
 20
2.6400207822
 30
0.0
 10
6.8312502861
 20
2.6400648631
 30
0.0
 10
6.8313833974
 20
2.6401068314
 30
0.0
 10
6.8314789705
 20
2.6401416017
 30
0.0
 10
6.8315431414
 20
2.6401688082
 30
0.0
 10
6.8315825926
 20
2.6401875549
 30
0.0
 10
6.8316160482
 20
2.6402057595
 30
0.0
 10
6.8316435318
 20
2.6402234291
 30
0.0
 10
6.831665093
 20
2.6402405843
 30
0.0
 10
6.8316807883
 20
2.6402573223
 30
0.0
 10
6.8316906564
 20
2.6402738421
 30
0.0
 10
6.831693129
 20
2.6402854003
 30
0.0
 10
6.8316931287
 20
2.6402907182
 30
0.0
  0
SPLINE
  5
435
100
AcDbEntity
  8
0
100
AcDbSpline
 62
7
  6
CONTINUOUS
 70
0
 71
3
 72
24
 73
20
 74
0
 42
0.0000001
 43
0.0000001
 44
0.0000000001
 40
0.0
 40
0.0
 40
0.0
 40
0.0
 40
0.2211262285
 40
0.4146590401
 40
0.5009770184
 40
0.5802896716
 40
0.6525762355
 40
0.7178291869
 40
0.7760583729
 40
0.8272923683
 40
0.8715943427
 40
0.9090848789
 40
0.939980572
 40
0.9530824596
 40
0.9647204142
 40
0.975015766
 40
0.9841442751
 40
0.9923577764
 40
1.0
 40
1.0
 40
1.0
 40
1.0
 10
6.6838131763
 20
2.638880993
 30
0.0
 10
6.6840546709
 20
2.6389299302
 30
0.0
 10
6.6845068558
 20
2.6390250579
 30
0.0
 10
6.6850507924
 20
2.6391508895
 30
0.0
 10
6.6854387578
 20
2.6392492226
 30
0.0
 10
6.6856946836
 20
2.6393184627
 30
0.0
 10
6.6859267135
 20
2.6393859956
 30
0.0
 10
6.6861347294
 20
2.6394517801
 30
0.0
 10
6.6863186383
 20
2.6395157648
 30
0.0
 10
6.6864783638
 20
2.6395779023
 30
0.0
 10
6.6866138935
 20
2.6396381422
 30
0.0
 10
6.6867252094
 20
2.6396964444
 30
0.0
 10
6.6868017228
 20
2.6397457793
 30
0.0
 10
6.6868498763
 20
2.6397849271
 30
0.0
 10
6.6868778872
 20
2.6398122152
 30
0.0
 10
6.6868998381
 20
2.6398390975
 30
0.0
 10
6.6869157069
 20
2.6398656554
 30
0.0
 10
6.6869254035
 20
2.63989195
 30
0.0
 10
6.6869276599
 20
2.6399096749
 30
0.0
 10
6.6869276596
 20
2.6399181907
 30
0.0
  0
SPLINE
  5
436
100
AcDbEntity
  8
0
100
AcDbSpline
 62
7
  6
CONTINUOUS
 70
0
 71
3
 72
19
 73
15
 74
0
 42
0.0000001
 43
0.0000001
 44
0.0000000001
 40
0.0
 40
0.0
 40
0.0
 40
0.0
 40
0.2118537427
 40
0.397043231
 40
0.5557870014
 40
0.6885380698
 40
0.7454480576
 40
0.7962624832
 40
0.8412391591
 40
0.8807540138
 40
0.9153668663
 40
0.9459105337
 40
0.9735885266
 40
1.0
 40
1.0
 40
1.0
 40
1.0
 10
6.5940910376
 20
2.6319753703
 30
0.0
 10
6.5940196705
 20
2.6319862352
 30
0.0
 10
6.5938861805
 20
2.6320084063
 30
0.0
 10
6.593700565
 20
2.6320463027
 30
0.0
 10
6.5935431287
 20
2.6320865531
 30
0.0
 10
6.5934301793
 20
2.632123638
 30
0.0
 10
6.5933545326
 20
2.632155246
 30
0.0
 10
6.5933078487
 20
2.6321783226
 30
0.0
 10
6.5932682191
 20
2.6322020054
 30
0.0
 10
6.5932356198
 20
2.6322263326
 30
0.0
 10
6.5932100308
 20
2.6322513724
 30
0.0
 10
6.5931914863
 20
2.6322772569
 30
0.0
 10
6.5931801743
 20
2.6323040843
 30
0.0
 10
6.5931776614
 20
2.6323226077
 30
0.0
 10
6.5931776608
 20
2.6323316074
 30
0.0
  0
SPLINE
  5
437
100
AcDbEntity
  8
0
100
AcDbSpline
 62
7
  6
CONTINUOUS
 70
0
 71
3
 72
23
 73
19
 74
0
 42
0.0000001
 43
0.0000001
 44
0.0000000001
 40
0.0
 40
0.0
 40
0.0
 40
0.0
 40
0.2160411776
 40
0.4055764217
 40
0.4903279703
 40
0.568377846
 40
0.6397213527
 40
0.7043713281
 40
0.7623643094
 40
0.8137650142
 40
0.8586864808
 40
0.8973191852
 40
0.9299785457
 40
0.9572086026
 40
0.9690856506
 40
0.9800164754
 40
0.9902284596
 40
1.0
 40
1.0
 40
1.0
 40
1.0
 10
6.4745505408
 20
2.6380993659
 30
0.0
 10
6.4747967507
 20
2.6381561536
 30
0.0
 10
6.4752579449
 20
2.638267267
 30
0.0
 10
6.4758118594
 20
2.6384161377
 30
0.0
 10
6.4762067919
 20
2.6385338586
 30
0.0
 10
6.4764675759
 20
2.6386175054
 30
0.0
 10
6.4767040369
 20
2.6386997847
 30
0.0
 10
6.4769160587
 20
2.6387806503
 30
0.0
 10
6.4771035507
 20
2.6388600448
 30
0.0
 10
6.4772664529
 20
2.6389379241
 30
0.0
 10
6.4774047378
 20
2.6390142452
 30
0.0
 10
6.4775184736
 20
2.6390890201
 30
0.0
 10
6.4776077269
 20
2.6391622849
 30
0.0
 10
6.4776642859
 20
2.6392250621
 30
0.0
 10
6.4776954878
 20
2.6392747405
 30
0.0
 10
6.4777115405
 20
2.639310016
 30
0.0
 10
6.47772126
 20
2.6393450057
 30
0.0
 10
6.4777234753
 20
2.639368427
 30
0.0
 10
6.4777234748
 20
2.6393798554
 30
0.0
  0
SPLINE
  5
438
100
AcDbEntity
  8
0
100
AcDbSpline
 62
7
  6
CONTINUOUS
 70
0
 71
3
 72
23
 73
19
 74
0
 42
0.0000001
 43
0.0000001
 44
0.0000000001
 40
0.0
 40
0.0
 40
0.0
 40
0.0
 40
0.2201947502
 40
0.4126243024
 40
0.4983342917
 40
0.5770125078
 40
0.6486552749
 40
0.7132741158
 40
0.7709036137
 40
0.8216179111
 40
0.8655424789
 40
0.9028917107
 40
0.9340381586
 40
0.9474899817
 40
0.9596781603
 40
0.9809381402
 40
0.9905881388
 40
1.0
 40
1.0
 40
1.0
 40
1.0
 10
6.3876046085
 20
2.6319910073
 30
0.0
 10
6.3873233479
 20
2.6320135115
 30
0.0
 10
6.3867966734
 20
2.632060724
 30
0.0
 10
6.3861622303
 20
2.632134178
 30
0.0
 10
6.3857096
 20
2.6321990532
 30
0.0
 10
6.3854111384
 20
2.6322481802
 30
0.0
 10
6.3851405247
 20
2.6322996201
 30
0.0
 10
6.3848979001
 20
2.6323533316
 30
0.0
 10
6.3846833723
 20
2.6324092684
 30
0.0
 10
6.3844970144
 20
2.6324673723
 30
0.0
 10
6.3843388085
 20
2.6325275994
 30
0.0
 10
6.384208731
 20
2.6325899415
 30
0.0
 10
6.3841195703
 20
2.6326461835
 30
0.0
 10
6.3840637221
 20
2.6326930546
 30
0.0
 10
6.3840220348
 20
2.6327363819
 30
0.0
 10
6.3839912146
 20
2.6327835157
 30
0.0
 10
6.3839759323
 20
2.6328331768
 30
0.0
 10
6.3839734758
 20
2.632857674
 30
0.0
 10
6.3839734755
 20
2.6328697345
 30
0.0
  0
SPLINE
  5
439
100
AcDbEntity
  8
0
100
AcDbSpline
 62
7
  6
CONTINUOUS
 70
0
 71
3
 72
22
 73
18
 74
0
 42
0.0000001
 43
0.0000001
 44
0.0000000001
 40
0.0
 40
0.0
 40
0.0
 40
0.0
 40
0.2119333018
 40
0.3982384294
 40
0.4817268934
 40
0.5587627055
 40
0.6293559707
 40
0.6935379637
 40
0.751368812
 40
0.8029441942
 40
0.8484180612
 40
0.8880344985
 40
0.9221769024
 40
0.9514625885
 40
0.9768814137
 40
0.9886190462
 40
1.0
 40
1.0
 40
1.0
 40
1.0
 10
6.2099855026
 20
2.6372270105
 30
0.0
 10
6.2102369589
 20
2.6372892762
 30
0.0
 10
6.2107081367
 20
2.6374117609
 30
0.0
 10
6.2112732961
 20
2.637577534
 30
0.0
 10
6.2116761027
 20
2.6377098158
 30
0.0
 10
6.2119423092
 20
2.6378044669
 30
0.0
 10
6.2121837055
 20
2.6378981651
 30
0.0
 10
6.2124001757
 20
2.6379908609
 30
0.0
 10
6.2125916327
 20
2.6380824956
 30
0.0
 10
6.2127580168
 20
2.6381730263
 30
0.0
 10
6.2128993087
 20
2.6382624332
 30
0.0
 10
6.2130155461
 20
2.6383507243
 30
0.0
 10
6.213106802
 20
2.6384380754
 30
0.0
 10
6.2131731116
 20
2.6385247598
 30
0.0
 10
6.2132081185
 20
2.6385990652
 30
0.0
 10
6.2132215791
 20
2.6386570393
 30
0.0
 10
6.2132238018
 20
2.6386853424
 30
0.0
 10
6.2132238013
 20
2.6386992536
 30
0.0
  0
SPLINE
  5
43A
100
AcDbEntity
  8
0
100
AcDbSpline
 62
7
  6
CONTINUOUS
 70
0
 71
3
 72
22
 73
18
 74
0
 42
0.0000001
 43
0.0000001
 44
0.0000000001
 40
0.0
 40
0.0
 40
0.0
 40
0.0
 40
0.2155747045
 40
0.4043617455
 40
0.4886502586
 40
0.5661867916
 40
0.6369851168
 40
0.7010784799
 40
0.7585303364
 40
0.8094502112
 40
0.8540102244
 40
0.8924881363
 40
0.9253343967
 40
0.9532857986
 40
0.9775454194
 40
0.988870042
 40
1.0
 40
1.0
 40
1.0
 40
1.0
 10
6.1230757209
 20
2.6323859329
 30
0.0
 10
6.1227964464
 20
2.6324212868
 30
0.0
 10
6.122273332
 20
2.632493635
 30
0.0
 10
6.1216441136
 20
2.6326006387
 30
0.0
 10
6.1211954304
 20
2.6326919322
 30
0.0
 10
6.1208993131
 20
2.6327598328
 30
0.0
 10
6.120630816
 20
2.632829712
 30
0.0
 10
6.1203900675
 20
2.6329015244
 30
0.0
 10
6.120177165
 20
2.6329752197
 30
0.0
 10
6.1199921608
 20
2.6330507434
 30
0.0
 10
6.1198350543
 20
2.6331280787
 30
0.0
 10
6.119705766
 20
2.6332072497
 30
0.0
 10
6.1196041486
 20
2.6332884871
 30
0.0
 10
6.1195300991
 20
2.6333722263
 30
0.0
 10
6.1194910845
 20
2.6334467995
 30
0.0
 10
6.1194762203
 20
2.6335062054
 30
0.0
 10
6.119473802
 20
2.6335355847
 30
0.0
 10
6.119473802
 20
2.6335501186
 30
0.0
  0
SPLINE
  5
43B
100
AcDbEntity
  8
0
100
AcDbSpline
 62
7
  6
CONTINUOUS
 70
0
 71
3
 72
21
 73
17
 74
0
 42
0.0000001
 43
0.0000001
 44
0.0000000001
 40
0.0
 40
0.0
 40
0.0
 40
0.0
 40
0.2091042643
 40
0.3931666913
 40
0.4757719238
 40
0.5520947088
 40
0.6221569133
 40
0.6860043882
 40
0.74371571
 40
0.7954102722
 40
0.841272503
 40
0.8815845975
 40
0.9167750017
 40
0.9475038421
 40
0.9747711102
 40
1.0
 40
1.0
 40
1.0
 40
1.0
 10
5.9016808569
 20
2.6363038824
 30
0.0
 10
5.9019378323
 20
2.6363689052
 30
0.0
 10
5.9024194633
 20
2.6364974249
 30
0.0
 10
5.9029966544
 20
2.636672994
 30
0.0
 10
5.9034079237
 20
2.6368142152
 30
0.0
 10
5.9036798748
 20
2.636915855
 30
0.0
 10
5.9039264901
 20
2.6370170152
 30
0.0
 10
5.9041476531
 20
2.6371176448
 30
0.0
 10
5.904343278
 20
2.6372176838
 30
0.0
 10
5.9045133056
 20
2.6373170948
 30
0.0
 10
5.9046577144
 20
2.637415863
 30
0.0
 10
5.9047765279
 20
2.6375140274
 30
0.0
 10
5.9048697776
 20
2.637611741
 30
0.0
 10
5.9049373904
 20
2.6377093826
 30
0.0
 10
5.9049789059
 20
2.6378073377
 30
0.0
 10
5.9049885449
 20
2.6378741631
 30
0.0
 10
5.9049885439
 20
2.6379061449
 30
0.0
  0
SPLINE
  5
43C
100
AcDbEntity
  8
0
100
AcDbSpline
 62
7
  6
CONTINUOUS
 70
0
 71
3
 72
23
 73
19
 74
0
 42
0.0000001
 43
0.0000001
 44
0.0000000001
 40
0.0
 40
0.0
 40
0.0
 40
0.0
 40
0.2117457633
 40
0.3079164346
 40
0.3975867989
 40
0.4807471972
 40
0.5574028481
 40
0.6275802623
 40
0.6913276982
 40
0.7487288488
 40
0.7999166839
 40
0.8450927246
 40
0.8845704521
 40
0.9188348746
 40
0.9486388637
 40
0.9751326951
 40
0.9876586883
 40
1.0
 40
1.0
 40
1.0
 40
1.0
 10
5.8148002658
 20
2.6329486384
 30
0.0
 10
5.814523848
 20
2.6329951488
 30
0.0
 10
5.8141226964
 20
2.6330679477
 30
0.0
 10
5.8136075575
 20
2.6331759624
 30
0.0
 10
5.8132605621
 20
2.6332560857
 30
0.0
 10
5.8129405534
 20
2.6333378856
 30
0.0
 10
5.8126477015
 20
2.6334213133
 30
0.0
 10
5.8123821533
 20
2.6335063059
 30
0.0
 10
5.8121440309
 20
2.6335928109
 30
0.0
 10
5.8119334254
 20
2.633680776
 30
0.0
 10
5.8117503863
 20
2.6337701528
 30
0.0
 10
5.8115949197
 20
2.6338609396
 30
0.0
 10
5.8114669736
 20
2.6339531828
 30
0.0
 10
5.8113664777
 20
2.6340471172
 30
0.0
 10
5.8112934939
 20
2.6341431283
 30
0.0
 10
5.8112555031
 20
2.6342271164
 30
0.0
 10
5.8112409312
 20
2.6342937315
 30
0.0
 10
5.8112385447
 20
2.6343267005
 30
0.0
 10
5.8112385449
 20
2.6343430377
 30
0.0
  0
SPLINE
  5
43D
100
AcDbEntity
  8
0
100
AcDbSpline
 62
7
  6
CONTINUOUS
 70
0
 71
3
 72
22
 73
18
 74
0
 42
0.0000001
 43
0.0000001
 44
0.0000000001
 40
0.0
 40
0.0
 40
0.0
 40
0.0
 40
0.207664583
 40
0.3022171699
 40
0.3905573389
 40
0.4726815747
 40
0.5486035627
 40
0.6183531176
 40
0.6819857012
 40
0.7395923601
 40
0.7913085419
 40
0.8373392243
 40
0.8779923494
 40
0.9137270031
 40
0.9452338274
 40
0.9735270425
 40
1.0
 40
1.0
 40
1.0
 40
1.0
 10
5.5631105721
 20
2.6353724837
 30
0.0
 10
5.5633731086
 20
2.6354373143
 30
0.0
 10
5.5637539529
 20
2.6355369004
 30
0.0
 10
5.5642421303
 20
2.6356796327
 30
0.0
 10
5.5645712591
 20
2.6357835297
 30
0.0
 10
5.5648748015
 20
2.6358875874
 30
0.0
 10
5.5651526023
 20
2.6359917427
 30
0.0
 10
5.5654045233
 20
2.6360959356
 30
0.0
 10
5.5656304488
 20
2.636200109
 30
0.0
 10
5.5658302928
 20
2.6363042037
 30
0.0
 10
5.5660039969
 20
2.6364081848
 30
0.0
 10
5.5661515381
 20
2.6365120437
 30
0.0
 10
5.5662729325
 20
2.6366158295
 30
0.0
 10
5.5663681848
 20
2.6367197075
 30
0.0
 10
5.5664371702
 20
2.6368240405
 30
0.0
 10
5.5664793764
 20
2.6369291275
 30
0.0
 10
5.5664890634
 20
2.6370007309
 30
0.0
 10
5.5664890624
 20
2.6370352042
 30
0.0
  0
SPLINE
  5
43E
100
AcDbEntity
  8
0
100
AcDbSpline
 62
7
  6
CONTINUOUS
 70
0
 71
3
 72
22
 73
18
 74
0
 42
0.0000001
 43
0.0000001
 44
0.0000000001
 40
0.0
 40
0.0
 40
0.0
 40
0.0
 40
0.2090456148
 40
0.3041140274
 40
0.3928541755
 40
0.4752616105
 40
0.5513492074
 40
0.6211504248
 40
0.6847219464
 40
0.7421585406
 40
0.7936044565
 40
0.8392744896
 40
0.8794953041
 40
0.914758142
 40
0.9458029552
 40
0.9737206108
 40
1.0
 40
1.0
 40
1.0
 40
1.0
 10
5.4762458963
 20
2.6336561514
 30
0.0
 10
5.4759735338
 20
2.6337115406
 30
0.0
 10
5.475578346
 20
2.6337975501
 30
0.0
 10
5.4750713589
 20
2.6339233037
 30
0.0
 10
5.474729696
 20
2.6340158713
 30
0.0
 10
5.4744146021
 20
2.6341096422
 30
0.0
 10
5.4741262412
 20
2.6342045606
 30
0.0
 10
5.473864755
 20
2.6343005608
 30
0.0
 10
5.4736302625
 20
2.6343975903
 30
0.0
 10
5.4734228519
 20
2.6344955932
 30
0.0
 10
5.4732425741
 20
2.6345945277
 30
0.0
 10
5.4730894449
 20
2.6346943945
 30
0.0
 10
5.4729634361
 20
2.6347952545
 30
0.0
 10
5.472864522
 20
2.6348972941
 30
0.0
 10
5.472792844
 20
2.6350009392
 30
0.0
 10
5.4727490108
 20
2.6351065289
 30
0.0
 10
5.4727390631
 20
2.6351789098
 30
0.0
 10
5.4727390638
 20
2.6352138496
 30
0.0
  0
SPLINE
  5
43F
100
AcDbEntity
  8
0
100
AcDbSpline
 62
7
  6
CONTINUOUS
 70
0
 71
3
 72
22
 73
18
 74
0
 42
0.0000001
 43
0.0000001
 44
0.0000000001
 40
0.0
 40
0.0
 40
0.0
 40
0.0
 40
0.2076503025
 40
0.3021669621
 40
0.3904551489
 40
0.4725121636
 40
0.5483531379
 40
0.6180133172
 40
0.6815511799
 40
0.7390631127
 40
0.7906945922
 40
0.8366600656
 40
0.8772826012
 40
0.9130436912
 40
0.9446592631
 40
0.9731730827
 40
1.0
 40
1.0
 40
1.0
 40
1.0
 10
5.2090747656
 20
2.6344765185
 30
0.0
 10
5.2093424176
 20
2.6345380985
 30
0.0
 10
5.2097307122
 20
2.634633156
 30
0.0
 10
5.2102285401
 20
2.6347706194
 30
0.0
 10
5.2105641372
 20
2.6348712059
 30
0.0
 10
5.2108736414
 20
2.634972481
 30
0.0
 10
5.211156893
 20
2.6350743856
 30
0.0
 10
5.211413754
 20
2.6351768532
 30
0.0
 10
5.2116441068
 20
2.63527983
 30
0.0
 10
5.2118478638
 20
2.6353832606
 30
0.0
 10
5.212024972
 20
2.6354871031
 30
0.0
 10
5.2121754088
 20
2.635591358
 30
0.0
 10
5.2122991884
 20
2.6356960844
 30
0.0
 10
5.2123963193
 20
2.6358014502
 30
0.0
 10
5.2124666487
 20
2.6359078379
 30
0.0
 10
5.2125096157
 20
2.6360155271
 30
0.0
 10
5.2125194097
 20
2.6360890221
 30
0.0
 10
5.2125194099
 20
2.6361245042
 30
0.0
  0
LINE
  5
440
100
AcDbEntity
  8
0
100
AcDbLine
 62
7
  6
CONTINUOUS
 10
6.3175450526
 20
2.6053565628
 11
6.3141375682
 21
2.6056266838
  0
LINE
  5
441
100
AcDbEntity
  8
0
100
AcDbLine
 62
7
  6
CONTINUOUS
 10
6.4554080508
 20
2.6053609953
 11
6.4517470533
 21
2.6054441279
  0
SPLINE
  5
442
100
AcDbEntity
  8
0
100
AcDbSpline
 62
7
  6
CONTINUOUS
 70
0
 71
3
 72
22
 73
18
 74
0
 42
0.0000001
 43
0.0000001
 44
0.0000000001
 40
0.0
 40
0.0
 40
0.0
 40
0.0
 40
0.2076657074
 40
0.3022181738
 40
0.3905589239
 40
0.4726833993
 40
0.5486051254
 40
0.6183552187
 40
0.6819878439
 40
0.7395941016
 40
0.7913106675
 40
0.8373411138
 40
0.8779936542
 40
0.9137283961
 40
0.9452347721
 40
0.9735274035
 40
1.0
 40
1.0
 40
1.0
 40
1.0
 10
4.7681783718
 20
2.6353724533
 30
0.0
 10
4.7679158251
 20
2.6354372854
 30
0.0
 10
4.7675349663
 20
2.6355368722
 30
0.0
 10
4.7670467707
 20
2.6356796087
 30
0.0
 10
4.7667176295
 20
2.6357835069
 30
0.0
 10
4.7664140757
 20
2.6358875662
 30
0.0
 10
4.7661362652
 20
2.6359917249
 30
0.0
 10
4.7658843345
 20
2.6360959186
 30
0.0
 10
4.7656584005
 20
2.6362000938
 30
0.0
 10
4.7654585501
 20
2.6363041922
 30
0.0
 10
4.7652848389
 20
2.6364081735
 30
0.0
 10
4.7651372924
 20
2.6365120343
 30
0.0
 10
4.7650158958
 20
2.636615824
 30
0.0
 10
4.7649206381
 20
2.6367197015
 30
0.0
 10
4.7648516503
 20
2.6368240369
 30
0.0
 10
4.7648094463
 20
2.6369291264
 30
0.0
 10
4.764799756
 20
2.6370007303
 30
0.0
 10
4.7647997564
 20
2.6370352042
 30
0.0
  0
LINE
  5
443
100
AcDbEntity
  8
0
100
AcDbLine
 62
7
  6
CONTINUOUS
 10
5.4793722364
 20
2.5605464969
 11
5.4876698837
 21
2.5609973672
  0
LINE
  5
444
100
AcDbEntity
  8
0
100
AcDbLine
 62
7
  6
CONTINUOUS
 10
6.2539533147
 20
2.5900069997
 11
6.2510046785
 21
2.5896760465
  0
LINE
  5
445
100
AcDbEntity
  8
0
100
AcDbLine
 62
7
  6
CONTINUOUS
 10
6.2510046785
 20
2.5896760465
 11
6.2508039877
 21
2.5896592866
  0
LINE
  5
446
100
AcDbEntity
  8
0
100
AcDbLine
 62
7
  6
CONTINUOUS
 10
6.5454571328
 20
2.6122477571
 11
6.5450664212
 21
2.6121329665
  0
LINE
  5
447
100
AcDbEntity
  8
0
100
AcDbLine
 62
7
  6
CONTINUOUS
 10
6.5450664212
 20
2.6121329665
 11
6.5423121861
 21
2.6117233447
  0
SPLINE
  5
448
100
AcDbEntity
  8
0
100
AcDbSpline
 62
7
  6
CONTINUOUS
 70
0
 71
3
 72
11
 73
7
 74
0
 42
0.0000001
 43
0.0000001
 44
0.0000000001
 40
0.0
 40
0.0
 40
0.0
 40
0.0
 40
0.345530399
 40
0.6193344844
 40
0.8307874698
 40
1.0
 40
1.0
 40
1.0
 40
1.0
 10
3.7858316871
 20
2.6122477571
 30
0.0
 10
3.7858256916
 20
2.6122510376
 30
0.0
 10
3.7858151571
 20
2.6122573458
 30
0.0
 10
3.7858022792
 20
2.612267661
 30
0.0
 10
3.78579401
 20
2.6122778325
 30
0.0
 10
3.7857917755
 20
2.612285367
 30
0.0
 10
3.7857917752
 20
2.6122887139
 30
0.0
  0
SPLINE
  5
449
100
AcDbEntity
  8
0
100
AcDbSpline
 62
7
  6
CONTINUOUS
 70
0
 71
3
 72
11
 73
7
 74
0
 42
0.0000001
 43
0.0000001
 44
0.0000000001
 40
0.0
 40
0.0
 40
0.0
 40
0.0
 40
0.2903332009
 40
0.546964454
 40
0.7793300398
 40
1.0
 40
1.0
 40
1.0
 40
1.0
 10
6.0346125089
 20
2.5849467859
 30
0.0
 10
6.0346091928
 20
2.5849498069
 30
0.0
 10
6.0346032762
 20
2.5849558904
 30
0.0
 10
6.0345964085
 20
2.5849658688
 30
0.0
 10
6.0345922185
 20
2.5849761073
 30
0.0
 10
6.0345912797
 20
2.5849831392
 30
0.0
 10
6.0345912799
 20
2.5849865488
 30
0.0
  0
LINE
  5
44A
100
AcDbEntity
  8
0
100
AcDbLine
 62
7
  6
CONTINUOUS
 10
6.3141375682
 20
2.6056266838
 11
6.3138844672
 21
2.6057940288
  0
SPLINE
  5
44B
100
AcDbEntity
  8
0
100
AcDbSpline
 62
7
  6
CONTINUOUS
 70
0
 71
3
 72
23
 73
19
 74
0
 42
0.0000001
 43
0.0000001
 44
0.0000000001
 40
0.0
 40
0.0
 40
0.0
 40
0.0
 40
0.2215549044
 40
0.4150162695
 40
0.5011213664
 40
0.5801195131
 40
0.6520064465
 40
0.7167943751
 40
0.7745137938
 40
0.8252247608
 40
0.8690388334
 40
0.9061440482
 40
0.9368687008
 40
0.961815011
 40
0.9724717615
 40
0.9821820926
 40
0.9912386069
 40
1.0
 40
1.0
 40
1.0
 40
1.0
 10
6.0976775184
 20
2.6056266838
 30
0.0
 10
6.0974370431
 20
2.6056473974
 30
0.0
 10
6.0969869103
 20
2.605690155
 30
0.0
 10
6.096444727
 20
2.6057546944
 30
0.0
 10
6.0960580944
 20
2.6058105455
 30
0.0
 10
6.0958033014
 20
2.6058523509
 30
0.0
 10
6.0955723489
 20
2.6058956817
 30
0.0
 10
6.0953653361
 20
2.6059405052
 30
0.0
 10
6.0951823439
 20
2.6059867807
 30
0.0
 10
6.0950234178
 20
2.606034473
 30
0.0
 10
6.0948885679
 20
2.6060835297
 30
0.0
 10
6.0947776793
 20
2.6061339555
 30
0.0
 10
6.0946906349
 20
2.6061857623
 30
0.0
 10
6.0946348948
 20
2.606232718
 30
0.0
 10
6.0946041387
 20
2.6062715452
 30
0.0
 10
6.0945884049
 20
2.6062996621
 30
0.0
 10
6.0945788848
 20
2.6063283058
 30
0.0
 10
6.0945767701
 20
2.6063477802
 30
0.0
 10
6.0945767703
 20
2.606357325
 30
0.0
  0
LINE
  5
44C
100
AcDbEntity
  8
0
100
AcDbLine
 62
7
  6
CONTINUOUS
 10
4.296676311
 20
2.5849467859
 11
4.2962418482
 21
2.5848240038
  0
LINE
  5
44D
100
AcDbEntity
  8
0
100
AcDbLine
 62
7
  6
CONTINUOUS
 10
4.2962418482
 20
2.5848240038
 11
4.2931729783
 21
2.5846658748
  0
SPLINE
  5
44E
100
AcDbEntity
  8
0
100
AcDbSpline
 62
7
  6
CONTINUOUS
 70
0
 71
3
 72
25
 73
21
 74
0
 42
0.0000001
 43
0.0000001
 44
0.0000000001
 40
0.0
 40
0.0
 40
0.0
 40
0.0
 40
0.2244471263
 40
0.4203484124
 40
0.5074762721
 40
0.5873485257
 40
0.6599453616
 40
0.7252590686
 40
0.7832942697
 40
0.8340800109
 40
0.8776819228
 40
0.9142205076
 40
0.9299123393
 40
0.943940625
 40
0.9563708389
 40
0.9672980527
 40
0.9768632712
 40
0.9852777608
 40
0.9928503777
 40
1.0
 40
1.0
 40
1.0
 40
1.0
 10
5.8018466824
 20
2.5849467859
 30
0.0
 10
5.8015887502
 20
2.5849658916
 30
0.0
 10
5.8011059322
 20
2.5850050839
 30
0.0
 10
5.8005240208
 20
2.5850635374
 30
0.0
 10
5.800108842
 20
2.5851137005
 30
0.0
 10
5.7998352708
 20
2.5851510537
 30
0.0
 10
5.7995872707
 20
2.5851895892
 30
0.0
 10
5.7993649656
 20
2.5852292732
 30
0.0
 10
5.7991684626
 20
2.5852700689
 30
0.0
 10
5.7989978254
 20
2.5853119253
 30
0.0
 10
5.7988531115
 20
2.5853548003
 30
0.0
 10
5.7987493504
 20
2.5853930072
 30
0.0
 10
5.7986798666
 20
2.5854247446
 30
0.0
 10
5.7986369613
 20
2.58544759
 30
0.0
 10
5.7986005437
 20
2.5854707037
 30
0.0
 10
5.7985705933
 20
2.5854941166
 30
0.0
 10
5.7985470925
 20
2.5855178866
 30
0.0
 10
5.7985300647
 20
2.585542128
 30
0.0
 10
5.7985196576
 20
2.5855669362
 30
0.0
 10
5.7985173095
 20
2.5855839805
 30
0.0
 10
5.7985173091
 20
2.5855922192
 30
0.0
  0
SPLINE
  5
44F
100
AcDbEntity
  8
0
100
AcDbSpline
 62
7
  6
CONTINUOUS
 70
0
 71
3
 72
23
 73
19
 74
0
 42
0.0000001
 43
0.0000001
 44
0.0000000001
 40
0.0
 40
0.0
 40
0.0
 40
0.0
 40
0.2184713324
 40
0.4096302838
 40
0.4948843102
 40
0.5732272825
 40
0.6446574471
 40
0.7091890379
 40
0.7668647337
 40
0.8177610053
 40
0.8620087471
 40
0.899830604
 40
0.9315999193
 40
0.9454178221
 40
0.9580046942
 40
0.9801255732
 40
0.9901992694
 40
1.0
 40
1.0
 40
1.0
 40
1.0
 10
5.812378196
 20
2.6060467493
 30
0.0
 10
5.8120985497
 20
2.6060801069
 30
0.0
 10
5.8115748175
 20
2.606147886
 30
0.0
 10
5.8109444576
 20
2.6062467765
 30
0.0
 10
5.8104948135
 20
2.6063303255
 30
0.0
 10
5.8101981736
 20
2.606392073
 30
0.0
 10
5.809929203
 20
2.6064552633
 30
0.0
 10
5.8096880396
 20
2.6065198559
 30
0.0
 10
5.8094747866
 20
2.6065857925
 30
0.0
 10
5.8092895156
 20
2.60665302
 30
0.0
 10
5.809132216
 20
2.6067215032
 30
0.0
 10
5.8090028658
 20
2.606791227
 30
0.0
 10
5.8089143991
 20
2.6068530533
 30
0.0
 10
5.8088590391
 20
2.6069038439
 30
0.0
 10
5.8088175195
 20
2.6069506747
 30
0.0
 10
5.8087870116
 20
2.6070008822
 30
0.0
 10
5.8087718637
 20
2.6070531331
 30
0.0
 10
5.8087694112
 20
2.6070788187
 30
0.0
 10
5.8087694116
 20
2.6070914527
 30
0.0
  0
SPLINE
  5
450
100
AcDbEntity
  8
0
100
AcDbSpline
 62
7
  6
CONTINUOUS
 70
0
 71
3
 72
19
 73
15
 74
0
 42
0.0000001
 43
0.0000001
 44
0.0000000001
 40
0.0
 40
0.0
 40
0.0
 40
0.0
 40
0.2108232424
 40
0.3955216307
 40
0.5542678867
 40
0.6874476695
 40
0.7446869186
 40
0.7958800493
 40
0.8412543041
 40
0.8811410421
 40
0.9160342045
 40
0.9466779046
 40
0.9741664744
 40
1.0
 40
1.0
 40
1.0
 40
1.0
 10
5.4817366539
 20
2.5858416628
 30
0.0
 10
5.4816365934
 20
2.5858624821
 30
0.0
 10
5.4814493659
 20
2.5859040021
 30
0.0
 10
5.4811891964
 20
2.5859714796
 30
0.0
 10
5.4809684214
 20
2.5860399547
 30
0.0
 10
5.4808100868
 20
2.5861003957
 30
0.0
 10
5.4807040219
 20
2.5861502174
 30
0.0
 10
5.4806385013
 20
2.5861859225
 30
0.0
 10
5.4805828835
 20
2.5862218784
 30
0.0
 10
5.4805371413
 20
2.5862581274
 30
0.0
 10
5.4805012503
 20
2.5862947517
 30
0.0
 10
5.4804752411
 20
2.586331919
 30
0.0
 10
5.4804593274
 20
2.5863697778
 30
0.0
 10
5.4804557126
 20
2.5863957452
 30
0.0
 10
5.4804557121
 20
2.5864082688
 30
0.0
  0
SPLINE
  5
451
100
AcDbEntity
  8
0
100
AcDbSpline
 62
7
  6
CONTINUOUS
 70
0
 71
3
 72
22
 73
18
 74
0
 42
0.0000001
 43
0.0000001
 44
0.0000000001
 40
0.0
 40
0.0
 40
0.0
 40
0.0
 40
0.2154603242
 40
0.4042917648
 40
0.4886557267
 40
0.5663002157
 40
0.6372337785
 40
0.7014823475
 40
0.7591024064
 40
0.8101901796
 40
0.8549000583
 40
0.8934854312
 40
0.926356927
 40
0.954195603
 40
0.9781333396
 40
0.9891982062
 40
1.0
 40
1.0
 40
1.0
 40
1.0
 10
5.4795006033
 20
2.6067070597
 30
0.0
 10
5.4792244712
 20
2.6067504048
 30
0.0
 10
5.4787072074
 20
2.6068374885
 30
0.0
 10
5.4780853538
 20
2.6069613617
 30
0.0
 10
5.4776419221
 20
2.6070640823
 30
0.0
 10
5.4773491906
 20
2.6071392384
 30
0.0
 10
5.4770837529
 20
2.6072153691
 30
0.0
 10
5.47684574
 20
2.6072924298
 30
0.0
 10
5.4766352514
 20
2.6073703632
 30
0.0
 10
5.4764523458
 20
2.6074491148
 30
0.0
 10
5.4762970333
 20
2.6075286654
 30
0.0
 10
5.4761692425
 20
2.6076090185
 30
0.0
 10
5.4760688323
 20
2.6076903863
 30
0.0
 10
5.4759956718
 20
2.6077731469
 30
0.0
 10
5.4759569019
 20
2.607846169
 30
0.0
 10
5.4759421065
 20
2.607903963
 30
0.0
 10
5.4759396924
 20
2.6079323868
 30
0.0
 10
5.4759396928
 20
2.6079463998
 30
0.0
  0
SPLINE
  5
452
100
AcDbEntity
  8
0
100
AcDbSpline
 62
7
  6
CONTINUOUS
 70
0
 71
3
 72
23
 73
19
 74
0
 42
0.0000001
 43
0.0000001
 44
0.0000000001
 40
0.0
 40
0.0
 40
0.0
 40
0.0
 40
0.2196211726
 40
0.411777918
 40
0.497469613
 40
0.576203339
 40
0.6479721808
 40
0.7127815825
 40
0.7706595377
 40
0.8216658727
 40
0.8659036255
 40
0.9035541036
 40
0.9349326429
 40
0.9606026732
 40
0.9716217755
 40
0.9816726284
 40
0.9910220415
 40
1.0
 40
1.0
 40
1.0
 40
1.0
 10
5.1221718072
 20
2.5863214102
 30
0.0
 10
5.1219080612
 20
2.5863592636
 30
0.0
 10
5.1214141719
 20
2.586434688
 30
0.0
 10
5.1208198463
 20
2.5865402748
 30
0.0
 10
5.120395938
 20
2.586626728
 30
0.0
 10
5.1201163067
 20
2.5866894374
 30
0.0
 10
5.1198627756
 20
2.5867524652
 30
0.0
 10
5.1196354711
 20
2.5868157716
 30
0.0
 10
5.1194344948
 20
2.5868793057
 30
0.0
 10
5.1192599079
 20
2.5869430149
 30
0.0
 10
5.119111737
 20
2.5870068488
 30
0.0
 10
5.1189898856
 20
2.5870708129
 30
0.0
 10
5.1188942473
 20
2.5871349142
 30
0.0
 10
5.1188331939
 20
2.5871914703
 30
0.0
 10
5.1187994912
 20
2.5872372846
 30
0.0
 10
5.1187822265
 20
2.5872700917
 30
0.0
 10
5.1187717665
 20
2.5873031003
 30
0.0
 10
5.1187694103
 20
2.5873253982
 30
0.0
 10
5.1187694101
 20
2.5873362905
 30
0.0
  0
SPLINE
  5
453
100
AcDbEntity
  8
0
100
AcDbSpline
 62
7
  6
CONTINUOUS
 70
0
 71
3
 72
22
 73
18
 74
0
 42
0.0000001
 43
0.0000001
 44
0.0000000001
 40
0.0
 40
0.0
 40
0.0
 40
0.0
 40
0.21396138
 40
0.4016796415
 40
0.4856390438
 40
0.5629831127
 40
0.6337240623
 40
0.6978922175
 40
0.7555467106
 40
0.8067895955
 40
0.8517808505
 40
0.8907774579
 40
0.9241934922
 40
0.9527005836
 40
0.9773914841
 40
0.9888362774
 40
1.0
 40
1.0
 40
1.0
 40
1.0
 10
5.1222684468
 20
2.6075200029
 30
0.0
 10
5.1219969948
 20
2.6075701101
 30
0.0
 10
5.1214884337
 20
2.6076700302
 30
0.0
 10
5.1208775139
 20
2.6078097366
 30
0.0
 10
5.1204419545
 20
2.6079240859
 30
0.0
 10
5.1201543026
 20
2.6080071405
 30
0.0
 10
5.1198934641
 20
2.6080906443
 30
0.0
 10
5.119659566
 20
2.6081745481
 30
0.0
 10
5.1194527062
 20
2.6082587989
 30
0.0
 10
5.1192729424
 20
2.6083433414
 30
0.0
 10
5.1191202863
 20
2.6084281567
 30
0.0
 10
5.1189946829
 20
2.6085132624
 30
0.0
 10
5.1188960162
 20
2.6085988579
 30
0.0
 10
5.1188242106
 20
2.6086852989
 30
0.0
 10
5.1187862994
 20
2.6087607956
 30
0.0
 10
5.1187717895
 20
2.6088202926
 30
0.0
 10
5.1187694104
 20
2.6088495129
 30
0.0
 10
5.1187694101
 20
2.6088639156
 30
0.0
  0
SPLINE
  5
454
100
AcDbEntity
  8
0
100
AcDbSpline
 62
7
  6
CONTINUOUS
 70
0
 71
3
 72
22
 73
18
 74
0
 42
0.0000001
 43
0.0000001
 44
0.0000000001
 40
0.0
 40
0.0
 40
0.0
 40
0.0
 40
0.2141921189
 40
0.4021547336
 40
0.4862379442
 40
0.5637041823
 40
0.6345614793
 40
0.6988377166
 40
0.7565849438
 40
0.8078966896
 40
0.8529234284
 40
0.8919040512
 40
0.9252295249
 40
0.9535409532
 40
0.9778929033
 40
0.9891068166
 40
1.0
 40
1.0
 40
1.0
 40
1.0
 10
4.7650286921
 20
2.6084286183
 30
0.0
 10
4.7647626068
 20
2.6084818083
 30
0.0
 10
4.7642641028
 20
2.6085872353
 30
0.0
 10
4.7636653773
 20
2.6087326543
 30
0.0
 10
4.7632385112
 20
2.60885042
 30
0.0
 10
4.7629565837
 20
2.6089354005
 30
0.0
 10
4.7627009361
 20
2.6090202908
 30
0.0
 10
4.7624716927
 20
2.6091050369
 30
0.0
 10
4.7622689514
 20
2.609189588
 30
0.0
 10
4.7620927728
 20
2.6092738915
 30
0.0
 10
4.7619431685
 20
2.6093579182
 30
0.0
 10
4.7618200897
 20
2.6094416828
 30
0.0
 10
4.7617234215
 20
2.609525371
 30
0.0
 10
4.7616530548
 20
2.6096092988
 30
0.0
 10
4.761615757
 20
2.6096822981
 30
0.0
 10
4.7616014757
 20
2.6097396198
 30
0.0
 10
4.7615991301
 20
2.6097676775
 30
0.0
 10
4.7615991297
 20
2.6097814775
 30
0.0
  0
SPLINE
  5
455
100
AcDbEntity
  8
0
100
AcDbSpline
 62
7
  6
CONTINUOUS
 70
0
 71
3
 72
24
 73
20
 74
0
 42
0.0000001
 43
0.0000001
 44
0.0000000001
 40
0.0
 40
0.0
 40
0.0
 40
0.0
 40
0.2201882474
 40
0.4128429306
 40
0.4987529351
 40
0.5776825868
 40
0.6496210556
 40
0.7145686754
 40
0.7725479102
 40
0.8236090344
 40
0.8678417201
 40
0.9054082772
 40
0.9365940374
 40
0.9499544865
 40
0.9619483189
 40
0.972718218
 40
0.9824612511
 40
0.991442823
 40
1.0
 40
1.0
 40
1.0
 40
1.0
 10
4.7604132024
 20
2.5872545142
 30
0.0
 10
4.7601550429
 20
2.5872948644
 30
0.0
 10
4.7596716332
 20
2.5873746389
 30
0.0
 10
4.7590899548
 20
2.5874843973
 30
0.0
 10
4.7586750658
 20
2.5875730369
 30
0.0
 10
4.7584013926
 20
2.5876367834
 30
0.0
 10
4.7581532671
 20
2.587700313
 30
0.0
 10
4.7579308149
 20
2.5877635872
 30
0.0
 10
4.757734133
 20
2.5878265549
 30
0.0
 10
4.7575632946
 20
2.5878891619
 30
0.0
 10
4.7574182998
 20
2.5879513659
 30
0.0
 10
4.7572991533
 20
2.5880131333
 30
0.0
 10
4.7572173962
 20
2.5880667244
 30
0.0
 10
4.7571660744
 20
2.5881100709
 30
0.0
 10
4.7571361079
 20
2.5881408411
 30
0.0
 10
4.7571126404
 20
2.5881716002
 30
0.0
 10
4.7570957159
 20
2.588202421
 30
0.0
 10
4.7570854409
 20
2.5882333295
 30
0.0
 10
4.7570831086
 20
2.5882542046
 30
0.0
 10
4.7570831084
 20
2.5882643593
 30
0.0
  0
LINE
  5
456
100
AcDbEntity
  8
0
100
AcDbLine
 62
7
  6
CONTINUOUS
 10
4.235114825
 20
2.6057940288
 11
4.2336113015
 21
2.6056266838
  0
SPLINE
  5
457
100
AcDbEntity
  8
0
100
AcDbSpline
 62
7
  6
CONTINUOUS
 70
0
 71
3
 72
23
 73
19
 74
0
 42
0.0000001
 43
0.0000001
 44
0.0000000001
 40
0.0
 40
0.0
 40
0.0
 40
0.0
 40
0.216180513
 40
0.4057536755
 40
0.4904864714
 40
0.568491844
 40
0.6397667408
 40
0.7043287445
 40
0.7622164733
 40
0.8135014087
 40
0.8583088953
 40
0.8968427123
 40
0.9294436969
 40
0.9437022248
 40
0.9567291211
 40
0.9796490463
 40
0.9900165306
 40
1.0
 40
1.0
 40
1.0
 40
1.0
 10
4.4321307908
 20
2.6093677121
 30
0.0
 10
4.4318700651
 20
2.6094202022
 30
0.0
 10
4.4313816718
 20
2.6095236464
 30
0.0
 10
4.4307948267
 20
2.6096646041
 30
0.0
 10
4.4303763609
 20
2.6097776234
 30
0.0
 10
4.4301000696
 20
2.6098586283
 30
0.0
 10
4.4298495403
 20
2.6099390271
 30
0.0
 10
4.4296248978
 20
2.6100187666
 30
0.0
 10
4.4294262383
 20
2.610097792
 30
0.0
 10
4.4292536332
 20
2.6101760557
 30
0.0
 10
4.4291070818
 20
2.6102535168
 30
0.0
 10
4.4289865796
 20
2.610330168
 30
0.0
 10
4.4289043572
 20
2.6103961203
 30
0.0
 10
4.4288528994
 20
2.6104490103
 30
0.0
 10
4.4288142282
 20
2.6104972039
 30
0.0
 10
4.4287858998
 20
2.6105476276
 30
0.0
 10
4.4287717371
 20
2.610599177
 30
0.0
 10
4.4287694126
 20
2.6106242684
 30
0.0
 10
4.4287694127
 20
2.6106365506
 30
0.0
  0
SPLINE
  5
458
100
AcDbEntity
  8
0
100
AcDbSpline
 62
7
  6
CONTINUOUS
 70
0
 71
3
 72
11
 73
7
 74
0
 42
0.0000001
 43
0.0000001
 44
0.0000000001
 40
0.0
 40
0.0
 40
0.0
 40
0.0
 40
0.2206455463
 40
0.4530040471
 40
0.7096457095
 40
1.0
 40
1.0
 40
1.0
 40
1.0
 10
4.2966975454
 20
2.5849865485
 30
0.0
 10
4.2966975454
 20
2.5849831392
 30
0.0
 10
4.2966966058
 20
2.5849761075
 30
0.0
 10
4.2966924142
 20
2.5849658694
 30
0.0
 10
4.2966855449
 20
2.5849558911
 30
0.0
 10
4.2966796275
 20
2.5849498073
 30
0.0
 10
4.296676311
 20
2.5849467859
 30
0.0
  0
LINE
  5
459
100
AcDbEntity
  8
0
100
AcDbLine
 62
7
  6
CONTINUOUS
 10
4.0174043527
 20
2.6057940288
 11
4.0171512516
 21
2.6056266838
  0
LINE
  5
45A
100
AcDbEntity
  8
0
100
AcDbLine
 62
7
  6
CONTINUOUS
 10
3.7873889966
 20
2.6119343189
 11
3.7862066335
 21
2.6121364012
  0
LINE
  5
45B
100
AcDbEntity
  8
0
100
AcDbLine
 62
7
  6
CONTINUOUS
 10
3.7862066335
 20
2.6121364012
 11
3.7858316871
 21
2.6122477571
  0
LINE
  5
45C
100
AcDbEntity
  8
0
100
AcDbLine
 62
7
  6
CONTINUOUS
 10
3.7889746633
 20
2.6117235878
 11
3.7873889966
 21
2.6119343189
  0
LINE
  5
45D
100
AcDbEntity
  8
0
100
AcDbLine
 62
7
  6
CONTINUOUS
 10
4.0801621195
 20
2.5896863347
 11
4.0773355052
 21
2.5900069997
  0
LINE
  5
45E
100
AcDbEntity
  8
0
100
AcDbLine
 62
7
  6
CONTINUOUS
 10
4.0804863778
 20
2.5896591584
 11
4.0801621195
 21
2.5896863347
  0
SPLINE
  5
45F
100
AcDbEntity
  8
0
100
AcDbSpline
 62
7
  6
CONTINUOUS
 70
0
 71
3
 72
23
 73
19
 74
0
 42
0.0000001
 43
0.0000001
 44
0.0000000001
 40
0.0
 40
0.0
 40
0.0
 40
0.0
 40
0.2117391409
 40
0.3079070024
 40
0.3975750602
 40
0.4807328451
 40
0.5573868391
 40
0.6275629341
 40
0.691309052
 40
0.7487100468
 40
0.7998980489
 40
0.8450748099
 40
0.8845545648
 40
0.9188215008
 40
0.9486291083
 40
0.9751276123
 40
0.9876561059
 40
1.0
 40
1.0
 40
1.0
 40
1.0
 10
4.5164904274
 20
2.6329489537
 30
0.0
 10
4.5167667017
 20
2.6329954566
 30
0.0
 10
4.5171676446
 20
2.6330682437
 30
0.0
 10
4.5176825146
 20
2.6331762388
 30
0.0
 10
4.5180293285
 20
2.6332563459
 30
0.0
 10
4.5183491692
 20
2.6333381303
 30
0.0
 10
4.5186418671
 20
2.63342154
 30
0.0
 10
4.5189072754
 20
2.6335065137
 30
0.0
 10
4.5191452717
 20
2.6335930004
 30
0.0
 10
4.5193557659
 20
2.6336809442
 30
0.0
 10
4.5195387082
 20
2.6337702999
 30
0.0
 10
4.5196940915
 20
2.633861066
 30
0.0
 10
4.5198219707
 20
2.6339532851
 30
0.0
 10
4.5199224125
 20
2.6340471972
 30
0.0
 10
4.5199953561
 20
2.6341431841
 30
0.0
 10
4.5200333272
 20
2.6342271481
 30
0.0
 10
4.5200478908
 20
2.6342937449
 30
0.0
 10
4.5200502748
 20
2.634326705
 30
0.0
 10
4.5200502744
 20
2.6343430377
 30
0.0
  0
SPLINE
  5
460
100
AcDbEntity
  8
0
100
AcDbSpline
 62
7
  6
CONTINUOUS
 70
0
 71
3
 72
21
 73
17
 74
0
 42
0.0000001
 43
0.0000001
 44
0.0000000001
 40
0.0
 40
0.0
 40
0.0
 40
0.0
 40
0.209114175
 40
0.3931841904
 40
0.4757923707
 40
0.5521170651
 40
0.6221814707
 40
0.6860299563
 40
0.7437411537
 40
0.7954356234
 40
0.8412963097
 40
0.8816055142
 40
0.9167926157
 40
0.9475165551
 40
0.9747776992
 40
1.0
 40
1.0
 40
1.0
 40
1.0
 10
4.4296102678
 20
2.6363032996
 30
0.0
 10
4.4293531145
 20
2.6363683461
 30
0.0
 10
4.4288711503
 20
2.6364969114
 30
0.0
 10
4.4282935578
 20
2.6366725454
 30
0.0
 10
4.4278820022
 20
2.6368138178
 30
0.0
 10
4.4276098623
 20
2.6369154962
 30
0.0
 10
4.4273630747
 20
2.6370166922
 30
0.0
 10
4.4271417572
 20
2.6371173585
 30
0.0
 10
4.4269459965
 20
2.6372174356
 30
0.0
 10
4.4267758492
 20
2.6373168812
 30
0.0
 10
4.4266313392
 20
2.637415685
 30
0.0
 10
4.4265124443
 20
2.6375138863
 30
0.0
 10
4.4264191273
 20
2.6376116328
 30
0.0
 10
4.4263514661
 20
2.6377093095
 30
0.0
 10
4.4263099235
 20
2.637807301
 30
0.0
 10
4.4263002749
 20
2.6378741515
 30
0.0
 10
4.4263002751
 20
2.6379061449
 30
0.0
  0
SPLINE
  5
461
100
AcDbEntity
  8
0
100
AcDbSpline
 62
7
  6
CONTINUOUS
 70
0
 71
3
 72
24
 73
20
 74
0
 42
0.0000001
 43
0.0000001
 44
0.0000000001
 40
0.0
 40
0.0
 40
0.0
 40
0.0
 40
0.2247537971
 40
0.4209440808
 40
0.5082220898
 40
0.5882459227
 40
0.6609919545
 40
0.7264474909
 40
0.7846163734
 40
0.8355187578
 40
0.8792052616
 40
0.915779279
 40
0.9454345306
 40
0.9577868538
 40
0.9685877354
 40
0.9779633521
 40
0.9861070431
 40
0.993312734
 40
1.0
 40
1.0
 40
1.0
 40
1.0
 10
5.1219252384
 20
2.5708416969
 30
0.0
 10
5.1216806304
 20
2.5708671197
 30
0.0
 10
5.1212228029
 20
2.570917724
 30
0.0
 10
5.1206711929
 20
2.5709885786
 30
0.0
 10
5.1202777002
 20
2.5710465769
 30
0.0
 10
5.1200184101
 20
2.5710885843
 30
0.0
 10
5.1197833719
 20
2.5711307824
 30
0.0
 10
5.1195727014
 20
2.5711731426
 30
0.0
 10
5.1193864905
 20
2.571215623
 30
0.0
 10
5.1192248153
 20
2.5712581831
 30
0.0
 10
5.1190876858
 20
2.5713007663
 30
0.0
 10
5.1189751229
 20
2.5713433323
 30
0.0
 10
5.1188974284
 20
2.5713806767
 30
0.0
 10
5.1188483777
 20
2.5714113365
 30
0.0
 10
5.1188200202
 20
2.5714329557
 30
0.0
 10
5.1187977642
 20
2.5714546594
 30
0.0
 10
5.1187816147
 20
2.5714765628
 30
0.0
 10
5.1187716911
 20
2.5714987873
 30
0.0
 10
5.1187694099
 20
2.571514062
 30
0.0
 10
5.1187694103
 20
2.5715213792
 30
0.0
  0
SPLINE
  5
462
100
AcDbEntity
  8
0
100
AcDbSpline
 62
7
  6
CONTINUOUS
 70
0
 71
3
 72
25
 73
21
 74
0
 42
0.0000001
 43
0.0000001
 44
0.0000000001
 40
0.0
 40
0.0
 40
0.0
 40
0.0
 40
0.2259123977
 40
0.4230610003
 40
0.510741056
 40
0.5911082181
 40
0.6641377599
 40
0.729812412
 40
0.7881238906
 40
0.8390837313
 40
0.882726786
 40
0.9191255878
 40
0.9346552074
 40
0.9484422046
 40
0.9605325332
 40
0.9709954298
 40
0.9799390774
 40
0.9875384593
 40
0.9940786643
 40
1.0
 40
1.0
 40
1.0
 40
1.0
 10
4.7543529489
 20
2.5718194679
 30
0.0
 10
4.7541139348
 20
2.5718460647
 30
0.0
 10
4.7536666155
 20
2.5718984221
 30
0.0
 10
4.7531276127
 20
2.571969969
 30
0.0
 10
4.7527431074
 20
2.5720273832
 30
0.0
 10
4.752489775
 20
2.5720684549
 30
0.0
 10
4.7522601462
 20
2.5721092084
 30
0.0
 10
4.7520543322
 20
2.572149614
 30
0.0
 10
4.7518724306
 20
2.5721896399
 30
0.0
 10
4.7517145052
 20
2.5722292379
 30
0.0
 10
4.7515806161
 20
2.5722683721
 30
0.0
 10
4.7514845293
 20
2.5723020769
 30
0.0
 10
4.7514200812
 20
2.5723293443
 30
0.0
 10
4.7513803951
 20
2.5723485812
 30
0.0
 10
4.7513467244
 20
2.5723676998
 30
0.0
 10
4.7513190446
 20
2.5723867167
 30
0.0
 10
4.7512973176
 20
2.5724056719
 30
0.0
 10
4.7512815167
 20
2.5724246792
 30
0.0
 10
4.7512717192
 20
2.5724439109
 30
0.0
 10
4.751269413
 20
2.572457247
 30
0.0
 10
4.7512694129
 20
2.5724635504
 30
0.0
  0
LINE
  5
463
100
AcDbEntity
  8
0
100
AcDbLine
 62
7
  6
CONTINUOUS
 10
5.1221009601
 20
2.5610130297
 11
5.1187694126
 21
2.5614043665
  0
LINE
  5
464
100
AcDbEntity
  8
0
100
AcDbLine
 62
7
  6
CONTINUOUS
 10
6.0381158413
 20
2.5846658748
 11
6.0350469629
 21
2.5848240051
  0
LINE
  5
465
100
AcDbEntity
  8
0
100
AcDbLine
 62
7
  6
CONTINUOUS
 10
6.0350469629
 20
2.5848240051
 11
6.0346125089
 21
2.5849467859
  0
SPLINE
  5
466
100
AcDbEntity
  8
0
100
AcDbSpline
 62
7
  6
CONTINUOUS
 70
0
 71
3
 72
22
 73
18
 74
0
 42
0.0000001
 43
0.0000001
 44
0.0000000001
 40
0.0
 40
0.0
 40
0.0
 40
0.0
 40
0.2155908545
 40
0.4043811791
 40
0.4886684976
 40
0.5662056117
 40
0.6370052341
 40
0.701098735
 40
0.7585505478
 40
0.8094696789
 40
0.8540279787
 40
0.8925041897
 40
0.9253476945
 40
0.9532953233
 40
0.9775505501
 40
0.9888726546
 40
1.0
 40
1.0
 40
1.0
 40
1.0
 10
4.2082111576
 20
2.6323856879
 30
0.0
 10
4.2084905945
 20
2.6324210474
 30
0.0
 10
4.2090139995
 20
2.6324934045
 30
0.0
 10
4.2096435624
 20
2.6326004251
 30
0.0
 10
4.2100924791
 20
2.6326917356
 30
0.0
 10
4.2103887501
 20
2.6327596482
 30
0.0
 10
4.2106573899
 20
2.6328295398
 30
0.0
 10
4.2108982664
 20
2.632901368
 30
0.0
 10
4.2111112818
 20
2.6329750786
 30
0.0
 10
4.2112963838
 20
2.6330506183
 30
0.0
 10
4.2114535721
 20
2.6331279727
 30
0.0
 10
4.2115829291
 20
2.6332071608
 30
0.0
 10
4.2116846006
 20
2.6332884176
 30
0.0
 10
4.2117586881
 20
2.6333721782
 30
0.0
 10
4.2117977264
 20
2.6334467709
 30
0.0
 10
4.2118125993
 20
2.6335061935
 30
0.0
 10
4.2118150179
 20
2.6335355809
 30
0.0
 10
4.2118150176
 20
2.6335501186
 30
0.0
  0
SPLINE
  5
467
100
AcDbEntity
  8
0
100
AcDbSpline
 62
7
  6
CONTINUOUS
 70
0
 71
3
 72
22
 73
18
 74
0
 42
0.0000001
 43
0.0000001
 44
0.0000000001
 40
0.0
 40
0.0
 40
0.0
 40
0.0
 40
0.2119420622
 40
0.3982542342
 40
0.481745509
 40
0.5587832969
 40
0.6293788533
 40
0.6935619441
 40
0.7513928279
 40
0.8029682913
 40
0.8484408865
 40
0.8880547472
 40
0.9221941327
 40
0.9514751711
 40
0.9768879755
 40
0.9886223739
 40
1.0
 40
1.0
 40
1.0
 40
1.0
 10
4.1213057273
 20
2.637226414
 30
0.0
 10
4.1210540858
 20
2.6372887056
 30
0.0
 10
4.1205825605
 20
2.6374112404
 30
0.0
 10
4.1200169823
 20
2.6375770825
 30
0.0
 10
4.1196138763
 20
2.6377094188
 30
0.0
 10
4.1193474719
 20
2.63780411
 30
0.0
 10
4.1191058951
 20
2.6378978458
 30
0.0
 10
4.1188892631
 20
2.6379905794
 30
0.0
 10
4.1186976638
 20
2.6380822526
 30
0.0
 10
4.1185311545
 20
2.6381728185
 30
0.0
 10
4.1183897567
 20
2.638262261
 30
0.0
 10
4.1182734335
 20
2.6383505884
 30
0.0
 10
4.1181821077
 20
2.6384379718
 30
0.0
 10
4.1181157474
 20
2.6385246896
 30
0.0
 10
4.1180807147
 20
2.6385990258
 30
0.0
 10
4.1180672435
 20
2.6386570229
 30
0.0
 10
4.1180650178
 20
2.6386853371
 30
0.0
 10
4.1180650179
 20
2.6386992536
 30
0.0
  0
LINE
  5
468
100
AcDbEntity
  8
0
100
AcDbLine
 62
7
  6
CONTINUOUS
 10
4.5759907382
 20
2.5698899722
 11
4.5755685712
 21
2.5697869018
  0
LINE
  5
469
100
AcDbEntity
  8
0
100
AcDbLine
 62
7
  6
CONTINUOUS
 10
4.5755685712
 20
2.5697869018
 11
4.572748928
 21
2.5696884615
  0
LINE
  5
46A
100
AcDbEntity
  8
0
100
AcDbLine
 62
7
  6
CONTINUOUS
 10
3.9436839679
 20
2.6319909878
 11
3.9462910133
 21
2.6323316074
  0
SPLINE
  5
46B
100
AcDbEntity
  8
0
100
AcDbSpline
 62
7
  6
CONTINUOUS
 70
0
 71
3
 72
19
 73
15
 74
0
 42
0.0000001
 43
0.0000001
 44
0.0000000001
 40
0.0
 40
0.0
 40
0.0
 40
0.0
 40
0.203127438
 40
0.3816642184
 40
0.5359670617
 40
0.6667025919
 40
0.7236123974
 40
0.7751584663
 40
0.8216543195
 40
0.863531631
 40
0.9013840527
 40
0.9360140943
 40
0.9684654198
 40
1.0
 40
1.0
 40
1.0
 40
1.0
 10
3.9462910133
 20
2.6323316074
 30
0.0
 10
3.9463711936
 20
2.6323496215
 30
0.0
 10
3.9465213049
 20
2.6323859911
 30
0.0
 10
3.9467296241
 20
2.6324465196
 30
0.0
 10
3.9469064326
 20
2.6325094326
 30
0.0
 10
3.9470328975
 20
2.6325661387
 30
0.0
 10
3.9471173454
 20
2.6326135223
 30
0.0
 10
3.9471697649
 20
2.6326480185
 30
0.0
 10
3.9472142628
 20
2.6326831461
 30
0.0
 10
3.9472508416
 20
2.6327189496
 30
0.0
 10
3.9472794842
 20
2.6327554879
 30
0.0
 10
3.947300117
 20
2.6327928399
 30
0.0
 10
3.9473125865
 20
2.632831007
 30
0.0
 10
3.9473153446
 20
2.6328569766
 30
0.0
 10
3.9473153446
 20
2.6328697345
 30
0.0
  0
SPLINE
  5
46C
100
AcDbEntity
  8
0
100
AcDbSpline
 62
7
  6
CONTINUOUS
 70
0
 71
3
 72
23
 73
19
 74
0
 42
0.0000001
 43
0.0000001
 44
0.0000000001
 40
0.0
 40
0.0
 40
0.0
 40
0.0
 40
0.2160449226
 40
0.4055832818
 40
0.4903359099
 40
0.5683863985
 40
0.639731162
 40
0.7043816144
 40
0.7623744981
 40
0.813775559
 40
0.858696511
 40
0.8973279609
 40
0.9299862734
 40
0.9572143812
 40
0.9690900837
 40
0.9800194585
 40
0.9902299614
 40
1.0
 40
1.0
 40
1.0
 40
1.0
 10
3.8567395072
 20
2.6380990828
 30
0.0
 10
3.8564932027
 20
2.6381558838
 30
0.0
 10
3.8560318311
 20
2.6382670229
 30
0.0
 10
3.855477703
 20
2.638415928
 30
0.0
 10
3.8550826181
 20
2.6385336756
 30
0.0
 10
3.8548217335
 20
2.6386173421
 30
0.0
 10
3.8545851807
 20
2.6386996392
 30
0.0
 10
3.8543730765
 20
2.6387805229
 30
0.0
 10
3.854185512
 20
2.6388599359
 30
0.0
 10
3.854022546
 20
2.6389378313
 30
0.0
 10
3.8538842071
 20
2.6390141688
 30
0.0
 10
3.8537704281
 20
2.6390889607
 30
0.0
 10
3.8536811392
 20
2.6391622394
 30
0.0
 10
3.8536245567
 20
2.6392250297
 30
0.0
 10
3.8535933431
 20
2.6392747191
 30
0.0
 10
3.8535772846
 20
2.6393100018
 30
0.0
 10
3.8535675614
 20
2.6393449986
 30
0.0
 10
3.8535653444
 20
2.6393684246
 30
0.0
 10
3.8535653446
 20
2.6393798554
 30
0.0
  0
SPLINE
  5
46D
100
AcDbEntity
  8
0
100
AcDbSpline
 62
7
  6
CONTINUOUS
 70
0
 71
3
 72
19
 73
15
 74
0
 42
0.0000001
 43
0.0000001
 44
0.0000000001
 40
0.0
 40
0.0
 40
0.0
 40
0.0
 40
0.211856614
 40
0.3970464718
 40
0.5557873072
 40
0.6885370229
 40
0.7454471372
 40
0.7962619169
 40
0.8412390738
 40
0.8807552332
 40
0.9153699272
 40
0.9459147404
 40
0.9735919702
 40
1.0
 40
1.0
 40
1.0
 40
1.0
 10
3.7371977823
 20
2.6319753703
 30
0.0
 10
3.7372691504
 20
2.6319862353
 30
0.0
 10
3.7374026413
 20
2.6320084067
 30
0.0
 10
3.7375882569
 20
2.632046303
 30
0.0
 10
3.7377456917
 20
2.6320865532
 30
0.0
 10
3.73785864
 20
2.6321236369
 30
0.0
 10
3.7379342865
 20
2.6321552444
 30
0.0
 10
3.7379809707
 20
2.6321783213
 30
0.0
 10
3.7380206002
 20
2.6322020057
 30
0.0
 10
3.7380531995
 20
2.6322263349
 30
0.0
 10
3.7380787892
 20
2.632251376
 30
0.0
 10
3.7380973346
 20
2.6322772607
 30
0.0
 10
3.7381086473
 20
2.6323040866
 30
0.0
 10
3.73811116
 20
2.6323226088
 30
0.0
 10
3.73811116
 20
2.6323316074
 30
0.0
  0
LINE
  5
46E
100
AcDbEntity
  8
0
100
AcDbLine
 62
7
  6
CONTINUOUS
 10
5.2125194099
 20
2.5614043665
 11
5.2091883947
 21
2.56101306
  0
SPLINE
  5
46F
100
AcDbEntity
  8
0
100
AcDbSpline
 62
7
  6
CONTINUOUS
 70
0
 71
3
 72
24
 73
20
 74
0
 42
0.0000001
 43
0.0000001
 44
0.0000000001
 40
0.0
 40
0.0
 40
0.0
 40
0.0
 40
0.0066864958
 40
0.0138914409
 40
0.0220343588
 40
0.031409251
 40
0.042209597
 40
0.0545617416
 40
0.0842169318
 40
0.1207902887
 40
0.1644767588
 40
0.2153796732
 40
0.2735483663
 40
0.3390042177
 40
0.4117510029
 40
0.4917748586
 40
0.5790533912
 40
0.7752447854
 40
1.0
 40
1.0
 40
1.0
 40
1.0
 10
5.2125194099
 20
2.5715213792
 30
0.0
 10
5.2125194098
 20
2.5715140609
 30
0.0
 10
5.2125171268
 20
2.571498784
 30
0.0
 10
5.2125072005
 20
2.5714765563
 30
0.0
 10
5.2124910472
 20
2.5714546497
 30
0.0
 10
5.2124687857
 20
2.5714329429
 30
0.0
 10
5.2124404205
 20
2.5714113205
 30
0.0
 10
5.2123913549
 20
2.5713806567
 30
0.0
 10
5.2123136381
 20
2.5713433077
 30
0.0
 10
5.2122010441
 20
2.5713007347
 30
0.0
 10
5.2120638761
 20
2.5712581459
 30
0.0
 10
5.2119021554
 20
2.5712155807
 30
0.0
 10
5.2117158926
 20
2.5711730938
 30
0.0
 10
5.2115051632
 20
2.571130728
 30
0.0
 10
5.2112700595
 20
2.5710885248
 30
0.0
 10
5.2110106973
 20
2.5710465113
 30
0.0
 10
5.2106170957
 20
2.5709885058
 30
0.0
 10
5.2100653327
 20
2.5709176419
 30
0.0
 10
5.2096073784
 20
2.5708670316
 30
0.0
 10
5.2093627027
 20
2.5708416056
 30
0.0
  0
LINE
  5
470
100
AcDbEntity
  8
0
100
AcDbLine
 62
7
  6
CONTINUOUS
 10
5.7585420953
 20
2.5696884342
 11
5.7556755221
 21
2.5697915373
  0
LINE
  5
471
100
AcDbEntity
  8
0
100
AcDbLine
 62
7
  6
CONTINUOUS
 10
5.7556755221
 20
2.5697915373
 11
5.7552980871
 21
2.5698899723
  0
SPLINE
  5
472
100
AcDbEntity
  8
0
100
AcDbSpline
 62
7
  6
CONTINUOUS
 70
0
 71
3
 72
25
 73
21
 74
0
 42
0.0000001
 43
0.0000001
 44
0.0000000001
 40
0.0
 40
0.0
 40
0.0
 40
0.0
 40
0.0059232531
 40
0.0124652452
 40
0.0200660116
 40
0.0290104407
 40
0.0394739727
 40
0.0515651036
 40
0.0653529299
 40
0.0808832244
 40
0.1172821283
 40
0.1609248709
 40
0.211885043
 40
0.270195817
 40
0.3358693011
 40
0.4088986078
 40
0.4892647341
 40
0.5769430961
 40
0.7740900296
 40
1.0
 40
1.0
 40
1.0
 40
1.0
 10
5.5800194078
 20
2.5724635504
 30
0.0
 10
5.5800194074
 20
2.5724572492
 30
0.0
 10
5.5800171021
 20
2.5724439183
 30
0.0
 10
5.580007311
 20
2.5724246938
 30
0.0
 10
5.5799915215
 20
2.5724056934
 30
0.0
 10
5.5799698111
 20
2.5723867443
 30
0.0
 10
5.5799421514
 20
2.572367734
 30
0.0
 10
5.579908504
 20
2.5723486225
 30
0.0
 10
5.5798688448
 20
2.5723293927
 30
0.0
 10
5.5798044419
 20
2.5723021358
 30
0.0
 10
5.5797084234
 20
2.5722684428
 30
0.0
 10
5.5795746282
 20
2.5722293227
 30
0.0
 10
5.5794168132
 20
2.5721897403
 30
0.0
 10
5.579235039
 20
2.572149729
 30
0.0
 10
5.579029369
 20
2.5721093382
 30
0.0
 10
5.5787999002
 20
2.5720686006
 30
0.0
 10
5.5785467444
 20
2.5720275442
 30
0.0
 10
5.5781625065
 20
2.571970151
 30
0.0
 10
5.5776238772
 20
2.5718986318
 30
0.0
 10
5.5771768668
 20
2.5718462936
 30
0.0
 10
5.5769380178
 20
2.5718197068
 30
0.0
  0
SPLINE
  5
473
100
AcDbEntity
  8
0
100
AcDbSpline
 62
7
  6
CONTINUOUS
 70
0
 71
3
 72
24
 73
20
 74
0
 42
0.0000001
 43
0.0000001
 44
0.0000000001
 40
0.0
 40
0.0
 40
0.0
 40
0.0
 40
0.0076982891
 40
0.015779909
 40
0.0246389567
 40
0.0345770416
 40
0.0458088086
 40
0.0584830155
 40
0.0885256001
 40
0.1252396983
 40
0.1688880721
 40
0.2196181634
 40
0.2775120207
 40
0.342610682
 40
0.4149336702
 40
0.4944847128
 40
0.5812541663
 40
0.7763690221
 40
1.0
 40
1.0
 40
1.0
 40
1.0
 10
4.5327715122
 20
2.5855922192
 30
0.0
 10
4.5327715126
 20
2.5855846416
 30
0.0
 10
4.5327695455
 20
2.5855690456
 30
0.0
 10
4.53276078
 20
2.5855462247
 30
0.0
 10
4.53274638
 20
2.5855238492
 30
0.0
 10
4.5327264666
 20
2.5855018686
 30
0.0
 10
4.5327010745
 20
2.5854801946
 30
0.0
 10
4.5326573661
 20
2.5854499166
 30
0.0
 10
4.5325879082
 20
2.5854134761
 30
0.0
 10
4.5324870695
 20
2.5853727158
 30
0.0
 10
4.5323642821
 20
2.5853327725
 30
0.0
 10
4.5322195398
 20
2.5852936774
 30
0.0
 10
4.5320528283
 20
2.5852554739
 30
0.0
 10
4.5318642003
 20
2.5852181956
 30
0.0
 10
4.5316537223
 20
2.5851818775
 30
0.0
 10
4.5314214792
 20
2.5851465447
 30
0.0
 10
4.5310689008
 20
2.585098902
 30
0.0
 10
4.5305744065
 20
2.5850429808
 30
0.0
 10
4.5301639458
 20
2.5850051077
 30
0.0
 10
4.5299446043
 20
2.5849865485
 30
0.0
  0
SPLINE
  5
474
100
AcDbEntity
  8
0
100
AcDbSpline
 62
7
  6
CONTINUOUS
 70
0
 71
3
 72
19
 73
15
 74
0
 42
0.0000001
 43
0.0000001
 44
0.0000000001
 40
0.0
 40
0.0
 40
0.0
 40
0.0
 40
0.025848373
 40
0.0533506161
 40
0.0840065427
 40
0.1189087637
 40
0.1588000154
 40
0.2041765313
 40
0.2553720693
 40
0.3126124379
 40
0.4457838074
 40
0.6045190621
 40
0.7892000511
 40
1.0
 40
1.0
 40
1.0
 40
1.0
 10
4.8508331068
 20
2.5864082688
 30
0.0
 10
4.8508331073
 20
2.5863957549
 30
0.0
 10
4.8508295013
 20
2.5863698082
 30
0.0
 10
4.8508136111
 20
2.5863319779
 30
0.0
 10
4.8507876385
 20
2.5862948391
 30
0.0
 10
4.8507518009
 20
2.5862582418
 30
0.0
 10
4.8507061298
 20
2.5862220175
 30
0.0
 10
4.8506505966
 20
2.5861860865
 30
0.0
 10
4.8505851729
 20
2.5861504077
 30
0.0
 10
4.8504792673
 20
2.5861006237
 30
0.0
 10
4.8503211716
 20
2.5860402215
 30
0.0
 10
4.8501007259
 20
2.5859717952
 30
0.0
 10
4.849840945
 20
2.585904362
 30
0.0
 10
4.8496539964
 20
2.5858628676
 30
0.0
 10
4.8495540853
 20
2.585842062
 30
0.0
  0
SPLINE
  5
475
100
AcDbEntity
  8
0
100
AcDbSpline
 62
7
  6
CONTINUOUS
 70
0
 71
3
 72
23
 73
19
 74
0
 42
0.0000001
 43
0.0000001
 44
0.0000000001
 40
0.0
 40
0.0
 40
0.0
 40
0.0
 40
0.0089799315
 40
0.0183311546
 40
0.0283839169
 40
0.0394049423
 40
0.0650774895
 40
0.0964567341
 40
0.1341090931
 40
0.1783471576
 40
0.2293526083
 40
0.2872311898
 40
0.3520394093
 40
0.4238065602
 40
0.5025400448
 40
0.5882295193
 40
0.7803835235
 40
1.0
 40
1.0
 40
1.0
 40
1.0
 10
5.2125194079
 20
2.5873362905
 30
0.0
 10
5.2125194084
 20
2.5873254013
 30
0.0
 10
5.2125170559
 20
2.5873031096
 30
0.0
 10
5.2125066032
 20
2.5872701093
 30
0.0
 10
5.2124893461
 20
2.5872373111
 30
0.0
 10
5.212455659
 20
2.5871915109
 30
0.0
 10
5.2123946398
 20
2.5871349699
 30
0.0
 10
5.2122990538
 20
2.5870708815
 30
0.0
 10
5.2121772646
 20
2.5870069378
 30
0.0
 10
5.2120291726
 20
2.5869431193
 30
0.0
 10
5.2118546783
 20
2.5868794246
 30
0.0
 10
5.2116538074
 20
2.5868159095
 30
0.0
 10
5.2114266231
 20
2.5867526179
 30
0.0
 10
5.2111732256
 20
2.586689605
 30
0.0
 10
5.2108937411
 20
2.5866269132
 30
0.0
 10
5.2104700544
 20
2.5865404789
 30
0.0
 10
5.2098760397
 20
2.5864349199
 30
0.0
 10
5.2093824078
 20
2.5863595109
 30
0.0
 10
5.2091187998
 20
2.5863216666
 30
0.0
  0
SPLINE
  5
476
100
AcDbEntity
  8
0
100
AcDbSpline
 62
7
  6
CONTINUOUS
 70
0
 71
3
 72
24
 73
20
 74
0
 42
0.0000001
 43
0.0000001
 44
0.0000000001
 40
0.0
 40
0.0
 40
0.0
 40
0.0
 40
0.0085570794
 40
0.0175385503
 40
0.027281743
 40
0.0380519784
 40
0.050046053
 40
0.0634062913
 40
0.0945912718
 40
0.1321587346
 40
0.1763914367
 40
0.2274517315
 40
0.2854319884
 40
0.3503795431
 40
0.4223172566
 40
0.5012480473
 40
0.5871578879
 40
0.7798128368
 40
1.0
 40
1.0
 40
1.0
 40
1.0
 10
5.57420571
 20
2.5882643593
 30
0.0
 10
5.5742057105
 20
2.5882542047
 30
0.0
 10
5.5742033805
 20
2.5882333295
 30
0.0
 10
5.5741931062
 20
2.5882024205
 30
0.0
 10
5.5741761801
 20
2.5881715998
 30
0.0
 10
5.5741527106
 20
2.588140841
 30
0.0
 10
5.574122743
 20
2.5881100711
 30
0.0
 10
5.5740714226
 20
2.5880667241
 30
0.0
 10
5.5739896665
 20
2.5880131308
 30
0.0
 10
5.5738705178
 20
2.5879513663
 30
0.0
 10
5.5737255229
 20
2.5878891615
 30
0.0
 10
5.5735546842
 20
2.5878265526
 30
0.0
 10
5.5733580008
 20
2.5877635869
 30
0.0
 10
5.5731355479
 20
2.587700312
 30
0.0
 10
5.5728874216
 20
2.5876367809
 30
0.0
 10
5.5726137468
 20
2.5875730362
 30
0.0
 10
5.5721988553
 20
2.5874843949
 30
0.0
 10
5.5716171759
 20
2.5873746379
 30
0.0
 10
5.5711337659
 20
2.5872948621
 30
0.0
 10
5.5708756068
 20
2.5872545122
 30
0.0
  0
SPLINE
  5
477
100
AcDbEntity
  8
0
100
AcDbSpline
 62
7
  6
CONTINUOUS
 70
0
 71
3
 72
27
 73
23
 74
0
 42
0.0000001
 43
0.0000001
 44
0.0000000001
 40
0.0
 40
0.0
 40
0.0
 40
0.0
 40
0.2293525715
 40
0.4292611206
 40
0.5180270253
 40
0.5992681584
 40
0.6729414924
 40
0.7390156028
 40
0.7974660147
 40
0.848281491
 40
0.8914711978
 40
0.9102171935
 40
0.9270743044
 40
0.9420570132
 40
0.955186943
 40
0.9664973976
 40
0.9714871217
 40
0.9760448195
 40
0.9839153848
 40
0.9902786971
 40
0.9954500268
 40
1.0
 40
1.0
 40
1.0
 40
1.0
 10
3.5896961457
 20
2.6317636393
 30
0.0
 10
3.5899783852
 20
2.631758176
 30
0.0
 10
3.5905066788
 20
2.631750223
 30
0.0
 10
3.5911442968
 20
2.6317480179
 30
0.0
 10
3.5915995852
 20
2.6317520155
 30
0.0
 10
3.5918994679
 20
2.6317574821
 30
0.0
 10
3.5921713539
 20
2.6317655214
 30
0.0
 10
3.5924150788
 20
2.6317761328
 30
0.0
 10
3.5926305043
 20
2.6317893012
 30
0.0
 10
3.592817508
 20
2.6318050229
 30
0.0
 10
3.592955416
 20
2.6318208584
 30
0.0
 10
3.5930513333
 20
2.6318352406
 30
0.0
 10
3.5931126396
 20
2.6318461625
 30
0.0
 10
3.5931667823
 20
2.6318577268
 30
0.0
 10
3.5932137627
 20
2.6318699342
 30
0.0
 10
3.593248271
 20
2.6318810524
 30
0.0
 10
3.5932721791
 20
2.631890432
 30
0.0
 10
3.5932917361
 20
2.6318992241
 30
0.0
 10
3.593312062
 20
2.6319104157
 30
0.0
 10
3.5933308835
 20
2.6319253784
 30
0.0
 10
3.5933428655
 20
2.6319415816
 30
0.0
 10
3.5933456884
 20
2.6319536627
 30
0.0
 10
3.5933456893
 20
2.6319592629
 30
0.0
  0
LINE
  5
478
100
AcDbEntity
  8
0
100
AcDbLine
 62
7
  6
CONTINUOUS
 10
3.7344630573
 20
2.6317828777
 11
3.7371977823
 21
2.6319753703
  0
SPLINE
  5
479
100
AcDbEntity
  8
0
100
AcDbSpline
 62
7
  6
CONTINUOUS
 70
0
 71
3
 72
20
 73
16
 74
0
 42
0.0000001
 43
0.0000001
 44
0.0000000001
 40
0.0
 40
0.0
 40
0.0
 40
0.0
 40
0.0234391906
 40
0.0486124108
 40
0.0772485334
 40
0.1105403684
 40
0.1492480804
 40
0.1938500456
 40
0.2446543972
 40
0.3018655211
 40
0.3656205184
 40
0.4360116043
 40
0.5969251435
 40
0.7849093503
 40
1.0
 40
1.0
 40
1.0
 40
1.0
 10
4.236712051
 20
2.6063573249
 30
0.0
 10
4.2367120504
 20
2.6063436114
 30
0.0
 10
4.236707496
 20
2.6063149994
 30
0.0
 10
4.2366874136
 20
2.6062739423
 30
0.0
 10
4.2366548223
 20
2.60623432
 30
0.0
 10
4.2366100071
 20
2.606195814
 30
0.0
 10
4.2365529568
 20
2.6061581662
 30
0.0
 10
4.2364836066
 20
2.6061212734
 30
0.0
 10
4.2364019054
 20
2.6060850997
 30
0.0
 10
4.2363078254
 20
2.6060496437
 30
0.0
 10
4.2362013605
 20
2.6060149084
 30
0.0
 10
4.2360353536
 20
2.6059674358
 30
0.0
 10
4.2357964669
 20
2.6059111019
 30
0.0
 10
4.2354723176
 20
2.6058490617
 30
0.0
 10
4.2352393465
 20
2.6058122188
 30
0.0
 10
4.235114825
 20
2.6057940288
 30
0.0
  0
SPLINE
  5
47A
100
AcDbEntity
  8
0
100
AcDbSpline
 62
7
  6
CONTINUOUS
 70
0
 71
3
 72
23
 73
19
 74
0
 42
0.0000001
 43
0.0000001
 44
0.0000000001
 40
0.0
 40
0.0
 40
0.0
 40
0.0
 40
0.0098013503
 40
0.0198755605
 40
0.0419970227
 40
0.0545845622
 40
0.0684031837
 40
0.100172667
 40
0.1379945011
 40
0.1822432823
 40
0.233138747
 40
0.2908146062
 40
0.3553467624
 40
0.4267755144
 40
0.5051187017
 40
0.5903725012
 40
0.7815318551
 40
1.0
 40
1.0
 40
1.0
 40
1.0
 10
4.5225194075
 20
2.6070914527
 30
0.0
 10
4.5225194072
 20
2.6070788196
 30
0.0
 10
4.5225169537
 20
2.6070531361
 30
0.0
 10
4.5225018102
 20
2.6070008894
 30
0.0
 10
4.5224713099
 20
2.6069506834
 30
0.0
 10
4.5224297937
 20
2.6069038569
 30
0.0
 10
4.52237444
 20
2.6068530715
 30
0.0
 10
4.5222859879
 20
2.6067912475
 30
0.0
 10
4.5221566558
 20
2.6067215271
 30
0.0
 10
4.5219993773
 20
2.6066530515
 30
0.0
 10
4.5218141332
 20
2.6065858248
 30
0.0
 10
4.5216009095
 20
2.6065198931
 30
0.0
 10
4.5213597797
 20
2.6064553057
 30
0.0
 10
4.5210908472
 20
2.6063921161
 30
0.0
 10
4.5207942489
 20
2.6063303738
 30
0.0
 10
4.5203446651
 20
2.606246828
 30
0.0
 10
4.5197143934
 20
2.6061479434
 30
0.0
 10
4.5191907349
 20
2.6060801653
 30
0.0
 10
4.5189111299
 20
2.6060468092
 30
0.0
  0
SPLINE
  5
47B
100
AcDbEntity
  8
0
100
AcDbSpline
 62
7
  6
CONTINUOUS
 70
0
 71
3
 72
22
 73
18
 74
0
 42
0.0000001
 43
0.0000001
 44
0.0000000001
 40
0.0
 40
0.0
 40
0.0
 40
0.0
 40
0.0108025499
 40
0.0218680127
 40
0.0458071158
 40
0.0736471933
 40
0.1065186677
 40
0.1451049387
 40
0.1898153579
 40
0.2409022881
 40
0.2985229165
 40
0.3627711191
 40
0.4337036486
 40
0.5113485135
 40
0.5957113424
 40
0.7845419581
 40
1.0
 40
1.0
 40
1.0
 40
1.0
 10
4.8553491251
 20
2.6079463998
 30
0.0
 10
4.8553491254
 20
2.607932388
 30
0.0
 10
4.8553467122
 20
2.6079039671
 30
0.0
 10
4.8553319238
 20
2.6078461773
 30
0.0
 10
4.8552931582
 20
2.607773162
 30
0.0
 10
4.8552200088
 20
2.6076904109
 30
0.0
 10
4.8551196191
 20
2.6076090454
 30
0.0
 10
4.8549918481
 20
2.6075287015
 30
0.0
 10
4.8548365622
 20
2.607449158
 30
0.0
 10
4.854653689
 20
2.6073704095
 30
0.0
 10
4.8544432357
 20
2.607292485
 30
0.0
 10
4.8542052638
 20
2.6072154296
 30
0.0
 10
4.8539398714
 20
2.6071393032
 30
0.0
 10
4.8536471895
 20
2.6070641549
 30
0.0
 10
4.8532038325
 20
2.6069614391
 30
0.0
 10
4.8525820842
 20
2.606837577
 30
0.0
 10
4.8520649077
 20
2.6067504966
 30
0.0
 10
4.8517888228
 20
2.6067071548
 30
0.0
  0
SPLINE
  5
47C
100
AcDbEntity
  8
0
100
AcDbSpline
 62
7
  6
CONTINUOUS
 70
0
 71
3
 72
22
 73
18
 74
0
 42
0.0000001
 43
0.0000001
 44
0.0000000001
 40
0.0
 40
0.0
 40
0.0
 40
0.0
 40
0.0111649347
 40
0.0226109407
 40
0.0473042774
 40
0.0758127867
 40
0.1092298637
 40
0.1482278336
 40
0.1932189243
 40
0.2444618541
 40
0.302116724
 40
0.3662836314
 40
0.4370241447
 40
0.5143678571
 40
0.5983252767
 40
0.7860417257
 40
1.0
 40
1.0
 40
1.0
 40
1.0
 10
5.2125194094
 20
2.6088639156
 30
0.0
 10
5.2125194098
 20
2.608849515
 30
0.0
 10
5.2125170329
 20
2.6088202987
 30
0.0
 10
5.2125025264
 20
2.6087608099
 30
0.0
 10
5.212464623
 20
2.6086853259
 30
0.0
 10
5.21239284
 20
2.6085988948
 30
0.0
 10
5.2122942002
 20
2.60851331
 30
0.0
 10
5.2121686296
 20
2.6084282184
 30
0.0
 10
5.2120160167
 20
2.6083434119
 30
0.0
 10
5.2118363018
 20
2.6082588811
 30
0.0
 10
5.2116294981
 20
2.6081746433
 30
0.0
 10
5.2113956646
 20
2.6080907481
 30
0.0
 10
5.2111348968
 20
2.6080072561
 30
0.0
 10
5.2108473231
 20
2.6079242132
 30
0.0
 10
5.2104118824
 20
2.6078098758
 30
0.0
 10
5.2098011275
 20
2.6076701896
 30
0.0
 10
5.2092927029
 20
2.6075702795
 30
0.0
 10
5.2090213238
 20
2.6075201786
 30
0.0
  0
SPLINE
  5
47D
100
AcDbEntity
  8
0
100
AcDbSpline
 62
7
  6
CONTINUOUS
 70
0
 71
3
 72
22
 73
18
 74
0
 42
0.0000001
 43
0.0000001
 44
0.0000000001
 40
0.0
 40
0.0
 40
0.0
 40
0.0
 40
0.0108911097
 40
0.0221030734
 40
0.0464514512
 40
0.0747598424
 40
0.1080837197
 40
0.1470629819
 40
0.1920887375
 40
0.2434008853
 40
0.3011482431
 40
0.3654249699
 40
0.4362840009
 40
0.5137512946
 40
0.5978359733
 40
0.7858026843
 40
1.0
 40
1.0
 40
1.0
 40
1.0
 10
5.569689691
 20
2.6097814775
 30
0.0
 10
5.5696896905
 20
2.6097676742
 30
0.0
 10
5.5696873432
 20
2.6097396094
 30
0.0
 10
5.5696730534
 20
2.6096822735
 30
0.0
 10
5.5696357375
 20
2.609609256
 30
0.0
 10
5.5695653385
 20
2.6095253068
 30
0.0
 10
5.5694686226
 20
2.609441601
 30
0.0
 10
5.5693454864
 20
2.6093578157
 30
0.0
 10
5.5691958117
 20
2.6092737677
 30
0.0
 10
5.5690195491
 20
2.6091894458
 30
0.0
 10
5.5688167125
 20
2.6091048735
 30
0.0
 10
5.5685873611
 20
2.6090201066
 30
0.0
 10
5.5683315927
 20
2.6089351975
 30
0.0
 10
5.5680495331
 20
2.6088501957
 30
0.0
 10
5.5676224675
 20
2.6087324024
 30
0.0
 10
5.5670234623
 20
2.6085869494
 30
0.0
 10
5.5665247263
 20
2.6084814988
 30
0.0
 10
5.5662585172
 20
2.6084282968
 30
0.0
  0
SPLINE
  5
47E
100
AcDbEntity
  8
0
100
AcDbSpline
 62
7
  6
CONTINUOUS
 70
0
 71
3
 72
23
 73
19
 74
0
 42
0.0000001
 43
0.0000001
 44
0.0000000001
 40
0.0
 40
0.0
 40
0.0
 40
0.0
 40
0.0099863508
 40
0.020356577
 40
0.0432811907
 40
0.0563101006
 40
0.0705703969
 40
0.103173977
 40
0.1417091377
 40
0.1865176336
 40
0.2378026894
 40
0.2956895375
 40
0.3602507815
 40
0.4315241741
 40
0.5095272078
 40
0.5942580905
 40
0.7838253434
 40
1.0
 40
1.0
 40
1.0
 40
1.0
 10
5.9025194069
 20
2.6106365506
 30
0.0
 10
5.9025194069
 20
2.6106242727
 30
0.0
 10
5.9025170839
 20
2.6105991905
 30
0.0
 10
5.9025029318
 20
2.6105476608
 30
0.0
 10
5.9024746247
 20
2.6104972546
 30
0.0
 10
5.9024359795
 20
2.6104490776
 30
0.0
 10
5.9023845579
 20
2.6103962074
 30
0.0
 10
5.9023023937
 20
2.6103302795
 30
0.0
 10
5.902181976
 20
2.610253655
 30
0.0
 10
5.9020355259
 20
2.6101762231
 30
0.0
 10
5.901863041
 20
2.6100979883
 30
0.0
 10
5.9016645198
 20
2.6100189913
 30
0.0
 10
5.901440033
 20
2.6099392823
 30
0.0
 10
5.9011896774
 20
2.6098589136
 30
0.0
 10
5.9009135774
 20
2.6097779382
 30
0.0
 10
5.900495401
 20
2.6096649624
 30
0.0
 10
5.8999089594
 20
2.6095240557
 30
0.0
 10
5.8994209
 20
2.6094206511
 30
0.0
 10
5.8991603521
 20
2.60936818
 30
0.0
  0
SPLINE
  5
47F
100
AcDbEntity
  8
0
100
AcDbSpline
 62
7
  6
CONTINUOUS
 70
0
 71
3
 72
11
 73
7
 74
0
 42
0.0000001
 43
0.0000001
 44
0.0000000001
 40
0.0
 40
0.0
 40
0.0
 40
0.0
 40
0.1692125302
 40
0.3806655158
 40
0.6544696014
 40
1.0
 40
1.0
 40
1.0
 40
1.0
 10
6.5454970447
 20
2.6122887139
 30
0.0
 10
6.5454970443
 20
2.612285367
 30
0.0
 10
6.5454948099
 20
2.6122778325
 30
0.0
 10
6.5454865406
 20
2.612267661
 30
0.0
 10
6.5454736628
 20
2.6122573458
 30
0.0
 10
6.5454631283
 20
2.6122510376
 30
0.0
 10
6.5454571328
 20
2.6122477571
 30
0.0
  0
LINE
  5
480
100
AcDbEntity
  8
0
100
AcDbLine
 62
7
  6
CONTINUOUS
 10
3.499595691
 20
2.6402907182
 11
3.5006200222
 21
2.6399181907
  0
LINE
  5
481
100
AcDbEntity
  8
0
100
AcDbLine
 62
7
  6
CONTINUOUS
 10
3.4255958831
 20
2.6404811462
 11
3.4286234221
 21
2.6400378192
  0
LINE
  5
482
100
AcDbEntity
  8
0
100
AcDbLine
 62
7
  6
CONTINUOUS
 10
3.8795417666
 20
2.6054441279
 11
3.8758807693
 21
2.6053609953
  0
SPLINE
  5
483
100
AcDbEntity
  8
0
100
AcDbSpline
 62
7
  6
CONTINUOUS
 70
0
 71
3
 72
27
 73
23
 74
0
 42
0.0000001
 43
0.0000001
 44
0.0000000001
 40
0.0
 40
0.0
 40
0.0
 40
0.0
 40
0.0045499696
 40
0.0097212964
 40
0.0160846064
 40
0.0239551702
 40
0.0285128675
 40
0.033502591
 40
0.0448130447
 40
0.0579429738
 40
0.0729256819
 40
0.0897827921
 40
0.108528787
 40
0.1517184904
 40
0.2025339644
 40
0.2609843782
 40
0.3270584905
 40
0.4007318292
 40
0.4819729688
 40
0.5707388783
 40
0.7706474317
 40
1.0
 40
1.0
 40
1.0
 40
1.0
 10
6.7379431305
 20
2.6319592629
 30
0.0
 10
6.7379431314
 20
2.6319536627
 30
0.0
 10
6.7379459544
 20
2.6319415816
 30
0.0
 10
6.7379579364
 20
2.6319253784
 30
0.0
 10
6.7379767579
 20
2.6319104157
 30
0.0
 10
6.7379970839
 20
2.631899224
 30
0.0
 10
6.7380166409
 20
2.6318904319
 30
0.0
 10
6.7380405491
 20
2.6318810523
 30
0.0
 10
6.7380750575
 20
2.6318699342
 30
0.0
 10
6.7381220379
 20
2.6318577268
 30
0.0
 10
6.7381761807
 20
2.6318461624
 30
0.0
 10
6.738237487
 20
2.6318352405
 30
0.0
 10
6.7383334045
 20
2.6318208583
 30
0.0
 10
6.7384713128
 20
2.6318050228
 30
0.0
 10
6.7386583168
 20
2.6317893011
 30
0.0
 10
6.7388737427
 20
2.6317761327
 30
0.0
 10
6.7391174679
 20
2.6317655213
 30
0.0
 10
6.7393893545
 20
2.6317574821
 30
0.0
 10
6.7396892377
 20
2.6317520154
 30
0.0
 10
6.7401445268
 20
2.6317480179
 30
0.0
 10
6.740782146
 20
2.6317502231
 30
0.0
 10
6.7413104405
 20
2.6317581761
 30
0.0
 10
6.7415926804
 20
2.6317636394
 30
0.0
  0
SPLINE
  5
484
100
AcDbEntity
  8
0
100
AcDbSpline
 62
7
  6
CONTINUOUS
 70
0
 71
3
 72
22
 73
18
 74
0
 42
0.0000001
 43
0.0000001
 44
0.0000000001
 40
0.0
 40
0.0
 40
0.0
 40
0.0
 40
0.0268264479
 40
0.0553399836
 40
0.0869551643
 40
0.1227158886
 40
0.1633384194
 40
0.2093036752
 40
0.2609350836
 40
0.3184472481
 40
0.3819850575
 40
0.4516453373
 40
0.527486614
 40
0.6095436982
 40
0.6978321544
 40
0.7923492021
 40
1.0
 40
1.0
 40
1.0
 40
1.0
 10
5.1187694101
 20
2.6361245042
 30
0.0
 10
5.1187694095
 20
2.6360890214
 30
0.0
 10
5.1187792036
 20
2.6360155244
 30
0.0
 10
5.1188221744
 20
2.6359078337
 30
0.0
 10
5.1188925056
 20
2.6358014434
 30
0.0
 10
5.1189896401
 20
2.6356960749
 30
0.0
 10
5.1191134257
 20
2.6355913475
 30
0.0
 10
5.1192638682
 20
2.6354870897
 30
0.0
 10
5.1194409839
 20
2.635383245
 30
0.0
 10
5.1196447497
 20
2.6352798129
 30
0.0
 10
5.1198751119
 20
2.6351768334
 30
0.0
 10
5.1201319837
 20
2.6350743639
 30
0.0
 10
5.1204152472
 20
2.6349724576
 30
0.0
 10
5.1207247642
 20
2.6348711801
 30
0.0
 10
5.1210603753
 20
2.6347705918
 30
0.0
 10
5.1215582239
 20
2.6346331261
 30
0.0
 10
5.1219465345
 20
2.6345380666
 30
0.0
 10
5.1222141974
 20
2.6344764855
 30
0.0
  0
ENDSEC
  0
SECTION
  2
OBJECTS
  0
DICTIONARY
  5
C
100
AcDbDictionary
280
0
281
1
  3
ACAD_GROUP
350
D
  3
ACAD_MLINESTYLE
350
17
  3
ACAD_LAYOUT
350
1A
  3
ACAD_PLOTSETTINGS
350
19
  3
ACAD_PLOTSTYLENAME
350
E
  0
DICTIONARY
  5
D
102
{ACAD_REACTORS
330
C
102
}
100
AcDbDictionary
280
0
281
1
  0
ACDBDICTIONARYWDFLT
  5
E
102
{ACAD_REACTORS
330
C
102
}
100
AcDbDictionary
281
1
  3
Normal
350
F
100
AcDbDictionaryWithDefault
340
F
  0
DICTIONARY
  5
17
102
{ACAD_REACTORS
330
C
102
}
100
AcDbDictionary
280
0
281
1
  3
Standard
350
18
  0
DICTIONARY
  5
19
102
{ACAD_REACTORS
330
C
102
}
100
AcDbDictionary
281
1
  0
DICTIONARY
  5
1A
102
{ACAD_REACTORS
330
C
102
}
100
AcDbDictionary
281
1
  3
Model
350
485
  3
Layout1
350
486
  0
ACDBPLACEHOLDER
  5
F
102
{ACAD_REACTORS
330
E
102
}
  0
MLINESTYLE
  5
18
102
{ACAD_REACTORS
330
17
102
}
100
AcDbMlineStyle
  2
STANDARD
 70
0
  3

 62
256
 51
90.0
 52
90.0
 71
2
 49
0.5
 62
256
  6
BYLAYER
 49
-0.5
 62
256
  6
BYLAYER
  0
LAYOUT
  5
485
102
{ACAD_REACTORS
330
1A
102
}
100
AcDbPlotSettings
  1

  2
none_device
  4
ANSI_A_(11.00_x_8.50_Inches)
  6

 40
0.0
 41
0.0
 42
0.0
 43
0.0
 44
279.4
 45
215.9
 46
0.0
 47
0.0
 48
0.0
 49
0.0
140
0.0
141
0.0
142
1.0
143
1.0
 70
1024
 72
0
 73
0
 74
0
  7

 75
0
147
1.0
148
0.0
149
0.0
100
AcDbLayout
  1
Model
 70
0
 71
0
 10
0.0
 20
0.0
 11
11.0
 21
8.5
 12
0.0
 22
0.0
 32
0.0
 14
0.0
 24
0.0
 34
0.0
 15
0.0
 25
0.0
 35
0.0
146
0.0
 13
0.0
 23
0.0
 33
0.0
 16
1.0
 26
0.0
 36
0.0
 17
0.0
 27
1.0
 37
0.0
 76
0
330
202
345
0
346
0
  0
LAYOUT
  5
486
102
{ACAD_REACTORS
330
1A
102
}
100
AcDbPlotSettings
  1

  2
none_device
  4
ANSI_A_(11.00_x_8.50_Inches)
  6

 40
0.0
 41
0.0
 42
0.0
 43
0.0
 44
279.4
 45
215.9
 46
0.0
 47
0.0
 48
0.0
 49
0.0
140
0.0
141
0.0
142
1.0
143
1.0
 70
0
 72
0
 73
0
 74
0
  7

 75
0
147
1.0
148
0.0
149
0.0
100
AcDbLayout
  1
Layout1
 70
0
 71
1
 10
0.0
 20
0.0
 11
11.0
 21
8.5
 12
0.0
 22
0.0
 32
0.0
 14
0.0
 24
0.0
 34
0.0
 15
0.0
 25
0.0
 35
0.0
146
0.0
 13
0.0
 23
0.0
 33
0.0
 16
1.0
 26
0.0
 36
0.0
 17
0.0
 27
1.0
 37
0.0
 76
0
330
203
345
0
346
0
  0
ENDSEC
  0
EOF
