999
DXF file: 2142_front.dxf
999
Pro/ENGINEER 2018400 by Parametric Technology Corporation
  0
SECTION
  2
HEADER
  9
$ACADVER
  1
AC1027
  9
$DWGCODEPAGE
  3
ANSI_1252
  9
$EXTMAX
 10
11.0
 20
8.5
 30
0.0
  9
$EXTMIN
 10
0.0
 20
0.0
 30
0.0
  9
$LIMMIN
 10
0.0
 20
0.0
  9
$LIMMAX
 10
11.0
 20
8.5
  9
$VIEWCTR
 10
5.5
 20
4.25
  9
$VIEWSIZE
 40
8.5
  9
$CLAYER
  8
0
  9
$LTSCALE
 40
0.605
  9
$CELTYPE
  6
BYLAYER
  9
$DIMSCALE
 40
1.0
  9
$DIMASZ
 40
0.1
  9
$DIMEXO
 40
0.0625
  9
$DIMDLI
 40
0.418
  9
$DIMEXE
 40
0.125
  9
$DIMCEN
 40
0.099
  9
$DIMLFAC
 40
1.0
  9
$DIMBLK
  1
_FILLED
  9
$DIMALT
 70
1
  9
$DIMALTD
 70
1
  9
$DIMALTTD
 70
2
  9
$DIMALTF
 40
25.4
  9
$DIMTXT
 40
0.08
  9
$DIMTOL
 70
1
  9
$DIMLIM
 70
0
  9
$DIMTFAC
 40
1.0
  9
$DIMTP
 40
0.01
  9
$DIMTM
 40
0.01
  9
$DIMGAP
 40
0.09
  9
$DIMDSEP
 70
46
  9
$AUNITS
 70
0
  9
$PDMODE
 70
3
  9
$PDSIZE
 40
0.3125
  9
$HANDSEED
  5
4EA
  9
$TILEMODE
 70
1
  9
$MEASUREMENT
 70
0
  9
$INSUNITS
 70
1
  0
ENDSEC
  0
SECTION
  2
CLASSES
  0
CLASS
  1
ACDBDICTIONARYWDFLT
  2
AcDbDictionaryWithDefault
  3
AutoCAD 2000
 90
0
 91
1
280
0
281
0
  0
CLASS
  1
ACDBPLACEHOLDER
  2
AcDbPlaceHolder
  3
AutoCAD 2000
 90
0
 91
1
280
0
281
0
  0
CLASS
  1
LAYOUT
  2
AcDbLayout
  3
AutoCAD 2000
 90
0
 91
0
280
0
281
0
  0
ENDSEC
  0
SECTION
  2
TABLES
  0
TABLE
  2
VPORT
  5
8
100
AcDbSymbolTable
 70
2
  0
VPORT
  5
1F4
100
AcDbSymbolTableRecord
100
AcDbViewportTableRecord
  2
*ACTIVE
 70
0
 10
0.0
 20
0.0
 11
1.0
 21
1.0
 12
5.5
 22
4.25
 13
0.0
 23
0.0
 14
1.0
 24
1.0
 15
0.0
 25
0.0
 16
0.0
 26
0.0
 36
1.0
 17
0.0
 27
0.0
 37
0.0
 40
8.5
 41
1.2941176471
 42
50.0
 43
0.0
 44
0.0
 50
0.0
 51
0.0
 71
0
 72
100
 73
1
 74
1
 75
0
 76
0
 77
0
 78
0
  0
ENDTAB
  0
TABLE
  2
LTYPE
  5
5
100
AcDbSymbolTable
 70
6
  0
LTYPE
  5
14
100
AcDbSymbolTableRecord
100
AcDbLinetypeTableRecord
  2
BYBLOCK
 70
0
  3

 72
65
 73
0
 40
0.0
  0
LTYPE
  5
15
100
AcDbSymbolTableRecord
100
AcDbLinetypeTableRecord
  2
BYLAYER
 70
0
  3

 72
65
 73
0
 40
0.0
  0
LTYPE
  5
16
100
AcDbSymbolTableRecord
100
AcDbLinetypeTableRecord
  2
CONTINUOUS
 70
64
  3
Solid line
 72
65
 73
0
 40
0.0
  0
LTYPE
  5
1F5
100
AcDbSymbolTableRecord
100
AcDbLinetypeTableRecord
  2
CENTER
 70
64
  3
____ _ ____ _ ____ _ ____ _ ____ _ ____ _ ____
 72
65
 73
4
 40
0.6
 49
0.375
 74
0
 49
-0.075
 74
0
 49
0.075
 74
0
 49
-0.075
 74
0
  0
LTYPE
  5
1F6
100
AcDbSymbolTableRecord
100
AcDbLinetypeTableRecord
  2
HIDDEN
 70
64
  3
- - - - - - - - - - - - - - - - - - - -
 72
65
 73
2
 40
0.2
 49
0.1
 74
0
 49
-0.1
 74
0
  0
LTYPE
  5
1F7
100
AcDbSymbolTableRecord
100
AcDbLinetypeTableRecord
  2
PHANTOM
 70
64
  3
_____ _ _ _____ _ _ _____ _ _ _____
 72
65
 73
6
 40
0.8
 49
0.45
 74
0
 49
-0.05
 74
0
 49
0.1
 74
0
 49
-0.05
 74
0
 49
0.1
 74
0
 49
-0.05
 74
0
  0
LTYPE
  5
1F8
100
AcDbSymbolTableRecord
100
AcDbLinetypeTableRecord
  2
DOT
 70
64
  3
. . . . . . . . . . . . . . . . . . . .
 72
65
 73
2
 40
0.2
 49
0.1
 74
0
 49
-0.1
 74
0
  0
LTYPE
  5
1F9
100
AcDbSymbolTableRecord
100
AcDbLinetypeTableRecord
  2
DASHED
 70
64
  3
- - - - - - - - - - - - - - - - - - - -
 72
65
 73
2
 40
0.2
 49
0.1
 74
0
 49
-0.1
 74
0
  0
ENDTAB
  0
TABLE
  2
LAYER
  5
2
100
AcDbSymbolTable
 70
36
  0
LAYER
  5
10
100
AcDbSymbolTableRecord
100
AcDbLayerTableRecord
  2
0
 70
0
 62
7
  6
CONTINUOUS
370
-3
390
F
  0
LAYER
  5
1FA
100
AcDbSymbolTableRecord
100
AcDbLayerTableRecord
  2
DEFAULT_1
 70
0
 62
7
  6
CENTER
370
-3
390
F
  0
LAYER
  5
1FB
100
AcDbSymbolTableRecord
100
AcDbLayerTableRecord
  2
DEFAULT_2
 70
0
 62
8
  6
HIDDEN
370
-3
390
F
  0
LAYER
  5
1FC
100
AcDbSymbolTableRecord
100
AcDbLayerTableRecord
  2
DEFAULT_3
 70
0
 62
7
  6
PHANTOM
370
-3
390
F
  0
LAYER
  5
1FD
100
AcDbSymbolTableRecord
100
AcDbLayerTableRecord
  2
01___PRT_ALL_DTM_PLN
 70
0
 62
7
  6
CONTINUOUS
370
-3
390
F
  0
LAYER
  5
1FE
100
AcDbSymbolTableRecord
100
AcDbLayerTableRecord
  2
01___PRT_DEF_DTM_PLN
 70
0
 62
7
  6
CONTINUOUS
370
-3
390
F
  0
LAYER
  5
1FF
100
AcDbSymbolTableRecord
100
AcDbLayerTableRecord
  2
02___PRT_ALL_AXES
 70
0
 62
7
  6
CONTINUOUS
370
-3
390
F
  0
LAYER
  5
200
100
AcDbSymbolTableRecord
100
AcDbLayerTableRecord
  2
03___PRT_ALL_CURVES
 70
0
 62
7
  6
CONTINUOUS
370
-3
390
F
  0
LAYER
  5
201
100
AcDbSymbolTableRecord
100
AcDbLayerTableRecord
  2
04___PRT_ALL_DTM_PNT
 70
0
 62
7
  6
CONTINUOUS
370
-3
390
F
  0
LAYER
  5
202
100
AcDbSymbolTableRecord
100
AcDbLayerTableRecord
  2
05___PRT_ALL_DTM_CSYS
 70
0
 62
7
  6
CONTINUOUS
370
-3
390
F
  0
LAYER
  5
203
100
AcDbSymbolTableRecord
100
AcDbLayerTableRecord
  2
05___PRT_DEF_DTM_CSYS
 70
0
 62
7
  6
CONTINUOUS
370
-3
390
F
  0
LAYER
  5
204
100
AcDbSymbolTableRecord
100
AcDbLayerTableRecord
  2
06___PRT_ALL_SURFS
 70
0
 62
7
  6
CONTINUOUS
370
-3
390
F
  0
LAYER
  5
205
100
AcDbSymbolTableRecord
100
AcDbLayerTableRecord
  2
ALL_FEATURES
 70
0
 62
7
  6
CONTINUOUS
370
-3
390
F
  0
LAYER
  5
206
100
AcDbSymbolTableRecord
100
AcDbLayerTableRecord
  2
AXES_FEATURES
 70
0
 62
7
  6
CONTINUOUS
370
-3
390
F
  0
LAYER
  5
207
100
AcDbSymbolTableRecord
100
AcDbLayerTableRecord
  2
CHAMFER_FEATURES
 70
0
 62
7
  6
CONTINUOUS
370
-3
390
F
  0
LAYER
  5
208
100
AcDbSymbolTableRecord
100
AcDbLayerTableRecord
  2
CUT_FEATURES
 70
0
 62
7
  6
CONTINUOUS
370
-3
390
F
  0
LAYER
  5
209
100
AcDbSymbolTableRecord
100
AcDbLayerTableRecord
  2
DATUM_CURVES
 70
0
 62
7
  6
CONTINUOUS
370
-3
390
F
  0
LAYER
  5
20A
100
AcDbSymbolTableRecord
100
AcDbLayerTableRecord
  2
DATUM_PLANES
 70
0
 62
7
  6
CONTINUOUS
370
-3
390
F
  0
LAYER
  5
20B
100
AcDbSymbolTableRecord
100
AcDbLayerTableRecord
  2
DATUM_POINTS
 70
0
 62
7
  6
CONTINUOUS
370
-3
390
F
  0
LAYER
  5
20C
100
AcDbSymbolTableRecord
100
AcDbLayerTableRecord
  2
DEFAULT_COORDINATE_SYSTEM
 70
0
 62
7
  6
CONTINUOUS
370
-3
390
F
  0
LAYER
  5
20D
100
AcDbSymbolTableRecord
100
AcDbLayerTableRecord
  2
DEFAULT_DATUM_AXES
 70
0
 62
7
  6
CONTINUOUS
370
-3
390
F
  0
LAYER
  5
20E
100
AcDbSymbolTableRecord
100
AcDbLayerTableRecord
  2
DEFAULT_DATUM_CURVES
 70
0
 62
7
  6
CONTINUOUS
370
-3
390
F
  0
LAYER
  5
20F
100
AcDbSymbolTableRecord
100
AcDbLayerTableRecord
  2
DEFAULT_DATUM_PLANES
 70
0
 62
7
  6
CONTINUOUS
370
-3
390
F
  0
LAYER
  5
210
100
AcDbSymbolTableRecord
100
AcDbLayerTableRecord
  2
DEFAULT_SURFACES
 70
0
 62
7
  6
CONTINUOUS
370
-3
390
F
  0
LAYER
  5
211
100
AcDbSymbolTableRecord
100
AcDbLayerTableRecord
  2
DIMENSIONS
 70
0
 62
7
  6
CONTINUOUS
370
-3
390
F
  0
LAYER
  5
212
100
AcDbSymbolTableRecord
100
AcDbLayerTableRecord
  2
HOLE_FEATURES
 70
0
 62
7
  6
CONTINUOUS
370
-3
390
F
  0
LAYER
  5
213
100
AcDbSymbolTableRecord
100
AcDbLayerTableRecord
  2
NOTES
 70
0
 62
7
  6
CONTINUOUS
370
-3
390
F
  0
LAYER
  5
214
100
AcDbSymbolTableRecord
100
AcDbLayerTableRecord
  2
PART_REFERENCE_DIMENSIONS
 70
0
 62
7
  6
CONTINUOUS
370
-3
390
F
  0
LAYER
  5
215
100
AcDbSymbolTableRecord
100
AcDbLayerTableRecord
  2
PLATED_SURFACE_AREA
 70
0
 62
7
  6
CONTINUOUS
370
-3
390
F
  0
LAYER
  5
216
100
AcDbSymbolTableRecord
100
AcDbLayerTableRecord
  2
POINTS
 70
0
 62
7
  6
CONTINUOUS
370
-3
390
F
  0
LAYER
  5
217
100
AcDbSymbolTableRecord
100
AcDbLayerTableRecord
  2
PROTRUSION_FEATURES
 70
0
 62
7
  6
CONTINUOUS
370
-3
390
F
  0
LAYER
  5
218
100
AcDbSymbolTableRecord
100
AcDbLayerTableRecord
  2
REFERENCE_DIMENSIONS
 70
0
 62
7
  6
CONTINUOUS
370
-3
390
F
  0
LAYER
  5
219
100
AcDbSymbolTableRecord
100
AcDbLayerTableRecord
  2
ROUND_FEATURES
 70
0
 62
7
  6
CONTINUOUS
370
-3
390
F
  0
LAYER
  5
21A
100
AcDbSymbolTableRecord
100
AcDbLayerTableRecord
  2
WETTED_SURFACE_AREA
 70
0
 62
7
  6
CONTINUOUS
370
-3
390
F
  0
ENDTAB
  0
TABLE
  2
STYLE
  5
3
100
AcDbSymbolTable
 70
1
  0
STYLE
  5
11
100
AcDbSymbolTableRecord
100
AcDbTextStyleTableRecord
  2
STANDARD
 70
0
 40
0.0
 41
0.8
 50
0.0
 71
0
 42
0.2
  3
txt
  4

  0
STYLE
  5
21B
100
AcDbSymbolTableRecord
100
AcDbTextStyleTableRecord
  2
TEXTSTYLE_1
 70
0
 40
0.0
 41
0.8
 50
0.0
 71
0
 42
0.2
  3
gdt
  4

  0
ENDTAB
  0
TABLE
  2
VIEW
  5
6
100
AcDbSymbolTable
 70
0
  0
ENDTAB
  0
TABLE
  2
UCS
  5
7
100
AcDbSymbolTable
 70
0
  0
ENDTAB
  0
TABLE
  2
APPID
  5
9
100
AcDbSymbolTable
 70
1
  0
APPID
  5
21C
100
AcDbSymbolTableRecord
100
AcDbRegAppTableRecord
  2
ACAD
 70
0
  0
ENDTAB
  0
TABLE
  2
BLOCK_RECORD
  5
1
100
AcDbSymbolTable
 70
0
  0
BLOCK_RECORD
  5
21D
100
AcDbSymbolTableRecord
100
AcDbBlockTableRecord
  2
*Model_Space
  0
BLOCK_RECORD
  5
21E
100
AcDbSymbolTableRecord
100
AcDbBlockTableRecord
  2
*Paper_Space
  0
BLOCK_RECORD
  5
21F
100
AcDbSymbolTableRecord
100
AcDbBlockTableRecord
  2
_FILLED
  0
ENDTAB
  0
TABLE
  2
DIMSTYLE
  5
A
100
AcDbSymbolTable
 70
1
100
AcDbDimStyleTable
 71
0
  0
DIMSTYLE
105
220
100
AcDbSymbolTableRecord
100
AcDbDimStyleTableRecord
  2
STANDARD
 70
0
  3

  4

 40
1.0
 41
0.1
 42
0.0625
 43
0.38
 44
0.125
 45
0.0
 46
0.0
 47
0.01
 48
0.01
140
0.08
141
0.09
142
0.0
143
25.4
144
1.0
145
0.0
146
1.0
147
0.09
 71
1.0
 72
0.0
 73
1
 74
1
 75
0
 76
0
 77
0
 78
4
 79
1
170
1
171
1
172
0
173
0
174
0
175
0
176
0
177
0
178
0
270
2
179
2
271
2
272
2
273
2
274
2
275
0
280
0
281
0
282
0
283
1
284
4
285
0
286
0
287
3
288
0
340
11
278
46
341
21F
342
21F
343
21F
344
21F
  0
ENDTAB
  0
ENDSEC
  0
SECTION
  2
BLOCKS
  0
BLOCK
  5
20
100
AcDbEntity
  8
0
100
AcDbBlockBegin
  2
*Model_Space
 70
0
 10
0.0
 20
0.0
 30
0.0
  3
*Model_Space
  1

  0
ENDBLK
  5
21
100
AcDbEntity
  8
0
100
AcDbBlockEnd
  0
BLOCK
  5
1C
100
AcDbEntity
  8
0
100
AcDbBlockBegin
  2
*Paper_Space
 70
0
 10
0.0
 20
0.0
 30
0.0
  3
*Paper_Space
  1

  0
ENDBLK
  5
1D
100
AcDbEntity
  8
0
100
AcDbBlockEnd
  0
BLOCK
  5
221
100
AcDbEntity
  8
0
100
AcDbBlockBegin
  2
_FILLED
 70
64
 10
0.0
 20
0.0
  3
_FILLED
  1

  0
SOLID
  5
222
100
AcDbEntity
  8
0
  6
BYBLOCK
 62
0
100
AcDbTrace
 10
0.0
 20
0.0
 11
-1.0
 21
0.2
 12
-1.0
 22
-0.2
 13
-1.0
 23
-0.2
  0
ENDBLK
  5
223
100
AcDbEntity
  8
0
  6
BYBLOCK
 62
0
100
AcDbBlockEnd
  0
ENDSEC
  0
SECTION
  2
ENTITIES
  0
MTEXT
  5
224
100
AcDbEntity
  8
0
100
AcDbMText
 62
2
  6
CONTINUOUS
  7
STANDARD
 71
3
 72
1
 10
5.3847049689
 20
1.8735069623
 30
0.0
 11
1.0
 21
0.0
 31
0.0
 73
2
 44
0.9
  1
SCALE  1.000
 40
0.08
 41
0.768
  0
LINE
  5
225
100
AcDbEntity
  8
0
100
AcDbLine
 62
7
  6
CONTINUOUS
 10
0.0
 20
0.0
 11
0.0
 21
8.5
  0
LINE
  5
226
100
AcDbEntity
  8
0
100
AcDbLine
 62
7
  6
CONTINUOUS
 10
0.0
 20
0.0
 11
11.0
 21
0.0
  0
LINE
  5
227
100
AcDbEntity
  8
0
100
AcDbLine
 62
7
  6
CONTINUOUS
 10
0.0
 20
8.5
 11
11.0
 21
8.5
  0
LINE
  5
228
100
AcDbEntity
  8
0
100
AcDbLine
 62
7
  6
CONTINUOUS
 10
11.0
 20
0.0
 11
11.0
 21
8.5
  0
LINE
  5
229
100
AcDbEntity
  8
0
100
AcDbLine
 62
7
  6
CONTINUOUS
 10
2.0541149068
 20
3.0197491984
 11
2.0541149068
 21
3.0897491984
  0
LINE
  5
22A
100
AcDbEntity
  8
0
100
AcDbLine
 62
7
  6
CONTINUOUS
 10
2.4316149068
 20
3.5197491984
 11
2.4459611989
 21
3.9960460958
  0
LINE
  5
22B
100
AcDbEntity
  8
0
100
AcDbLine
 62
7
  6
CONTINUOUS
 10
2.8396752043
 20
2.9697491984
 11
2.840509343
 21
2.9586273491
  0
LINE
  5
22C
100
AcDbEntity
  8
0
100
AcDbLine
 62
7
  6
CONTINUOUS
 10
2.9383416148
 20
2.9697491984
 11
2.9391757535
 21
2.9586273491
  0
LINE
  5
22D
100
AcDbEntity
  8
0
100
AcDbLine
 62
7
  6
CONTINUOUS
 10
2.7391149068
 20
4.2057491984
 11
2.7391149068
 21
4.2264709298
  0
LINE
  5
22E
100
AcDbEntity
  8
0
100
AcDbLine
 62
7
  6
CONTINUOUS
 10
3.3143646097
 20
2.9538202862
 11
3.3143113865
 21
2.9538764002
  0
LINE
  5
22F
100
AcDbEntity
  8
0
100
AcDbLine
 62
7
  6
CONTINUOUS
 10
3.1313622402
 20
2.9697491984
 11
3.1321963789
 21
2.9586273491
  0
LINE
  5
230
100
AcDbEntity
  8
0
100
AcDbLine
 62
7
  6
CONTINUOUS
 10
3.2558174335
 20
2.9537155093
 11
3.2580740455
 21
2.9236273491
  0
LINE
  5
231
100
AcDbEntity
  8
0
100
AcDbLine
 62
7
  6
CONTINUOUS
 10
3.3184917514
 20
2.9540109992
 11
3.3207705252
 21
2.9236273491
  0
LINE
  5
232
100
AcDbEntity
  8
0
100
AcDbLine
 62
7
  6
CONTINUOUS
 10
3.410301153
 20
2.9697491984
 11
3.4111352917
 21
2.9586273491
  0
LINE
  5
233
100
AcDbEntity
  8
0
100
AcDbLine
 62
7
  6
CONTINUOUS
 10
3.0520916148
 20
2.9697491984
 11
3.0512574762
 21
2.9586273491
  0
LINE
  5
234
100
AcDbEntity
  8
0
100
AcDbLine
 62
7
  6
CONTINUOUS
 10
3.5030031639
 20
2.9447491984
 11
3.5045873026
 21
2.9236273491
  0
LINE
  5
235
100
AcDbEntity
  8
0
100
AcDbLine
 62
7
  6
CONTINUOUS
 10
3.2451122402
 20
2.9697491984
 11
3.2442781015
 21
2.9586273491
  0
LINE
  5
236
100
AcDbEntity
  8
0
100
AcDbLine
 62
7
  6
CONTINUOUS
 10
5.3391149068
 20
2.8804505712
 11
5.3787707534
 21
2.8836570489
  0
LINE
  5
237
100
AcDbEntity
  8
0
100
AcDbLine
 62
7
  6
CONTINUOUS
 10
7.0482414946
 20
2.9534023687
 11
7.0566149043
 21
2.9540394326
  0
LINE
  5
238
100
AcDbEntity
  8
0
100
AcDbLine
 62
7
  6
CONTINUOUS
 10
7.0001179967
 20
2.949762508
 11
7.0537664255
 21
2.9538202862
  0
LINE
  5
239
100
AcDbEntity
  8
0
100
AcDbLine
 62
7
  6
CONTINUOUS
 10
6.9893583688
 20
2.948948419
 11
7.0066332502
 21
2.9502532876
  0
LINE
  5
23A
100
AcDbEntity
  8
0
100
AcDbLine
 62
7
  6
CONTINUOUS
 10
7.0192093814
 20
2.9512064356
 11
7.0251202649
 21
2.9516512968
  0
LINE
  5
23B
100
AcDbEntity
  8
0
100
AcDbLine
 62
7
  6
CONTINUOUS
 10
7.0358376175
 20
2.9524641391
 11
7.0405096437
 21
2.9528123793
  0
LINE
  5
23C
100
AcDbEntity
  8
0
100
AcDbLine
 62
7
  6
CONTINUOUS
 10
6.1168580505
 20
2.8988247632
 11
6.1882414946
 21
2.9016943413
  0
LINE
  5
23D
100
AcDbEntity
  8
0
100
AcDbLine
 62
7
  6
CONTINUOUS
 10
6.1718453577
 20
2.9010355713
 11
6.1975267768
 21
2.9020699848
  0
LINE
  5
23E
100
AcDbEntity
  8
0
100
AcDbLine
 62
7
  6
CONTINUOUS
 10
5.671511746
 20
2.8447491984
 11
5.5893460119
 21
2.8447491984
  0
LINE
  5
23F
100
AcDbEntity
  8
0
100
AcDbLine
 62
7
  6
CONTINUOUS
 10
5.1951977739
 20
2.8447491984
 11
5.1130320398
 21
2.8447491984
  0
LINE
  5
240
100
AcDbEntity
  8
0
100
AcDbLine
 62
7
  6
CONTINUOUS
 10
4.7188838018
 20
2.8447491984
 11
4.6367180677
 21
2.8447491984
  0
LINE
  5
241
100
AcDbEntity
  8
0
100
AcDbLine
 62
7
  6
CONTINUOUS
 10
6.1751977739
 20
2.8547491984
 11
6.0930320398
 21
2.8547491984
  0
LINE
  5
242
100
AcDbEntity
  8
0
100
AcDbLine
 62
7
  6
CONTINUOUS
 10
6.0439026696
 20
2.8547491984
 11
5.9617369355
 21
2.8547491984
  0
LINE
  5
243
100
AcDbEntity
  8
0
100
AcDbLine
 62
7
  6
CONTINUOUS
 10
5.6851977739
 20
2.8547491984
 11
5.6030320398
 21
2.8547491984
  0
LINE
  5
244
100
AcDbEntity
  8
0
100
AcDbLine
 62
7
  6
CONTINUOUS
 10
5.1951977739
 20
2.8547491984
 11
5.1130320398
 21
2.8547491984
  0
LINE
  5
245
100
AcDbEntity
  8
0
100
AcDbLine
 62
7
  6
CONTINUOUS
 10
4.7051977739
 20
2.8547491984
 11
4.6230320398
 21
2.8547491984
  0
LINE
  5
246
100
AcDbEntity
  8
0
100
AcDbLine
 62
7
  6
CONTINUOUS
 10
4.3464928782
 20
2.8547491984
 11
4.2643271441
 21
2.8547491984
  0
LINE
  5
247
100
AcDbEntity
  8
0
100
AcDbLine
 62
7
  6
CONTINUOUS
 10
4.2151977739
 20
2.8547491984
 11
4.1330320398
 21
2.8547491984
  0
LINE
  5
248
100
AcDbEntity
  8
0
100
AcDbLine
 62
7
  6
CONTINUOUS
 10
5.5929793121
 20
2.8586273491
 11
5.5743880176
 21
2.8586273491
  0
LINE
  5
249
100
AcDbEntity
  8
0
100
AcDbLine
 62
7
  6
CONTINUOUS
 10
5.2101557681
 20
2.8586273491
 11
5.2052505014
 21
2.858627349
  0
LINE
  5
24A
100
AcDbEntity
  8
0
100
AcDbLine
 62
7
  6
CONTINUOUS
 10
5.1029793121
 20
2.8586273491
 11
5.0980740455
 21
2.8586273491
  0
LINE
  5
24B
100
AcDbEntity
  8
0
100
AcDbLine
 62
7
  6
CONTINUOUS
 10
4.7338417961
 20
2.8586273491
 11
4.7152505015
 21
2.8586273491
  0
LINE
  5
24C
100
AcDbEntity
  8
0
100
AcDbLine
 62
7
  6
CONTINUOUS
 10
6.1901557681
 20
2.8686273491
 11
6.0780740455
 21
2.8686273491
  0
LINE
  5
24D
100
AcDbEntity
  8
0
100
AcDbLine
 62
7
  6
CONTINUOUS
 10
6.0588606638
 20
2.8686273491
 11
5.9467789412
 21
2.8686273491
  0
LINE
  5
24E
100
AcDbEntity
  8
0
100
AcDbLine
 62
7
  6
CONTINUOUS
 10
5.7001557681
 20
2.8686273491
 11
5.5880740455
 21
2.8686273491
  0
LINE
  5
24F
100
AcDbEntity
  8
0
100
AcDbLine
 62
7
  6
CONTINUOUS
 10
5.2101557681
 20
2.8686273491
 11
5.0980740455
 21
2.8686273491
  0
LINE
  5
250
100
AcDbEntity
  8
0
100
AcDbLine
 62
7
  6
CONTINUOUS
 10
4.7201557681
 20
2.8686273491
 11
4.6080740455
 21
2.8686273491
  0
LINE
  5
251
100
AcDbEntity
  8
0
100
AcDbLine
 62
7
  6
CONTINUOUS
 10
4.3614508724
 20
2.8686273491
 11
4.2493691498
 21
2.8686273491
  0
LINE
  5
252
100
AcDbEntity
  8
0
100
AcDbLine
 62
7
  6
CONTINUOUS
 10
4.2301557681
 20
2.8686273491
 11
4.1180740455
 21
2.8686273491
  0
LINE
  5
253
100
AcDbEntity
  8
0
100
AcDbLine
 62
7
  6
CONTINUOUS
 10
6.5837767056
 20
2.8797491984
 11
6.5016109715
 21
2.8797491984
  0
LINE
  5
254
100
AcDbEntity
  8
0
100
AcDbLine
 62
7
  6
CONTINUOUS
 10
6.4162935932
 20
2.8797491984
 11
6.3341278591
 21
2.8797491984
  0
LINE
  5
255
100
AcDbEntity
  8
0
100
AcDbLine
 62
7
  6
CONTINUOUS
 10
6.1015283035
 20
2.8797491984
 11
6.0193625694
 21
2.8797491984
  0
LINE
  5
256
100
AcDbEntity
  8
0
100
AcDbLine
 62
7
  6
CONTINUOUS
 10
5.677446176
 20
2.8797491984
 11
5.5952804419
 21
2.8797491984
  0
LINE
  5
257
100
AcDbEntity
  8
0
100
AcDbLine
 62
7
  6
CONTINUOUS
 10
5.1951977739
 20
2.8797491984
 11
5.1130320398
 21
2.8797491984
  0
LINE
  5
258
100
AcDbEntity
  8
0
100
AcDbLine
 62
7
  6
CONTINUOUS
 10
4.7129493718
 20
2.8797491984
 11
4.6307836377
 21
2.8797491984
  0
LINE
  5
259
100
AcDbEntity
  8
0
100
AcDbLine
 62
7
  6
CONTINUOUS
 10
4.2888672442
 20
2.8797491984
 11
4.2067015101
 21
2.8797491984
  0
LINE
  5
25A
100
AcDbEntity
  8
0
100
AcDbLine
 62
7
  6
CONTINUOUS
 10
3.9741019545
 20
2.8797491984
 11
3.8919362205
 21
2.8797491984
  0
LINE
  5
25B
100
AcDbEntity
  8
0
100
AcDbLine
 62
7
  6
CONTINUOUS
 10
3.8066188421
 20
2.8797491984
 11
3.724453108
 21
2.8797491984
  0
LINE
  5
25C
100
AcDbEntity
  8
0
100
AcDbLine
 62
7
  6
CONTINUOUS
 10
5.0971873039
 20
2.8804505712
 11
4.9691149068
 21
2.8804505712
  0
LINE
  5
25D
100
AcDbEntity
  8
0
100
AcDbLine
 62
7
  6
CONTINUOUS
 10
5.2110425098
 20
2.8804505712
 11
5.3391149068
 21
2.8804505712
  0
LINE
  5
25E
100
AcDbEntity
  8
0
100
AcDbLine
 62
7
  6
CONTINUOUS
 10
4.7357190235
 20
2.8836570489
 11
5.096946818
 21
2.8836570489
  0
LINE
  5
25F
100
AcDbEntity
  8
0
100
AcDbLine
 62
7
  6
CONTINUOUS
 10
5.2112829956
 20
2.8836570489
 11
5.5725107901
 21
2.8836570489
  0
LINE
  5
260
100
AcDbEntity
  8
0
100
AcDbLine
 62
7
  6
CONTINUOUS
 10
4.7357315493
 20
2.8838240586
 11
5.0969342919
 21
2.8838240643
  0
LINE
  5
261
100
AcDbEntity
  8
0
100
AcDbLine
 62
7
  6
CONTINUOUS
 10
5.2112955217
 20
2.8838240638
 11
5.5724982644
 21
2.8838240587
  0
LINE
  5
262
100
AcDbEntity
  8
0
100
AcDbLine
 62
7
  6
CONTINUOUS
 10
5.7694335623
 20
2.8875093192
 11
5.7015719159
 21
2.8875093191
  0
LINE
  5
263
100
AcDbEntity
  8
0
100
AcDbLine
 62
7
  6
CONTINUOUS
 10
5.582144173
 20
2.8875093187
 11
5.2115719162
 21
2.8875093234
  0
LINE
  5
264
100
AcDbEntity
  8
0
100
AcDbLine
 62
7
  6
CONTINUOUS
 10
5.0966578974
 20
2.8875093238
 11
4.7260856406
 21
2.8875093185
  0
LINE
  5
265
100
AcDbEntity
  8
0
100
AcDbLine
 62
7
  6
CONTINUOUS
 10
4.6066578978
 20
2.887509319
 11
4.5387962514
 21
2.8875093192
  0
LINE
  5
266
100
AcDbEntity
  8
0
100
AcDbLine
 62
7
  6
CONTINUOUS
 10
4.1684222594
 20
2.8997483371
 11
4.1913536595
 21
2.8988254337
  0
LINE
  5
267
100
AcDbEntity
  8
0
100
AcDbLine
 62
7
  6
CONTINUOUS
 10
4.1107030369
 20
2.9020699848
 11
4.1913732487
 21
2.8988247035
  0
LINE
  5
268
100
AcDbEntity
  8
0
100
AcDbLine
 62
7
  6
CONTINUOUS
 10
3.3188714632
 20
2.9489481751
 11
3.2528986612
 21
2.9539395944
  0
LINE
  5
269
100
AcDbEntity
  8
0
100
AcDbLine
 62
7
  6
CONTINUOUS
 10
3.2516149068
 20
2.9540394215
 11
3.2565499576
 21
2.9536588261
  0
LINE
  5
26A
100
AcDbEntity
  8
0
100
AcDbLine
 62
7
  6
CONTINUOUS
 10
4.9691149068
 20
2.8804505712
 11
4.9294590602
 21
2.8836570489
  0
LINE
  5
26B
100
AcDbEntity
  8
0
100
AcDbLine
 62
7
  6
CONTINUOUS
 10
3.7030363672
 20
2.9241659431
 11
3.7030359751
 21
2.9241682374
  0
LINE
  5
26C
100
AcDbEntity
  8
0
100
AcDbLine
 62
7
  6
CONTINUOUS
 10
3.70720291
 20
2.9241900659
 11
3.7094951138
 21
2.8936273491
  0
LINE
  5
26D
100
AcDbEntity
  8
0
100
AcDbLine
 62
7
  6
CONTINUOUS
 10
3.7629673841
 20
2.9697491984
 11
3.7638015228
 21
2.9586273491
  0
LINE
  5
26E
100
AcDbEntity
  8
0
100
AcDbLine
 62
7
  6
CONTINUOUS
 10
3.7954134294
 20
2.9447491984
 11
3.7969975681
 21
2.9236273491
  0
LINE
  5
26F
100
AcDbEntity
  8
0
100
AcDbLine
 62
7
  6
CONTINUOUS
 10
3.8757690875
 20
2.9097491984
 11
3.8769782262
 21
2.8936273491
  0
LINE
  5
270
100
AcDbEntity
  8
0
100
AcDbLine
 62
7
  6
CONTINUOUS
 10
3.4344363865
 20
2.9447491984
 11
3.4328522478
 21
2.9236273491
  0
LINE
  5
271
100
AcDbEntity
  8
0
100
AcDbLine
 62
7
  6
CONTINUOUS
 10
3.524051153
 20
2.9697491984
 11
3.5232170143
 21
2.9586273491
  0
LINE
  5
272
100
AcDbEntity
  8
0
100
AcDbLine
 62
7
  6
CONTINUOUS
 10
3.6183151956
 20
2.9455762879
 11
3.6166690252
 21
2.9236273491
  0
LINE
  5
273
100
AcDbEntity
  8
0
100
AcDbLine
 62
7
  6
CONTINUOUS
 10
6.5987346999
 20
2.8936273491
 11
6.4866529773
 21
2.8936273491
  0
LINE
  5
274
100
AcDbEntity
  8
0
100
AcDbLine
 62
7
  6
CONTINUOUS
 10
6.4312515875
 20
2.8936273491
 11
6.3191698649
 21
2.8936273491
  0
LINE
  5
275
100
AcDbEntity
  8
0
100
AcDbLine
 62
7
  6
CONTINUOUS
 10
6.1164862978
 20
2.8936273491
 11
6.0044045752
 21
2.8936273491
  0
LINE
  5
276
100
AcDbEntity
  8
0
100
AcDbLine
 62
7
  6
CONTINUOUS
 10
5.6924041702
 20
2.8936273491
 11
5.5803224476
 21
2.8936273491
  0
LINE
  5
277
100
AcDbEntity
  8
0
100
AcDbLine
 62
7
  6
CONTINUOUS
 10
5.2101557681
 20
2.8936273491
 11
5.0980740455
 21
2.8936273491
  0
LINE
  5
278
100
AcDbEntity
  8
0
100
AcDbLine
 62
7
  6
CONTINUOUS
 10
4.727907366
 20
2.8936273491
 11
4.6158256434
 21
2.8936273491
  0
LINE
  5
279
100
AcDbEntity
  8
0
100
AcDbLine
 62
7
  6
CONTINUOUS
 10
4.3038252385
 20
2.8936273491
 11
4.1917435159
 21
2.8936273491
  0
LINE
  5
27A
100
AcDbEntity
  8
0
100
AcDbLine
 62
7
  6
CONTINUOUS
 10
3.9890599488
 20
2.8936273491
 11
3.8769782262
 21
2.8936273491
  0
LINE
  5
27B
100
AcDbEntity
  8
0
100
AcDbLine
 62
7
  6
CONTINUOUS
 10
3.8215768364
 20
2.8936273491
 11
3.7094951138
 21
2.8936273491
  0
LINE
  5
27C
100
AcDbEntity
  8
0
100
AcDbLine
 62
7
  6
CONTINUOUS
 10
4.3678823407
 20
2.8966584368
 11
4.605971714
 21
2.8966584368
  0
LINE
  5
27D
100
AcDbEntity
  8
0
100
AcDbLine
 62
7
  6
CONTINUOUS
 10
4.7279073661
 20
2.8966584368
 11
5.095971714
 21
2.8966584368
  0
LINE
  5
27E
100
AcDbEntity
  8
0
100
AcDbLine
 62
7
  6
CONTINUOUS
 10
5.2122580997
 20
2.8966584368
 11
5.5803224476
 21
2.8966584368
  0
LINE
  5
27F
100
AcDbEntity
  8
0
100
AcDbLine
 62
7
  6
CONTINUOUS
 10
5.7022580997
 20
2.8966584368
 11
5.9403198025
 21
2.8966584368
  0
LINE
  5
280
100
AcDbEntity
  8
0
100
AcDbLine
 62
7
  6
CONTINUOUS
 10
4.3678823407
 20
2.8973810869
 11
4.6059175152
 21
2.8973810869
  0
LINE
  5
281
100
AcDbEntity
  8
0
100
AcDbLine
 62
7
  6
CONTINUOUS
 10
4.7279073661
 20
2.8973810869
 11
5.0916149068
 21
2.8973810869
  0
LINE
  5
282
100
AcDbEntity
  8
0
100
AcDbLine
 62
7
  6
CONTINUOUS
 10
5.2166149068
 20
2.8973810869
 11
5.5803224476
 21
2.8973810869
  0
LINE
  5
283
100
AcDbEntity
  8
0
100
AcDbLine
 62
7
  6
CONTINUOUS
 10
5.7023122985
 20
2.8973810869
 11
5.940347473
 21
2.8973810869
  0
LINE
  5
284
100
AcDbEntity
  8
0
100
AcDbLine
 62
7
  6
CONTINUOUS
 10
6.1975267769
 20
2.9020699848
 11
6.1171194955
 21
2.9020699847
  0
LINE
  5
285
100
AcDbEntity
  8
0
100
AcDbLine
 62
7
  6
CONTINUOUS
 10
6.0037713775
 20
2.9020699844
 11
5.693037368
 21
2.9020699854
  0
LINE
  5
286
100
AcDbEntity
  8
0
100
AcDbLine
 62
7
  6
CONTINUOUS
 10
5.5796892502
 20
2.9020699812
 11
5.2112171511
 21
2.9020699915
  0
LINE
  5
287
100
AcDbEntity
  8
0
100
AcDbLine
 62
7
  6
CONTINUOUS
 10
5.097034308
 20
2.9020699921
 11
4.7285405634
 21
2.9020699806
  0
LINE
  5
288
100
AcDbEntity
  8
0
100
AcDbLine
 62
7
  6
CONTINUOUS
 10
4.6151924457
 20
2.9020699853
 11
4.3044584361
 21
2.9020699842
  0
LINE
  5
289
100
AcDbEntity
  8
0
100
AcDbLine
 62
7
  6
CONTINUOUS
 10
4.1911103182
 20
2.9020699846
 11
4.1107030368
 21
2.9020699848
  0
LINE
  5
28A
100
AcDbEntity
  8
0
100
AcDbLine
 62
7
  6
CONTINUOUS
 10
7.0351977739
 20
2.9097491984
 11
6.8903355602
 21
2.9097491984
  0
LINE
  5
28B
100
AcDbEntity
  8
0
100
AcDbLine
 62
7
  6
CONTINUOUS
 10
6.7886845168
 20
2.9097491984
 11
6.7065187828
 21
2.9097491984
  0
LINE
  5
28C
100
AcDbEntity
  8
0
100
AcDbLine
 62
7
  6
CONTINUOUS
 10
6.4962742513
 20
2.9097491984
 11
6.4141085172
 21
2.9097491984
  0
LINE
  5
28D
100
AcDbEntity
  8
0
100
AcDbLine
 62
7
  6
CONTINUOUS
 10
6.1151977739
 20
2.9097491984
 11
6.0330320398
 21
2.9097491984
  0
LINE
  5
28E
100
AcDbEntity
  8
0
100
AcDbLine
 62
7
  6
CONTINUOUS
 10
5.6714248169
 20
2.9097491984
 11
5.5892590828
 21
2.9097491984
  0
LINE
  5
28F
100
AcDbEntity
  8
0
100
AcDbLine
 62
7
  6
CONTINUOUS
 10
5.1951977739
 20
2.9097491984
 11
5.1130320398
 21
2.9097491984
  0
LINE
  5
290
100
AcDbEntity
  8
0
100
AcDbLine
 62
7
  6
CONTINUOUS
 10
4.7189707309
 20
2.9097491984
 11
4.6368049968
 21
2.9097491984
  0
LINE
  5
291
100
AcDbEntity
  8
0
100
AcDbLine
 62
7
  6
CONTINUOUS
 10
4.2751977739
 20
2.9097491984
 11
4.1930320398
 21
2.9097491984
  0
LINE
  5
292
100
AcDbEntity
  8
0
100
AcDbLine
 62
7
  6
CONTINUOUS
 10
3.8941212965
 20
2.9097491984
 11
3.8119555624
 21
2.9097491984
  0
LINE
  5
293
100
AcDbEntity
  8
0
100
AcDbLine
 62
7
  6
CONTINUOUS
 10
3.6017110309
 20
2.9097491984
 11
3.5195452968
 21
2.9097491984
  0
LINE
  5
294
100
AcDbEntity
  8
0
100
AcDbLine
 62
7
  6
CONTINUOUS
 10
3.4178942535
 20
2.9097491984
 11
3.2730320398
 21
2.9097491984
  0
LINE
  5
295
100
AcDbEntity
  8
0
100
AcDbLine
 62
7
  6
CONTINUOUS
 10
3.9907285286
 20
2.9158750796
 11
4.1809450118
 21
2.9158750796
  0
LINE
  5
296
100
AcDbEntity
  8
0
100
AcDbLine
 62
7
  6
CONTINUOUS
 10
4.3054938183
 20
2.9158750796
 11
4.6141570637
 21
2.9158750796
  0
LINE
  5
297
100
AcDbEntity
  8
0
100
AcDbLine
 62
7
  6
CONTINUOUS
 10
4.7310577589
 20
2.9158750796
 11
5.0964054657
 21
2.9158750796
  0
LINE
  5
298
100
AcDbEntity
  8
0
100
AcDbLine
 62
7
  6
CONTINUOUS
 10
5.2118243479
 20
2.9158750796
 11
5.5771720548
 21
2.9158750796
  0
LINE
  5
299
100
AcDbEntity
  8
0
100
AcDbLine
 62
7
  6
CONTINUOUS
 10
5.69407275
 20
2.9158750796
 11
6.0027359954
 21
2.9158750796
  0
LINE
  5
29A
100
AcDbEntity
  8
0
100
AcDbLine
 62
7
  6
CONTINUOUS
 10
6.1272848019
 20
2.9158750796
 11
6.3175012851
 21
2.9158750796
  0
LINE
  5
29B
100
AcDbEntity
  8
0
100
AcDbLine
 62
7
  6
CONTINUOUS
 10
3.9954907749
 20
2.9174189913
 11
4.1799496568
 21
2.9174189913
  0
LINE
  5
29C
100
AcDbEntity
  8
0
100
AcDbLine
 62
7
  6
CONTINUOUS
 10
4.3102843772
 20
2.9174189913
 11
4.6140412703
 21
2.9174189913
  0
LINE
  5
29D
100
AcDbEntity
  8
0
100
AcDbLine
 62
7
  6
CONTINUOUS
 10
4.7343665047
 20
2.9174189913
 11
5.0962896724
 21
2.9174189913
  0
LINE
  5
29E
100
AcDbEntity
  8
0
100
AcDbLine
 62
7
  6
CONTINUOUS
 10
5.2119401413
 20
2.9174189913
 11
5.5738633089
 21
2.9174189913
  0
LINE
  5
29F
100
AcDbEntity
  8
0
100
AcDbLine
 62
7
  6
CONTINUOUS
 10
5.6941885434
 20
2.9174189913
 11
5.9979454365
 21
2.9174189913
  0
LINE
  5
2A0
100
AcDbEntity
  8
0
100
AcDbLine
 62
7
  6
CONTINUOUS
 10
6.1282801569
 20
2.9174189913
 11
6.3127390388
 21
2.9174189913
  0
LINE
  5
2A1
100
AcDbEntity
  8
0
100
AcDbLine
 62
7
  6
CONTINUOUS
 10
7.0501557681
 20
2.9236273491
 11
6.8753775659
 21
2.9236273491
  0
LINE
  5
2A2
100
AcDbEntity
  8
0
100
AcDbLine
 62
7
  6
CONTINUOUS
 10
6.8036425111
 20
2.9236273491
 11
6.6915607885
 21
2.9236273491
  0
LINE
  5
2A3
100
AcDbEntity
  8
0
100
AcDbLine
 62
7
  6
CONTINUOUS
 10
6.5112322455
 20
2.9236273491
 11
6.3991505229
 21
2.9236273491
  0
LINE
  5
2A4
100
AcDbEntity
  8
0
100
AcDbLine
 62
7
  6
CONTINUOUS
 10
6.1301557681
 20
2.9236273491
 11
6.0180740455
 21
2.9236273491
  0
LINE
  5
2A5
100
AcDbEntity
  8
0
100
AcDbLine
 62
7
  6
CONTINUOUS
 10
5.6863828111
 20
2.9236273491
 11
5.5743010885
 21
2.9236273491
  0
LINE
  5
2A6
100
AcDbEntity
  8
0
100
AcDbLine
 62
7
  6
CONTINUOUS
 10
5.2101557681
 20
2.9236273491
 11
5.0980740455
 21
2.9236273491
  0
LINE
  5
2A7
100
AcDbEntity
  8
0
100
AcDbLine
 62
7
  6
CONTINUOUS
 10
4.7339287251
 20
2.9236273491
 11
4.6218470025
 21
2.9236273491
  0
LINE
  5
2A8
100
AcDbEntity
  8
0
100
AcDbLine
 62
7
  6
CONTINUOUS
 10
4.2901557681
 20
2.9236273491
 11
4.1780740455
 21
2.9236273491
  0
LINE
  5
2A9
100
AcDbEntity
  8
0
100
AcDbLine
 62
7
  6
CONTINUOUS
 10
3.9090792908
 20
2.9236273491
 11
3.7969975681
 21
2.9236273491
  0
LINE
  5
2AA
100
AcDbEntity
  8
0
100
AcDbLine
 62
7
  6
CONTINUOUS
 10
3.6166690252
 20
2.9236273491
 11
3.5045873026
 21
2.9236273491
  0
LINE
  5
2AB
100
AcDbEntity
  8
0
100
AcDbLine
 62
7
  6
CONTINUOUS
 10
3.4328522478
 20
2.9236273491
 11
3.2580740455
 21
2.9236273491
  0
LINE
  5
2AC
100
AcDbEntity
  8
0
100
AcDbLine
 62
7
  6
CONTINUOUS
 10
6.6256682081
 20
2.9241659431
 11
6.6051934465
 21
2.9241659431
  0
LINE
  5
2AD
100
AcDbEntity
  8
0
100
AcDbLine
 62
7
  6
CONTINUOUS
 10
6.6013485412
 20
2.9241659431
 11
6.5112322455
 21
2.9241659431
  0
LINE
  5
2AE
100
AcDbEntity
  8
0
100
AcDbLine
 62
7
  6
CONTINUOUS
 10
6.3991505229
 20
2.9241659431
 11
6.1301557681
 21
2.9241659431
  0
LINE
  5
2AF
100
AcDbEntity
  8
0
100
AcDbLine
 62
7
  6
CONTINUOUS
 10
6.0180740455
 20
2.9241659431
 11
5.6863828111
 21
2.9241659431
  0
LINE
  5
2B0
100
AcDbEntity
  8
0
100
AcDbLine
 62
7
  6
CONTINUOUS
 10
5.5738633089
 20
2.9241659431
 11
5.2101557681
 21
2.9241659431
  0
LINE
  5
2B1
100
AcDbEntity
  8
0
100
AcDbLine
 62
7
  6
CONTINUOUS
 10
5.0980740455
 20
2.9241659431
 11
4.7339287252
 21
2.9241659431
  0
LINE
  5
2B2
100
AcDbEntity
  8
0
100
AcDbLine
 62
7
  6
CONTINUOUS
 10
4.6218470025
 20
2.9241659431
 11
4.2901557681
 21
2.9241659431
  0
LINE
  5
2B3
100
AcDbEntity
  8
0
100
AcDbLine
 62
7
  6
CONTINUOUS
 10
4.1780740455
 20
2.9241659431
 11
3.9090792908
 21
2.9241659431
  0
LINE
  5
2B4
100
AcDbEntity
  8
0
100
AcDbLine
 62
7
  6
CONTINUOUS
 10
3.7969975681
 20
2.9241659431
 11
3.7068812725
 21
2.9241659431
  0
LINE
  5
2B5
100
AcDbEntity
  8
0
100
AcDbLine
 62
7
  6
CONTINUOUS
 10
3.7030363672
 20
2.9241659431
 11
3.6825616055
 21
2.9241659431
  0
LINE
  5
2B6
100
AcDbEntity
  8
0
100
AcDbLine
 62
7
  6
CONTINUOUS
 10
3.4446232268
 20
2.9423181781
 11
3.5031854904
 21
2.9423181781
  0
LINE
  5
2B7
100
AcDbEntity
  8
0
100
AcDbLine
 62
7
  6
CONTINUOUS
 10
3.6180708373
 20
2.9423181781
 11
3.795595756
 21
2.9423181781
  0
LINE
  5
2B8
100
AcDbEntity
  8
0
100
AcDbLine
 62
7
  6
CONTINUOUS
 10
3.9104811029
 20
2.9423181781
 11
4.1766722334
 21
2.9423181781
  0
LINE
  5
2B9
100
AcDbEntity
  8
0
100
AcDbLine
 62
7
  6
CONTINUOUS
 10
4.2915575803
 20
2.9423181781
 11
4.6204451904
 21
2.9423181781
  0
LINE
  5
2BA
100
AcDbEntity
  8
0
100
AcDbLine
 62
7
  6
CONTINUOUS
 10
4.7353305373
 20
2.9423181781
 11
5.0966722334
 21
2.9423181781
  0
LINE
  5
2BB
100
AcDbEntity
  8
0
100
AcDbLine
 62
7
  6
CONTINUOUS
 10
5.2115575803
 20
2.9423181781
 11
5.5728992763
 21
2.9423181781
  0
LINE
  5
2BC
100
AcDbEntity
  8
0
100
AcDbLine
 62
7
  6
CONTINUOUS
 10
5.6877846233
 20
2.9423181781
 11
6.0166722334
 21
2.9423181781
  0
LINE
  5
2BD
100
AcDbEntity
  8
0
100
AcDbLine
 62
7
  6
CONTINUOUS
 10
6.1315575803
 20
2.9423181781
 11
6.3977487107
 21
2.9423181781
  0
LINE
  5
2BE
100
AcDbEntity
  8
0
100
AcDbLine
 62
7
  6
CONTINUOUS
 10
6.5126340577
 20
2.9423181781
 11
6.6901589763
 21
2.9423181781
  0
LINE
  5
2BF
100
AcDbEntity
  8
0
100
AcDbLine
 62
7
  6
CONTINUOUS
 10
6.8050443233
 20
2.9423181781
 11
6.8636065869
 21
2.9423181781
  0
LINE
  5
2C0
100
AcDbEntity
  8
0
100
AcDbLine
 62
7
  6
CONTINUOUS
 10
7.4527624764
 20
2.9447491984
 11
7.3705967423
 21
2.9447491984
  0
LINE
  5
2C1
100
AcDbEntity
  8
0
100
AcDbLine
 62
7
  6
CONTINUOUS
 10
7.3540960659
 20
2.9447491984
 11
7.2719303318
 21
2.9447491984
  0
LINE
  5
2C2
100
AcDbEntity
  8
0
100
AcDbLine
 62
7
  6
CONTINUOUS
 10
7.1610754405
 20
2.9447491984
 11
7.0789097064
 21
2.9447491984
  0
LINE
  5
2C3
100
AcDbEntity
  8
0
100
AcDbLine
 62
7
  6
CONTINUOUS
 10
6.8821365277
 20
2.9447491984
 11
6.7999707936
 21
2.9447491984
  0
LINE
  5
2C4
100
AcDbEntity
  8
0
100
AcDbLine
 62
7
  6
CONTINUOUS
 10
6.5294702966
 20
2.9447491984
 11
6.4473045625
 21
2.9447491984
  0
LINE
  5
2C5
100
AcDbEntity
  8
0
100
AcDbLine
 62
7
  6
CONTINUOUS
 10
6.1184899537
 20
2.9447491984
 11
6.0363242196
 21
2.9447491984
  0
LINE
  5
2C6
100
AcDbEntity
  8
0
100
AcDbLine
 62
7
  6
CONTINUOUS
 10
5.667157312
 20
2.9447491984
 11
5.5849915779
 21
2.9447491984
  0
LINE
  5
2C7
100
AcDbEntity
  8
0
100
AcDbLine
 62
7
  6
CONTINUOUS
 10
5.1951977739
 20
2.9447491984
 11
5.1130320398
 21
2.9447491984
  0
LINE
  5
2C8
100
AcDbEntity
  8
0
100
AcDbLine
 62
7
  6
CONTINUOUS
 10
4.7232382357
 20
2.9447491984
 11
4.6410725016
 21
2.9447491984
  0
LINE
  5
2C9
100
AcDbEntity
  8
0
100
AcDbLine
 62
7
  6
CONTINUOUS
 10
4.2719055941
 20
2.9447491984
 11
4.18973986
 21
2.9447491984
  0
LINE
  5
2CA
100
AcDbEntity
  8
0
100
AcDbLine
 62
7
  6
CONTINUOUS
 10
3.8609252512
 20
2.9447491984
 11
3.7787595171
 21
2.9447491984
  0
LINE
  5
2CB
100
AcDbEntity
  8
0
100
AcDbLine
 62
7
  6
CONTINUOUS
 10
3.50825902
 20
2.9447491984
 11
3.426093286
 21
2.9447491984
  0
LINE
  5
2CC
100
AcDbEntity
  8
0
100
AcDbLine
 62
7
  6
CONTINUOUS
 10
3.2293201073
 20
2.9447491984
 11
3.1471543732
 21
2.9447491984
  0
LINE
  5
2CD
100
AcDbEntity
  8
0
100
AcDbLine
 62
7
  6
CONTINUOUS
 10
3.0362994819
 20
2.9447491984
 11
2.9541337478
 21
2.9447491984
  0
LINE
  5
2CE
100
AcDbEntity
  8
0
100
AcDbLine
 62
7
  6
CONTINUOUS
 10
2.9376330714
 20
2.9447491984
 11
2.8554673373
 21
2.9447491984
  0
LINE
  5
2CF
100
AcDbEntity
  8
0
100
AcDbLine
 62
7
  6
CONTINUOUS
 10
3.6227906958
 20
2.9449921885
 11
3.7761240316
 21
2.9449921885
  0
LINE
  5
2D0
100
AcDbEntity
  8
0
100
AcDbLine
 62
7
  6
CONTINUOUS
 10
3.9155384294
 20
2.9449921885
 11
4.1764716826
 21
2.9449921885
  0
LINE
  5
2D1
100
AcDbEntity
  8
0
100
AcDbLine
 62
7
  6
CONTINUOUS
 10
4.2966149068
 20
2.9449921885
 11
4.6202446396
 21
2.9449921885
  0
LINE
  5
2D2
100
AcDbEntity
  8
0
100
AcDbLine
 62
7
  6
CONTINUOUS
 10
4.7355310881
 20
2.9449921885
 11
5.0964716826
 21
2.9449921885
  0
LINE
  5
2D3
100
AcDbEntity
  8
0
100
AcDbLine
 62
7
  6
CONTINUOUS
 10
5.2117581311
 20
2.9449921885
 11
5.5726987256
 21
2.9449921885
  0
LINE
  5
2D4
100
AcDbEntity
  8
0
100
AcDbLine
 62
7
  6
CONTINUOUS
 10
5.6879851741
 20
2.9449921885
 11
6.0116149068
 21
2.9449921885
  0
LINE
  5
2D5
100
AcDbEntity
  8
0
100
AcDbLine
 62
7
  6
CONTINUOUS
 10
6.1317581311
 20
2.9449921885
 11
6.3926913842
 21
2.9449921885
  0
LINE
  5
2D6
100
AcDbEntity
  8
0
100
AcDbLine
 62
7
  6
CONTINUOUS
 10
6.5321057821
 20
2.9449921885
 11
6.6854391179
 21
2.9449921885
  0
LINE
  5
2D7
100
AcDbEntity
  8
0
100
AcDbLine
 62
7
  6
CONTINUOUS
 10
7.0537664255
 20
2.9538202862
 11
6.9938652039
 21
2.9538202862
  0
LINE
  5
2D8
100
AcDbEntity
  8
0
100
AcDbLine
 62
7
  6
CONTINUOUS
 10
6.9842095353
 20
2.9538202862
 11
6.895905729
 21
2.9538202862
  0
LINE
  5
2D9
100
AcDbEntity
  8
0
100
AcDbLine
 62
7
  6
CONTINUOUS
 10
6.7862015924
 20
2.9538202862
 11
6.5432394978
 21
2.9538202862
  0
LINE
  5
2DA
100
AcDbEntity
  8
0
100
AcDbLine
 62
7
  6
CONTINUOUS
 10
6.4335353612
 20
2.9538202862
 11
6.1322591549
 21
2.9538202862
  0
LINE
  5
2DB
100
AcDbEntity
  8
0
100
AcDbLine
 62
7
  6
CONTINUOUS
 10
6.0225550183
 20
2.9538202862
 11
5.6809265133
 21
2.9538202862
  0
LINE
  5
2DC
100
AcDbEntity
  8
0
100
AcDbLine
 62
7
  6
CONTINUOUS
 10
5.5712223767
 20
2.9538202862
 11
5.2089669751
 21
2.9538202862
  0
LINE
  5
2DD
100
AcDbEntity
  8
0
100
AcDbLine
 62
7
  6
CONTINUOUS
 10
5.0992628385
 20
2.9538202862
 11
4.737007437
 21
2.9538202862
  0
LINE
  5
2DE
100
AcDbEntity
  8
0
100
AcDbLine
 62
7
  6
CONTINUOUS
 10
4.6273033004
 20
2.9538202862
 11
4.2856747953
 21
2.9538202862
  0
LINE
  5
2DF
100
AcDbEntity
  8
0
100
AcDbLine
 62
7
  6
CONTINUOUS
 10
4.1759706588
 20
2.9538202862
 11
3.8746944524
 21
2.9538202862
  0
LINE
  5
2E0
100
AcDbEntity
  8
0
100
AcDbLine
 62
7
  6
CONTINUOUS
 10
3.7649903158
 20
2.9538202862
 11
3.5220282213
 21
2.9538202862
  0
LINE
  5
2E1
100
AcDbEntity
  8
0
100
AcDbLine
 62
7
  6
CONTINUOUS
 10
3.4123240847
 20
2.9538202862
 11
3.3240202783
 21
2.9538202862
  0
LINE
  5
2E2
100
AcDbEntity
  8
0
100
AcDbLine
 62
7
  6
CONTINUOUS
 10
3.3143646097
 20
2.9538202862
 11
3.2544633882
 21
2.9538202862
  0
LINE
  5
2E3
100
AcDbEntity
  8
0
100
AcDbLine
 62
7
  6
CONTINUOUS
 10
7.4677204706
 20
2.9586273491
 11
7.2569723375
 21
2.9586273491
  0
LINE
  5
2E4
100
AcDbEntity
  8
0
100
AcDbLine
 62
7
  6
CONTINUOUS
 10
7.1760334347
 20
2.9586273491
 11
7.0639517121
 21
2.9586273491
  0
LINE
  5
2E5
100
AcDbEntity
  8
0
100
AcDbLine
 62
7
  6
CONTINUOUS
 10
6.897094522
 20
2.9586273491
 11
6.7850127994
 21
2.9586273491
  0
LINE
  5
2E6
100
AcDbEntity
  8
0
100
AcDbLine
 62
7
  6
CONTINUOUS
 10
6.5444282908
 20
2.9586273491
 11
6.4323465682
 21
2.9586273491
  0
LINE
  5
2E7
100
AcDbEntity
  8
0
100
AcDbLine
 62
7
  6
CONTINUOUS
 10
6.1334479479
 20
2.9586273491
 11
6.0213662253
 21
2.9586273491
  0
LINE
  5
2E8
100
AcDbEntity
  8
0
100
AcDbLine
 62
7
  6
CONTINUOUS
 10
5.6821153063
 20
2.9586273491
 11
5.5700335837
 21
2.9586273491
  0
LINE
  5
2E9
100
AcDbEntity
  8
0
100
AcDbLine
 62
7
  6
CONTINUOUS
 10
5.2101557681
 20
2.9586273491
 11
5.0980740455
 21
2.9586273491
  0
LINE
  5
2EA
100
AcDbEntity
  8
0
100
AcDbLine
 62
7
  6
CONTINUOUS
 10
4.73819623
 20
2.9586273491
 11
4.6261145074
 21
2.9586273491
  0
LINE
  5
2EB
100
AcDbEntity
  8
0
100
AcDbLine
 62
7
  6
CONTINUOUS
 10
4.2868635884
 20
2.9586273491
 11
4.1747818657
 21
2.9586273491
  0
LINE
  5
2EC
100
AcDbEntity
  8
0
100
AcDbLine
 62
7
  6
CONTINUOUS
 10
3.8758832454
 20
2.9586273491
 11
3.7638015228
 21
2.9586273491
  0
LINE
  5
2ED
100
AcDbEntity
  8
0
100
AcDbLine
 62
7
  6
CONTINUOUS
 10
3.5232170143
 20
2.9586273491
 11
3.4111352917
 21
2.9586273491
  0
LINE
  5
2EE
100
AcDbEntity
  8
0
100
AcDbLine
 62
7
  6
CONTINUOUS
 10
3.2442781015
 20
2.9586273491
 11
3.1321963789
 21
2.9586273491
  0
LINE
  5
2EF
100
AcDbEntity
  8
0
100
AcDbLine
 62
7
  6
CONTINUOUS
 10
3.0512574761
 20
2.9586273491
 11
2.840509343
 21
2.9586273491
  0
LINE
  5
2F0
100
AcDbEntity
  8
0
100
AcDbLine
 62
7
  6
CONTINUOUS
 10
2.1041149068
 20
2.9697491984
 11
8.2041149068
 21
2.9697491984
  0
LINE
  5
2F1
100
AcDbEntity
  8
0
100
AcDbLine
 62
7
  6
CONTINUOUS
 10
2.0541149068
 20
3.0197491984
 11
8.2541149068
 21
3.0197491984
  0
LINE
  5
2F2
100
AcDbEntity
  8
02___PRT_ALL_AXES
100
AcDbLine
 62
7
  6
CONTINUOUS
 10
8.2541149068
 20
3.0897491984
 11
2.0541149068
 21
3.0897491984
  0
LINE
  5
2F3
100
AcDbEntity
  8
0
100
AcDbLine
 62
7
  6
CONTINUOUS
 10
4.1155807112
 20
2.901871807
 11
4.1180740455
 21
2.8686273491
  0
LINE
  5
2F4
100
AcDbEntity
  8
0
100
AcDbLine
 62
7
  6
CONTINUOUS
 10
3.8227859751
 20
2.9097491984
 11
3.8215768364
 21
2.8936273491
  0
LINE
  5
2F5
100
AcDbEntity
  8
0
100
AcDbLine
 62
7
  6
CONTINUOUS
 10
3.8767173841
 20
2.9697491984
 11
3.8758832454
 21
2.9586273491
  0
LINE
  5
2F6
100
AcDbEntity
  8
02___PRT_ALL_AXES
100
AcDbLine
 62
7
  6
CONTINUOUS
 10
8.1940875898
 20
3.1667491984
 11
2.1141422239
 21
3.1667491984
  0
LINE
  5
2F7
100
AcDbEntity
  8
02___PRT_ALL_AXES
100
AcDbLine
 62
7
  6
CONTINUOUS
 10
8.0941149068
 20
3.2107491984
 11
2.2141149068
 21
3.2107491984
  0
LINE
  5
2F8
100
AcDbEntity
  8
0
100
AcDbLine
 62
7
  6
CONTINUOUS
 10
4.1739477271
 20
2.9697491984
 11
4.1747818657
 21
2.9586273491
  0
LINE
  5
2F9
100
AcDbEntity
  8
0
100
AcDbLine
 62
7
  6
CONTINUOUS
 10
4.1759464895
 20
2.9519947632
 11
4.1780740455
 21
2.9236273491
  0
LINE
  5
2FA
100
AcDbEntity
  8
0
100
AcDbLine
 62
7
  6
CONTINUOUS
 10
4.1905177895
 20
2.9099703669
 11
4.1917435159
 21
2.8936273491
  0
LINE
  5
2FB
100
AcDbEntity
  8
0
100
AcDbLine
 62
7
  6
CONTINUOUS
 10
4.2485350111
 20
2.8797491984
 11
4.2493691498
 21
2.8686273491
  0
LINE
  5
2FC
100
AcDbEntity
  8
0
100
AcDbLine
 62
7
  6
CONTINUOUS
 10
3.9107815592
 20
2.9463242619
 11
3.9090792908
 21
2.9236273491
  0
LINE
  5
2FD
100
AcDbEntity
  8
0
100
AcDbLine
 62
7
  6
CONTINUOUS
 10
3.9908744245
 20
2.9178203579
 11
3.9890599488
 21
2.8936273491
  0
LINE
  5
2FE
100
AcDbEntity
  8
02___PRT_ALL_AXES
100
AcDbLine
 62
7
  6
CONTINUOUS
 10
7.8766149068
 20
3.5197491984
 11
2.4316149068
 21
3.5197491984
  0
LINE
  5
2FF
100
AcDbEntity
  8
0
100
AcDbLine
 62
7
  6
CONTINUOUS
 10
4.4441149068
 20
4.7297491984
 11
4.4441149068
 21
4.7783868823
  0
LINE
  5
300
100
AcDbEntity
  8
0
100
AcDbLine
 62
7
  6
CONTINUOUS
 10
4.4441149068
 20
5.0851115145
 11
4.4441149068
 21
5.1297491984
  0
LINE
  5
301
100
AcDbEntity
  8
0
100
AcDbLine
 62
7
  6
CONTINUOUS
 10
4.2309899068
 20
2.8797491984
 11
4.2301557681
 21
2.8686273491
  0
LINE
  5
302
100
AcDbEntity
  8
0
100
AcDbLine
 62
7
  6
CONTINUOUS
 10
4.2876977271
 20
2.9697491984
 11
4.2868635884
 21
2.9586273491
  0
LINE
  5
303
100
AcDbEntity
  8
0
100
AcDbLine
 62
7
  6
CONTINUOUS
 10
4.2920320139
 20
2.9486439595
 11
4.2901557681
 21
2.9236273491
  0
LINE
  5
304
100
AcDbEntity
  8
0
100
AcDbLine
 62
7
  6
CONTINUOUS
 10
4.3056998616
 20
2.9186223242
 11
4.3038252385
 21
2.8936273491
  0
LINE
  5
305
100
AcDbEntity
  8
0
100
AcDbLine
 62
7
  6
CONTINUOUS
 10
4.6056404338
 20
2.9010755053
 11
4.6080740455
 21
2.8686273491
  0
LINE
  5
306
100
AcDbEntity
  8
0
100
AcDbLine
 62
7
  6
CONTINUOUS
 10
4.6136851211
 20
2.9221676472
 11
4.6158256434
 21
2.8936273491
  0
LINE
  5
307
100
AcDbEntity
  8
0
100
AcDbLine
 62
7
  6
CONTINUOUS
 10
4.6197110435
 20
2.9521068033
 11
4.6218470025
 21
2.9236273491
  0
LINE
  5
308
100
AcDbEntity
  8
0
100
AcDbLine
 62
7
  6
CONTINUOUS
 10
4.6252803687
 20
2.9697491984
 11
4.6261145074
 21
2.9586273491
  0
LINE
  5
309
100
AcDbEntity
  8
0
100
AcDbLine
 62
7
  6
CONTINUOUS
 10
4.5741149068
 20
5.8086349161
 11
4.5741149068
 21
6.0233331616
  0
LINE
  5
30A
100
AcDbEntity
  8
0
100
AcDbLine
 62
7
  6
CONTINUOUS
 10
4.6041149068
 20
6.1310194352
 11
4.6041149068
 21
6.0410194352
  0
LINE
  5
30B
100
AcDbEntity
  8
0
100
AcDbLine
 62
7
  6
CONTINUOUS
 10
4.6041149068
 20
5.790949445
 11
4.6041149068
 21
5.7010194352
  0
LINE
  5
30C
100
AcDbEntity
  8
0
100
AcDbLine
 62
7
  6
CONTINUOUS
 10
4.6227241608
 20
5.0454010791
 11
4.6227241608
 21
4.8180973176
  0
LINE
  5
30D
100
AcDbEntity
  8
0
100
AcDbLine
 62
7
  6
CONTINUOUS
 10
4.6773683538
 20
4.8180973176
 11
4.6773683538
 21
5.0454010791
  0
LINE
  5
30E
100
AcDbEntity
  8
ALL_FEATURES
100
AcDbLine
 62
7
  6
CONTINUOUS
 10
4.7166149068
 20
5.5088915849
 11
4.7166149068
 21
5.6810194352
  0
LINE
  5
30F
100
AcDbEntity
  8
0
100
AcDbLine
 62
7
  6
CONTINUOUS
 10
4.3636313148
 20
2.8976999138
 11
4.3614508724
 21
2.8686273491
  0
LINE
  5
310
100
AcDbEntity
  8
0
100
AcDbLine
 62
7
  6
CONTINUOUS
 10
2.4459611989
 20
3.9960460958
 11
7.8622686147
 21
3.9960460958
  0
LINE
  5
311
100
AcDbEntity
  8
0
100
AcDbLine
 62
7
  6
CONTINUOUS
 10
2.466514075
 20
4.0236211039
 11
7.8417157387
 21
4.0236211039
  0
LINE
  5
312
100
AcDbEntity
  8
0
100
AcDbLine
 62
7
  6
CONTINUOUS
 10
4.7366038767
 20
4.8180973176
 11
4.7366038767
 21
5.0454010791
  0
LINE
  5
313
100
AcDbEntity
  8
0
100
AcDbLine
 62
7
  6
CONTINUOUS
 10
4.7998602591
 20
4.8180973176
 11
4.7998602591
 21
5.0454010791
  0
LINE
  5
314
100
AcDbEntity
  8
0
100
AcDbLine
 62
7
  6
CONTINUOUS
 10
4.8665283074
 20
4.8180973176
 11
4.8665283074
 21
5.0454010791
  0
LINE
  5
315
100
AcDbEntity
  8
0
100
AcDbLine
 62
7
  6
CONTINUOUS
 10
4.9359659719
 20
4.8180973176
 11
4.9359659719
 21
5.0454010791
  0
LINE
  5
316
100
AcDbEntity
  8
0
100
AcDbLine
 62
7
  6
CONTINUOUS
 10
4.7211745599
 20
2.8822112387
 11
4.7201557681
 21
2.8686273491
  0
LINE
  5
317
100
AcDbEntity
  8
0
100
AcDbLine
 62
7
  6
CONTINUOUS
 10
4.7294360785
 20
2.9140101813
 11
4.7279073661
 21
2.8936273491
  0
LINE
  5
318
100
AcDbEntity
  8
0
100
AcDbLine
 62
7
  6
CONTINUOUS
 10
4.7358963547
 20
2.9498624099
 11
4.7339287252
 21
2.9236273491
  0
LINE
  5
319
100
AcDbEntity
  8
0
100
AcDbLine
 62
7
  6
CONTINUOUS
 10
4.7390303687
 20
2.9697491984
 11
4.73819623
 21
2.9586273491
  0
LINE
  5
31A
100
AcDbEntity
  8
0
100
AcDbLine
 62
7
  6
CONTINUOUS
 10
4.735830543
 20
2.8851439745
 11
4.7338417961
 21
2.8586273491
  0
LINE
  5
31B
100
AcDbEntity
  8
ALL_FEATURES
100
AcDbLine
 62
7
  6
CONTINUOUS
 10
5.5244112571
 20
5.3638157854
 11
5.5365509817
 21
5.37595551
  0
LINE
  5
31C
100
AcDbEntity
  8
0
100
AcDbLine
 62
7
  6
CONTINUOUS
 10
2.6379045846
 20
4.1611312107
 11
7.6703252291
 21
4.1611312107
  0
LINE
  5
31D
100
AcDbEntity
  8
0
100
AcDbLine
 62
7
  6
CONTINUOUS
 10
2.6636610147
 20
4.1757491984
 11
7.6445687989
 21
4.1757491984
  0
LINE
  5
31E
100
AcDbEntity
  8
0
100
AcDbLine
 62
7
  6
CONTINUOUS
 10
7.5691149068
 20
4.2057491984
 11
2.7391149068
 21
4.2057491984
  0
LINE
  5
31F
100
AcDbEntity
  8
0
100
AcDbLine
 62
7
  6
CONTINUOUS
 10
2.7391149068
 20
4.2264709298
 11
7.5691149068
 21
4.2264709298
  0
LINE
  5
320
100
AcDbEntity
  8
0
100
AcDbLine
 62
7
  6
CONTINUOUS
 10
2.7672394567
 20
4.2564122505
 11
7.5409903569
 21
4.2564122505
  0
LINE
  5
321
100
AcDbEntity
  8
0
100
AcDbLine
 62
7
  6
CONTINUOUS
 10
6.6854391179
 20
2.9449921885
 11
6.6851016498
 21
2.9452208796
  0
LINE
  5
322
100
AcDbEntity
  8
0
100
AcDbLine
 62
7
  6
CONTINUOUS
 10
5.0959942617
 20
2.8863578
 11
5.0980740455
 21
2.8586273491
  0
LINE
  5
323
100
AcDbEntity
  8
0
100
AcDbLine
 62
7
  6
CONTINUOUS
 10
5.095734028
 20
2.8998275828
 11
5.0980740455
 21
2.8686273491
  0
LINE
  5
324
100
AcDbEntity
  8
0
100
AcDbLine
 62
7
  6
CONTINUOUS
 10
5.0960258643
 20
2.9209364321
 11
5.0980740455
 21
2.8936273491
  0
LINE
  5
325
100
AcDbEntity
  8
0
100
AcDbLine
 62
7
  6
CONTINUOUS
 10
5.0960184543
 20
2.9510352322
 11
5.0980740455
 21
2.9236273491
  0
LINE
  5
326
100
AcDbEntity
  8
0
100
AcDbLine
 62
7
  6
CONTINUOUS
 10
5.0972399068
 20
2.9697491984
 11
5.0980740455
 21
2.9586273491
  0
LINE
  5
327
100
AcDbEntity
  8
0
100
AcDbLine
 62
7
  6
CONTINUOUS
 10
5.0075045298
 20
4.8180973176
 11
5.0075045298
 21
5.0454010791
  0
LINE
  5
328
100
AcDbEntity
  8
0
100
AcDbLine
 62
7
  6
CONTINUOUS
 10
5.0804550259
 20
4.8180973176
 11
5.0804550259
 21
5.0454010791
  0
LINE
  5
329
100
AcDbEntity
  8
0
100
AcDbLine
 62
7
  6
CONTINUOUS
 10
5.1541149068
 20
4.8180973176
 11
5.1541149068
 21
5.0454010791
  0
LINE
  5
32A
100
AcDbEntity
  8
0
100
AcDbLine
 62
7
  6
CONTINUOUS
 10
5.2277747878
 20
4.8180973176
 11
5.2277747878
 21
5.0454010791
  0
LINE
  5
32B
100
AcDbEntity
  8
0
100
AcDbLine
 62
7
  6
CONTINUOUS
 10
5.3007252838
 20
4.8180973176
 11
5.3007252838
 21
5.0454010791
  0
LINE
  5
32C
100
AcDbEntity
  8
0
100
AcDbLine
 62
7
  6
CONTINUOUS
 10
5.3722638418
 20
4.8180973176
 11
5.3722638418
 21
5.0454010791
  0
LINE
  5
32D
100
AcDbEntity
  8
0
100
AcDbLine
 62
7
  6
CONTINUOUS
 10
5.2109899068
 20
2.9697491984
 11
5.2101557681
 21
2.9586273491
  0
LINE
  5
32E
100
AcDbEntity
  8
0
100
AcDbLine
 62
7
  6
CONTINUOUS
 10
5.2122120222
 20
2.95104407
 11
5.2101557681
 21
2.9236273491
  0
LINE
  5
32F
100
AcDbEntity
  8
0
100
AcDbLine
 62
7
  6
CONTINUOUS
 10
5.2122039133
 20
2.9209359515
 11
5.2101557681
 21
2.8936273491
  0
LINE
  5
330
100
AcDbEntity
  8
0
100
AcDbLine
 62
7
  6
CONTINUOUS
 10
5.2124956728
 20
2.8998260783
 11
5.2101557681
 21
2.8686273491
  0
LINE
  5
331
100
AcDbEntity
  8
0
100
AcDbLine
 62
7
  6
CONTINUOUS
 10
5.2122355803
 20
2.8863581774
 11
5.2101557681
 21
2.8586273491
  0
LINE
  5
332
100
AcDbEntity
  8
0
100
AcDbLine
 62
7
  6
CONTINUOUS
 10
4.3984722409
 20
4.7152824297
 11
5.9097575728
 21
4.7152824297
  0
LINE
  5
333
100
AcDbEntity
  8
0
100
AcDbLine
 62
7
  6
CONTINUOUS
 10
4.4441149068
 20
4.7297491984
 11
5.8641149068
 21
4.7297491984
  0
LINE
  5
334
100
AcDbEntity
  8
0
100
AcDbLine
 62
7
  6
CONTINUOUS
 10
5.572399262
 20
2.88514409
 11
5.5743880176
 21
2.8586273491
  0
LINE
  5
335
100
AcDbEntity
  8
0
100
AcDbLine
 62
7
  6
CONTINUOUS
 10
5.569199445
 20
2.9697491984
 11
5.5700335837
 21
2.9586273491
  0
LINE
  5
336
100
AcDbEntity
  8
0
100
AcDbLine
 62
7
  6
CONTINUOUS
 10
5.5723335475
 20
2.9498612291
 11
5.5743010885
 21
2.9236273491
  0
LINE
  5
337
100
AcDbEntity
  8
0
100
AcDbLine
 62
7
  6
CONTINUOUS
 10
5.5787937352
 20
2.9140101813
 11
5.5803224476
 21
2.8936273491
  0
LINE
  5
338
100
AcDbEntity
  8
0
100
AcDbLine
 62
7
  6
CONTINUOUS
 10
5.5870552538
 20
2.8822112387
 11
5.5880740455
 21
2.8686273491
  0
LINE
  5
339
100
AcDbEntity
  8
0
100
AcDbLine
 62
7
  6
CONTINUOUS
 10
5.4417015063
 20
4.8180973176
 11
5.4417015063
 21
5.0454010791
  0
LINE
  5
33A
100
AcDbEntity
  8
0
100
AcDbLine
 62
7
  6
CONTINUOUS
 10
5.5083695546
 20
4.8180973176
 11
5.5083695546
 21
5.0454010791
  0
LINE
  5
33B
100
AcDbEntity
  8
0
100
AcDbLine
 62
7
  6
CONTINUOUS
 10
5.5716259369
 20
4.8180973176
 11
5.5716259369
 21
5.0454010791
  0
LINE
  5
33C
100
AcDbEntity
  8
ALL_FEATURES
100
AcDbLine
 62
7
  6
CONTINUOUS
 10
5.5916149068
 20
5.5088915849
 11
5.5916149068
 21
5.6810194352
  0
LINE
  5
33D
100
AcDbEntity
  8
0
100
AcDbLine
 62
7
  6
CONTINUOUS
 10
5.6308614599
 20
4.8180973176
 11
5.6308614599
 21
5.0454010791
  0
LINE
  5
33E
100
AcDbEntity
  8
0
100
AcDbLine
 62
7
  6
CONTINUOUS
 10
4.4441149068
 20
4.7783868823
 11
5.8641149068
 21
4.7783868823
  0
LINE
  5
33F
100
AcDbEntity
  8
ALL_FEATURES
100
AcDbLine
 62
7
  6
CONTINUOUS
 10
4.7838185566
 20
5.3638157854
 11
4.771678832
 21
5.37595551
  0
LINE
  5
340
100
AcDbEntity
  8
0
100
AcDbLine
 62
7
  6
CONTINUOUS
 10
6.3127390388
 20
2.9174189913
 11
6.3127107262
 21
2.9174739027
  0
LINE
  5
341
100
AcDbEntity
  8
0
100
AcDbLine
 62
7
  6
CONTINUOUS
 10
5.9446010304
 20
2.8976661598
 11
5.9467789412
 21
2.8686273491
  0
LINE
  5
342
100
AcDbEntity
  8
0
100
AcDbLine
 62
7
  6
CONTINUOUS
 10
6.0025299499
 20
2.9186223529
 11
6.0044045752
 21
2.8936273491
  0
LINE
  5
343
100
AcDbEntity
  8
0
100
AcDbLine
 62
7
  6
CONTINUOUS
 10
5.6855056529
 20
4.8180973176
 11
5.6855056529
 21
5.0454010791
  0
LINE
  5
344
100
AcDbEntity
  8
0
100
AcDbLine
 62
7
  6
CONTINUOUS
 10
5.7041149068
 20
6.1310194352
 11
5.7041149068
 21
6.0410194352
  0
LINE
  5
345
100
AcDbEntity
  8
0
100
AcDbLine
 62
7
  6
CONTINUOUS
 10
5.7041149068
 20
5.790949445
 11
5.7041149068
 21
5.7010194352
  0
LINE
  5
346
100
AcDbEntity
  8
0
100
AcDbLine
 62
7
  6
CONTINUOUS
 10
5.7341149068
 20
5.8086349161
 11
5.7341149068
 21
6.0233331815
  0
LINE
  5
347
100
AcDbEntity
  8
0
100
AcDbLine
 62
7
  6
CONTINUOUS
 10
5.8641149068
 20
4.7297491984
 11
5.8641149068
 21
4.7783868823
  0
LINE
  5
348
100
AcDbEntity
  8
0
100
AcDbLine
 62
7
  6
CONTINUOUS
 10
5.8641149068
 20
5.0851115145
 11
5.8641149068
 21
5.1297491984
  0
LINE
  5
349
100
AcDbEntity
  8
0
100
AcDbLine
 62
7
  6
CONTINUOUS
 10
5.682949445
 20
2.9697491984
 11
5.6821153063
 21
2.9586273491
  0
LINE
  5
34A
100
AcDbEntity
  8
0
100
AcDbLine
 62
7
  6
CONTINUOUS
 10
5.6885183971
 20
2.9521018281
 11
5.6863828111
 21
2.9236273491
  0
LINE
  5
34B
100
AcDbEntity
  8
0
100
AcDbLine
 62
7
  6
CONTINUOUS
 10
5.6945446473
 20
2.922167044
 11
5.6924041702
 21
2.8936273491
  0
LINE
  5
34C
100
AcDbEntity
  8
0
100
AcDbLine
 62
7
  6
CONTINUOUS
 10
5.7025894293
 20
2.9010761641
 11
5.7001557681
 21
2.8686273491
  0
LINE
  5
34D
100
AcDbEntity
  8
0
100
AcDbLine
 62
7
  6
CONTINUOUS
 10
4.4441149068
 20
5.0851115145
 11
5.8641149068
 21
5.0851115145
  0
LINE
  5
34E
100
AcDbEntity
  8
0
100
AcDbLine
 62
7
  6
CONTINUOUS
 10
4.4441149068
 20
5.1297491984
 11
5.8641149068
 21
5.1297491984
  0
LINE
  5
34F
100
AcDbEntity
  8
0
100
AcDbLine
 62
7
  6
CONTINUOUS
 10
4.5041149068
 20
5.1897491984
 11
5.8041149068
 21
5.1897491984
  0
LINE
  5
350
100
AcDbEntity
  8
0
100
AcDbLine
 62
7
  6
CONTINUOUS
 10
6.0161977719
 20
2.9486443314
 11
6.0180740455
 21
2.9236273491
  0
LINE
  5
351
100
AcDbEntity
  8
0
100
AcDbLine
 62
7
  6
CONTINUOUS
 10
6.0205320866
 20
2.9697491984
 11
6.0213662253
 21
2.9586273491
  0
LINE
  5
352
100
AcDbEntity
  8
0
100
AcDbLine
 62
7
  6
CONTINUOUS
 10
6.0772399068
 20
2.8797491984
 11
6.0780740455
 21
2.8686273491
  0
LINE
  5
353
100
AcDbEntity
  8
ALL_FEATURES
100
AcDbLine
 62
7
  6
CONTINUOUS
 10
5.5209636459
 20
5.2543505389
 11
4.7872661677
 21
5.2543505389
  0
LINE
  5
354
100
AcDbEntity
  8
ALL_FEATURES
100
AcDbLine
 62
7
  6
CONTINUOUS
 10
5.5244112571
 20
5.3638157854
 11
4.7838185566
 21
5.3638157854
  0
LINE
  5
355
100
AcDbEntity
  8
ALL_FEATURES
100
AcDbLine
 62
7
  6
CONTINUOUS
 10
4.771678832
 20
5.37595551
 11
5.5365509817
 21
5.37595551
  0
LINE
  5
356
100
AcDbEntity
  8
0
100
AcDbLine
 62
7
  6
CONTINUOUS
 10
6.3173552479
 20
2.9178222419
 11
6.3191698649
 21
2.8936273491
  0
LINE
  5
357
100
AcDbEntity
  8
0
100
AcDbLine
 62
7
  6
CONTINUOUS
 10
6.3974484456
 20
2.9463217138
 11
6.3991505229
 21
2.9236273491
  0
LINE
  5
358
100
AcDbEntity
  8
0
100
AcDbLine
 62
7
  6
CONTINUOUS
 10
6.4315124295
 20
2.9697491984
 11
6.4323465682
 21
2.9586273491
  0
LINE
  5
359
100
AcDbEntity
  8
0
100
AcDbLine
 62
7
  6
CONTINUOUS
 10
6.0596948025
 20
2.8797491984
 11
6.0588606638
 21
2.8686273491
  0
LINE
  5
35A
100
AcDbEntity
  8
0
100
AcDbLine
 62
7
  6
CONTINUOUS
 10
6.1177120241
 20
2.9099703669
 11
6.1164862978
 21
2.8936273491
  0
LINE
  5
35B
100
AcDbEntity
  8
0
100
AcDbLine
 62
7
  6
CONTINUOUS
 10
6.1322834528
 20
2.9519964782
 11
6.1301557681
 21
2.9236273491
  0
LINE
  5
35C
100
AcDbEntity
  8
0
100
AcDbLine
 62
7
  6
CONTINUOUS
 10
6.1342820866
 20
2.9697491984
 11
6.1334479479
 21
2.9586273491
  0
LINE
  5
35D
100
AcDbEntity
  8
0
100
AcDbLine
 62
7
  6
CONTINUOUS
 10
6.1926491025
 20
2.901871807
 11
6.1901557681
 21
2.8686273491
  0
LINE
  5
35E
100
AcDbEntity
  8
ALL_FEATURES
100
AcDbLine
 62
7
  6
CONTINUOUS
 10
4.7166149068
 20
5.5088915849
 11
5.5916149068
 21
5.5088915849
  0
LINE
  5
35F
100
AcDbEntity
  8
0
100
AcDbLine
 62
7
  6
CONTINUOUS
 10
4.6241149068
 20
5.6810194352
 11
5.6841149067
 21
5.6810194352
  0
LINE
  5
360
100
AcDbEntity
  8
0
100
AcDbLine
 62
7
  6
CONTINUOUS
 10
6.4854438386
 20
2.9097491984
 11
6.4866529773
 21
2.8936273491
  0
LINE
  5
361
100
AcDbEntity
  8
0
100
AcDbLine
 62
7
  6
CONTINUOUS
 10
6.6899142031
 20
2.9455818211
 11
6.6915607885
 21
2.9236273491
  0
LINE
  5
362
100
AcDbEntity
  8
0
100
AcDbLine
 62
7
  6
CONTINUOUS
 10
6.4324607262
 20
2.9097491984
 11
6.4312515875
 21
2.8936273491
  0
LINE
  5
363
100
AcDbEntity
  8
0
100
AcDbLine
 62
7
  6
CONTINUOUS
 10
4.6041149068
 20
5.7010194352
 11
5.7041149068
 21
5.7010194352
  0
LINE
  5
364
100
AcDbEntity
  8
0
100
AcDbLine
 62
7
  6
CONTINUOUS
 10
4.6041149068
 20
5.790949445
 11
5.7041149068
 21
5.790949445
  0
LINE
  5
365
100
AcDbEntity
  8
0
100
AcDbLine
 62
7
  6
CONTINUOUS
 10
6.7841786607
 20
2.9697491984
 11
6.7850127994
 21
2.9586273491
  0
LINE
  5
366
100
AcDbEntity
  8
0
100
AcDbLine
 62
7
  6
CONTINUOUS
 10
6.8737934272
 20
2.9447491984
 11
6.8753775659
 21
2.9236273491
  0
LINE
  5
367
100
AcDbEntity
  8
0
100
AcDbLine
 62
7
  6
CONTINUOUS
 10
6.5128163842
 20
2.9447491984
 11
6.5112322455
 21
2.9236273491
  0
LINE
  5
368
100
AcDbEntity
  8
0
100
AcDbLine
 62
7
  6
CONTINUOUS
 10
6.5452624295
 20
2.9697491984
 11
6.5444282908
 21
2.9586273491
  0
LINE
  5
369
100
AcDbEntity
  8
0
100
AcDbLine
 62
7
  6
CONTINUOUS
 10
6.6010269036
 20
2.9241900659
 11
6.5987346999
 21
2.8936273491
  0
LINE
  5
36A
100
AcDbEntity
  8
0
100
AcDbLine
 62
7
  6
CONTINUOUS
 10
5.9403198025
 20
2.8973450677
 11
5.940347473
 21
2.8973810869
  0
LINE
  5
36B
100
AcDbEntity
  8
0
100
AcDbLine
 62
7
  6
CONTINUOUS
 10
4.6041149068
 20
6.0410194352
 11
5.7041149068
 21
6.0410194352
  0
LINE
  5
36C
100
AcDbEntity
  8
0
100
AcDbLine
 62
7
  6
CONTINUOUS
 10
4.6041149068
 20
6.1310194352
 11
5.7041149068
 21
6.1310194352
  0
LINE
  5
36D
100
AcDbEntity
  8
0
100
AcDbLine
 62
7
  6
CONTINUOUS
 10
4.6241149068
 20
6.1510194352
 11
5.684114903
 21
6.1510194352
  0
LINE
  5
36E
100
AcDbEntity
  8
0
100
AcDbLine
 62
7
  6
CONTINUOUS
 10
7.0631175734
 20
2.9697491984
 11
7.0639517121
 21
2.9586273491
  0
LINE
  5
36F
100
AcDbEntity
  8
0
100
AcDbLine
 62
7
  6
CONTINUOUS
 10
6.8052266498
 20
2.9447491984
 11
6.8036425111
 21
2.9236273491
  0
LINE
  5
370
100
AcDbEntity
  8
0
100
AcDbLine
 62
7
  6
CONTINUOUS
 10
6.8979286607
 20
2.9697491984
 11
6.897094522
 21
2.9586273491
  0
LINE
  5
371
100
AcDbEntity
  8
0
100
AcDbLine
 62
7
  6
CONTINUOUS
 10
6.6051938386
 20
2.9241681907
 11
6.6051934465
 21
2.9241659431
  0
LINE
  5
372
100
AcDbEntity
  8
0
100
AcDbLine
 62
7
  6
CONTINUOUS
 10
7.2561381988
 20
2.9697491984
 11
7.2569723375
 21
2.9586273491
  0
LINE
  5
373
100
AcDbEntity
  8
0
100
AcDbLine
 62
7
  6
CONTINUOUS
 10
6.9897381929
 20
2.9540127413
 11
6.9874592885
 21
2.9236273491
  0
LINE
  5
374
100
AcDbEntity
  8
0
100
AcDbLine
 62
7
  6
CONTINUOUS
 10
7.0524125497
 20
2.9537177697
 11
7.0501557681
 21
2.9236273491
  0
LINE
  5
375
100
AcDbEntity
  8
0
100
AcDbLine
 62
7
  6
CONTINUOUS
 10
7.1768675734
 20
2.9697491984
 11
7.1760334347
 21
2.9586273491
  0
LINE
  5
376
100
AcDbEntity
  8
0
100
AcDbLine
 62
7
  6
CONTINUOUS
 10
7.3698881988
 20
2.9697491984
 11
7.3690540601
 21
2.9586273491
  0
LINE
  5
377
100
AcDbEntity
  8
0
100
AcDbLine
 62
7
  6
CONTINUOUS
 10
7.5691149068
 20
4.2057491984
 11
7.5691149068
 21
4.2264709298
  0
LINE
  5
378
100
AcDbEntity
  8
0
100
AcDbLine
 62
7
  6
CONTINUOUS
 10
7.4685546093
 20
2.9697491984
 11
7.4677204706
 21
2.9586273491
  0
LINE
  5
379
100
AcDbEntity
  8
0
100
AcDbLine
 62
7
  6
CONTINUOUS
 10
6.9939184272
 20
2.9538754214
 11
6.9938652039
 21
2.9538202862
  0
LINE
  5
37A
100
AcDbEntity
  8
0
100
AcDbLine
 62
7
  6
CONTINUOUS
 10
7.8766149068
 20
3.5197491984
 11
7.8622686147
 21
3.9960460958
  0
LINE
  5
37B
100
AcDbEntity
  8
0
100
AcDbLine
 62
7
  6
CONTINUOUS
 10
8.2541149068
 20
3.0197491984
 11
8.2541149068
 21
3.0897491984
  0
ARC
  5
37C
100
AcDbEntity
  8
0
100
AcDbCircle
 62
7
  6
CONTINUOUS
 10
3.4440917208
 20
3.9423181781
 40
1.0
100
AcDbArc
 50
269.4373403101
 51
270.0
  0
ARC
  5
37D
100
AcDbEntity
  8
0
100
AcDbCircle
 62
7
  6
CONTINUOUS
 10
3.3322335515
 20
3.9507844526
 40
1.0
100
AcDbArc
 50
264.9207319491
 51
265.3758736767
  0
ARC
  5
37E
100
AcDbEntity
  8
02___PRT_ALL_AXES
100
AcDbCircle
 62
7
  6
CONTINUOUS
 10
1.9300442172
 20
3.6417491984
 40
0.5161948825
100
AcDbArc
 50
303.3887459958
 51
346.3290898985
  0
ARC
  5
37F
100
AcDbEntity
  8
02___PRT_ALL_AXES
100
AcDbCircle
 62
7
  6
CONTINUOUS
 10
2.0345173985
 20
3.4832395639
 40
0.326352975
100
AcDbArc
 50
284.1217849628
 51
303.3887459958
  0
ARC
  5
380
100
AcDbEntity
  8
0
100
AcDbCircle
 62
7
  6
CONTINUOUS
 10
2.3674620676
 20
4.3226423404
 40
0.315
100
AcDbArc
 50
288.3276633269
 51
329.1539047059
  0
ARC
  5
381
100
AcDbEntity
  8
02___PRT_ALL_AXES
100
AcDbCircle
 62
7
  6
CONTINUOUS
 10
2.1335144141
 20
3.0897491984
 40
0.0793995073
100
AcDbArc
 50
104.1217849628
 51
180.0
  0
ARC
  5
382
100
AcDbEntity
  8
0
100
AcDbCircle
 62
7
  6
CONTINUOUS
 10
2.1041149068
 20
3.0197491984
 40
0.05
100
AcDbArc
 50
180.0
 51
270.0
  0
ARC
  5
383
100
AcDbEntity
  8
0
100
AcDbCircle
 62
7
  6
CONTINUOUS
 10
2.7091149068
 20
4.2057491984
 40
0.03
100
AcDbArc
 50
270.0000000001
 51
360.0
  0
ARC
  5
384
100
AcDbEntity
  8
0
100
AcDbCircle
 62
7
  6
CONTINUOUS
 10
2.7691149068
 20
4.2264709298
 40
0.03
100
AcDbArc
 50
93.5841830102
 51
180.0
  0
ARC
  5
385
100
AcDbEntity
  8
0
100
AcDbCircle
 62
7
  6
CONTINUOUS
 10
2.6636610147
 20
4.1457491984
 40
0.03
100
AcDbArc
 50
90.0
 51
149.1539046984
  0
ARC
  5
386
100
AcDbEntity
  8
0
100
AcDbCircle
 62
7
  6
CONTINUOUS
 10
2.4759475995
 20
3.995142891
 40
0.03
100
AcDbArc
 50
108.3276633248
 51
178.2747451243
  0
ARC
  5
387
100
AcDbEntity
  8
0
100
AcDbCircle
 62
7
  6
CONTINUOUS
 10
3.2730320352
 20
2.9247491984
 40
0.015
100
AcDbArc
 50
184.2891533288
 51
270.0
  0
ARC
  5
388
100
AcDbEntity
  8
0
100
AcDbCircle
 62
7
  6
CONTINUOUS
 10
2.937633076
 20
2.9597491984
 40
0.015
100
AcDbArc
 50
270.0
 51
303.3829468207
  0
ARC
  5
389
100
AcDbEntity
  8
0
100
AcDbCircle
 62
7
  6
CONTINUOUS
 10
2.8554673327
 20
2.9597491984
 40
0.015
100
AcDbArc
 50
184.2891533288
 51
270.0
  0
ARC
  5
38A
100
AcDbEntity
  8
0
100
AcDbCircle
 62
7
  6
CONTINUOUS
 10
3.4178942581
 20
2.9247491984
 40
0.015
100
AcDbArc
 50
270.0
 51
355.7108466712
  0
ARC
  5
38B
100
AcDbEntity
  8
0
100
AcDbCircle
 62
7
  6
CONTINUOUS
 10
3.3357285148
 20
2.9247491984
 40
0.015
100
AcDbArc
 50
184.2891533288
 51
270.0
  0
ARC
  5
38C
100
AcDbEntity
  8
0
100
AcDbCircle
 62
7
  6
CONTINUOUS
 10
3.0362994865
 20
2.9597491984
 40
0.015
100
AcDbArc
 50
270.0
 51
355.7108466712
  0
ARC
  5
38D
100
AcDbEntity
  8
0
100
AcDbCircle
 62
7
  6
CONTINUOUS
 10
2.9541337432
 20
2.9597491984
 40
0.015
100
AcDbArc
 50
184.2891533288
 51
270.0
  0
ARC
  5
38E
100
AcDbEntity
  8
0
100
AcDbCircle
 62
7
  6
CONTINUOUS
 10
3.5195452922
 20
2.9247491984
 40
0.015
100
AcDbArc
 50
184.2891533288
 51
270.0
  0
ARC
  5
38F
100
AcDbEntity
  8
0
100
AcDbCircle
 62
7
  6
CONTINUOUS
 10
3.2293201119
 20
2.9597491984
 40
0.015
100
AcDbArc
 50
270.0
 51
355.7108466712
  0
ARC
  5
390
100
AcDbEntity
  8
0
100
AcDbCircle
 62
7
  6
CONTINUOUS
 10
3.1471543686
 20
2.9597491984
 40
0.015
100
AcDbArc
 50
184.2891533288
 51
270.0
  0
ARC
  5
391
100
AcDbEntity
  8
0
100
AcDbCircle
 62
7
  6
CONTINUOUS
 10
3.5082590247
 20
2.9597491984
 40
0.015
100
AcDbArc
 50
270.0
 51
355.7108466712
  0
ARC
  5
392
100
AcDbEntity
  8
0
100
AcDbCircle
 62
7
  6
CONTINUOUS
 10
3.4260932813
 20
2.9597491984
 40
0.015
100
AcDbArc
 50
184.2891533288
 51
270.0
  0
ARC
  5
393
100
AcDbEntity
  8
0
100
AcDbCircle
 62
7
  6
CONTINUOUS
 10
2.5151149068
 20
8.2815484089
 40
4.0330246567
100
AcDbArc
 50
273.584183011
 51
297.8386883916
  0
ARC
  5
394
100
AcDbEntity
  8
0
100
AcDbCircle
 62
7
  6
CONTINUOUS
 10
3.7428738154
 20
3.9223455048
 40
1.0
100
AcDbArc
 50
262.7998578078
 51
266.542266468
  0
ARC
  5
395
100
AcDbEntity
  8
0
100
AcDbCircle
 62
7
  6
CONTINUOUS
 10
4.1534676963
 20
3.9011551583
 40
1.0
100
AcDbArc
 50
260.6244780216
 51
267.549018051
  0
ARC
  5
396
100
AcDbEntity
  8
0
100
AcDbCircle
 62
7
  6
CONTINUOUS
 10
4.2585861758
 20
2.746040071
 40
0.2054262212
100
AcDbArc
 50
82.4275283263
 51
83.0811954057
  0
ARC
  5
397
100
AcDbEntity
  8
0
100
AcDbCircle
 62
7
  6
CONTINUOUS
 10
4.3012113909
 20
2.9802345454
 40
0.0629862375
100
AcDbArc
 50
274.218991048
 51
274.8303281188
  0
ARC
  5
398
100
AcDbEntity
  8
0
100
AcDbCircle
 62
7
  6
CONTINUOUS
 10
3.906665905
 20
3.0000792112
 40
0.0552904198
100
AcDbArc
 50
274.2167558837
 51
274.916072505
  0
ARC
  5
399
100
AcDbEntity
  8
0
100
AcDbCircle
 62
7
  6
CONTINUOUS
 10
3.9071239829
 20
2.9947565912
 40
0.0499481245
100
AcDbArc
 50
274.9157704301
 51
275.3516465682
  0
ARC
  5
39A
100
AcDbEntity
  8
0
100
AcDbCircle
 62
7
  6
CONTINUOUS
 10
4.182198406
 20
2.9045628988
 40
0.048844
100
AcDbArc
 50
96.9666296204
 51
97.5326816629
  0
ARC
  5
39B
100
AcDbEntity
  8
0
100
AcDbCircle
 62
7
  6
CONTINUOUS
 10
4.2151977785
 20
2.8697491984
 40
0.015
100
AcDbArc
 50
270.0
 51
355.7108466712
  0
ARC
  5
39C
100
AcDbEntity
  8
0
100
AcDbCircle
 62
7
  6
CONTINUOUS
 10
4.1330320352
 20
2.8697491984
 40
0.015
100
AcDbArc
 50
184.2891533288
 51
270.0
  0
ARC
  5
39D
100
AcDbEntity
  8
0
100
AcDbCircle
 62
7
  6
CONTINUOUS
 10
3.8066188467
 20
2.8947491984
 40
0.015
100
AcDbArc
 50
270.0
 51
355.7108466712
  0
ARC
  5
39E
100
AcDbEntity
  8
0
100
AcDbCircle
 62
7
  6
CONTINUOUS
 10
3.7244531034
 20
2.8947491984
 40
0.015
100
AcDbArc
 50
184.2891533288
 51
270.0
  0
ARC
  5
39F
100
AcDbEntity
  8
0
100
AcDbCircle
 62
7
  6
CONTINUOUS
 10
4.3464928828
 20
2.8697491984
 40
0.015
100
AcDbArc
 50
270.0
 51
355.7108466712
  0
ARC
  5
3A0
100
AcDbEntity
  8
0
100
AcDbCircle
 62
7
  6
CONTINUOUS
 10
4.2643271395
 20
2.8697491984
 40
0.015
100
AcDbArc
 50
184.2891533288
 51
270.0
  0
ARC
  5
3A1
100
AcDbEntity
  8
0
100
AcDbCircle
 62
7
  6
CONTINUOUS
 10
3.9741019592
 20
2.8947491984
 40
0.015
100
AcDbArc
 50
270.0
 51
355.7108466712
  0
ARC
  5
3A2
100
AcDbEntity
  8
0
100
AcDbCircle
 62
7
  6
CONTINUOUS
 10
3.8919362158
 20
2.8947491984
 40
0.015
100
AcDbArc
 50
184.2891533288
 51
270.0
  0
ARC
  5
3A3
100
AcDbEntity
  8
0
100
AcDbCircle
 62
7
  6
CONTINUOUS
 10
3.6017110355
 20
2.9247491984
 40
0.015
100
AcDbArc
 50
270.0
 51
355.7108466712
  0
ARC
  5
3A4
100
AcDbEntity
  8
0
100
AcDbCircle
 62
7
  6
CONTINUOUS
 10
4.2888672488
 20
2.8947491984
 40
0.015
100
AcDbArc
 50
270.0
 51
355.7108466712
  0
ARC
  5
3A5
100
AcDbEntity
  8
0
100
AcDbCircle
 62
7
  6
CONTINUOUS
 10
4.2067015055
 20
2.8947491984
 40
0.015
100
AcDbArc
 50
184.2891533288
 51
270.0
  0
ARC
  5
3A6
100
AcDbEntity
  8
0
100
AcDbCircle
 62
7
  6
CONTINUOUS
 10
3.8941213011
 20
2.9247491984
 40
0.015
100
AcDbArc
 50
270.0
 51
355.7108466712
  0
ARC
  5
3A7
100
AcDbEntity
  8
0
100
AcDbCircle
 62
7
  6
CONTINUOUS
 10
3.8119555578
 20
2.9247491984
 40
0.015
100
AcDbArc
 50
184.2891533288
 51
270.0
  0
ARC
  5
3A8
100
AcDbEntity
  8
0
100
AcDbCircle
 62
7
  6
CONTINUOUS
 10
4.2751977785
 20
2.9247491984
 40
0.015
100
AcDbArc
 50
270.0
 51
355.7108466712
  0
ARC
  5
3A9
100
AcDbEntity
  8
0
100
AcDbCircle
 62
7
  6
CONTINUOUS
 10
4.1930320352
 20
2.9247491984
 40
0.015
100
AcDbArc
 50
184.2891533288
 51
270.0
  0
ARC
  5
3AA
100
AcDbEntity
  8
0
100
AcDbCircle
 62
7
  6
CONTINUOUS
 10
3.8609252558
 20
2.9597491984
 40
0.015
100
AcDbArc
 50
270.0
 51
355.7108466712
  0
ARC
  5
3AB
100
AcDbEntity
  8
0
100
AcDbCircle
 62
7
  6
CONTINUOUS
 10
3.7787595125
 20
2.9597491984
 40
0.015
100
AcDbArc
 50
184.2891533288
 51
270.0
  0
ARC
  5
3AC
100
AcDbEntity
  8
0
100
AcDbCircle
 62
7
  6
CONTINUOUS
 10
4.2719055987
 20
2.9597491984
 40
0.015
100
AcDbArc
 50
270.0
 51
355.7108466712
  0
ARC
  5
3AD
100
AcDbEntity
  8
0
100
AcDbCircle
 62
7
  6
CONTINUOUS
 10
4.1897398554
 20
2.9597491984
 40
0.015
100
AcDbArc
 50
184.2891533288
 51
270.0
  0
ARC
  5
3AE
100
AcDbEntity
  8
0
100
AcDbCircle
 62
7
  6
CONTINUOUS
 10
4.5640153357
 20
3.8871912675
 40
1.0
100
AcDbArc
 50
263.0335945345
 51
268.5548996513
  0
ARC
  5
3AF
100
AcDbEntity
  8
0
100
AcDbCircle
 62
7
  6
CONTINUOUS
 10
5.1044492015
 20
2.7384159449
 40
0.1483724155
100
AcDbArc
 50
93.0086831375
 51
93.2980702562
  0
ARC
  5
3B0
100
AcDbEntity
  8
0
100
AcDbCircle
 62
7
  6
CONTINUOUS
 10
4.7248428119
 20
2.8948413578
 40
0.0561302983
100
AcDbArc
 50
78.5944618152
 51
79.825630966
  0
ARC
  5
3B1
100
AcDbEntity
  8
0
100
AcDbCircle
 62
7
  6
CONTINUOUS
 10
4.7273757925
 20
2.9075858976
 40
0.0431365508
100
AcDbArc
 50
77.9038012197
 51
78.5449184748
  0
ARC
  5
3B2
100
AcDbEntity
  8
0
100
AcDbCircle
 62
7
  6
CONTINUOUS
 10
4.7188838064
 20
2.8597491984
 40
0.015
100
AcDbArc
 50
270.0
 51
355.7108466712
  0
ARC
  5
3B3
100
AcDbEntity
  8
0
100
AcDbCircle
 62
7
  6
CONTINUOUS
 10
4.6367180631
 20
2.8597491984
 40
0.015
100
AcDbArc
 50
199.4161069622
 51
270.0
  0
ARC
  5
3B4
100
AcDbEntity
  8
0
100
AcDbCircle
 62
7
  6
CONTINUOUS
 10
5.1130320352
 20
2.8597491984
 40
0.015
100
AcDbArc
 50
184.2891533288
 51
270.0
  0
ARC
  5
3B5
100
AcDbEntity
  8
0
100
AcDbCircle
 62
7
  6
CONTINUOUS
 10
4.7051977785
 20
2.8697491984
 40
0.015
100
AcDbArc
 50
270.0
 51
355.7108466712
  0
ARC
  5
3B6
100
AcDbEntity
  8
0
100
AcDbCircle
 62
7
  6
CONTINUOUS
 10
4.6230320352
 20
2.8697491984
 40
0.015
100
AcDbArc
 50
184.2891533288
 51
270.0
  0
ARC
  5
3B7
100
AcDbEntity
  8
0
100
AcDbCircle
 62
7
  6
CONTINUOUS
 10
5.1130320352
 20
2.8697491984
 40
0.015
100
AcDbArc
 50
184.2891533288
 51
270.0
  0
ARC
  5
3B8
100
AcDbEntity
  8
0
100
AcDbCircle
 62
7
  6
CONTINUOUS
 10
4.7129493764
 20
2.8947491984
 40
0.015
100
AcDbArc
 50
270.0
 51
355.7108466712
  0
ARC
  5
3B9
100
AcDbEntity
  8
0
100
AcDbCircle
 62
7
  6
CONTINUOUS
 10
4.6307836331
 20
2.8947491984
 40
0.015
100
AcDbArc
 50
184.2891533288
 51
270.0
  0
ARC
  5
3BA
100
AcDbEntity
  8
0
100
AcDbCircle
 62
7
  6
CONTINUOUS
 10
5.1130320352
 20
2.8947491984
 40
0.015
100
AcDbArc
 50
184.2891533288
 51
270.0
  0
ARC
  5
3BB
100
AcDbEntity
  8
0
100
AcDbCircle
 62
7
  6
CONTINUOUS
 10
4.7189707355
 20
2.9247491984
 40
0.015
100
AcDbArc
 50
270.0
 51
355.7108466712
  0
ARC
  5
3BC
100
AcDbEntity
  8
0
100
AcDbCircle
 62
7
  6
CONTINUOUS
 10
4.6368049922
 20
2.9247491984
 40
0.015
100
AcDbArc
 50
184.2891533288
 51
270.0
  0
ARC
  5
3BD
100
AcDbEntity
  8
0
100
AcDbCircle
 62
7
  6
CONTINUOUS
 10
5.1130320352
 20
2.9247491984
 40
0.015
100
AcDbArc
 50
184.2891533288
 51
270.0
  0
ARC
  5
3BE
100
AcDbEntity
  8
0
100
AcDbCircle
 62
7
  6
CONTINUOUS
 10
4.7232382403
 20
2.9597491984
 40
0.015
100
AcDbArc
 50
270.0
 51
355.7108466712
  0
ARC
  5
3BF
100
AcDbEntity
  8
0
100
AcDbCircle
 62
7
  6
CONTINUOUS
 10
4.641072497
 20
2.9597491984
 40
0.015
100
AcDbArc
 50
184.2891533288
 51
270.0
  0
ARC
  5
3C0
100
AcDbEntity
  8
0
100
AcDbCircle
 62
7
  6
CONTINUOUS
 10
5.1130320352
 20
2.9597491984
 40
0.015
100
AcDbArc
 50
184.2891533288
 51
270.0
  0
ARC
  5
3C1
100
AcDbEntity
  8
ALL_FEATURES
100
AcDbCircle
 62
7
  6
CONTINUOUS
 10
4.9046149068
 20
5.5088915849
 40
0.188
100
AcDbArc
 50
180.0
 51
225.0
  0
ARC
  5
3C2
100
AcDbEntity
  8
0
100
AcDbCircle
 62
7
  6
CONTINUOUS
 10
4.5511149068
 20
4.9317491984
 40
0.187
100
AcDbArc
 50
217.428005543
 51
235.096741672
  0
ARC
  5
3C3
100
AcDbEntity
  8
0
100
AcDbCircle
 62
7
  6
CONTINUOUS
 10
4.5511149068
 20
4.9317491984
 40
0.187
100
AcDbArc
 50
124.903258328
 51
142.571994457
  0
ARC
  5
3C4
100
AcDbEntity
  8
0
100
AcDbCircle
 62
7
  6
CONTINUOUS
 10
4.54121999
 20
4.932463372
 40
0.1760007253
100
AcDbArc
 50
140.0821298859
 51
140.7977646756
  0
ARC
  5
3C5
100
AcDbEntity
  8
0
100
AcDbCircle
 62
7
  6
CONTINUOUS
 10
4.5411941018
 20
4.9310136385
 40
0.1759671467
100
AcDbArc
 50
219.2021670099
 51
219.9179383979
  0
ARC
  5
3C6
100
AcDbEntity
  8
0
100
AcDbCircle
 62
7
  6
CONTINUOUS
 10
4.5418145943
 20
4.938899982
 40
0.1752684703
100
AcDbArc
 50
142.5805487444
 51
146.1137421071
  0
ARC
  5
3C7
100
AcDbEntity
  8
0
100
AcDbCircle
 62
7
  6
CONTINUOUS
 10
4.5418145933
 20
4.924598414
 40
0.1752684691
100
AcDbArc
 50
213.8862598957
 51
217.4194512631
  0
ARC
  5
3C8
100
AcDbEntity
  8
0
100
AcDbCircle
 62
7
  6
CONTINUOUS
 10
4.5413674099
 20
4.9242776378
 40
0.1747183949
100
AcDbArc
 50
213.8806962795
 51
217.4250149036
  0
ARC
  5
3C9
100
AcDbEntity
  8
0
100
AcDbCircle
 62
7
  6
CONTINUOUS
 10
4.5413674092
 20
4.9392207595
 40
0.174718394
100
AcDbArc
 50
142.5749851033
 51
146.1193057723
  0
ARC
  5
3CA
100
AcDbEntity
  8
0
100
AcDbCircle
 62
7
  6
CONTINUOUS
 10
4.4568452206
 20
4.6047491984
 40
0.125
100
AcDbArc
 50
96.1863732249
 51
117.8386883915
  0
ARC
  5
3CB
100
AcDbEntity
  8
ALL_FEATURES
100
AcDbCircle
 62
7
  6
CONTINUOUS
 10
4.7272500141
 20
5.3072472429
 40
0.08
100
AcDbArc
 50
318.6078718925
 51
45.0
  0
ARC
  5
3CC
100
AcDbEntity
  8
0
100
AcDbCircle
 62
7
  6
CONTINUOUS
 10
4.5041149068
 20
5.1297491984
 40
0.06
100
AcDbArc
 50
90.0
 51
180.0
  0
ARC
  5
3CD
100
AcDbEntity
  8
0
100
AcDbCircle
 62
7
  6
CONTINUOUS
 10
4.6576149068
 20
5.9159844401
 40
0.136
100
AcDbArc
 50
232.1228405771
 51
246.8348763163
  0
ARC
  5
3CE
100
AcDbEntity
  8
0
100
AcDbCircle
 62
7
  6
CONTINUOUS
 10
4.6576149068
 20
5.9159844401
 40
0.136
100
AcDbArc
 50
113.1651236837
 51
127.8771594229
  0
ARC
  5
3CF
100
AcDbEntity
  8
0
100
AcDbCircle
 62
7
  6
CONTINUOUS
 10
4.6241149068
 20
6.1310194352
 40
0.02
100
AcDbArc
 50
90.0
 51
180.0
  0
ARC
  5
3D0
100
AcDbEntity
  8
0
100
AcDbCircle
 62
7
  6
CONTINUOUS
 10
4.6241149068
 20
5.7010194352
 40
0.02
100
AcDbArc
 50
180.0
 51
270.0
  0
ARC
  5
3D1
100
AcDbEntity
  8
0
100
AcDbCircle
 62
7
  6
CONTINUOUS
 10
5.6211743203
 20
1.7100962801
 40
1.176085342
100
AcDbArc
 50
91.8422320549
 51
92.0938321058
  0
ARC
  5
3D2
100
AcDbEntity
  8
0
100
AcDbCircle
 62
7
  6
CONTINUOUS
 10
5.6757779805
 20
2.7213068409
 40
0.2026047891
100
AcDbArc
 50
85.8694126283
 51
86.9923885899
  0
ARC
  5
3D3
100
AcDbEntity
  8
0
100
AcDbCircle
 62
7
  6
CONTINUOUS
 10
5.2034100344
 20
2.7314890359
 40
0.1553092524
100
AcDbArc
 50
86.7355793892
 51
86.99205438
  0
ARC
  5
3D4
100
AcDbEntity
  8
0
100
AcDbCircle
 62
7
  6
CONTINUOUS
 10
5.2024674404
 20
2.8040078198
 40
0.0969275882
100
AcDbArc
 50
84.0253041485
 51
85.0946457253
  0
ARC
  5
3D5
100
AcDbEntity
  8
0
100
AcDbCircle
 62
7
  6
CONTINUOUS
 10
5.5827932493
 20
2.8979390515
 40
0.052976346
100
AcDbArc
 50
100.148920528
 51
101.4443584939
  0
ARC
  5
3D6
100
AcDbEntity
  8
0
100
AcDbCircle
 62
7
  6
CONTINUOUS
 10
5.5805886288
 20
2.9088492136
 40
0.0418456691
100
AcDbArc
 50
101.4497874527
 51
102.1176189534
  0
ARC
  5
3D7
100
AcDbEntity
  8
0
100
AcDbCircle
 62
7
  6
CONTINUOUS
 10
5.6715117506
 20
2.8597491984
 40
0.015
100
AcDbArc
 50
270.0
 51
340.5838930378
  0
ARC
  5
3D8
100
AcDbEntity
  8
0
100
AcDbCircle
 62
7
  6
CONTINUOUS
 10
5.5893460073
 20
2.8597491984
 40
0.015
100
AcDbArc
 50
184.2891533288
 51
270.0
  0
ARC
  5
3D9
100
AcDbEntity
  8
0
100
AcDbCircle
 62
7
  6
CONTINUOUS
 10
5.1951977785
 20
2.8597491984
 40
0.015
100
AcDbArc
 50
270.0
 51
355.7108466712
  0
ARC
  5
3DA
100
AcDbEntity
  8
0
100
AcDbCircle
 62
7
  6
CONTINUOUS
 10
5.6851977785
 20
2.8697491984
 40
0.015
100
AcDbArc
 50
270.0
 51
355.7108466712
  0
ARC
  5
3DB
100
AcDbEntity
  8
0
100
AcDbCircle
 62
7
  6
CONTINUOUS
 10
5.6030320352
 20
2.8697491984
 40
0.015
100
AcDbArc
 50
184.2891533288
 51
270.0
  0
ARC
  5
3DC
100
AcDbEntity
  8
0
100
AcDbCircle
 62
7
  6
CONTINUOUS
 10
5.1951977785
 20
2.8697491984
 40
0.015
100
AcDbArc
 50
270.0
 51
355.7108466712
  0
ARC
  5
3DD
100
AcDbEntity
  8
0
100
AcDbCircle
 62
7
  6
CONTINUOUS
 10
5.6774461806
 20
2.8947491984
 40
0.015
100
AcDbArc
 50
270.0
 51
355.7108466712
  0
ARC
  5
3DE
100
AcDbEntity
  8
0
100
AcDbCircle
 62
7
  6
CONTINUOUS
 10
5.5952804373
 20
2.8947491984
 40
0.015
100
AcDbArc
 50
184.2891533288
 51
270.0
  0
ARC
  5
3DF
100
AcDbEntity
  8
0
100
AcDbCircle
 62
7
  6
CONTINUOUS
 10
5.1951977785
 20
2.8947491984
 40
0.015
100
AcDbArc
 50
270.0
 51
355.7108466712
  0
ARC
  5
3E0
100
AcDbEntity
  8
0
100
AcDbCircle
 62
7
  6
CONTINUOUS
 10
5.6714248215
 20
2.9247491984
 40
0.015
100
AcDbArc
 50
270.0
 51
355.7108466712
  0
ARC
  5
3E1
100
AcDbEntity
  8
0
100
AcDbCircle
 62
7
  6
CONTINUOUS
 10
5.5892590782
 20
2.9247491984
 40
0.015
100
AcDbArc
 50
184.2891533288
 51
270.0
  0
ARC
  5
3E2
100
AcDbEntity
  8
0
100
AcDbCircle
 62
7
  6
CONTINUOUS
 10
5.1951977785
 20
2.9247491984
 40
0.015
100
AcDbArc
 50
270.0
 51
355.7108466712
  0
ARC
  5
3E3
100
AcDbEntity
  8
0
100
AcDbCircle
 62
7
  6
CONTINUOUS
 10
5.6671573166
 20
2.9597491984
 40
0.015
100
AcDbArc
 50
270.0
 51
355.7108466712
  0
ARC
  5
3E4
100
AcDbEntity
  8
0
100
AcDbCircle
 62
7
  6
CONTINUOUS
 10
5.5849915733
 20
2.9597491984
 40
0.015
100
AcDbArc
 50
184.2891533288
 51
270.0
  0
ARC
  5
3E5
100
AcDbEntity
  8
0
100
AcDbCircle
 62
7
  6
CONTINUOUS
 10
5.1951977785
 20
2.9597491984
 40
0.015
100
AcDbArc
 50
270.0
 51
355.7108466712
  0
ARC
  5
3E6
100
AcDbEntity
  8
0
100
AcDbCircle
 62
7
  6
CONTINUOUS
 10
5.7442144779
 20
3.8871912675
 40
1.0
100
AcDbArc
 50
271.4451003487
 51
276.9664054655
  0
ARC
  5
3E7
100
AcDbEntity
  8
ALL_FEATURES
100
AcDbCircle
 62
7
  6
CONTINUOUS
 10
5.1541149068
 20
4.9310194352
 40
0.489
100
AcDbArc
 50
31.9528137082
 51
41.3921281075
  0
ARC
  5
3E8
100
AcDbEntity
  8
ALL_FEATURES
100
AcDbCircle
 62
7
  6
CONTINUOUS
 10
5.1541149068
 20
4.9310194352
 40
0.489
100
AcDbArc
 50
138.6078718925
 51
148.0471862918
  0
ARC
  5
3E9
100
AcDbEntity
  8
0
100
AcDbCircle
 62
7
  6
CONTINUOUS
 10
5.7571149068
 20
4.9317491984
 40
0.187
100
AcDbArc
 50
304.903258328
 51
322.571994457
  0
ARC
  5
3EA
100
AcDbEntity
  8
0
100
AcDbCircle
 62
7
  6
CONTINUOUS
 10
5.7571149068
 20
4.9317491984
 40
0.187
100
AcDbArc
 50
37.428005543
 51
55.096741672
  0
ARC
  5
3EB
100
AcDbEntity
  8
0
100
AcDbCircle
 62
7
  6
CONTINUOUS
 10
5.7670098191
 20
4.9310350285
 40
0.1760007312
100
AcDbArc
 50
320.0821298849
 51
320.7977649318
  0
ARC
  5
3EC
100
AcDbEntity
  8
0
100
AcDbCircle
 62
7
  6
CONTINUOUS
 10
5.7670357094
 20
4.9324847561
 40
0.1759671499
100
AcDbArc
 50
39.2021668289
 51
39.917938398
  0
ARC
  5
3ED
100
AcDbEntity
  8
0
100
AcDbCircle
 62
7
  6
CONTINUOUS
 10
5.7664152194
 20
4.938899982
 40
0.1752684703
100
AcDbArc
 50
33.8862578929
 51
37.4194512556
  0
ARC
  5
3EE
100
AcDbEntity
  8
0
100
AcDbCircle
 62
7
  6
CONTINUOUS
 10
5.7664152203
 20
4.924598414
 40
0.1752684691
100
AcDbArc
 50
322.5805487369
 51
326.1137401043
  0
ARC
  5
3EF
100
AcDbEntity
  8
0
100
AcDbCircle
 62
7
  6
CONTINUOUS
 10
5.7668624037
 20
4.9242776378
 40
0.1747183949
100
AcDbArc
 50
322.5749850965
 51
326.1193037205
  0
ARC
  5
3F0
100
AcDbEntity
  8
0
100
AcDbCircle
 62
7
  6
CONTINUOUS
 10
5.7668624045
 20
4.9392207595
 40
0.174718394
100
AcDbArc
 50
33.8806942277
 51
37.4250148968
  0
ARC
  5
3F1
100
AcDbEntity
  8
0
100
AcDbCircle
 62
7
  6
CONTINUOUS
 10
5.851384593
 20
4.6047491984
 40
0.125
100
AcDbArc
 50
62.1613116085
 51
83.8136267751
  0
ARC
  5
3F2
100
AcDbEntity
  8
0
100
AcDbCircle
 62
7
  6
CONTINUOUS
 10
6.0485103326
 20
2.7549269613
 40
0.1964674999
100
AcDbArc
 50
96.9051938807
 51
97.5845166351
  0
ARC
  5
3F3
100
AcDbEntity
  8
0
100
AcDbCircle
 62
7
  6
CONTINUOUS
 10
6.4017392012
 20
3.0022738904
 40
0.0574920489
100
AcDbArc
 50
265.0973101727
 51
265.7700056469
  0
ARC
  5
3F4
100
AcDbEntity
  8
0
100
AcDbCircle
 62
7
  6
CONTINUOUS
 10
6.1258990861
 20
2.9034700474
 40
0.0499454634
100
AcDbArc
 50
82.526193393
 51
83.029731037
  0
ARC
  5
3F5
100
AcDbEntity
  8
0
100
AcDbCircle
 62
7
  6
CONTINUOUS
 10
6.1751977785
 20
2.8697491984
 40
0.015
100
AcDbArc
 50
270.0
 51
355.7108466712
  0
ARC
  5
3F6
100
AcDbEntity
  8
0
100
AcDbCircle
 62
7
  6
CONTINUOUS
 10
6.0930320352
 20
2.8697491984
 40
0.015
100
AcDbArc
 50
184.2891533288
 51
270.0
  0
ARC
  5
3F7
100
AcDbEntity
  8
0
100
AcDbCircle
 62
7
  6
CONTINUOUS
 10
6.5837767102
 20
2.8947491984
 40
0.015
100
AcDbArc
 50
270.0
 51
355.7108466712
  0
ARC
  5
3F8
100
AcDbEntity
  8
0
100
AcDbCircle
 62
7
  6
CONTINUOUS
 10
6.5016109669
 20
2.8947491984
 40
0.015
100
AcDbArc
 50
184.2891533288
 51
270.0
  0
ARC
  5
3F9
100
AcDbEntity
  8
0
100
AcDbCircle
 62
7
  6
CONTINUOUS
 10
6.0439026742
 20
2.8697491984
 40
0.015
100
AcDbArc
 50
270.0
 51
355.7108466712
  0
ARC
  5
3FA
100
AcDbEntity
  8
0
100
AcDbCircle
 62
7
  6
CONTINUOUS
 10
5.9617369309
 20
2.8697491984
 40
0.015
100
AcDbArc
 50
184.2891533288
 51
270.0
  0
ARC
  5
3FB
100
AcDbEntity
  8
0
100
AcDbCircle
 62
7
  6
CONTINUOUS
 10
6.4162935978
 20
2.8947491984
 40
0.015
100
AcDbArc
 50
270.0
 51
355.7108466712
  0
ARC
  5
3FC
100
AcDbEntity
  8
0
100
AcDbCircle
 62
7
  6
CONTINUOUS
 10
6.3341278545
 20
2.8947491984
 40
0.015
100
AcDbArc
 50
184.2891533288
 51
270.0
  0
ARC
  5
3FD
100
AcDbEntity
  8
0
100
AcDbCircle
 62
7
  6
CONTINUOUS
 10
6.7065187781
 20
2.9247491984
 40
0.015
100
AcDbArc
 50
184.2891533288
 51
270.0
  0
ARC
  5
3FE
100
AcDbEntity
  8
0
100
AcDbCircle
 62
7
  6
CONTINUOUS
 10
6.1015283082
 20
2.8947491984
 40
0.015
100
AcDbArc
 50
270.0
 51
355.7108466712
  0
ARC
  5
3FF
100
AcDbEntity
  8
0
100
AcDbCircle
 62
7
  6
CONTINUOUS
 10
6.0193625648
 20
2.8947491984
 40
0.015
100
AcDbArc
 50
184.2891533288
 51
270.0
  0
ARC
  5
400
100
AcDbEntity
  8
0
100
AcDbCircle
 62
7
  6
CONTINUOUS
 10
6.4962742559
 20
2.9247491984
 40
0.015
100
AcDbArc
 50
270.0
 51
355.7108466712
  0
ARC
  5
401
100
AcDbEntity
  8
0
100
AcDbCircle
 62
7
  6
CONTINUOUS
 10
6.4141085126
 20
2.9247491984
 40
0.015
100
AcDbArc
 50
184.2891533288
 51
270.0
  0
ARC
  5
402
100
AcDbEntity
  8
0
100
AcDbCircle
 62
7
  6
CONTINUOUS
 10
6.1151977785
 20
2.9247491984
 40
0.015
100
AcDbArc
 50
270.0
 51
355.7108466712
  0
ARC
  5
403
100
AcDbEntity
  8
0
100
AcDbCircle
 62
7
  6
CONTINUOUS
 10
6.0330320352
 20
2.9247491984
 40
0.015
100
AcDbArc
 50
184.2891533288
 51
270.0
  0
ARC
  5
404
100
AcDbEntity
  8
0
100
AcDbCircle
 62
7
  6
CONTINUOUS
 10
6.5294703012
 20
2.9597491984
 40
0.015
100
AcDbArc
 50
270.0
 51
355.7108466712
  0
ARC
  5
405
100
AcDbEntity
  8
0
100
AcDbCircle
 62
7
  6
CONTINUOUS
 10
6.4473045579
 20
2.9597491984
 40
0.015
100
AcDbArc
 50
184.2891533288
 51
270.0
  0
ARC
  5
406
100
AcDbEntity
  8
0
100
AcDbCircle
 62
7
  6
CONTINUOUS
 10
6.1184899583
 20
2.9597491984
 40
0.015
100
AcDbArc
 50
270.0
 51
355.7108466712
  0
ARC
  5
407
100
AcDbEntity
  8
0
100
AcDbCircle
 62
7
  6
CONTINUOUS
 10
6.036324215
 20
2.9597491984
 40
0.015
100
AcDbArc
 50
184.2891533288
 51
270.0
  0
ARC
  5
408
100
AcDbEntity
  8
0
100
AcDbCircle
 62
7
  6
CONTINUOUS
 10
6.5653559982
 20
3.9223455048
 40
1.0
100
AcDbArc
 50
273.457733532
 51
277.2001421922
  0
ARC
  5
409
100
AcDbEntity
  8
0
100
AcDbCircle
 62
7
  6
CONTINUOUS
 10
6.1547621174
 20
3.9011551583
 40
1.0
100
AcDbArc
 50
272.450981949
 51
279.3755219784
  0
ARC
  5
40A
100
AcDbEntity
  8
ALL_FEATURES
100
AcDbCircle
 62
7
  6
CONTINUOUS
 10
5.4036149068
 20
5.5088915849
 40
0.188
100
AcDbArc
 50
315.0
 51
360.0
  0
ARC
  5
40B
100
AcDbEntity
  8
0
100
AcDbCircle
 62
7
  6
CONTINUOUS
 10
5.6506149068
 20
5.9159844401
 40
0.136
100
AcDbArc
 50
52.1228405771
 51
66.8348763163
  0
ARC
  5
40C
100
AcDbEntity
  8
0
100
AcDbCircle
 62
7
  6
CONTINUOUS
 10
5.6506149068
 20
5.9159844401
 40
0.136
100
AcDbArc
 50
293.1651236837
 51
307.8771594229
  0
ARC
  5
40D
100
AcDbEntity
  8
ALL_FEATURES
100
AcDbCircle
 62
7
  6
CONTINUOUS
 10
5.5809797996
 20
5.3072472429
 40
0.08
100
AcDbArc
 50
135.0
 51
221.3921281075
  0
ARC
  5
40E
100
AcDbEntity
  8
0
100
AcDbCircle
 62
7
  6
CONTINUOUS
 10
5.8041149068
 20
5.1297491984
 40
0.06
100
AcDbArc
 50
0.0
 51
90.0
  0
ARC
  5
40F
100
AcDbEntity
  8
0
100
AcDbCircle
 62
7
  6
CONTINUOUS
 10
5.6841149068
 20
6.1310194352
 40
0.02
100
AcDbArc
 50
0.0
 51
90.0
  0
ARC
  5
410
100
AcDbEntity
  8
0
100
AcDbCircle
 62
7
  6
CONTINUOUS
 10
5.6841149068
 20
5.7010194352
 40
0.02
100
AcDbArc
 50
270.0
 51
360.0
  0
ARC
  5
411
100
AcDbEntity
  8
0
100
AcDbCircle
 62
7
  6
CONTINUOUS
 10
6.8641380929
 20
3.9423181781
 40
1.0
100
AcDbArc
 50
270.0
 51
270.5626596899
  0
ARC
  5
412
100
AcDbEntity
  8
0
100
AcDbCircle
 62
7
  6
CONTINUOUS
 10
6.9759962622
 20
3.9507844526
 40
1.0
100
AcDbArc
 50
274.6241263233
 51
275.0792680509
  0
ARC
  5
413
100
AcDbEntity
  8
0
100
AcDbCircle
 62
7
  6
CONTINUOUS
 10
6.8208916049
 20
1.9926754238
 40
0.9616463073
100
AcDbArc
 50
92.0641049234
 51
92.505578063
  0
ARC
  5
414
100
AcDbEntity
  8
0
100
AcDbCircle
 62
7
  6
CONTINUOUS
 10
7.0202379326
 20
2.1240520515
 40
0.8305500399
100
AcDbArc
 50
92.4862114955
 51
93.0799769545
  0
ARC
  5
415
100
AcDbEntity
  8
02___PRT_ALL_AXES
100
AcDbCircle
 62
7
  6
CONTINUOUS
 10
8.3781855965
 20
3.6417491984
 40
0.5161948825
100
AcDbArc
 50
193.6709101015
 51
236.6112540042
  0
ARC
  5
416
100
AcDbEntity
  8
02___PRT_ALL_AXES
100
AcDbCircle
 62
7
  6
CONTINUOUS
 10
8.2737124151
 20
3.4832395639
 40
0.326352975
100
AcDbArc
 50
236.6112540042
 51
255.8782150372
  0
ARC
  5
417
100
AcDbEntity
  8
0
100
AcDbCircle
 62
7
  6
CONTINUOUS
 10
7.9407677461
 20
4.3226423404
 40
0.315
100
AcDbArc
 50
210.8460952941
 51
251.6723366731
  0
ARC
  5
418
100
AcDbEntity
  8
02___PRT_ALL_AXES
100
AcDbCircle
 62
7
  6
CONTINUOUS
 10
8.1747153996
 20
3.0897491984
 40
0.0793995073
100
AcDbArc
 50
0.0
 51
75.8782150372
  0
ARC
  5
419
100
AcDbEntity
  8
0
100
AcDbCircle
 62
7
  6
CONTINUOUS
 10
8.2041149068
 20
3.0197491984
 40
0.05
100
AcDbArc
 50
270.0
 51
360.0
  0
ARC
  5
41A
100
AcDbEntity
  8
0
100
AcDbCircle
 62
7
  6
CONTINUOUS
 10
7.5991149068
 20
4.2057491984
 40
0.03
100
AcDbArc
 50
180.0
 51
269.9999999999
  0
ARC
  5
41B
100
AcDbEntity
  8
0
100
AcDbCircle
 62
7
  6
CONTINUOUS
 10
7.5391149068
 20
4.2264709298
 40
0.03
100
AcDbArc
 50
0.0
 51
86.4158169898
  0
ARC
  5
41C
100
AcDbEntity
  8
0
100
AcDbCircle
 62
7
  6
CONTINUOUS
 10
7.6445687989
 20
4.1457491984
 40
0.03
100
AcDbArc
 50
30.8460953016
 51
90.0
  0
ARC
  5
41D
100
AcDbEntity
  8
0
100
AcDbCircle
 62
7
  6
CONTINUOUS
 10
7.8322822141
 20
3.995142891
 40
0.03
100
AcDbArc
 50
1.7252548757
 51
71.6723366752
  0
ARC
  5
41E
100
AcDbEntity
  8
0
100
AcDbCircle
 62
7
  6
CONTINUOUS
 10
7.0351977785
 20
2.9247491984
 40
0.015
100
AcDbArc
 50
270.0
 51
355.7108466712
  0
ARC
  5
41F
100
AcDbEntity
  8
0
100
AcDbCircle
 62
7
  6
CONTINUOUS
 10
7.452762481
 20
2.9597491984
 40
0.015
100
AcDbArc
 50
270.0
 51
355.7108466712
  0
ARC
  5
420
100
AcDbEntity
  8
0
100
AcDbCircle
 62
7
  6
CONTINUOUS
 10
7.3705967377
 20
2.9597491984
 40
0.015
100
AcDbArc
 50
236.6170531793
 51
270.0
  0
ARC
  5
421
100
AcDbEntity
  8
0
100
AcDbCircle
 62
7
  6
CONTINUOUS
 10
6.9725012989
 20
2.9247491984
 40
0.015
100
AcDbArc
 50
270.0
 51
355.7108466712
  0
ARC
  5
422
100
AcDbEntity
  8
0
100
AcDbCircle
 62
7
  6
CONTINUOUS
 10
6.8903355555
 20
2.9247491984
 40
0.015
100
AcDbArc
 50
184.2891533288
 51
270.0
  0
ARC
  5
423
100
AcDbEntity
  8
0
100
AcDbCircle
 62
7
  6
CONTINUOUS
 10
7.3540960705
 20
2.9597491984
 40
0.015
100
AcDbArc
 50
270.0
 51
355.7108466712
  0
ARC
  5
424
100
AcDbEntity
  8
0
100
AcDbCircle
 62
7
  6
CONTINUOUS
 10
7.2719303272
 20
2.9597491984
 40
0.015
100
AcDbArc
 50
184.2891533288
 51
270.0
  0
ARC
  5
425
100
AcDbEntity
  8
0
100
AcDbCircle
 62
7
  6
CONTINUOUS
 10
6.7886845215
 20
2.9247491984
 40
0.015
100
AcDbArc
 50
270.0
 51
355.7108466712
  0
ARC
  5
426
100
AcDbEntity
  8
0
100
AcDbCircle
 62
7
  6
CONTINUOUS
 10
7.1610754451
 20
2.9597491984
 40
0.015
100
AcDbArc
 50
270.0
 51
355.7108466712
  0
ARC
  5
427
100
AcDbEntity
  8
0
100
AcDbCircle
 62
7
  6
CONTINUOUS
 10
7.0789097018
 20
2.9597491984
 40
0.015
100
AcDbArc
 50
184.2891533288
 51
270.0
  0
ARC
  5
428
100
AcDbEntity
  8
0
100
AcDbCircle
 62
7
  6
CONTINUOUS
 10
6.8821365323
 20
2.9597491984
 40
0.015
100
AcDbArc
 50
270.0
 51
355.7108466712
  0
ARC
  5
429
100
AcDbEntity
  8
0
100
AcDbCircle
 62
7
  6
CONTINUOUS
 10
6.799970789
 20
2.9597491984
 40
0.015
100
AcDbArc
 50
184.2891533288
 51
270.0
  0
ARC
  5
42A
100
AcDbEntity
  8
0
100
AcDbCircle
 62
7
  6
CONTINUOUS
 10
7.7931149068
 20
8.2815484089
 40
4.0330246567
100
AcDbArc
 50
242.1613116084
 51
266.415816989
  0
ARC
  5
42B
100
AcDbEntity
  8
0
100
AcDbCircle
 62
7
  6
CONTINUOUS
 10
5.1541149068
 20
27.2786777698
 40
24.3989285714
100
AcDbArc
 50
271.2854429774
 51
271.4451003487
  0
ARC
  5
42C
100
AcDbEntity
  8
0
100
AcDbCircle
 62
7
  6
CONTINUOUS
 10
5.1541149068
 20
27.2786777698
 40
24.3989285714
100
AcDbArc
 50
273.4007197337
 51
273.457733532
  0
ARC
  5
42D
100
AcDbEntity
  8
0
100
AcDbCircle
 62
7
  6
CONTINUOUS
 10
5.1541149068
 20
27.2786777698
 40
24.3989285714
100
AcDbArc
 50
266.542266468
 51
266.5992802663
  0
ARC
  5
42E
100
AcDbEntity
  8
0
100
AcDbCircle
 62
7
  6
CONTINUOUS
 10
5.1541149068
 20
27.2786777698
 40
24.3989285714
100
AcDbArc
 50
268.5548996513
 51
268.7145570226
  0
SPLINE
  5
42F
100
AcDbEntity
  8
0
100
AcDbSpline
 62
7
  6
CONTINUOUS
 70
0
 71
3
 72
23
 73
19
 74
0
 42
0.0000001
 43
0.0000001
 44
0.0000000001
 40
0.0
 40
0.0
 40
0.0
 40
0.0
 40
0.0504668085
 40
0.1051028739
 40
0.1637020384
 40
0.2259299442
 40
0.2913657856
 40
0.3593826348
 40
0.4292225954
 40
0.5000000007
 40
0.5707774053
 40
0.6406173649
 40
0.7086342139
 40
0.7740700553
 40
0.8362979613
 40
0.8948971259
 40
0.9495331914
 40
1.0
 40
1.0
 40
1.0
 40
1.0
 10
5.7350322625
 20
4.8180973176
 30
0.0
 10
5.7354362514
 20
4.8219053635
 30
0.0
 10
5.7362065614
 20
4.829843694
 30
0.0
 10
5.7372146918
 20
4.8422248357
 30
0.0
 10
5.738104294
 20
4.8555096384
 30
0.0
 10
5.7388606531
 20
4.869623386
 30
0.0
 10
5.7394674131
 20
4.8844595795
 30
0.0
 10
5.739912686
 20
4.8998793344
 30
0.0
 10
5.7401838344
 20
4.9157085036
 30
0.0
 10
5.7402756228
 20
4.9317491985
 30
0.0
 10
5.7401838344
 20
4.9477898932
 30
0.0
 10
5.739912686
 20
4.9636190624
 30
0.0
 10
5.7394674131
 20
4.9790388171
 30
0.0
 10
5.7388606531
 20
4.9938750106
 30
0.0
 10
5.738104294
 20
5.0079887582
 30
0.0
 10
5.7372146918
 20
5.021273561
 30
0.0
 10
5.7362065614
 20
5.0336547027
 30
0.0
 10
5.7354362514
 20
5.0415930332
 30
0.0
 10
5.7350322625
 20
5.0454010791
 30
0.0
  0
SPLINE
  5
430
100
AcDbEntity
  8
0
100
AcDbSpline
 62
7
  6
CONTINUOUS
 70
0
 71
3
 72
23
 73
19
 74
0
 42
0.0000001
 43
0.0000001
 44
0.0000000001
 40
0.0
 40
0.0
 40
0.0
 40
0.0
 40
0.0509450805
 40
0.1058776346
 40
0.1646115282
 40
0.226834728
 40
0.2921500446
 40
0.3599568509
 40
0.4295252848
 40
0.5000000007
 40
0.5704747159
 40
0.6400431488
 40
0.7078499549
 40
0.7731652715
 40
0.8353884714
 40
0.8941223652
 40
0.9490549195
 40
1.0
 40
1.0
 40
1.0
 40
1.0
 10
5.7789643205
 20
4.8180973176
 30
0.0
 10
5.7797664417
 20
4.8218960535
 30
0.0
 10
5.7812974543
 20
4.8298199899
 30
0.0
 10
5.7833052544
 20
4.8422049061
 30
0.0
 10
5.7850768906
 20
4.8554934738
 30
0.0
 10
5.7865830556
 20
4.8696106191
 30
0.0
 10
5.7877912755
 20
4.8844501613
 30
0.0
 10
5.7886778967
 20
4.8998730677
 30
0.0
 10
5.7892177976
 20
4.9157054004
 30
0.0
 10
5.78940056
 20
4.9317491985
 30
0.0
 10
5.7892177976
 20
4.9477929964
 30
0.0
 10
5.7886778967
 20
4.963625329
 30
0.0
 10
5.7877912755
 20
4.9790482353
 30
0.0
 10
5.7865830556
 20
4.9938877775
 30
0.0
 10
5.7850768906
 20
5.0080049228
 30
0.0
 10
5.7833052544
 20
5.0212934906
 30
0.0
 10
5.7812974543
 20
5.0336784068
 30
0.0
 10
5.7797664417
 20
5.0416023433
 30
0.0
 10
5.7789643205
 20
5.0454010791
 30
0.0
  0
SPLINE
  5
431
100
AcDbEntity
  8
0
100
AcDbSpline
 62
7
  6
CONTINUOUS
 70
0
 71
3
 72
23
 73
19
 74
0
 42
0.0000001
 43
0.0000001
 44
0.0000000001
 40
0.0
 40
0.0
 40
0.0
 40
0.0
 40
0.0516973714
 40
0.1070995947
 40
0.1660490855
 40
0.2282672522
 40
0.2933932831
 40
0.3608679001
 40
0.4300057723
 40
0.4999999998
 40
0.5699942276
 40
0.6391320999
 40
0.706606717
 40
0.7717327478
 40
0.8339509145
 40
0.8929004053
 40
0.9483026286
 40
1.0
 40
1.0
 40
1.0
 40
1.0
 10
5.816878737
 20
4.8180973176
 30
0.0
 10
5.8180678685
 20
4.8218820972
 30
0.0
 10
5.8203408386
 20
4.8297836778
 30
0.0
 10
5.8233310847
 20
4.8421738528
 30
0.0
 10
5.825969448
 20
4.8554679347
 30
0.0
 10
5.828212238
 20
4.869590238
 30
0.0
 10
5.8300112893
 20
4.8844350061
 30
0.0
 10
5.8313314049
 20
4.8998629277
 30
0.0
 10
5.8321352688
 20
4.915700362
 30
0.0
 10
5.8324073787
 20
4.9317491983
 30
0.0
 10
5.8321352688
 20
4.9477980347
 30
0.0
 10
5.8313314049
 20
4.963635469
 30
0.0
 10
5.8300112893
 20
4.9790633906
 30
0.0
 10
5.828212238
 20
4.9939081588
 30
0.0
 10
5.825969448
 20
5.008030462
 30
0.0
 10
5.8233310847
 20
5.0213245439
 30
0.0
 10
5.8203408386
 20
5.0337147189
 30
0.0
 10
5.8180678685
 20
5.0416162995
 30
0.0
 10
5.816878737
 20
5.0454010791
 30
0.0
  0
SPLINE
  5
432
100
AcDbEntity
  8
0
100
AcDbSpline
 62
7
  6
CONTINUOUS
 70
0
 71
3
 72
23
 73
19
 74
0
 42
0.0000001
 43
0.0000001
 44
0.0000000001
 40
0.0
 40
0.0
 40
0.0
 40
0.0
 40
0.0526653055
 40
0.1086775886
 40
0.1679110514
 40
0.2301271011
 40
0.295010335
 40
0.3620544126
 40
0.4306320165
 40
0.5000000007
 40
0.5693679842
 40
0.6379455872
 40
0.7049896645
 40
0.7698728984
 40
0.8320889483
 40
0.8913224112
 40
0.9473346944
 40
1.0
 40
1.0
 40
1.0
 40
1.0
 10
5.8484103755
 20
4.8180973176
 30
0.0
 10
5.8499710462
 20
4.821865279
 30
0.0
 10
5.8529589389
 20
4.8297386403
 30
0.0
 10
5.8569052182
 20
4.8421344007
 30
0.0
 10
5.8603870138
 20
4.8554348361
 30
0.0
 10
5.8633465202
 20
4.8695634319
 30
0.0
 10
5.8657204072
 20
4.8844148581
 30
0.0
 10
5.8674622371
 20
4.8998493532
 30
0.0
 10
5.8685228896
 20
4.9156935903
 30
0.0
 10
5.8688819109
 20
4.9317491985
 30
0.0
 10
5.8685228896
 20
4.9478048065
 30
0.0
 10
5.8674622371
 20
4.9636490435
 30
0.0
 10
5.8657204072
 20
4.9790835385
 30
0.0
 10
5.8633465202
 20
4.9939349647
 30
0.0
 10
5.8603870138
 20
5.0080635605
 30
0.0
 10
5.8569052182
 20
5.021363996
 30
0.0
 10
5.8529589389
 20
5.0337597564
 30
0.0
 10
5.8499710462
 20
5.0416331177
 30
0.0
 10
5.8484103755
 20
5.0454010791
 30
0.0
  0
SPLINE
  5
433
100
AcDbEntity
  8
0
100
AcDbSpline
 62
7
  6
CONTINUOUS
 70
0
 71
3
 72
23
 73
19
 74
0
 42
0.0000001
 43
0.0000001
 44
0.0000000001
 40
0.0
 40
0.0
 40
0.0
 40
0.0
 40
0.0537818634
 40
0.110505798
 40
0.1700759961
 40
0.2322957843
 40
0.2969000037
 40
0.3634430791
 40
0.4313656234
 40
0.5000000007
 40
0.5686343772
 40
0.6365569206
 40
0.7030999957
 40
0.7677042152
 40
0.8299240035
 40
0.8894942018
 40
0.9462181365
 40
1.0
 40
1.0
 40
1.0
 40
1.0
 10
5.8732555691
 20
4.8180973176
 30
0.0
 10
5.8751688766
 20
4.8218473328
 30
0.0
 10
5.8788374282
 20
4.8296889965
 30
0.0
 10
5.8837038531
 20
4.8420896745
 30
0.0
 10
5.8879976183
 20
4.8553964202
 30
0.0
 10
5.8916471172
 20
4.8695317476
 30
0.0
 10
5.8945744577
 20
4.8843907077
 30
0.0
 10
5.8967223017
 20
4.8998329223
 30
0.0
 10
5.8980301979
 20
4.915685345
 30
0.0
 10
5.8984728954
 20
4.9317491985
 30
0.0
 10
5.898030198
 20
4.9478130519
 30
0.0
 10
5.8967223017
 20
4.9636654744
 30
0.0
 10
5.8945744577
 20
4.979107689
 30
0.0
 10
5.8916471173
 20
4.9939666491
 30
0.0
 10
5.8879976184
 20
5.0081019764
 30
0.0
 10
5.8837038531
 20
5.0214087221
 30
0.0
 10
5.8788374282
 20
5.0338094002
 30
0.0
 10
5.8751688766
 20
5.0416510639
 30
0.0
 10
5.8732555691
 20
5.0454010791
 30
0.0
  0
SPLINE
  5
434
100
AcDbEntity
  8
0
100
AcDbSpline
 62
7
  6
CONTINUOUS
 70
0
 71
3
 72
23
 73
19
 74
0
 42
0.0000001
 43
0.0000001
 44
0.0000000001
 40
0.0
 40
0.0
 40
0.0
 40
0.0
 40
0.0549798157
 40
0.1124764039
 40
0.1724187266
 40
0.2346500632
 40
0.2989564674
 40
0.3649569846
 40
0.4321662341
 40
0.5000000007
 40
0.5678337666
 40
0.6350430152
 40
0.7010435321
 40
0.7653499362
 40
0.8275812731
 40
0.8875235959
 40
0.9450201842
 40
1.0
 40
1.0
 40
1.0
 40
1.0
 10
5.8911750451
 20
4.8180973176
 30
0.0
 10
5.8934193524
 20
4.8218296317
 30
0.0
 10
5.8977281342
 20
4.8296383701
 30
0.0
 10
5.9034693469
 20
4.8420426461
 30
0.0
 10
5.9085354404
 20
4.8553549583
 30
0.0
 10
5.9128414143
 20
4.8694968372
 30
0.0
 10
5.9162954699
 20
4.8843636714
 30
0.0
 10
5.9188297526
 20
4.8998143225
 30
0.0
 10
5.920373009
 20
4.9156759485
 30
0.0
 10
5.9208953588
 20
4.9317491985
 30
0.0
 10
5.920373009
 20
4.9478224484
 30
0.0
 10
5.9188297526
 20
4.9636840742
 30
0.0
 10
5.9162954699
 20
4.9791347253
 30
0.0
 10
5.9128414144
 20
4.9940015594
 30
0.0
 10
5.9085354405
 20
5.0081434383
 30
0.0
 10
5.903469347
 20
5.0214557506
 30
0.0
 10
5.8977281342
 20
5.0338600266
 30
0.0
 10
5.8934193524
 20
5.041668765
 30
0.0
 10
5.8911750451
 20
5.0454010791
 30
0.0
  0
SPLINE
  5
435
100
AcDbEntity
  8
0
100
AcDbSpline
 62
7
  6
CONTINUOUS
 70
0
 71
3
 72
23
 73
19
 74
0
 42
0.0000001
 43
0.0000001
 44
0.0000000001
 40
0.0
 40
0.0
 40
0.0
 40
0.0
 40
0.1144229474
 40
0.1747637878
 40
0.2370240059
 40
0.3010386632
 40
0.3336160782
 40
0.3665029824
 40
0.4329852746
 40
0.5000000007
 40
0.5670147261
 40
0.6334970173
 40
0.6663839213
 40
0.6989613363
 40
0.7629759936
 40
0.8252362118
 40
0.8855770524
 40
1.0
 40
1.0
 40
1.0
 40
1.0
 10
5.9019962289
 20
4.8180973176
 30
0.0
 10
5.9071902582
 20
4.8256618249
 30
0.0
 10
5.9142185684
 20
4.8378696926
 30
0.0
 10
5.921802782
 20
4.8553116016
 30
0.0
 10
5.9267255864
 20
4.86946044
 30
0.0
 10
5.9299976593
 20
4.8817850828
 30
0.0
 10
5.932102023
 20
4.8919551411
 30
0.0
 10
5.933860671
 20
4.9023914903
 30
0.0
 10
5.9353360992
 20
4.9156660278
 30
0.0
 10
5.9359333861
 20
4.9317491985
 30
0.0
 10
5.9353360993
 20
4.947832369
 30
0.0
 10
5.933860671
 20
4.9611069064
 30
0.0
 10
5.932102023
 20
4.9715432555
 30
0.0
 10
5.9299976594
 20
4.9817133138
 30
0.0
 10
5.9267255864
 20
4.9940379566
 30
0.0
 10
5.921802782
 20
5.0081867951
 30
0.0
 10
5.9142185684
 20
5.0256287041
 30
0.0
 10
5.9071902582
 20
5.0378365718
 30
0.0
 10
5.9019962289
 20
5.0454010791
 30
0.0
  0
SPLINE
  5
436
100
AcDbEntity
  8
0
100
AcDbSpline
 62
7
  6
CONTINUOUS
 70
0
 71
3
 72
23
 73
19
 74
0
 42
0.0000001
 43
0.0000001
 44
0.0000000001
 40
0.0
 40
0.0
 40
0.0
 40
0.0
 40
0.058089298
 40
0.117665813
 40
0.17867793
 40
0.2410331935
 40
0.304608748
 40
0.3691562763
 40
0.4344009416
 40
0.4999999983
 40
0.5655990548
 40
0.63084372
 40
0.6953912485
 40
0.7589668035
 40
0.8213220676
 40
0.8823341853
 40
0.9419107011
 40
1.0
 40
1.0
 40
1.0
 40
1.0
 10
5.9119136414
 20
4.8268781718
 30
0.0
 10
5.9143109598
 20
4.830447259
 30
0.0
 10
5.9189048292
 20
4.8378567736
 30
0.0
 10
5.9250393226
 20
4.8495855803
 30
0.0
 10
5.9304199678
 20
4.8620247271
 30
0.0
 10
5.9349664274
 20
4.8751064425
 30
0.0
 10
5.9385953333
 20
4.8887430191
 30
0.0
 10
5.9412474963
 20
4.9028207075
 30
0.0
 10
5.9428565893
 20
4.9172062353
 30
0.0
 10
5.9434012974
 20
4.9317491949
 30
0.0
 10
5.9428565898
 20
4.9462921545
 30
0.0
 10
5.9412474974
 20
4.9606776823
 30
0.0
 10
5.9385953348
 20
4.9747553708
 30
0.0
 10
5.9349664294
 20
4.9883919477
 30
0.0
 10
5.9304199702
 20
5.0014736634
 30
0.0
 10
5.9250393254
 20
5.0139128105
 30
0.0
 10
5.9189048324
 20
5.0256416176
 30
0.0
 10
5.9143109632
 20
5.0330511324
 30
0.0
 10
5.9119136448
 20
5.0366202198
 30
0.0
  0
SPLINE
  5
437
100
AcDbEntity
  8
0
100
AcDbSpline
 62
7
  6
CONTINUOUS
 70
0
 71
3
 72
23
 73
19
 74
0
 42
0.0000001
 43
0.0000001
 44
0.0000000001
 40
0.0
 40
0.0
 40
0.0
 40
0.0
 40
0.0504668086
 40
0.1051028746
 40
0.1637020409
 40
0.2259299482
 40
0.2913657893
 40
0.3593826377
 40
0.4292225959
 40
0.4999999991
 40
0.5707774032
 40
0.6406173626
 40
0.7086342113
 40
0.7740700524
 40
0.8362979596
 40
0.8948971256
 40
0.9495331914
 40
1.0
 40
1.0
 40
1.0
 40
1.0
 10
4.5731975511
 20
5.0454010791
 30
0.0
 10
4.5727935623
 20
5.0415930332
 30
0.0
 10
4.5720232522
 20
5.0336547027
 30
0.0
 10
4.5710151218
 20
5.0212735608
 30
0.0
 10
4.5701255196
 20
5.0079887578
 30
0.0
 10
4.5693691606
 20
4.9938750099
 30
0.0
 10
4.5687624005
 20
4.9790388164
 30
0.0
 10
4.5683171276
 20
4.9636190618
 30
0.0
 10
4.5680459793
 20
4.9477898929
 30
0.0
 10
4.5679541908
 20
4.9317491985
 30
0.0
 10
4.5680459793
 20
4.915708504
 30
0.0
 10
4.5683171276
 20
4.8998793349
 30
0.0
 10
4.5687624005
 20
4.8844595802
 30
0.0
 10
4.5693691606
 20
4.8696233867
 30
0.0
 10
4.5701255196
 20
4.8555096389
 30
0.0
 10
4.5710151218
 20
4.8422248359
 30
0.0
 10
4.5720232522
 20
4.829843694
 30
0.0
 10
4.5727935623
 20
4.8219053635
 30
0.0
 10
4.5731975511
 20
4.8180973176
 30
0.0
  0
SPLINE
  5
438
100
AcDbEntity
  8
0
100
AcDbSpline
 62
7
  6
CONTINUOUS
 70
0
 71
3
 72
23
 73
19
 74
0
 42
0.0000001
 43
0.0000001
 44
0.0000000001
 40
0.0
 40
0.0
 40
0.0
 40
0.0
 40
0.0509450806
 40
0.1058776353
 40
0.1646115307
 40
0.2268347321
 40
0.2921500483
 40
0.3599568537
 40
0.4295252852
 40
0.4999999991
 40
0.5704747138
 40
0.6400431465
 40
0.7078499523
 40
0.7731652686
 40
0.8353884698
 40
0.8941223649
 40
0.9490549195
 40
1.0
 40
1.0
 40
1.0
 40
1.0
 10
4.5292654932
 20
5.0454010791
 30
0.0
 10
4.528463372
 20
5.0416023432
 30
0.0
 10
4.5269323593
 20
5.0336784068
 30
0.0
 10
4.5249245592
 20
5.0212934904
 30
0.0
 10
4.523152923
 20
5.0080049224
 30
0.0
 10
4.521646758
 20
4.9938877769
 30
0.0
 10
4.5204385381
 20
4.9790482346
 30
0.0
 10
4.5195519169
 20
4.9636253285
 30
0.0
 10
4.5190120161
 20
4.9477929962
 30
0.0
 10
4.5188292536
 20
4.9317491985
 30
0.0
 10
4.5190120161
 20
4.9157054007
 30
0.0
 10
4.5195519169
 20
4.8998730682
 30
0.0
 10
4.5204385381
 20
4.884450162
 30
0.0
 10
4.521646758
 20
4.8696106197
 30
0.0
 10
4.523152923
 20
4.8554934742
 30
0.0
 10
4.5249245592
 20
4.8422049063
 30
0.0
 10
4.5269323593
 20
4.8298199899
 30
0.0
 10
4.528463372
 20
4.8218960535
 30
0.0
 10
4.5292654932
 20
4.8180973176
 30
0.0
  0
SPLINE
  5
439
100
AcDbEntity
  8
0
100
AcDbSpline
 62
7
  6
CONTINUOUS
 70
0
 71
3
 72
23
 73
19
 74
0
 42
0.0000001
 43
0.0000001
 44
0.0000000001
 40
0.0
 40
0.0
 40
0.0
 40
0.0
 40
0.0516973517
 40
0.1070995378
 40
0.1660489906
 40
0.2282671316
 40
0.2933931797
 40
0.3608678121
 40
0.4300057268
 40
0.5000000001
 40
0.5699942732
 40
0.6391321878
 40
0.7066068202
 40
0.7717328685
 40
0.8339510094
 40
0.8929004622
 40
0.9483026483
 40
1.0
 40
1.0
 40
1.0
 40
1.0
 10
4.4913510767
 20
5.0454010791
 30
0.0
 10
4.4901619456
 20
5.041616301
 30
0.0
 10
4.4878889762
 20
5.0337147248
 30
0.0
 10
4.4848987317
 20
5.0213245568
 30
0.0
 10
4.4822603694
 20
5.0080304826
 30
0.0
 10
4.4800175786
 20
4.9939081831
 30
0.0
 10
4.4782185274
 20
4.9790634144
 30
0.0
 10
4.4768984092
 20
4.9636354872
 30
0.0
 10
4.4760945459
 20
4.9477980449
 30
0.0
 10
4.4758224344
 20
4.9317491984
 30
0.0
 10
4.4760945459
 20
4.9157003518
 30
0.0
 10
4.4768984093
 20
4.8998629095
 30
0.0
 10
4.4782185274
 20
4.8844349823
 30
0.0
 10
4.4800175786
 20
4.8695902136
 30
0.0
 10
4.4822603694
 20
4.8554679141
 30
0.0
 10
4.4848987317
 20
4.8421738399
 30
0.0
 10
4.4878889762
 20
4.829783672
 30
0.0
 10
4.4901619456
 20
4.8218820957
 30
0.0
 10
4.4913510767
 20
4.8180973176
 30
0.0
  0
SPLINE
  5
43A
100
AcDbEntity
  8
0
100
AcDbSpline
 62
7
  6
CONTINUOUS
 70
0
 71
3
 72
23
 73
19
 74
0
 42
0.0000001
 43
0.0000001
 44
0.0000000001
 40
0.0
 40
0.0
 40
0.0
 40
0.0
 40
0.0526653056
 40
0.1086775894
 40
0.1679110538
 40
0.2301271051
 40
0.2950103387
 40
0.3620544153
 40
0.430632017
 40
0.4999999991
 40
0.5693679821
 40
0.6379455849
 40
0.7049896619
 40
0.7698728956
 40
0.8320889466
 40
0.8913224109
 40
0.9473346945
 40
1.0
 40
1.0
 40
1.0
 40
1.0
 10
4.4598194382
 20
5.0454010791
 30
0.0
 10
4.4582587674
 20
5.0416331177
 30
0.0
 10
4.4552708748
 20
5.0337597564
 30
0.0
 10
4.4513245954
 20
5.0213639958
 30
0.0
 10
4.4478427998
 20
5.00806356
 30
0.0
 10
4.4448832933
 20
4.993934964
 30
0.0
 10
4.4425094063
 20
4.9790835378
 30
0.0
 10
4.4407675765
 20
4.9636490429
 30
0.0
 10
4.439706924
 20
4.9478048063
 30
0.0
 10
4.4393479028
 20
4.9317491985
 30
0.0
 10
4.439706924
 20
4.9156935907
 30
0.0
 10
4.4407675765
 20
4.8998493538
 30
0.0
 10
4.4425094064
 20
4.8844148588
 30
0.0
 10
4.4448832934
 20
4.8695634326
 30
0.0
 10
4.4478427998
 20
4.8554348366
 30
0.0
 10
4.4513245954
 20
4.8421344009
 30
0.0
 10
4.4552708748
 20
4.8297386403
 30
0.0
 10
4.4582587674
 20
4.821865279
 30
0.0
 10
4.4598194382
 20
4.8180973176
 30
0.0
  0
SPLINE
  5
43B
100
AcDbEntity
  8
0
100
AcDbSpline
 62
7
  6
CONTINUOUS
 70
0
 71
3
 72
23
 73
19
 74
0
 42
0.0000001
 43
0.0000001
 44
0.0000000001
 40
0.0
 40
0.0
 40
0.0
 40
0.0
 40
0.0537818635
 40
0.1105057987
 40
0.1700759986
 40
0.2322957883
 40
0.2969000074
 40
0.3634430818
 40
0.4313656239
 40
0.4999999992
 40
0.5686343752
 40
0.6365569184
 40
0.7030999932
 40
0.7677042124
 40
0.8299240019
 40
0.8894942015
 40
0.9462181365
 40
1.0
 40
1.0
 40
1.0
 40
1.0
 10
4.4349742445
 20
5.0454010791
 30
0.0
 10
4.433060937
 20
5.0416510639
 30
0.0
 10
4.4293923854
 20
5.0338094002
 30
0.0
 10
4.4245259605
 20
5.0214087219
 30
0.0
 10
4.4202321952
 20
5.0081019759
 30
0.0
 10
4.4165826963
 20
4.9939666484
 30
0.0
 10
4.4136553558
 20
4.9791076883
 30
0.0
 10
4.4115075119
 20
4.9636654739
 30
0.0
 10
4.4101996156
 20
4.9478130516
 30
0.0
 10
4.4097569183
 20
4.9317491985
 30
0.0
 10
4.4101996157
 20
4.9156853453
 30
0.0
 10
4.4115075119
 20
4.8998329229
 30
0.0
 10
4.4136553558
 20
4.8843907083
 30
0.0
 10
4.4165826963
 20
4.8695317482
 30
0.0
 10
4.4202321952
 20
4.8553964207
 30
0.0
 10
4.4245259605
 20
4.8420896747
 30
0.0
 10
4.4293923854
 20
4.8296889965
 30
0.0
 10
4.433060937
 20
4.8218473328
 30
0.0
 10
4.4349742445
 20
4.8180973176
 30
0.0
  0
SPLINE
  5
43C
100
AcDbEntity
  8
0
100
AcDbSpline
 62
7
  6
CONTINUOUS
 70
0
 71
3
 72
23
 73
19
 74
0
 42
0.0000001
 43
0.0000001
 44
0.0000000001
 40
0.0
 40
0.0
 40
0.0
 40
0.0
 40
0.0549798158
 40
0.1124764046
 40
0.1724187291
 40
0.2346500672
 40
0.2989564711
 40
0.3649569873
 40
0.4321662345
 40
0.4999999992
 40
0.5678337646
 40
0.635043013
 40
0.7010435295
 40
0.7653499334
 40
0.8275812714
 40
0.8875235956
 40
0.9450201843
 40
1.0
 40
1.0
 40
1.0
 40
1.0
 10
4.4170547686
 20
5.0454010791
 30
0.0
 10
4.4148104613
 20
5.041668765
 30
0.0
 10
4.4105016794
 20
5.0338600265
 30
0.0
 10
4.4047604666
 20
5.0214557504
 30
0.0
 10
4.3996943731
 20
5.0081434379
 30
0.0
 10
4.3953883992
 20
4.9940015587
 30
0.0
 10
4.3919343435
 20
4.9791347246
 30
0.0
 10
4.3894000611
 20
4.9636840737
 30
0.0
 10
4.3878568046
 20
4.9478224481
 30
0.0
 10
4.3873344549
 20
4.9317491985
 30
0.0
 10
4.3878568046
 20
4.9156759488
 30
0.0
 10
4.389400061
 20
4.899814323
 30
0.0
 10
4.3919343436
 20
4.884363672
 30
0.0
 10
4.3953883992
 20
4.8694968379
 30
0.0
 10
4.3996943731
 20
4.8553549587
 30
0.0
 10
4.4047604666
 20
4.8420426463
 30
0.0
 10
4.4105016794
 20
4.8296383702
 30
0.0
 10
4.4148104613
 20
4.8218296317
 30
0.0
 10
4.4170547686
 20
4.8180973176
 30
0.0
  0
SPLINE
  5
43D
100
AcDbEntity
  8
0
100
AcDbSpline
 62
7
  6
CONTINUOUS
 70
0
 71
3
 72
23
 73
19
 74
0
 42
0.0000001
 43
0.0000001
 44
0.0000000001
 40
0.0
 40
0.0
 40
0.0
 40
0.0
 40
0.1144229482
 40
0.1747637903
 40
0.2370240099
 40
0.3010386668
 40
0.3336160815
 40
0.3665029851
 40
0.432985275
 40
0.4999999992
 40
0.5670147241
 40
0.6334970151
 40
0.666383919
 40
0.6989613338
 40
0.7629759908
 40
0.8252362102
 40
0.8855770521
 40
1.0
 40
1.0
 40
1.0
 40
1.0
 10
4.4062335847
 20
5.0454010791
 30
0.0
 10
4.4010395554
 20
5.0378365717
 30
0.0
 10
4.3940112451
 20
5.0256287039
 30
0.0
 10
4.3864270315
 20
5.0081867946
 30
0.0
 10
4.3815042271
 20
4.9940379559
 30
0.0
 10
4.3782321541
 20
4.9817133131
 30
0.0
 10
4.3761277906
 20
4.9715432548
 30
0.0
 10
4.3743691426
 20
4.9611069059
 30
0.0
 10
4.3728937144
 20
4.9478323688
 30
0.0
 10
4.3722964276
 20
4.9317491985
 30
0.0
 10
4.3728937144
 20
4.9156660281
 30
0.0
 10
4.3743691426
 20
4.9023914908
 30
0.0
 10
4.3761277906
 20
4.8919551418
 30
0.0
 10
4.3782321541
 20
4.8817850835
 30
0.0
 10
4.3815042271
 20
4.8694604407
 30
0.0
 10
4.3864270316
 20
4.855311602
 30
0.0
 10
4.3940112451
 20
4.8378696927
 30
0.0
 10
4.4010395554
 20
4.825661825
 30
0.0
 10
4.4062335847
 20
4.8180973176
 30
0.0
  0
SPLINE
  5
43E
100
AcDbEntity
  8
0
100
AcDbSpline
 62
7
  6
CONTINUOUS
 70
0
 71
3
 72
23
 73
19
 74
0
 42
0.0000001
 43
0.0000001
 44
0.0000000001
 40
0.0
 40
0.0
 40
0.0
 40
0.0
 40
0.058089299
 40
0.117665815
 40
0.1786779329
 40
0.2410331972
 40
0.3046087524
 40
0.3691562809
 40
0.4344009458
 40
0.5000000017
 40
0.5655990578
 40
0.6308437228
 40
0.6953912512
 40
0.7589668059
 40
0.8213220695
 40
0.8823341867
 40
0.9419107018
 40
1.0
 40
1.0
 40
1.0
 40
1.0
 10
4.3963161689
 20
5.0366202198
 30
0.0
 10
4.3939188505
 20
5.0330511324
 30
0.0
 10
4.3893249813
 20
5.0256416175
 30
0.0
 10
4.3831904882
 20
5.0139128104
 30
0.0
 10
4.3778098434
 20
5.0014736633
 30
0.0
 10
4.3732633842
 20
4.9883919476
 30
0.0
 10
4.3696344788
 20
4.9747553706
 30
0.0
 10
4.3669823163
 20
4.9606776821
 30
0.0
 10
4.3653732238
 20
4.9462921543
 30
0.0
 10
4.3648285162
 20
4.9317491949
 30
0.0
 10
4.3653732244
 20
4.9172062354
 30
0.0
 10
4.3669823173
 20
4.9028207077
 30
0.0
 10
4.3696344804
 20
4.8887430193
 30
0.0
 10
4.3732633862
 20
4.8751064426
 30
0.0
 10
4.3778098459
 20
4.8620247272
 30
0.0
 10
4.383190491
 20
4.8495855804
 30
0.0
 10
4.3893249844
 20
4.8378567736
 30
0.0
 10
4.3939188539
 20
4.830447259
 30
0.0
 10
4.3963161723
 20
4.8268781718
 30
0.0
  0
SPLINE
  5
43F
100
AcDbEntity
  8
0
100
AcDbSpline
 62
7
  6
CONTINUOUS
 70
0
 71
3
 72
23
 73
19
 74
0
 42
0.0000001
 43
0.0000001
 44
0.0000000001
 40
0.0
 40
0.0
 40
0.0
 40
0.0
 40
0.0526653055
 40
0.1086775886
 40
0.1679110514
 40
0.2301271011
 40
0.295010335
 40
0.3620544126
 40
0.4306320165
 40
0.5000000007
 40
0.5693679842
 40
0.6379455872
 40
0.7049896645
 40
0.7698728984
 40
0.8320889483
 40
0.8913224112
 40
0.9473346944
 40
1.0
 40
1.0
 40
1.0
 40
1.0
 10
5.4417015063
 20
4.8180973176
 30
0.0
 10
5.4401408356
 20
4.821865279
 30
0.0
 10
5.4371529429
 20
4.8297386403
 30
0.0
 10
5.4332066636
 20
4.8421344007
 30
0.0
 10
5.429724868
 20
4.8554348361
 30
0.0
 10
5.4267653616
 20
4.8695634319
 30
0.0
 10
5.4243914746
 20
4.8844148581
 30
0.0
 10
5.4226496446
 20
4.8998493532
 30
0.0
 10
5.4215889922
 20
4.9156935903
 30
0.0
 10
5.4212299709
 20
4.9317491985
 30
0.0
 10
5.4215889921
 20
4.9478048065
 30
0.0
 10
5.4226496447
 20
4.9636490435
 30
0.0
 10
5.4243914746
 20
4.9790835385
 30
0.0
 10
5.4267653615
 20
4.9939349647
 30
0.0
 10
5.429724868
 20
5.0080635605
 30
0.0
 10
5.4332066636
 20
5.021363996
 30
0.0
 10
5.4371529429
 20
5.0337597564
 30
0.0
 10
5.4401408355
 20
5.0416331177
 30
0.0
 10
5.4417015063
 20
5.0454010791
 30
0.0
  0
SPLINE
  5
440
100
AcDbEntity
  8
0
100
AcDbSpline
 62
7
  6
CONTINUOUS
 70
0
 71
3
 72
29
 73
25
 74
0
 42
0.0000001
 43
0.0000001
 44
0.0000000001
 40
0.0
 40
0.0
 40
0.0
 40
0.0
 40
0.0617027416
 40
0.0926750549
 40
0.1237101896
 40
0.1859404749
 40
0.248382658
 40
0.2796983563
 40
0.3110717964
 40
0.3739270133
 40
0.4054201904
 40
0.4369413076
 40
0.5000000001
 40
0.5630586924
 40
0.5945798095
 40
0.6260729866
 40
0.6889282036
 40
0.7203016436
 40
0.751617342
 40
0.8140595251
 40
0.8762898104
 40
0.9073249451
 40
0.9382972584
 40
1.0
 40
1.0
 40
1.0
 40
1.0
 10
5.5083695546
 20
5.0454010791
 30
0.0
 10
5.5121559694
 20
5.041745315
 30
0.0
 10
5.5176204459
 20
5.0360157677
 30
0.0
 10
5.5243923555
 20
5.0279194604
 30
0.0
 10
5.5308222213
 20
5.0194914406
 30
0.0
 10
5.5381343008
 20
5.008378478
 30
0.0
 10
5.5443434888
 20
4.9965835149
 30
0.0
 10
5.5485786276
 20
4.9867812237
 30
0.0
 10
5.5523084547
 20
4.9767388657
 30
0.0
 10
5.5552418734
 20
4.9663982028
 30
0.0
 10
5.5573149852
 20
4.9558590658
 30
0.0
 10
5.5588061341
 20
4.9452041344
 30
0.0
 10
5.5595632584
 20
4.9317491984
 30
0.0
 10
5.5588061341
 20
4.9182942623
 30
0.0
 10
5.5573149852
 20
4.9076393309
 30
0.0
 10
5.5552418734
 20
4.897100194
 30
0.0
 10
5.5523084547
 20
4.8867595311
 30
0.0
 10
5.5485786276
 20
4.8767171731
 30
0.0
 10
5.5443434888
 20
4.8669148818
 30
0.0
 10
5.5381343008
 20
4.8551199187
 30
0.0
 10
5.5308222213
 20
4.8440069561
 30
0.0
 10
5.5243923555
 20
4.8355789363
 30
0.0
 10
5.5176204459
 20
4.8274826291
 30
0.0
 10
5.5121559694
 20
4.8217530817
 30
0.0
 10
5.5083695546
 20
4.8180973176
 30
0.0
  0
SPLINE
  5
441
100
AcDbEntity
  8
0
100
AcDbSpline
 62
7
  6
CONTINUOUS
 70
0
 71
3
 72
23
 73
19
 74
0
 42
0.0000001
 43
0.0000001
 44
0.0000000001
 40
0.0
 40
0.0
 40
0.0
 40
0.0
 40
0.0516973497
 40
0.1070995412
 40
0.1660490219
 40
0.2282671962
 40
0.2933932654
 40
0.3608679088
 40
0.4300057837
 40
0.5000000007
 40
0.569994217
 40
0.6391320909
 40
0.7066067341
 40
0.7717328032
 40
0.8339509777
 40
0.8929004586
 40
0.9483026503
 40
1.0
 40
1.0
 40
1.0
 40
1.0
 10
5.5083695546
 20
4.8180973176
 30
0.0
 10
5.5071804236
 20
4.8218820956
 30
0.0
 10
5.5049074539
 20
4.829783672
 30
0.0
 10
5.5019172089
 20
4.8421738424
 30
0.0
 10
5.4992788463
 20
4.8554679216
 30
0.0
 10
5.4970360545
 20
4.8695902274
 30
0.0
 10
5.4952370034
 20
4.8844350012
 30
0.0
 10
5.4939168866
 20
4.8998629279
 30
0.0
 10
5.4931130224
 20
4.9157003636
 30
0.0
 10
5.492840913
 20
4.9317491985
 30
0.0
 10
5.4931130224
 20
4.9477980332
 30
0.0
 10
5.4939168866
 20
4.9636354688
 30
0.0
 10
5.4952370034
 20
4.9790633954
 30
0.0
 10
5.4970360545
 20
4.9939081692
 30
0.0
 10
5.4992788462
 20
5.008030475
 30
0.0
 10
5.5019172089
 20
5.0213245543
 30
0.0
 10
5.5049074539
 20
5.0337147247
 30
0.0
 10
5.5071804236
 20
5.0416163011
 30
0.0
 10
5.5083695546
 20
5.0454010791
 30
0.0
  0
SPLINE
  5
442
100
AcDbEntity
  8
0
100
AcDbSpline
 62
7
  6
CONTINUOUS
 70
0
 71
3
 72
30
 73
26
 74
0
 42
0.0000001
 43
0.0000001
 44
0.0000000001
 40
0.0
 40
0.0
 40
0.0
 40
0.0
 40
0.0621219111
 40
0.0932552757
 40
0.1244180225
 40
0.1556072491
 40
0.1868197562
 40
0.2492833459
 40
0.2805634912
 40
0.3118730298
 40
0.3745262088
 40
0.4058890083
 40
0.4372653696
 40
0.5000090111
 40
0.5627526534
 40
0.5941290153
 40
0.6254918152
 40
0.6881449946
 40
0.7194545332
 40
0.7507346786
 40
0.8131982682
 40
0.8755819778
 40
0.9067447245
 40
0.937878089
 40
1.0
 40
1.0
 40
1.0
 40
1.0
 10
5.5716259369
 20
5.0454010791
 30
0.0
 10
5.5755026974
 20
5.0417490868
 30
0.0
 10
5.5811008244
 20
5.0360230919
 30
0.0
 10
5.5880452017
 20
5.027922916
 30
0.0
 10
5.5929840717
 20
5.0216067313
 30
0.0
 10
5.5976263611
 20
5.0150608414
 30
0.0
 10
5.6033938725
 20
5.0060384433
 30
0.0
 10
5.6084925602
 20
4.9965916764
 30
0.0
 10
5.6128355243
 20
4.9867846151
 30
0.0
 10
5.616657233
 20
4.9767458475
 30
0.0
 10
5.6196649781
 20
4.9664038775
 30
0.0
 10
5.6217906802
 20
4.9558608593
 30
0.0
 10
5.6233190131
 20
4.9452066853
 30
0.0
 10
5.6240954231
 20
4.9317491983
 30
0.0
 10
5.6233190133
 20
4.9182917121
 30
0.0
 10
5.6217906796
 20
4.9076375368
 30
0.0
 10
5.6196649814
 20
4.8970945232
 30
0.0
 10
5.6166572123
 20
4.8867525239
 30
0.0
 10
5.6128355595
 20
4.8767138246
 30
0.0
 10
5.6084923699
 20
4.8669064872
 30
0.0
 10
5.6021235028
 20
4.8551052686
 30
0.0
 10
5.5946318763
 20
4.8439987531
 30
0.0
 10
5.5880452411
 20
4.8355755762
 30
0.0
 10
5.5811008008
 20
4.8274752476
 30
0.0
 10
5.5755026974
 20
4.8217493099
 30
0.0
 10
5.5716259369
 20
4.8180973176
 30
0.0
  0
SPLINE
  5
443
100
AcDbEntity
  8
0
100
AcDbSpline
 62
7
  6
CONTINUOUS
 70
0
 71
3
 72
23
 73
19
 74
0
 42
0.0000001
 43
0.0000001
 44
0.0000000001
 40
0.0
 40
0.0
 40
0.0
 40
0.0
 40
0.0509450805
 40
0.1058776346
 40
0.1646115282
 40
0.226834728
 40
0.2921500446
 40
0.3599568509
 40
0.4295252848
 40
0.5000000007
 40
0.5704747159
 40
0.6400431488
 40
0.7078499549
 40
0.7731652715
 40
0.8353884714
 40
0.8941223652
 40
0.9490549195
 40
1.0
 40
1.0
 40
1.0
 40
1.0
 10
5.5716259369
 20
4.8180973176
 30
0.0
 10
5.5708238157
 20
4.8218960535
 30
0.0
 10
5.5692928031
 20
4.8298199899
 30
0.0
 10
5.567285003
 20
4.8422049061
 30
0.0
 10
5.5655133668
 20
4.8554934738
 30
0.0
 10
5.5640072018
 20
4.8696106191
 30
0.0
 10
5.562798982
 20
4.8844501613
 30
0.0
 10
5.5619123607
 20
4.8998730677
 30
0.0
 10
5.5613724598
 20
4.9157054004
 30
0.0
 10
5.5611896974
 20
4.9317491985
 30
0.0
 10
5.5613724598
 20
4.9477929964
 30
0.0
 10
5.5619123607
 20
4.963625329
 30
0.0
 10
5.562798982
 20
4.9790482353
 30
0.0
 10
5.5640072018
 20
4.9938877775
 30
0.0
 10
5.5655133668
 20
5.0080049228
 30
0.0
 10
5.567285003
 20
5.0212934906
 30
0.0
 10
5.5692928031
 20
5.0336784068
 30
0.0
 10
5.5708238157
 20
5.0416023433
 30
0.0
 10
5.5716259369
 20
5.0454010791
 30
0.0
  0
SPLINE
  5
444
100
AcDbEntity
  8
0
100
AcDbSpline
 62
7
  6
CONTINUOUS
 70
0
 71
3
 72
31
 73
27
 74
0
 42
0.0000001
 43
0.0000001
 44
0.0000000001
 40
0.0
 40
0.0
 40
0.0
 40
0.0
 40
0.0623745029
 40
0.0936050451
 40
0.1248448592
 40
0.156090759
 40
0.1873395862
 40
0.2498161429
 40
0.2810747357
 40
0.3123455053
 40
0.374875994
 40
0.406159567
 40
0.437447934
 40
0.4999999992
 40
0.5625520652
 40
0.5938404327
 40
0.6251240062
 40
0.6876544953
 40
0.7189252649
 40
0.7501838577
 40
0.8126604143
 40
0.8439092413
 40
0.875155141
 40
0.9063949551
 40
0.9376254972
 40
1.0
 40
1.0
 40
1.0
 40
1.0
 10
5.6308614599
 20
5.0454010791
 30
0.0
 10
5.6347927353
 20
5.0417513167
 30
0.0
 10
5.6404715081
 20
5.0360274785
 30
0.0
 10
5.647520119
 20
5.0279249196
 30
0.0
 10
5.6525315704
 20
5.0216088397
 30
0.0
 10
5.6572421264
 20
5.0150630116
 30
0.0
 10
5.6630926155
 20
5.0060435491
 30
0.0
 10
5.668266941
 20
4.9965967736
 30
0.0
 10
5.6726752143
 20
4.9867866604
 30
0.0
 10
5.6765523391
 20
4.9767501354
 30
0.0
 10
5.6796050188
 20
4.9664073656
 30
0.0
 10
5.6817625064
 20
4.9558619698
 30
0.0
 10
5.6833132962
 20
4.9452082596
 30
0.0
 10
5.6841013693
 20
4.9317491985
 30
0.0
 10
5.6833132961
 20
4.9182901373
 30
0.0
 10
5.6817625064
 20
4.907636427
 30
0.0
 10
5.6796050189
 20
4.8970910311
 30
0.0
 10
5.6765523391
 20
4.8867482612
 30
0.0
 10
5.6726752142
 20
4.8767117362
 30
0.0
 10
5.6682669409
 20
4.866901623
 30
0.0
 10
5.6630926154
 20
4.8574548475
 30
0.0
 10
5.6572421263
 20
4.848435385
 30
0.0
 10
5.6525315704
 20
4.841889557
 30
0.0
 10
5.647520119
 20
4.8355734771
 30
0.0
 10
5.6404715081
 20
4.8274709182
 30
0.0
 10
5.6347927353
 20
4.82174708
 30
0.0
 10
5.6308614599
 20
4.8180973176
 30
0.0
  0
SPLINE
  5
445
100
AcDbEntity
  8
0
100
AcDbSpline
 62
7
  6
CONTINUOUS
 70
0
 71
3
 72
23
 73
19
 74
0
 42
0.0000001
 43
0.0000001
 44
0.0000000001
 40
0.0
 40
0.0
 40
0.0
 40
0.0
 40
0.0504668085
 40
0.1051028739
 40
0.1637020384
 40
0.2259299442
 40
0.2913657856
 40
0.3593826348
 40
0.4292225954
 40
0.5000000007
 40
0.5707774053
 40
0.6406173649
 40
0.7086342139
 40
0.7740700553
 40
0.8362979613
 40
0.8948971259
 40
0.9495331914
 40
1.0
 40
1.0
 40
1.0
 40
1.0
 10
5.6308614599
 20
4.8180973176
 30
0.0
 10
5.630457471
 20
4.8219053635
 30
0.0
 10
5.629687161
 20
4.829843694
 30
0.0
 10
5.6286790306
 20
4.8422248357
 30
0.0
 10
5.6277894284
 20
4.8555096384
 30
0.0
 10
5.6270330694
 20
4.869623386
 30
0.0
 10
5.6264263093
 20
4.8844595795
 30
0.0
 10
5.6259810364
 20
4.8998793344
 30
0.0
 10
5.625709888
 20
4.9157085036
 30
0.0
 10
5.6256180996
 20
4.9317491985
 30
0.0
 10
5.625709888
 20
4.9477898932
 30
0.0
 10
5.6259810364
 20
4.9636190624
 30
0.0
 10
5.6264263093
 20
4.9790388171
 30
0.0
 10
5.6270330693
 20
4.9938750106
 30
0.0
 10
5.6277894284
 20
5.0079887582
 30
0.0
 10
5.6286790306
 20
5.021273561
 30
0.0
 10
5.629687161
 20
5.0336547027
 30
0.0
 10
5.630457471
 20
5.0415930332
 30
0.0
 10
5.6308614599
 20
5.0454010791
 30
0.0
  0
SPLINE
  5
446
100
AcDbEntity
  8
0
100
AcDbSpline
 62
7
  6
CONTINUOUS
 70
0
 71
3
 72
31
 73
27
 74
0
 42
0.0000001
 43
0.0000001
 44
0.0000000001
 40
0.0
 40
0.0
 40
0.0
 40
0.0
 40
0.06245932
 40
0.0937225669
 40
0.1249883766
 40
0.156253462
 40
0.1875146728
 40
0.2499960321
 40
0.2812476348
 40
0.3125056418
 40
0.3749954527
 40
0.4062526811
 40
0.4375117569
 40
0.4999999992
 40
0.5624882423
 40
0.5937473187
 40
0.6250045475
 40
0.6874943588
 40
0.7187523658
 40
0.7500039686
 40
0.8124853277
 40
0.8437465384
 40
0.8750116237
 40
0.9062774333
 40
0.9375406801
 40
1.0
 40
1.0
 40
1.0
 40
1.0
 10
5.6855056529
 20
5.0454010791
 30
0.0
 10
5.6894551515
 20
5.0417520545
 30
0.0
 10
5.6951608846
 20
5.0360289339
 30
0.0
 10
5.7022443597
 20
5.0279255855
 30
0.0
 10
5.7072800823
 20
5.0216095417
 30
0.0
 10
5.7120134668
 20
5.0150637355
 30
0.0
 10
5.7178916926
 20
5.0060452551
 30
0.0
 10
5.7230913142
 20
4.9965984822
 30
0.0
 10
5.7275214382
 20
4.986787347
 30
0.0
 10
5.7314170884
 20
4.9767515773
 30
0.0
 10
5.7344848004
 20
4.9664085411
 30
0.0
 10
5.7366529225
 20
4.9558623444
 30
0.0
 10
5.7382112221
 20
4.9452087911
 30
0.0
 10
5.739003198
 20
4.9317491985
 30
0.0
 10
5.738211222
 20
4.9182896059
 30
0.0
 10
5.7366529224
 20
4.9076360524
 30
0.0
 10
5.7344848004
 20
4.8970898556
 30
0.0
 10
5.7314170883
 20
4.8867468193
 30
0.0
 10
5.7275214382
 20
4.8767110496
 30
0.0
 10
5.7230913141
 20
4.8668999144
 30
0.0
 10
5.7178916926
 20
4.8574531415
 30
0.0
 10
5.7120134667
 20
4.8484346612
 30
0.0
 10
5.7072800822
 20
4.841888855
 30
0.0
 10
5.7022443597
 20
4.8355728112
 30
0.0
 10
5.6951608846
 20
4.8274694628
 30
0.0
 10
5.6894551515
 20
4.8217463422
 30
0.0
 10
5.6855056529
 20
4.8180973176
 30
0.0
  0
SPLINE
  5
447
100
AcDbEntity
  8
0
100
AcDbSpline
 62
7
  6
CONTINUOUS
 70
0
 71
3
 72
31
 73
27
 74
0
 42
0.0000001
 43
0.0000001
 44
0.0000000001
 40
0.0
 40
0.0
 40
0.0
 40
0.0
 40
0.0623745029
 40
0.0936050451
 40
0.1248448592
 40
0.156090759
 40
0.1873395862
 40
0.2498161429
 40
0.2810747357
 40
0.3123455053
 40
0.374875994
 40
0.406159567
 40
0.437447934
 40
0.4999999992
 40
0.5625520652
 40
0.5938404327
 40
0.6251240062
 40
0.6876544953
 40
0.7189252649
 40
0.7501838577
 40
0.8126604143
 40
0.8439092413
 40
0.875155141
 40
0.9063949551
 40
0.9376254972
 40
1.0
 40
1.0
 40
1.0
 40
1.0
 10
5.7350322625
 20
5.0454010791
 30
0.0
 10
5.7389635379
 20
5.0417513167
 30
0.0
 10
5.7446423108
 20
5.0360274785
 30
0.0
 10
5.7516909216
 20
5.0279249196
 30
0.0
 10
5.7567023731
 20
5.0216088397
 30
0.0
 10
5.761412929
 20
5.0150630116
 30
0.0
 10
5.7672634182
 20
5.0060435491
 30
0.0
 10
5.7724377437
 20
4.9965967736
 30
0.0
 10
5.7768460169
 20
4.9867866604
 30
0.0
 10
5.7807231418
 20
4.9767501354
 30
0.0
 10
5.7837758215
 20
4.9664073656
 30
0.0
 10
5.7859333091
 20
4.9558619698
 30
0.0
 10
5.7874840988
 20
4.9452082596
 30
0.0
 10
5.788272172
 20
4.9317491985
 30
0.0
 10
5.7874840988
 20
4.9182901373
 30
0.0
 10
5.785933309
 20
4.907636427
 30
0.0
 10
5.7837758215
 20
4.8970910311
 30
0.0
 10
5.7807231418
 20
4.8867482612
 30
0.0
 10
5.7768460169
 20
4.8767117362
 30
0.0
 10
5.7724377436
 20
4.866901623
 30
0.0
 10
5.7672634181
 20
4.8574548475
 30
0.0
 10
5.761412929
 20
4.848435385
 30
0.0
 10
5.756702373
 20
4.841889557
 30
0.0
 10
5.7516909216
 20
4.8355734771
 30
0.0
 10
5.7446423107
 20
4.8274709182
 30
0.0
 10
5.7389635379
 20
4.82174708
 30
0.0
 10
5.7350322625
 20
4.8180973176
 30
0.0
  0
SPLINE
  5
448
100
AcDbEntity
  8
0
100
AcDbSpline
 62
7
  6
CONTINUOUS
 70
0
 71
3
 72
30
 73
26
 74
0
 42
0.0000001
 43
0.0000001
 44
0.0000000001
 40
0.0
 40
0.0
 40
0.0
 40
0.0
 40
0.0621219111
 40
0.0932552757
 40
0.1244180225
 40
0.1556072491
 40
0.1868197562
 40
0.2492833459
 40
0.2805634912
 40
0.3118730298
 40
0.3745262088
 40
0.4058890083
 40
0.4372653696
 40
0.5000090111
 40
0.5627526534
 40
0.5941290153
 40
0.6254918152
 40
0.6881449946
 40
0.7194545332
 40
0.7507346786
 40
0.8131982682
 40
0.8755819778
 40
0.9067447245
 40
0.937878089
 40
1.0
 40
1.0
 40
1.0
 40
1.0
 10
5.7789643205
 20
5.0454010791
 30
0.0
 10
5.782841081
 20
5.0417490868
 30
0.0
 10
5.788439208
 20
5.0360230919
 30
0.0
 10
5.7953835852
 20
5.027922916
 30
0.0
 10
5.8003224553
 20
5.0216067313
 30
0.0
 10
5.8049647446
 20
5.0150608414
 30
0.0
 10
5.8107322561
 20
5.0060384433
 30
0.0
 10
5.8158309438
 20
4.9965916764
 30
0.0
 10
5.8201739078
 20
4.9867846151
 30
0.0
 10
5.8239956165
 20
4.9767458475
 30
0.0
 10
5.8270033616
 20
4.9664038775
 30
0.0
 10
5.8291290638
 20
4.9558608593
 30
0.0
 10
5.8306573966
 20
4.9452066853
 30
0.0
 10
5.8314338066
 20
4.9317491983
 30
0.0
 10
5.8306573969
 20
4.9182917121
 30
0.0
 10
5.8291290632
 20
4.9076375368
 30
0.0
 10
5.8270033649
 20
4.8970945232
 30
0.0
 10
5.8239955959
 20
4.8867525239
 30
0.0
 10
5.820173943
 20
4.8767138246
 30
0.0
 10
5.8158307534
 20
4.8669064872
 30
0.0
 10
5.8094618863
 20
4.8551052686
 30
0.0
 10
5.8019702598
 20
4.8439987531
 30
0.0
 10
5.7953836246
 20
4.8355755762
 30
0.0
 10
5.7884391844
 20
4.8274752476
 30
0.0
 10
5.782841081
 20
4.8217493099
 30
0.0
 10
5.7789643205
 20
4.8180973176
 30
0.0
  0
SPLINE
  5
449
100
AcDbEntity
  8
0
100
AcDbSpline
 62
7
  6
CONTINUOUS
 70
0
 71
3
 72
29
 73
25
 74
0
 42
0.0000001
 43
0.0000001
 44
0.0000000001
 40
0.0
 40
0.0
 40
0.0
 40
0.0
 40
0.0617027269
 40
0.0926750301
 40
0.1237101609
 40
0.1859404691
 40
0.2483826894
 40
0.2796984008
 40
0.3110718529
 40
0.3739270795
 40
0.4054202461
 40
0.4369413466
 40
0.4999999992
 40
0.5630586526
 40
0.5945797537
 40
0.6260729207
 40
0.6889281477
 40
0.7203015998
 40
0.7516173113
 40
0.8140595314
 40
0.8762898394
 40
0.90732497
 40
0.9382972732
 40
1.0
 40
1.0
 40
1.0
 40
1.0
 10
5.816878737
 20
5.0454010791
 30
0.0
 10
5.820665151
 20
5.0417453159
 30
0.0
 10
5.8261296267
 20
5.0360157708
 30
0.0
 10
5.8329015353
 20
5.0279194658
 30
0.0
 10
5.8393314012
 20
5.0194914451
 30
0.0
 10
5.8466434817
 20
5.0083784774
 30
0.0
 10
5.8528526734
 20
4.9965835093
 30
0.0
 10
5.857087815
 20
4.9867812134
 30
0.0
 10
5.8608176409
 20
4.9767388517
 30
0.0
 10
5.8637510575
 20
4.9663981874
 30
0.0
 10
5.8658241716
 20
4.9558590524
 30
0.0
 10
5.8673153185
 20
4.9452041264
 30
0.0
 10
5.8680724395
 20
4.9317491985
 30
0.0
 10
5.8673153185
 20
4.9182942705
 30
0.0
 10
5.8658241716
 20
4.9076393444
 30
0.0
 10
5.8637510575
 20
4.8971002093
 30
0.0
 10
5.8608176409
 20
4.8867595449
 30
0.0
 10
5.8570878149
 20
4.8767171832
 30
0.0
 10
5.8528526733
 20
4.8669148873
 30
0.0
 10
5.8466434816
 20
4.8551199192
 30
0.0
 10
5.8393314011
 20
4.8440069515
 30
0.0
 10
5.8329015352
 20
4.8355789309
 30
0.0
 10
5.8261296267
 20
4.8274826259
 30
0.0
 10
5.820665151
 20
4.8217530808
 30
0.0
 10
5.816878737
 20
4.8180973176
 30
0.0
  0
SPLINE
  5
44A
100
AcDbEntity
  8
0
100
AcDbSpline
 62
7
  6
CONTINUOUS
 70
0
 71
3
 72
15
 73
11
 74
0
 42
0.0000001
 43
0.0000001
 44
0.0000000001
 40
0.0
 40
0.0
 40
0.0
 40
0.0
 40
0.1227602593
 40
0.2472141396
 40
0.3731534669
 40
0.4999999992
 40
0.6268465333
 40
0.7527858611
 40
0.8772397409
 40
1.0
 40
1.0
 40
1.0
 40
1.0
 10
5.8484103755
 20
5.0454010791
 30
0.0
 10
5.8557537157
 20
5.0380574095
 30
0.0
 10
5.8693510903
 20
5.0220063771
 30
0.0
 10
5.885118453
 20
4.9944412627
 30
0.0
 10
5.8952203481
 20
4.963925847
 30
0.0
 10
5.8987085153
 20
4.9317491984
 30
0.0
 10
5.8952203482
 20
4.8995725498
 30
0.0
 10
5.8851184529
 20
4.8690571339
 30
0.0
 10
5.8693510903
 20
4.8414920195
 30
0.0
 10
5.8557537157
 20
4.8254409872
 30
0.0
 10
5.8484103755
 20
4.8180973176
 30
0.0
  0
SPLINE
  5
44B
100
AcDbEntity
  8
0
100
AcDbSpline
 62
7
  6
CONTINUOUS
 70
0
 71
3
 72
15
 73
11
 74
0
 42
0.0000001
 43
0.0000001
 44
0.0000000001
 40
0.0
 40
0.0
 40
0.0
 40
0.0
 40
0.1215114141
 40
0.2456633553
 40
0.372130622
 40
0.4999999992
 40
0.6278693782
 40
0.7543366454
 40
0.8784885861
 40
1.0
 40
1.0
 40
1.0
 40
1.0
 10
5.8732555691
 20
5.0454010791
 30
0.0
 10
5.8802930256
 20
5.038028478
 30
0.0
 10
5.8933135073
 20
5.0219045672
 30
0.0
 10
5.9083372197
 20
4.9943427932
 30
0.0
 10
5.9179500414
 20
4.963863509
 30
0.0
 10
5.9212663136
 20
4.9317491984
 30
0.0
 10
5.9179500415
 20
4.8996348878
 30
0.0
 10
5.9083372196
 20
4.8691556034
 30
0.0
 10
5.8933135073
 20
4.8415938295
 30
0.0
 10
5.8802930256
 20
4.8254699187
 30
0.0
 10
5.8732555691
 20
4.8180973176
 30
0.0
  0
SPLINE
  5
44C
100
AcDbEntity
  8
0
100
AcDbSpline
 62
7
  6
CONTINUOUS
 70
0
 71
3
 72
27
 73
23
 74
0
 42
0.0000001
 43
0.0000001
 44
0.0000000001
 40
0.0
 40
0.0
 40
0.0
 40
0.0
 40
0.0595035805
 40
0.1199964796
 40
0.1814410009
 40
0.2437852054
 40
0.2752901643
 40
0.3069978368
 40
0.3388816509
 40
0.3709167728
 40
0.4353266262
 40
0.4999999992
 40
0.564673373
 40
0.6290832274
 40
0.6611183496
 40
0.6930021638
 40
0.7247098363
 40
0.7562147952
 40
0.8185589996
 40
0.8800035207
 40
0.9404964195
 40
1.0
 40
1.0
 40
1.0
 40
1.0
 10
5.8911750451
 20
5.0454010791
 30
0.0
 10
5.8944842981
 20
5.0417238692
 30
0.0
 10
5.9008546781
 20
5.0340288429
 30
0.0
 10
5.9094691515
 20
5.0216238109
 30
0.0
 10
5.9170763317
 20
5.0083018242
 30
0.0
 10
5.9224491575
 20
4.9965403628
 30
0.0
 10
5.9261179209
 20
4.9867643583
 30
0.0
 10
5.9285461471
 20
4.9792371697
 30
0.0
 10
5.9306288733
 20
4.9715614298
 30
0.0
 10
5.9329316514
 20
4.9611404108
 30
0.0
 10
5.934869768
 20
4.9478634751
 30
0.0
 10
5.9356555281
 20
4.9317491985
 30
0.0
 10
5.9348697679
 20
4.9156349218
 30
0.0
 10
5.9329316515
 20
4.9023579859
 30
0.0
 10
5.9306288733
 20
4.8919369668
 30
0.0
 10
5.9285461471
 20
4.8842612269
 30
0.0
 10
5.9261179209
 20
4.8767340383
 30
0.0
 10
5.9224491574
 20
4.8669580338
 30
0.0
 10
5.9170763316
 20
4.8551965724
 30
0.0
 10
5.9094691514
 20
4.8418745857
 30
0.0
 10
5.900854678
 20
4.8294695538
 30
0.0
 10
5.8944842981
 20
4.8217745275
 30
0.0
 10
5.8911750451
 20
4.8180973176
 30
0.0
  0
SPLINE
  5
44D
100
AcDbEntity
  8
0
100
AcDbSpline
 62
7
  6
CONTINUOUS
 70
0
 71
3
 72
23
 73
19
 74
0
 42
0.0000001
 43
0.0000001
 44
0.0000000001
 40
0.0
 40
0.0
 40
0.0
 40
0.0
 40
0.0586086143
 40
0.1185021183
 40
0.1796465006
 40
0.241970358
 40
0.3053940963
 40
0.3697187329
 40
0.4346920536
 40
0.4999999991
 40
0.5653079454
 40
0.6302812672
 40
0.6946059042
 40
0.7580296426
 40
0.8203534999
 40
0.881497882
 40
0.9413913858
 40
1.0
 40
1.0
 40
1.0
 40
1.0
 10
5.9033962762
 20
5.0437063082
 30
0.0
 10
5.9063871421
 20
5.0400394406
 30
0.0
 10
5.9121382668
 20
5.0323780955
 30
0.0
 10
5.9198823393
 20
5.0200954989
 30
0.0
 10
5.9267096733
 20
5.0069395366
 30
0.0
 10
5.9325080879
 20
4.99298884
 30
0.0
 10
5.9371556067
 20
4.9783432736
 30
0.0
 10
5.9405637687
 20
4.9631407549
 30
0.0
 10
5.9426378743
 20
4.9475456465
 30
0.0
 10
5.943339961
 20
4.9317491986
 30
0.0
 10
5.9426378742
 20
4.9159527506
 30
0.0
 10
5.9405637688
 20
4.900357642
 30
0.0
 10
5.9371556067
 20
4.8851551232
 30
0.0
 10
5.9325080879
 20
4.8705095567
 30
0.0
 10
5.9267096733
 20
4.8565588602
 30
0.0
 10
5.9198823393
 20
4.8434028979
 30
0.0
 10
5.9121382669
 20
4.8311203014
 30
0.0
 10
5.9063871422
 20
4.8234589562
 30
0.0
 10
5.9033962763
 20
4.8197920887
 30
0.0
  0
SPLINE
  5
44E
100
AcDbEntity
  8
0
100
AcDbSpline
 62
7
  6
CONTINUOUS
 70
0
 71
3
 72
23
 73
19
 74
0
 42
0.0000001
 43
0.0000001
 44
0.0000000001
 40
0.0
 40
0.0
 40
0.0
 40
0.0
 40
0.1163848154
 40
0.1771174235
 40
0.2394061574
 40
0.3031307164
 40
0.3354636831
 40
0.3680509871
 40
0.4338058746
 40
0.5000000006
 40
0.5661941261
 40
0.6319490127
 40
0.6645363164
 40
0.6968692831
 40
0.7605938421
 40
0.8228825762
 40
0.8836151844
 40
1.0
 40
1.0
 40
1.0
 40
1.0
 10
5.1541149068
 20
4.8180973176
 30
0.0
 10
5.1483711434
 20
4.8256022429
 30
0.0
 10
5.140545386
 20
4.8377655887
 30
0.0
 10
5.1320561002
 20
4.8552702013
 30
0.0
 10
5.1265633685
 20
4.8694239487
 30
0.0
 10
5.1229082468
 20
4.8817675277
 30
0.0
 10
5.1205597275
 20
4.8919488755
 30
0.0
 10
5.118600105
 20
4.9023800869
 30
0.0
 10
5.1169543137
 20
4.9156555075
 30
0.0
 10
5.116287724
 20
4.9317491985
 30
0.0
 10
5.1169543136
 20
4.9478428893
 30
0.0
 10
5.118600105
 20
4.9611183099
 30
0.0
 10
5.1205597275
 20
4.9715495211
 30
0.0
 10
5.1229082467
 20
4.9817308689
 30
0.0
 10
5.1265633684
 20
4.994074448
 30
0.0
 10
5.1320561001
 20
5.0082281954
 30
0.0
 10
5.140545386
 20
5.025732808
 30
0.0
 10
5.1483711434
 20
5.0378961538
 30
0.0
 10
5.1541149068
 20
5.0454010791
 30
0.0
  0
SPLINE
  5
44F
100
AcDbEntity
  8
0
100
AcDbSpline
 62
7
  6
CONTINUOUS
 70
0
 71
3
 72
27
 73
23
 74
0
 42
0.0000001
 43
0.0000001
 44
0.0000000001
 40
0.0
 40
0.0
 40
0.0
 40
0.0
 40
0.0584947855
 40
0.1183088288
 40
0.1794044661
 40
0.2417126366
 40
0.273306489
 40
0.3051675429
 40
0.3372621369
 40
0.3695576944
 40
0.4346046084
 40
0.5000000006
 40
0.5653953922
 40
0.6304423053
 40
0.6627378627
 40
0.6948324566
 40
0.7266935104
 40
0.7582873628
 40
0.8205955335
 40
0.881691171
 40
0.9415052145
 40
1.0
 40
1.0
 40
1.0
 40
1.0
 10
5.0804550259
 20
4.8180973176
 30
0.0
 10
5.0773693356
 20
4.82178541
 30
0.0
 10
5.0714314401
 20
4.829504285
 30
0.0
 10
5.063425994
 20
4.8419106967
 30
0.0
 10
5.0563580696
 20
4.8552319088
 30
0.0
 10
5.0513727509
 20
4.8669771871
 30
0.0
 10
5.0479665001
 20
4.8767415274
 30
0.0
 10
5.0457095808
 20
4.8842679377
 30
0.0
 10
5.043773799
 20
4.8919427908
 30
0.0
 10
5.041632277
 20
4.9023687473
 30
0.0
 10
5.039831707
 20
4.9156450136
 30
0.0
 10
5.039102082
 20
4.9317491985
 30
0.0
 10
5.0398317069
 20
4.9478533833
 30
0.0
 10
5.041632277
 20
4.9611296494
 30
0.0
 10
5.043773799
 20
4.9715556058
 30
0.0
 10
5.0457095808
 20
4.9792304589
 30
0.0
 10
5.0479665001
 20
4.9867568692
 30
0.0
 10
5.0513727509
 20
4.9965212095
 30
0.0
 10
5.0563580696
 20
5.0082664879
 30
0.0
 10
5.063425994
 20
5.0215876999
 30
0.0
 10
5.0714314401
 20
5.0339941117
 30
0.0
 10
5.0773693356
 20
5.0417129868
 30
0.0
 10
5.0804550259
 20
5.0454010791
 30
0.0
  0
SPLINE
  5
450
100
AcDbEntity
  8
0
100
AcDbSpline
 62
7
  6
CONTINUOUS
 70
0
 71
3
 72
23
 73
19
 74
0
 42
0.0000001
 43
0.0000001
 44
0.0000000001
 40
0.0
 40
0.0
 40
0.0
 40
0.0
 40
0.1144229482
 40
0.1747637903
 40
0.2370240099
 40
0.3010386668
 40
0.3336160815
 40
0.3665029851
 40
0.432985275
 40
0.4999999992
 40
0.5670147241
 40
0.6334970151
 40
0.666383919
 40
0.6989613338
 40
0.7629759908
 40
0.8252362102
 40
0.8855770521
 40
1.0
 40
1.0
 40
1.0
 40
1.0
 10
5.0804550259
 20
5.0454010791
 30
0.0
 10
5.0856490552
 20
5.0378365717
 30
0.0
 10
5.0926773655
 20
5.0256287039
 30
0.0
 10
5.1002615791
 20
5.0081867946
 30
0.0
 10
5.1051843835
 20
4.9940379559
 30
0.0
 10
5.1084564565
 20
4.9817133131
 30
0.0
 10
5.11056082
 20
4.9715432548
 30
0.0
 10
5.112319468
 20
4.9611069059
 30
0.0
 10
5.1137948963
 20
4.9478323688
 30
0.0
 10
5.114392183
 20
4.9317491985
 30
0.0
 10
5.1137948962
 20
4.9156660281
 30
0.0
 10
5.112319468
 20
4.9023914908
 30
0.0
 10
5.11056082
 20
4.8919551418
 30
0.0
 10
5.1084564565
 20
4.8817850835
 30
0.0
 10
5.1051843835
 20
4.8694604407
 30
0.0
 10
5.1002615791
 20
4.855311602
 30
0.0
 10
5.0926773655
 20
4.8378696927
 30
0.0
 10
5.0856490552
 20
4.825661825
 30
0.0
 10
5.0804550259
 20
4.8180973176
 30
0.0
  0
SPLINE
  5
451
100
AcDbEntity
  8
0
100
AcDbSpline
 62
7
  6
CONTINUOUS
 70
0
 71
3
 72
27
 73
23
 74
0
 42
0.0000001
 43
0.0000001
 44
0.0000000001
 40
0.0
 40
0.0
 40
0.0
 40
0.0
 40
0.0595035804
 40
0.1199964788
 40
0.1814409985
 40
0.2437852015
 40
0.2752901605
 40
0.3069978332
 40
0.3388816477
 40
0.3709167702
 40
0.4353266257
 40
0.5000000006
 40
0.5646733749
 40
0.6290832295
 40
0.6611183519
 40
0.6930021663
 40
0.724709839
 40
0.756214798
 40
0.8185590012
 40
0.880003521
 40
0.9404964195
 40
1.0
 40
1.0
 40
1.0
 40
1.0
 10
5.0075045298
 20
4.8180973176
 30
0.0
 10
5.0041952768
 20
4.8217745275
 30
0.0
 10
4.9978248969
 20
4.8294695537
 30
0.0
 10
4.9892104236
 20
4.8418745856
 30
0.0
 10
4.9816032434
 20
4.855196572
 30
0.0
 10
4.9762304177
 20
4.8669580331
 30
0.0
 10
4.9725616543
 20
4.8767340375
 30
0.0
 10
4.970133428
 20
4.8842612262
 30
0.0
 10
4.9680507018
 20
4.8919369661
 30
0.0
 10
4.9657479235
 20
4.9023579854
 30
0.0
 10
4.9638098071
 20
4.9156349215
 30
0.0
 10
4.9630240468
 20
4.9317491985
 30
0.0
 10
4.963809807
 20
4.9478634753
 30
0.0
 10
4.9657479235
 20
4.9611404113
 30
0.0
 10
4.9680507018
 20
4.9715614305
 30
0.0
 10
4.970133428
 20
4.9792371704
 30
0.0
 10
4.9725616543
 20
4.9867643591
 30
0.0
 10
4.9762304177
 20
4.9965403635
 30
0.0
 10
4.9816032434
 20
5.0083018247
 30
0.0
 10
4.9892104236
 20
5.0216238111
 30
0.0
 10
4.9978248969
 20
5.034028843
 30
0.0
 10
5.0041952768
 20
5.0417238692
 30
0.0
 10
5.0075045298
 20
5.0454010791
 30
0.0
  0
SPLINE
  5
452
100
AcDbEntity
  8
0
100
AcDbSpline
 62
7
  6
CONTINUOUS
 70
0
 71
3
 72
23
 73
19
 74
0
 42
0.0000001
 43
0.0000001
 44
0.0000000001
 40
0.0
 40
0.0
 40
0.0
 40
0.0
 40
0.0549798158
 40
0.1124764046
 40
0.1724187291
 40
0.2346500672
 40
0.2989564711
 40
0.3649569873
 40
0.4321662345
 40
0.4999999992
 40
0.5678337646
 40
0.635043013
 40
0.7010435295
 40
0.7653499334
 40
0.8275812714
 40
0.8875235956
 40
0.9450201843
 40
1.0
 40
1.0
 40
1.0
 40
1.0
 10
5.0075045298
 20
5.0454010791
 30
0.0
 10
5.0097488371
 20
5.041668765
 30
0.0
 10
5.0140576191
 20
5.0338600265
 30
0.0
 10
5.0197988318
 20
5.0214557504
 30
0.0
 10
5.0248649254
 20
5.0081434379
 30
0.0
 10
5.0291708993
 20
4.9940015587
 30
0.0
 10
5.0326249549
 20
4.9791347246
 30
0.0
 10
5.0351592374
 20
4.9636840737
 30
0.0
 10
5.0367024939
 20
4.9478224481
 30
0.0
 10
5.0372248435
 20
4.9317491985
 30
0.0
 10
5.0367024938
 20
4.9156759488
 30
0.0
 10
5.0351592374
 20
4.899814323
 30
0.0
 10
5.0326249549
 20
4.884363672
 30
0.0
 10
5.0291708993
 20
4.8694968379
 30
0.0
 10
5.0248649253
 20
4.8553549587
 30
0.0
 10
5.0197988318
 20
4.8420426463
 30
0.0
 10
5.014057619
 20
4.8296383702
 30
0.0
 10
5.0097488371
 20
4.8218296317
 30
0.0
 10
5.0075045298
 20
4.8180973176
 30
0.0
  0
SPLINE
  5
453
100
AcDbEntity
  8
0
100
AcDbSpline
 62
7
  6
CONTINUOUS
 70
0
 71
3
 72
15
 73
11
 74
0
 42
0.0000001
 43
0.0000001
 44
0.0000000001
 40
0.0
 40
0.0
 40
0.0
 40
0.0
 40
0.1215114133
 40
0.2456633514
 40
0.3721306194
 40
0.5000000006
 40
0.6278693803
 40
0.7543366481
 40
0.8784885865
 40
1.0
 40
1.0
 40
1.0
 40
1.0
 10
4.9359659719
 20
4.8180973176
 30
0.0
 10
4.9289285154
 20
4.8254699187
 30
0.0
 10
4.9159080339
 20
4.8415938292
 30
0.0
 10
4.9008843216
 20
4.8691556029
 30
0.0
 10
4.8912714996
 20
4.8996348873
 30
0.0
 10
4.8879552274
 20
4.9317491984
 30
0.0
 10
4.8912714996
 20
4.9638635094
 30
0.0
 10
4.9008843215
 20
4.9943427937
 30
0.0
 10
4.9159080339
 20
5.0219045675
 30
0.0
 10
4.9289285154
 20
5.038028478
 30
0.0
 10
4.9359659719
 20
5.0454010791
 30
0.0
  0
SPLINE
  5
454
100
AcDbEntity
  8
0
100
AcDbSpline
 62
7
  6
CONTINUOUS
 70
0
 71
3
 72
23
 73
19
 74
0
 42
0.0000001
 43
0.0000001
 44
0.0000000001
 40
0.0
 40
0.0
 40
0.0
 40
0.0
 40
0.0537818635
 40
0.1105057987
 40
0.1700759986
 40
0.2322957883
 40
0.2969000074
 40
0.3634430818
 40
0.4313656239
 40
0.4999999992
 40
0.5686343752
 40
0.6365569184
 40
0.7030999932
 40
0.7677042124
 40
0.8299240019
 40
0.8894942015
 40
0.9462181365
 40
1.0
 40
1.0
 40
1.0
 40
1.0
 10
4.9359659719
 20
5.0454010791
 30
0.0
 10
4.9378792794
 20
5.0416510639
 30
0.0
 10
4.941547831
 20
5.0338094002
 30
0.0
 10
4.9464142559
 20
5.0214087219
 30
0.0
 10
4.9507080212
 20
5.0081019759
 30
0.0
 10
4.9543575201
 20
4.9939666484
 30
0.0
 10
4.9572848606
 20
4.9791076883
 30
0.0
 10
4.9594327045
 20
4.9636654739
 30
0.0
 10
4.9607406008
 20
4.9478130516
 30
0.0
 10
4.9611832981
 20
4.9317491985
 30
0.0
 10
4.9607406007
 20
4.9156853453
 30
0.0
 10
4.9594327045
 20
4.8998329229
 30
0.0
 10
4.9572848606
 20
4.8843907083
 30
0.0
 10
4.9543575201
 20
4.8695317482
 30
0.0
 10
4.9507080212
 20
4.8553964207
 30
0.0
 10
4.9464142559
 20
4.8420896747
 30
0.0
 10
4.941547831
 20
4.8296889965
 30
0.0
 10
4.9378792794
 20
4.8218473328
 30
0.0
 10
4.9359659719
 20
4.8180973176
 30
0.0
  0
SPLINE
  5
455
100
AcDbEntity
  8
0
100
AcDbSpline
 62
7
  6
CONTINUOUS
 70
0
 71
3
 72
15
 73
11
 74
0
 42
0.0000001
 43
0.0000001
 44
0.0000000001
 40
0.0
 40
0.0
 40
0.0
 40
0.0
 40
0.1227602585
 40
0.2472141357
 40
0.3731534644
 40
0.5000000006
 40
0.6268465354
 40
0.7527858638
 40
0.8772397413
 40
1.0
 40
1.0
 40
1.0
 40
1.0
 10
4.8665283074
 20
4.8180973176
 30
0.0
 10
4.8591849673
 20
4.8254409872
 30
0.0
 10
4.8455875929
 20
4.8414920193
 30
0.0
 10
4.8298202302
 20
4.8690571334
 30
0.0
 10
4.8197183348
 20
4.8995725493
 30
0.0
 10
4.8162301676
 20
4.9317491984
 30
0.0
 10
4.8197183348
 20
4.9639258474
 30
0.0
 10
4.8298202302
 20
4.9944412632
 30
0.0
 10
4.8455875928
 20
5.0220063774
 30
0.0
 10
4.8591849672
 20
5.0380574095
 30
0.0
 10
4.8665283074
 20
5.0454010791
 30
0.0
  0
SPLINE
  5
456
100
AcDbEntity
  8
0
100
AcDbSpline
 62
7
  6
CONTINUOUS
 70
0
 71
3
 72
23
 73
19
 74
0
 42
0.0000001
 43
0.0000001
 44
0.0000000001
 40
0.0
 40
0.0
 40
0.0
 40
0.0
 40
0.0526653056
 40
0.1086775894
 40
0.1679110538
 40
0.2301271051
 40
0.2950103387
 40
0.3620544153
 40
0.430632017
 40
0.4999999991
 40
0.5693679821
 40
0.6379455849
 40
0.7049896619
 40
0.7698728956
 40
0.8320889466
 40
0.8913224109
 40
0.9473346945
 40
1.0
 40
1.0
 40
1.0
 40
1.0
 10
4.8665283074
 20
5.0454010791
 30
0.0
 10
4.8680889781
 20
5.0416331177
 30
0.0
 10
4.8710768708
 20
5.0337597564
 30
0.0
 10
4.8750231501
 20
5.0213639958
 30
0.0
 10
4.8785049458
 20
5.00806356
 30
0.0
 10
4.8814644522
 20
4.993934964
 30
0.0
 10
4.8838383392
 20
4.9790835378
 30
0.0
 10
4.885580169
 20
4.9636490429
 30
0.0
 10
4.8866408216
 20
4.9478048063
 30
0.0
 10
4.8869998428
 20
4.9317491985
 30
0.0
 10
4.8866408215
 20
4.9156935907
 30
0.0
 10
4.885580169
 20
4.8998493538
 30
0.0
 10
4.8838383392
 20
4.8844148588
 30
0.0
 10
4.8814644522
 20
4.8695634326
 30
0.0
 10
4.8785049458
 20
4.8554348366
 30
0.0
 10
4.8750231501
 20
4.8421344009
 30
0.0
 10
4.8710768708
 20
4.8297386403
 30
0.0
 10
4.8680889781
 20
4.821865279
 30
0.0
 10
4.8665283074
 20
4.8180973176
 30
0.0
  0
SPLINE
  5
457
100
AcDbEntity
  8
0
100
AcDbSpline
 62
7
  6
CONTINUOUS
 70
0
 71
3
 72
29
 73
25
 74
0
 42
0.0000001
 43
0.0000001
 44
0.0000000001
 40
0.0
 40
0.0
 40
0.0
 40
0.0
 40
0.061702761
 40
0.0926750923
 40
0.1237102442
 40
0.1859405537
 40
0.2483827476
 40
0.2796984389
 40
0.3110718749
 40
0.3739270835
 40
0.4054202465
 40
0.4369413459
 40
0.4999999999
 40
0.563058654
 40
0.5945797535
 40
0.6260729165
 40
0.6889281251
 40
0.7203015611
 40
0.7516172524
 40
0.8140594463
 40
0.8762897558
 40
0.9073249078
 40
0.938297239
 40
1.0
 40
1.0
 40
1.0
 40
1.0
 10
4.7998602591
 20
4.8180973176
 30
0.0
 10
4.796073843
 20
4.8217530829
 30
0.0
 10
4.7906093651
 20
4.8274826332
 30
0.0
 10
4.7838374532
 20
4.8355789446
 30
0.0
 10
4.7774075842
 20
4.8440069683
 30
0.0
 10
4.7700955021
 20
4.8551199347
 30
0.0
 10
4.7638863165
 20
4.8669149017
 30
0.0
 10
4.7596511768
 20
4.8767171925
 30
0.0
 10
4.755921353
 20
4.8867595501
 30
0.0
 10
4.7529879381
 20
4.8971002115
 30
0.0
 10
4.7509148246
 20
4.9076393446
 30
0.0
 10
4.7494236777
 20
4.9182942704
 30
0.0
 10
4.7486665565
 20
4.9317491983
 30
0.0
 10
4.7494236777
 20
4.9452041263
 30
0.0
 10
4.7509148246
 20
4.9558590521
 30
0.0
 10
4.7529879381
 20
4.9663981852
 30
0.0
 10
4.755921353
 20
4.9767388466
 30
0.0
 10
4.7596511768
 20
4.9867812042
 30
0.0
 10
4.7638863165
 20
4.996583495
 30
0.0
 10
4.7700955021
 20
5.008378462
 30
0.0
 10
4.7774075842
 20
5.0194914284
 30
0.0
 10
4.7838374532
 20
5.0279194521
 30
0.0
 10
4.7906093651
 20
5.0360157635
 30
0.0
 10
4.7960738431
 20
5.0417453139
 30
0.0
 10
4.7998602591
 20
5.0454010791
 30
0.0
  0
SPLINE
  5
458
100
AcDbEntity
  8
0
100
AcDbSpline
 62
7
  6
CONTINUOUS
 70
0
 71
3
 72
23
 73
19
 74
0
 42
0.0000001
 43
0.0000001
 44
0.0000000001
 40
0.0
 40
0.0
 40
0.0
 40
0.0
 40
0.0516973498
 40
0.1070995419
 40
0.1660490244
 40
0.2282672003
 40
0.2933932691
 40
0.3608679116
 40
0.4300057841
 40
0.4999999991
 40
0.569994215
 40
0.6391320886
 40
0.7066067315
 40
0.7717328004
 40
0.8339509761
 40
0.8929004583
 40
0.9483026503
 40
1.0
 40
1.0
 40
1.0
 40
1.0
 10
4.7998602591
 20
5.0454010791
 30
0.0
 10
4.8010493901
 20
5.0416163011
 30
0.0
 10
4.8033223598
 20
5.0337147246
 30
0.0
 10
4.8063126048
 20
5.0213245541
 30
0.0
 10
4.8089509675
 20
5.0080304745
 30
0.0
 10
4.8111937592
 20
4.9939081685
 30
0.0
 10
4.8129928104
 20
4.9790633947
 30
0.0
 10
4.8143129271
 20
4.9636354683
 30
0.0
 10
4.8151167913
 20
4.947798033
 30
0.0
 10
4.8153889007
 20
4.9317491985
 30
0.0
 10
4.8151167913
 20
4.9157003639
 30
0.0
 10
4.8143129271
 20
4.8998629284
 30
0.0
 10
4.8129928104
 20
4.8844350019
 30
0.0
 10
4.8111937592
 20
4.8695902281
 30
0.0
 10
4.8089509675
 20
4.8554679221
 30
0.0
 10
4.8063126048
 20
4.8421738426
 30
0.0
 10
4.8033223598
 20
4.8297836721
 30
0.0
 10
4.8010493901
 20
4.8218820956
 30
0.0
 10
4.7998602591
 20
4.8180973176
 30
0.0
  0
SPLINE
  5
459
100
AcDbEntity
  8
0
100
AcDbSpline
 62
7
  6
CONTINUOUS
 70
0
 71
3
 72
29
 73
25
 74
0
 42
0.0000001
 43
0.0000001
 44
0.0000000001
 40
0.0
 40
0.0
 40
0.0
 40
0.0
 40
0.0621230307
 40
0.0932569561
 40
0.1244202642
 40
0.1868050968
 40
0.249269811
 40
0.2805505202
 40
0.3118606234
 40
0.3745149327
 40
0.4058782984
 40
0.4372552263
 40
0.5000000006
 40
0.5627447743
 40
0.5941217017
 40
0.6254850671
 40
0.6881393761
 40
0.7194494793
 40
0.7507301885
 40
0.8131949028
 40
0.8755797356
 40
0.9067430438
 40
0.9378769693
 40
1.0
 40
1.0
 40
1.0
 40
1.0
 10
4.7366038767
 20
4.8180973176
 30
0.0
 10
4.7327271162
 20
4.8217493099
 30
0.0
 10
4.7271290128
 20
4.8274752476
 30
0.0
 10
4.7201845726
 20
4.8355755762
 30
0.0
 10
4.7135979375
 20
4.8439987529
 30
0.0
 10
4.7061063111
 20
4.8551052682
 30
0.0
 10
4.699737444
 20
4.8669064865
 30
0.0
 10
4.6953942546
 20
4.8767138239
 30
0.0
 10
4.6915726016
 20
4.8867525232
 30
0.0
 10
4.6885648323
 20
4.8970945226
 30
0.0
 10
4.6864391342
 20
4.9076375363
 30
0.0
 10
4.6849108004
 20
4.9182917118
 30
0.0
 10
4.6841343906
 20
4.9317491985
 30
0.0
 10
4.6849108003
 20
4.9452066851
 30
0.0
 10
4.6864391341
 20
4.9558608604
 30
0.0
 10
4.6885648324
 20
4.966403874
 30
0.0
 10
4.6915726016
 20
4.9767458734
 30
0.0
 10
4.6953942545
 20
4.9867845727
 30
0.0
 10
4.699737444
 20
4.9965919101
 30
0.0
 10
4.706106311
 20
5.0083931285
 30
0.0
 10
4.7135979375
 20
5.0194996438
 30
0.0
 10
4.7201845726
 20
5.0279228205
 30
0.0
 10
4.7271290128
 20
5.0360231491
 30
0.0
 10
4.7327271162
 20
5.0417490868
 30
0.0
 10
4.7366038767
 20
5.0454010791
 30
0.0
  0
SPLINE
  5
45A
100
AcDbEntity
  8
0
100
AcDbSpline
 62
7
  6
CONTINUOUS
 70
0
 71
3
 72
23
 73
19
 74
0
 42
0.0000001
 43
0.0000001
 44
0.0000000001
 40
0.0
 40
0.0
 40
0.0
 40
0.0
 40
0.0509450806
 40
0.1058776353
 40
0.1646115307
 40
0.2268347321
 40
0.2921500483
 40
0.3599568537
 40
0.4295252852
 40
0.4999999991
 40
0.5704747138
 40
0.6400431465
 40
0.7078499523
 40
0.7731652686
 40
0.8353884698
 40
0.8941223649
 40
0.9490549195
 40
1.0
 40
1.0
 40
1.0
 40
1.0
 10
4.7366038767
 20
5.0454010791
 30
0.0
 10
4.7374059979
 20
5.0416023432
 30
0.0
 10
4.7389370106
 20
5.0336784068
 30
0.0
 10
4.7409448107
 20
5.0212934904
 30
0.0
 10
4.7427164469
 20
5.0080049224
 30
0.0
 10
4.7442226119
 20
4.9938877769
 30
0.0
 10
4.7454308318
 20
4.9790482346
 30
0.0
 10
4.746317453
 20
4.9636253285
 30
0.0
 10
4.7468573539
 20
4.9477929962
 30
0.0
 10
4.7470401163
 20
4.9317491985
 30
0.0
 10
4.7468573538
 20
4.9157054007
 30
0.0
 10
4.746317453
 20
4.8998730682
 30
0.0
 10
4.7454308318
 20
4.884450162
 30
0.0
 10
4.7442226119
 20
4.8696106197
 30
0.0
 10
4.7427164469
 20
4.8554934742
 30
0.0
 10
4.7409448107
 20
4.8422049063
 30
0.0
 10
4.7389370106
 20
4.8298199899
 30
0.0
 10
4.7374059979
 20
4.8218960535
 30
0.0
 10
4.7366038767
 20
4.8180973176
 30
0.0
  0
SPLINE
  5
45B
100
AcDbEntity
  8
0
100
AcDbSpline
 62
7
  6
CONTINUOUS
 70
0
 71
3
 72
31
 73
27
 74
0
 42
0.0000001
 43
0.0000001
 44
0.0000000001
 40
0.0
 40
0.0
 40
0.0
 40
0.0
 40
0.0623745027
 40
0.0936050447
 40
0.1248448584
 40
0.1560907575
 40
0.1873395837
 40
0.2498161391
 40
0.2810747319
 40
0.3123455018
 40
0.3748759915
 40
0.4061595655
 40
0.4374479335
 40
0.5000000006
 40
0.562552067
 40
0.5938404346
 40
0.6251240083
 40
0.6876544977
 40
0.7189252676
 40
0.7501838604
 40
0.8126604159
 40
0.8439092422
 40
0.8751551414
 40
0.9063949552
 40
0.9376254972
 40
1.0
 40
1.0
 40
1.0
 40
1.0
 10
4.6773683538
 20
4.8180973176
 30
0.0
 10
4.6734370784
 20
4.82174708
 30
0.0
 10
4.6677583056
 20
4.8274709182
 30
0.0
 10
4.6607096948
 20
4.835573477
 30
0.0
 10
4.6556982434
 20
4.8418895569
 30
0.0
 10
4.6509876875
 20
4.8484353847
 30
0.0
 10
4.6451371985
 20
4.857454847
 30
0.0
 10
4.639962873
 20
4.8669016223
 30
0.0
 10
4.6355545998
 20
4.8767117355
 30
0.0
 10
4.6316774748
 20
4.8867482605
 30
0.0
 10
4.6286247949
 20
4.8970910305
 30
0.0
 10
4.6264673074
 20
4.9076364265
 30
0.0
 10
4.6249165176
 20
4.918290137
 30
0.0
 10
4.6241284443
 20
4.9317491985
 30
0.0
 10
4.6249165175
 20
4.9452082599
 30
0.0
 10
4.6264673074
 20
4.9558619702
 30
0.0
 10
4.6286247949
 20
4.9664073662
 30
0.0
 10
4.6316774748
 20
4.9767501361
 30
0.0
 10
4.6355545998
 20
4.9867866611
 30
0.0
 10
4.6399628729
 20
4.9965967743
 30
0.0
 10
4.6451371984
 20
5.0060435496
 30
0.0
 10
4.6509876875
 20
5.0150630119
 30
0.0
 10
4.6556982434
 20
5.0216088398
 30
0.0
 10
4.6607096947
 20
5.0279249196
 30
0.0
 10
4.6677583056
 20
5.0360274786
 30
0.0
 10
4.6734370784
 20
5.0417513167
 30
0.0
 10
4.6773683538
 20
5.0454010791
 30
0.0
  0
SPLINE
  5
45C
100
AcDbEntity
  8
0
100
AcDbSpline
 62
7
  6
CONTINUOUS
 70
0
 71
3
 72
23
 73
19
 74
0
 42
0.0000001
 43
0.0000001
 44
0.0000000001
 40
0.0
 40
0.0
 40
0.0
 40
0.0
 40
0.0504668086
 40
0.1051028746
 40
0.1637020409
 40
0.2259299482
 40
0.2913657893
 40
0.3593826377
 40
0.4292225959
 40
0.4999999991
 40
0.5707774032
 40
0.6406173626
 40
0.7086342113
 40
0.7740700524
 40
0.8362979596
 40
0.8948971256
 40
0.9495331914
 40
1.0
 40
1.0
 40
1.0
 40
1.0
 10
4.6773683538
 20
5.0454010791
 30
0.0
 10
4.6777723426
 20
5.0415930332
 30
0.0
 10
4.6785426527
 20
5.0336547027
 30
0.0
 10
4.6795507831
 20
5.0212735608
 30
0.0
 10
4.6804403853
 20
5.0079887578
 30
0.0
 10
4.6811967443
 20
4.9938750099
 30
0.0
 10
4.6818035044
 20
4.9790388164
 30
0.0
 10
4.6822487773
 20
4.9636190618
 30
0.0
 10
4.6825199256
 20
4.9477898929
 30
0.0
 10
4.6826117141
 20
4.9317491985
 30
0.0
 10
4.6825199256
 20
4.915708504
 30
0.0
 10
4.6822487773
 20
4.8998793349
 30
0.0
 10
4.6818035044
 20
4.8844595802
 30
0.0
 10
4.6811967443
 20
4.8696233867
 30
0.0
 10
4.6804403853
 20
4.8555096389
 30
0.0
 10
4.6795507831
 20
4.8422248359
 30
0.0
 10
4.6785426527
 20
4.829843694
 30
0.0
 10
4.6777723426
 20
4.8219053635
 30
0.0
 10
4.6773683538
 20
4.8180973176
 30
0.0
  0
SPLINE
  5
45D
100
AcDbEntity
  8
0
100
AcDbSpline
 62
7
  6
CONTINUOUS
 70
0
 71
3
 72
31
 73
27
 74
0
 42
0.0000001
 43
0.0000001
 44
0.0000000001
 40
0.0
 40
0.0
 40
0.0
 40
0.0
 40
0.0624593199
 40
0.0937225665
 40
0.1249883758
 40
0.1562534605
 40
0.1875146703
 40
0.2499960282
 40
0.281247631
 40
0.3125056383
 40
0.3749954502
 40
0.4062526795
 40
0.4375117564
 40
0.5000000006
 40
0.5624882442
 40
0.5937473206
 40
0.6250045496
 40
0.6874943612
 40
0.7187523685
 40
0.7500039713
 40
0.8124853293
 40
0.8437465392
 40
0.875011624
 40
0.9062774334
 40
0.9375406801
 40
1.0
 40
1.0
 40
1.0
 40
1.0
 10
4.6227241608
 20
4.8180973176
 30
0.0
 10
4.6187746622
 20
4.8217463422
 30
0.0
 10
4.6130689291
 20
4.8274694628
 30
0.0
 10
4.605985454
 20
4.8355728111
 30
0.0
 10
4.6009497315
 20
4.8418888549
 30
0.0
 10
4.5962163471
 20
4.8484346609
 30
0.0
 10
4.5903381213
 20
4.857453141
 30
0.0
 10
4.5851384998
 20
4.8668999137
 30
0.0
 10
4.5807083759
 20
4.8767110489
 30
0.0
 10
4.5768127256
 20
4.8867468187
 30
0.0
 10
4.5737450133
 20
4.897089855
 30
0.0
 10
4.5715768913
 20
4.907636052
 30
0.0
 10
4.5700185917
 20
4.9182896056
 30
0.0
 10
4.5692266156
 20
4.9317491985
 30
0.0
 10
4.5700185916
 20
4.9452087913
 30
0.0
 10
4.5715768913
 20
4.9558623448
 30
0.0
 10
4.5737450134
 20
4.9664085417
 30
0.0
 10
4.5768127256
 20
4.976751578
 30
0.0
 10
4.5807083758
 20
4.9867873477
 30
0.0
 10
4.5851384998
 20
4.9965984829
 30
0.0
 10
4.5903381213
 20
5.0060452556
 30
0.0
 10
4.5962163471
 20
5.0150637358
 30
0.0
 10
4.6009497315
 20
5.0216095418
 30
0.0
 10
4.605985454
 20
5.0279255856
 30
0.0
 10
4.6130689291
 20
5.0360289339
 30
0.0
 10
4.6187746621
 20
5.0417520545
 30
0.0
 10
4.6227241608
 20
5.0454010791
 30
0.0
  0
SPLINE
  5
45E
100
AcDbEntity
  8
0
100
AcDbSpline
 62
7
  6
CONTINUOUS
 70
0
 71
3
 72
31
 73
27
 74
0
 42
0.0000001
 43
0.0000001
 44
0.0000000001
 40
0.0
 40
0.0
 40
0.0
 40
0.0
 40
0.0623745027
 40
0.0936050447
 40
0.1248448584
 40
0.1560907575
 40
0.1873395837
 40
0.2498161391
 40
0.2810747319
 40
0.3123455018
 40
0.3748759915
 40
0.4061595655
 40
0.4374479335
 40
0.5000000006
 40
0.562552067
 40
0.5938404346
 40
0.6251240083
 40
0.6876544977
 40
0.7189252676
 40
0.7501838604
 40
0.8126604159
 40
0.8439092422
 40
0.8751551414
 40
0.9063949552
 40
0.9376254972
 40
1.0
 40
1.0
 40
1.0
 40
1.0
 10
4.5731975511
 20
4.8180973176
 30
0.0
 10
4.5692662757
 20
4.82174708
 30
0.0
 10
4.5635875029
 20
4.8274709182
 30
0.0
 10
4.5565388921
 20
4.835573477
 30
0.0
 10
4.5515274407
 20
4.8418895569
 30
0.0
 10
4.5468168848
 20
4.8484353847
 30
0.0
 10
4.5409663958
 20
4.857454847
 30
0.0
 10
4.5357920703
 20
4.8669016223
 30
0.0
 10
4.5313837972
 20
4.8767117355
 30
0.0
 10
4.5275066722
 20
4.8867482605
 30
0.0
 10
4.5244539922
 20
4.8970910305
 30
0.0
 10
4.5222965047
 20
4.9076364265
 30
0.0
 10
4.5207457149
 20
4.918290137
 30
0.0
 10
4.5199576416
 20
4.9317491985
 30
0.0
 10
4.5207457149
 20
4.9452082599
 30
0.0
 10
4.5222965047
 20
4.9558619702
 30
0.0
 10
4.5244539923
 20
4.9664073662
 30
0.0
 10
4.5275066721
 20
4.9767501361
 30
0.0
 10
4.5313837971
 20
4.9867866611
 30
0.0
 10
4.5357920703
 20
4.9965967743
 30
0.0
 10
4.5409663957
 20
5.0060435496
 30
0.0
 10
4.5468168848
 20
5.0150630119
 30
0.0
 10
4.5515274407
 20
5.0216088398
 30
0.0
 10
4.5565388921
 20
5.0279249196
 30
0.0
 10
4.5635875029
 20
5.0360274786
 30
0.0
 10
4.5692662757
 20
5.0417513167
 30
0.0
 10
4.5731975511
 20
5.0454010791
 30
0.0
  0
SPLINE
  5
45F
100
AcDbEntity
  8
0
100
AcDbSpline
 62
7
  6
CONTINUOUS
 70
0
 71
3
 72
29
 73
25
 74
0
 42
0.0000001
 43
0.0000001
 44
0.0000000001
 40
0.0
 40
0.0
 40
0.0
 40
0.0
 40
0.0621230307
 40
0.0932569561
 40
0.1244202642
 40
0.1868050968
 40
0.249269811
 40
0.2805505202
 40
0.3118606234
 40
0.3745149327
 40
0.4058782984
 40
0.4372552263
 40
0.5000000006
 40
0.5627447743
 40
0.5941217017
 40
0.6254850671
 40
0.6881393761
 40
0.7194494793
 40
0.7507301885
 40
0.8131949028
 40
0.8755797356
 40
0.9067430438
 40
0.9378769693
 40
1.0
 40
1.0
 40
1.0
 40
1.0
 10
4.5292654932
 20
4.8180973176
 30
0.0
 10
4.5253887327
 20
4.8217493099
 30
0.0
 10
4.5197906293
 20
4.8274752476
 30
0.0
 10
4.5128461891
 20
4.8355755762
 30
0.0
 10
4.506259554
 20
4.8439987529
 30
0.0
 10
4.4987679276
 20
4.8551052682
 30
0.0
 10
4.4923990605
 20
4.8669064865
 30
0.0
 10
4.488055871
 20
4.8767138239
 30
0.0
 10
4.4842342181
 20
4.8867525232
 30
0.0
 10
4.4812264488
 20
4.8970945226
 30
0.0
 10
4.4791007506
 20
4.9076375363
 30
0.0
 10
4.4775724168
 20
4.9182917118
 30
0.0
 10
4.4767960071
 20
4.9317491985
 30
0.0
 10
4.4775724168
 20
4.9452066851
 30
0.0
 10
4.4791007506
 20
4.9558608604
 30
0.0
 10
4.4812264488
 20
4.966403874
 30
0.0
 10
4.484234218
 20
4.9767458734
 30
0.0
 10
4.488055871
 20
4.9867845727
 30
0.0
 10
4.4923990604
 20
4.9965919101
 30
0.0
 10
4.4987679275
 20
5.0083931285
 30
0.0
 10
4.5062595539
 20
5.0194996438
 30
0.0
 10
4.5128461891
 20
5.0279228205
 30
0.0
 10
4.5197906293
 20
5.0360231491
 30
0.0
 10
4.5253887327
 20
5.0417490868
 30
0.0
 10
4.5292654932
 20
5.0454010791
 30
0.0
  0
SPLINE
  5
460
100
AcDbEntity
  8
0
100
AcDbSpline
 62
7
  6
CONTINUOUS
 70
0
 71
3
 72
29
 73
25
 74
0
 42
0.0000001
 43
0.0000001
 44
0.0000000001
 40
0.0
 40
0.0
 40
0.0
 40
0.0
 40
0.0617027268
 40
0.0926750298
 40
0.1237101601
 40
0.1859404667
 40
0.2483826855
 40
0.2796983971
 40
0.3110718494
 40
0.373927077
 40
0.4054202445
 40
0.4369413462
 40
0.5000000006
 40
0.5630586544
 40
0.5945797556
 40
0.6260729228
 40
0.6889281501
 40
0.7203016024
 40
0.751617314
 40
0.814059533
 40
0.8762898397
 40
0.9073249701
 40
0.9382972732
 40
1.0
 40
1.0
 40
1.0
 40
1.0
 10
4.4913510767
 20
4.8180973176
 30
0.0
 10
4.4875646627
 20
4.8217530808
 30
0.0
 10
4.482100187
 20
4.8274826259
 30
0.0
 10
4.4753282785
 20
4.8355789309
 30
0.0
 10
4.4688984127
 20
4.8440069513
 30
0.0
 10
4.4615863322
 20
4.8551199187
 30
0.0
 10
4.4553771406
 20
4.8669148866
 30
0.0
 10
4.4511419991
 20
4.8767171824
 30
0.0
 10
4.4474121731
 20
4.8867595442
 30
0.0
 10
4.4444787563
 20
4.8971002087
 30
0.0
 10
4.4424056422
 20
4.9076393439
 30
0.0
 10
4.4409144952
 20
4.9182942703
 30
0.0
 10
4.4401573741
 20
4.9317491985
 30
0.0
 10
4.4409144952
 20
4.9452041266
 30
0.0
 10
4.4424056422
 20
4.9558590529
 30
0.0
 10
4.4444787563
 20
4.966398188
 30
0.0
 10
4.447412173
 20
4.9767388524
 30
0.0
 10
4.451141999
 20
4.9867812142
 30
0.0
 10
4.4553771405
 20
4.99658351
 30
0.0
 10
4.4615863322
 20
5.0083784779
 30
0.0
 10
4.4688984126
 20
5.0194914453
 30
0.0
 10
4.4753282785
 20
5.0279194658
 30
0.0
 10
4.482100187
 20
5.0360157708
 30
0.0
 10
4.4875646627
 20
5.0417453159
 30
0.0
 10
4.4913510767
 20
5.0454010791
 30
0.0
  0
SPLINE
  5
461
100
AcDbEntity
  8
0
100
AcDbSpline
 62
7
  6
CONTINUOUS
 70
0
 71
3
 72
15
 73
11
 74
0
 42
0.0000001
 43
0.0000001
 44
0.0000000001
 40
0.0
 40
0.0
 40
0.0
 40
0.0
 40
0.1227602585
 40
0.2472141357
 40
0.3731534644
 40
0.5000000006
 40
0.6268465354
 40
0.7527858638
 40
0.8772397413
 40
1.0
 40
1.0
 40
1.0
 40
1.0
 10
4.4598194382
 20
4.8180973176
 30
0.0
 10
4.452476098
 20
4.8254409872
 30
0.0
 10
4.4388787236
 20
4.8414920193
 30
0.0
 10
4.423111361
 20
4.8690571334
 30
0.0
 10
4.4130094655
 20
4.8995725493
 30
0.0
 10
4.4095212983
 20
4.9317491984
 30
0.0
 10
4.4130094656
 20
4.9639258474
 30
0.0
 10
4.4231113609
 20
4.9944412632
 30
0.0
 10
4.4388787236
 20
5.0220063774
 30
0.0
 10
4.452476098
 20
5.0380574095
 30
0.0
 10
4.4598194382
 20
5.0454010791
 30
0.0
  0
SPLINE
  5
462
100
AcDbEntity
  8
0
100
AcDbSpline
 62
7
  6
CONTINUOUS
 70
0
 71
3
 72
15
 73
11
 74
0
 42
0.0000001
 43
0.0000001
 44
0.0000000001
 40
0.0
 40
0.0
 40
0.0
 40
0.0
 40
0.1215114133
 40
0.2456633514
 40
0.3721306194
 40
0.5000000006
 40
0.6278693803
 40
0.7543366481
 40
0.8784885865
 40
1.0
 40
1.0
 40
1.0
 40
1.0
 10
4.4349742445
 20
4.8180973176
 30
0.0
 10
4.4279367881
 20
4.8254699187
 30
0.0
 10
4.4149163066
 20
4.8415938292
 30
0.0
 10
4.3998925942
 20
4.8691556029
 30
0.0
 10
4.3902797722
 20
4.8996348873
 30
0.0
 10
4.3869635
 20
4.9317491984
 30
0.0
 10
4.3902797723
 20
4.9638635094
 30
0.0
 10
4.3998925942
 20
4.9943427937
 30
0.0
 10
4.4149163066
 20
5.0219045675
 30
0.0
 10
4.4279367881
 20
5.038028478
 30
0.0
 10
4.4349742445
 20
5.0454010791
 30
0.0
  0
SPLINE
  5
463
100
AcDbEntity
  8
0
100
AcDbSpline
 62
7
  6
CONTINUOUS
 70
0
 71
3
 72
27
 73
23
 74
0
 42
0.0000001
 43
0.0000001
 44
0.0000000001
 40
0.0
 40
0.0
 40
0.0
 40
0.0
 40
0.0595035804
 40
0.1199964788
 40
0.1814409985
 40
0.2437852015
 40
0.2752901605
 40
0.3069978332
 40
0.3388816477
 40
0.3709167702
 40
0.4353266257
 40
0.5000000006
 40
0.5646733749
 40
0.6290832295
 40
0.6611183519
 40
0.6930021663
 40
0.724709839
 40
0.756214798
 40
0.8185590012
 40
0.880003521
 40
0.9404964195
 40
1.0
 40
1.0
 40
1.0
 40
1.0
 10
4.4170547686
 20
4.8180973176
 30
0.0
 10
4.4137455156
 20
4.8217745275
 30
0.0
 10
4.4073751357
 20
4.8294695537
 30
0.0
 10
4.3987606624
 20
4.8418745856
 30
0.0
 10
4.3911534822
 20
4.855196572
 30
0.0
 10
4.3857806565
 20
4.8669580331
 30
0.0
 10
4.3821118931
 20
4.8767340375
 30
0.0
 10
4.3796836668
 20
4.8842612262
 30
0.0
 10
4.3776009406
 20
4.8919369661
 30
0.0
 10
4.3752981623
 20
4.9023579854
 30
0.0
 10
4.3733600458
 20
4.9156349215
 30
0.0
 10
4.3725742856
 20
4.9317491985
 30
0.0
 10
4.3733600458
 20
4.9478634753
 30
0.0
 10
4.3752981623
 20
4.9611404113
 30
0.0
 10
4.3776009405
 20
4.9715614305
 30
0.0
 10
4.3796836668
 20
4.9792371704
 30
0.0
 10
4.3821118931
 20
4.9867643591
 30
0.0
 10
4.3857806564
 20
4.9965403635
 30
0.0
 10
4.3911534822
 20
5.0083018247
 30
0.0
 10
4.3987606624
 20
5.0216238111
 30
0.0
 10
4.4073751356
 20
5.034028843
 30
0.0
 10
4.4137455155
 20
5.0417238692
 30
0.0
 10
4.4170547686
 20
5.0454010791
 30
0.0
  0
SPLINE
  5
464
100
AcDbEntity
  8
0
100
AcDbSpline
 62
7
  6
CONTINUOUS
 70
0
 71
3
 72
23
 73
19
 74
0
 42
0.0000001
 43
0.0000001
 44
0.0000000001
 40
0.0
 40
0.0
 40
0.0
 40
0.0
 40
0.0586086141
 40
0.1185021173
 40
0.1796464978
 40
0.2419703539
 40
0.3053940927
 40
0.3697187303
 40
0.4346920533
 40
0.5000000007
 40
0.5653079475
 40
0.6302812695
 40
0.6946059068
 40
0.7580296456
 40
0.8203535018
 40
0.8814978825
 40
0.9413913859
 40
1.0
 40
1.0
 40
1.0
 40
1.0
 10
4.4048335378
 20
4.8197920881
 30
0.0
 10
4.4018426719
 20
4.8234589556
 30
0.0
 10
4.3960915472
 20
4.8311203008
 30
0.0
 10
4.3883474748
 20
4.8434028972
 30
0.0
 10
4.3815201407
 20
4.8565588593
 30
0.0
 10
4.3757217261
 20
4.8705095557
 30
0.0
 10
4.3710742073
 20
4.8851551222
 30
0.0
 10
4.3676660449
 20
4.9003576413
 30
0.0
 10
4.3655919395
 20
4.9159527501
 30
0.0
 10
4.3648898526
 20
4.9317491985
 30
0.0
 10
4.3655919395
 20
4.9475456469
 30
0.0
 10
4.367666045
 20
4.9631407556
 30
0.0
 10
4.3710742073
 20
4.9783432745
 30
0.0
 10
4.3757217261
 20
4.9929888411
 30
0.0
 10
4.3815201407
 20
5.0069395375
 30
0.0
 10
4.3883474748
 20
5.0200954996
 30
0.0
 10
4.3960915473
 20
5.032378096
 30
0.0
 10
4.401842672
 20
5.0400394412
 30
0.0
 10
4.4048335379
 20
5.0437063087
 30
0.0
  0
SPLINE
  5
465
100
AcDbEntity
  8
0
100
AcDbSpline
 62
7
  6
CONTINUOUS
 70
0
 71
3
 72
23
 73
19
 74
0
 42
0.0000001
 43
0.0000001
 44
0.0000000001
 40
0.0
 40
0.0
 40
0.0
 40
0.0
 40
0.1163848159
 40
0.1771174251
 40
0.2394061601
 40
0.3031307189
 40
0.3354636854
 40
0.3680509889
 40
0.4338058746
 40
0.4999999992
 40
0.5661941245
 40
0.6319490114
 40
0.6645363151
 40
0.6968692817
 40
0.7605938406
 40
0.8228825754
 40
0.8836151843
 40
1.0
 40
1.0
 40
1.0
 40
1.0
 10
5.1541149068
 20
5.0454010791
 30
0.0
 10
5.1598586703
 20
5.0378961538
 30
0.0
 10
5.1676844278
 20
5.0257328079
 30
0.0
 10
5.1761737137
 20
5.0082281951
 30
0.0
 10
5.1816664454
 20
4.9940744475
 30
0.0
 10
5.1853215671
 20
4.9817308684
 30
0.0
 10
5.1876700862
 20
4.9715495207
 30
0.0
 10
5.1896297087
 20
4.9611183095
 30
0.0
 10
5.1912755001
 20
4.9478428892
 30
0.0
 10
5.1919420897
 20
4.9317491985
 30
0.0
 10
5.1912755001
 20
4.9156555078
 30
0.0
 10
5.1896297087
 20
4.9023800872
 30
0.0
 10
5.1876700862
 20
4.8919488759
 30
0.0
 10
5.185321567
 20
4.8817675281
 30
0.0
 10
5.1816664453
 20
4.8694239491
 30
0.0
 10
5.1761737136
 20
4.8552702015
 30
0.0
 10
5.1676844277
 20
4.8377655888
 30
0.0
 10
5.1598586703
 20
4.8256022429
 30
0.0
 10
5.1541149068
 20
4.8180973176
 30
0.0
  0
SPLINE
  5
466
100
AcDbEntity
  8
0
100
AcDbSpline
 62
7
  6
CONTINUOUS
 70
0
 71
3
 72
27
 73
23
 74
0
 42
0.0000001
 43
0.0000001
 44
0.0000000001
 40
0.0
 40
0.0
 40
0.0
 40
0.0
 40
0.0584947856
 40
0.1183088296
 40
0.1794044686
 40
0.2417126406
 40
0.2733064929
 40
0.3051675465
 40
0.3372621401
 40
0.369557697
 40
0.4346046089
 40
0.4999999992
 40
0.5653953903
 40
0.6304423032
 40
0.6627378604
 40
0.6948324541
 40
0.7266935078
 40
0.7582873601
 40
0.8205955319
 40
0.8816911707
 40
0.9415052145
 40
1.0
 40
1.0
 40
1.0
 40
1.0
 10
5.2277747878
 20
5.0454010791
 30
0.0
 10
5.230860478
 20
5.0417129868
 30
0.0
 10
5.2367983736
 20
5.0339941117
 30
0.0
 10
5.2448038198
 20
5.0215876997
 30
0.0
 10
5.2518717443
 20
5.0082664874
 30
0.0
 10
5.256857063
 20
4.9965212088
 30
0.0
 10
5.2602633139
 20
4.9867568685
 30
0.0
 10
5.2625202331
 20
4.9792304582
 30
0.0
 10
5.2644560148
 20
4.9715556051
 30
0.0
 10
5.2665975367
 20
4.9611296489
 30
0.0
 10
5.2683981068
 20
4.947853383
 30
0.0
 10
5.2691277316
 20
4.9317491985
 30
0.0
 10
5.2683981068
 20
4.9156450139
 30
0.0
 10
5.2665975368
 20
4.9023687478
 30
0.0
 10
5.2644560148
 20
4.8919427915
 30
0.0
 10
5.2625202331
 20
4.8842679384
 30
0.0
 10
5.2602633138
 20
4.8767415281
 30
0.0
 10
5.2568570629
 20
4.8669771878
 30
0.0
 10
5.2518717442
 20
4.8552319092
 30
0.0
 10
5.2448038198
 20
4.8419106969
 30
0.0
 10
5.2367983736
 20
4.829504285
 30
0.0
 10
5.230860478
 20
4.82178541
 30
0.0
 10
5.2277747878
 20
4.8180973176
 30
0.0
  0
SPLINE
  5
467
100
AcDbEntity
  8
0
100
AcDbSpline
 62
7
  6
CONTINUOUS
 70
0
 71
3
 72
23
 73
19
 74
0
 42
0.0000001
 43
0.0000001
 44
0.0000000001
 40
0.0
 40
0.0
 40
0.0
 40
0.0
 40
0.1144229474
 40
0.1747637878
 40
0.2370240059
 40
0.3010386632
 40
0.3336160782
 40
0.3665029824
 40
0.4329852746
 40
0.5000000007
 40
0.5670147261
 40
0.6334970173
 40
0.6663839213
 40
0.6989613363
 40
0.7629759936
 40
0.8252362118
 40
0.8855770524
 40
1.0
 40
1.0
 40
1.0
 40
1.0
 10
5.2277747878
 20
4.8180973176
 30
0.0
 10
5.2225807585
 20
4.8256618249
 30
0.0
 10
5.2155524483
 20
4.8378696926
 30
0.0
 10
5.2079682347
 20
4.8553116016
 30
0.0
 10
5.2030454304
 20
4.86946044
 30
0.0
 10
5.1997733574
 20
4.8817850828
 30
0.0
 10
5.1976689938
 20
4.8919551411
 30
0.0
 10
5.1959103457
 20
4.9023914903
 30
0.0
 10
5.1944349175
 20
4.9156660278
 30
0.0
 10
5.1938376306
 20
4.9317491985
 30
0.0
 10
5.1944349175
 20
4.947832369
 30
0.0
 10
5.1959103457
 20
4.9611069064
 30
0.0
 10
5.1976689938
 20
4.9715432555
 30
0.0
 10
5.1997733574
 20
4.9817133138
 30
0.0
 10
5.2030454303
 20
4.9940379566
 30
0.0
 10
5.2079682347
 20
5.0081867951
 30
0.0
 10
5.2155524483
 20
5.0256287041
 30
0.0
 10
5.2225807585
 20
5.0378365718
 30
0.0
 10
5.2277747878
 20
5.0454010791
 30
0.0
  0
SPLINE
  5
468
100
AcDbEntity
  8
0
100
AcDbSpline
 62
7
  6
CONTINUOUS
 70
0
 71
3
 72
27
 73
23
 74
0
 42
0.0000001
 43
0.0000001
 44
0.0000000001
 40
0.0
 40
0.0
 40
0.0
 40
0.0
 40
0.0595035805
 40
0.1199964796
 40
0.1814410009
 40
0.2437852054
 40
0.2752901643
 40
0.3069978368
 40
0.3388816509
 40
0.3709167728
 40
0.4353266262
 40
0.4999999992
 40
0.564673373
 40
0.6290832274
 40
0.6611183496
 40
0.6930021638
 40
0.7247098363
 40
0.7562147952
 40
0.8185589996
 40
0.8800035207
 40
0.9404964195
 40
1.0
 40
1.0
 40
1.0
 40
1.0
 10
5.3007252838
 20
5.0454010791
 30
0.0
 10
5.3040345369
 20
5.0417238692
 30
0.0
 10
5.3104049168
 20
5.0340288429
 30
0.0
 10
5.3190193902
 20
5.0216238109
 30
0.0
 10
5.3266265705
 20
5.0083018242
 30
0.0
 10
5.3319993962
 20
4.9965403628
 30
0.0
 10
5.3356681597
 20
4.9867643583
 30
0.0
 10
5.3380963859
 20
4.9792371697
 30
0.0
 10
5.340179112
 20
4.9715614298
 30
0.0
 10
5.3424818902
 20
4.9611404108
 30
0.0
 10
5.3444200067
 20
4.9478634751
 30
0.0
 10
5.3452057668
 20
4.9317491985
 30
0.0
 10
5.3444200067
 20
4.9156349218
 30
0.0
 10
5.3424818902
 20
4.9023579859
 30
0.0
 10
5.340179112
 20
4.8919369668
 30
0.0
 10
5.3380963859
 20
4.8842612269
 30
0.0
 10
5.3356681597
 20
4.8767340383
 30
0.0
 10
5.3319993962
 20
4.8669580338
 30
0.0
 10
5.3266265704
 20
4.8551965724
 30
0.0
 10
5.3190193902
 20
4.8418745857
 30
0.0
 10
5.3104049168
 20
4.8294695538
 30
0.0
 10
5.3040345369
 20
4.8217745275
 30
0.0
 10
5.3007252838
 20
4.8180973176
 30
0.0
  0
SPLINE
  5
469
100
AcDbEntity
  8
0
100
AcDbSpline
 62
7
  6
CONTINUOUS
 70
0
 71
3
 72
23
 73
19
 74
0
 42
0.0000001
 43
0.0000001
 44
0.0000000001
 40
0.0
 40
0.0
 40
0.0
 40
0.0
 40
0.0549798157
 40
0.1124764039
 40
0.1724187266
 40
0.2346500632
 40
0.2989564674
 40
0.3649569846
 40
0.4321662341
 40
0.5000000007
 40
0.5678337666
 40
0.6350430152
 40
0.7010435321
 40
0.7653499362
 40
0.8275812731
 40
0.8875235959
 40
0.9450201842
 40
1.0
 40
1.0
 40
1.0
 40
1.0
 10
5.3007252838
 20
4.8180973176
 30
0.0
 10
5.2984809765
 20
4.8218296317
 30
0.0
 10
5.2941721946
 20
4.8296383701
 30
0.0
 10
5.2884309819
 20
4.8420426461
 30
0.0
 10
5.2833648885
 20
4.8553549583
 30
0.0
 10
5.2790589146
 20
4.8694968372
 30
0.0
 10
5.275604859
 20
4.8843636714
 30
0.0
 10
5.2730705763
 20
4.8998143225
 30
0.0
 10
5.2715273199
 20
4.9156759485
 30
0.0
 10
5.2710049701
 20
4.9317491985
 30
0.0
 10
5.2715273199
 20
4.9478224484
 30
0.0
 10
5.2730705763
 20
4.9636840742
 30
0.0
 10
5.2756048589
 20
4.9791347253
 30
0.0
 10
5.2790589145
 20
4.9940015594
 30
0.0
 10
5.2833648884
 20
5.0081434383
 30
0.0
 10
5.2884309819
 20
5.0214557506
 30
0.0
 10
5.2941721946
 20
5.0338600266
 30
0.0
 10
5.2984809765
 20
5.041668765
 30
0.0
 10
5.3007252838
 20
5.0454010791
 30
0.0
  0
SPLINE
  5
46A
100
AcDbEntity
  8
0
100
AcDbSpline
 62
7
  6
CONTINUOUS
 70
0
 71
3
 72
15
 73
11
 74
0
 42
0.0000001
 43
0.0000001
 44
0.0000000001
 40
0.0
 40
0.0
 40
0.0
 40
0.0
 40
0.1215114141
 40
0.2456633553
 40
0.372130622
 40
0.4999999992
 40
0.6278693782
 40
0.7543366454
 40
0.8784885861
 40
1.0
 40
1.0
 40
1.0
 40
1.0
 10
5.3722638418
 20
5.0454010791
 30
0.0
 10
5.3793012983
 20
5.038028478
 30
0.0
 10
5.39232178
 20
5.0219045672
 30
0.0
 10
5.4073454923
 20
4.9943427932
 30
0.0
 10
5.4169583141
 20
4.963863509
 30
0.0
 10
5.4202745862
 20
4.9317491984
 30
0.0
 10
5.4169583141
 20
4.8996348878
 30
0.0
 10
5.4073454923
 20
4.8691556034
 30
0.0
 10
5.3923217799
 20
4.8415938295
 30
0.0
 10
5.3793012983
 20
4.8254699187
 30
0.0
 10
5.3722638418
 20
4.8180973176
 30
0.0
  0
SPLINE
  5
46B
100
AcDbEntity
  8
0
100
AcDbSpline
 62
7
  6
CONTINUOUS
 70
0
 71
3
 72
23
 73
19
 74
0
 42
0.0000001
 43
0.0000001
 44
0.0000000001
 40
0.0
 40
0.0
 40
0.0
 40
0.0
 40
0.0537818634
 40
0.110505798
 40
0.1700759961
 40
0.2322957843
 40
0.2969000037
 40
0.3634430791
 40
0.4313656234
 40
0.5000000007
 40
0.5686343772
 40
0.6365569206
 40
0.7030999957
 40
0.7677042152
 40
0.8299240035
 40
0.8894942018
 40
0.9462181365
 40
1.0
 40
1.0
 40
1.0
 40
1.0
 10
5.3722638418
 20
4.8180973176
 30
0.0
 10
5.3703505343
 20
4.8218473328
 30
0.0
 10
5.3666819827
 20
4.8296889965
 30
0.0
 10
5.3618155578
 20
4.8420896745
 30
0.0
 10
5.3575217926
 20
4.8553964202
 30
0.0
 10
5.3538722937
 20
4.8695317476
 30
0.0
 10
5.3509449532
 20
4.8843907077
 30
0.0
 10
5.3487971092
 20
4.8998329223
 30
0.0
 10
5.347489213
 20
4.915685345
 30
0.0
 10
5.3470465155
 20
4.9317491985
 30
0.0
 10
5.3474892129
 20
4.9478130519
 30
0.0
 10
5.3487971092
 20
4.9636654744
 30
0.0
 10
5.3509449532
 20
4.979107689
 30
0.0
 10
5.3538722937
 20
4.9939666491
 30
0.0
 10
5.3575217926
 20
5.0081019764
 30
0.0
 10
5.3618155578
 20
5.0214087221
 30
0.0
 10
5.3666819827
 20
5.0338094002
 30
0.0
 10
5.3703505343
 20
5.0416510639
 30
0.0
 10
5.3722638418
 20
5.0454010791
 30
0.0
  0
SPLINE
  5
46C
100
AcDbEntity
  8
0
100
AcDbSpline
 62
7
  6
CONTINUOUS
 70
0
 71
3
 72
15
 73
11
 74
0
 42
0.0000001
 43
0.0000001
 44
0.0000000001
 40
0.0
 40
0.0
 40
0.0
 40
0.0
 40
0.1227602593
 40
0.2472141396
 40
0.3731534669
 40
0.4999999992
 40
0.6268465333
 40
0.7527858611
 40
0.8772397409
 40
1.0
 40
1.0
 40
1.0
 40
1.0
 10
5.4417015063
 20
5.0454010791
 30
0.0
 10
5.4490448465
 20
5.0380574095
 30
0.0
 10
5.4626422211
 20
5.0220063771
 30
0.0
 10
5.4784095837
 20
4.9944412627
 30
0.0
 10
5.4885114789
 20
4.963925847
 30
0.0
 10
5.491999646
 20
4.9317491984
 30
0.0
 10
5.4885114789
 20
4.8995725498
 30
0.0
 10
5.4784095836
 20
4.8690571339
 30
0.0
 10
5.462642221
 20
4.8414920195
 30
0.0
 10
5.4490448464
 20
4.8254409872
 30
0.0
 10
5.4417015063
 20
4.8180973176
 30
0.0
  0
SPLINE
  5
46D
100
AcDbEntity
  8
0
100
AcDbSpline
 62
7
  6
CONTINUOUS
 70
0
 71
3
 72
16
 73
12
 74
0
 42
0.0000001
 43
0.0000001
 44
0.0000000001
 40
0.0
 40
0.0
 40
0.0
 40
0.0
 40
0.0075861141
 40
0.0207910099
 40
0.0688808776
 40
0.1473834814
 40
0.2566356036
 40
0.3966935063
 40
0.5675312009
 40
0.7688584547
 40
1.0
 40
1.0
 40
1.0
 40
1.0
 10
3.3143118491
 20
2.9538748161
 30
0.0
 10
3.3143120112
 20
2.9538854194
 30
0.0
 10
3.314333923
 20
2.9539106499
 30
0.0
 10
3.3144231522
 20
2.9539441647
 30
0.0
 10
3.3146178479
 20
2.9539786001
 30
0.0
 10
3.3149454237
 20
2.9540070391
 30
0.0
 10
3.3154037121
 20
2.9540279717
 30
0.0
 10
3.3159907936
 20
2.9540391493
 30
0.0
 10
3.316706906
 20
2.9540404193
 30
0.0
 10
3.3175502028
 20
2.9540313816
 30
0.0
 10
3.3181546386
 20
2.9540194752
 30
0.0
 10
3.3184776625
 20
2.9540120695
 30
0.0
  0
LINE
  5
46E
100
AcDbEntity
  8
0
100
AcDbLine
 62
7
  6
CONTINUOUS
 10
3.3184776625
 20
2.9540120695
 11
3.3240202783
 21
2.9538202862
  0
SPLINE
  5
46F
100
AcDbEntity
  8
0
100
AcDbSpline
 62
7
  6
CONTINUOUS
 70
0
 71
3
 72
16
 73
12
 74
0
 42
0.0000001
 43
0.0000001
 44
0.0000000001
 40
0.0
 40
0.0
 40
0.0
 40
0.0
 40
0.028880525
 40
0.0518350558
 40
0.0815039717
 40
0.1181922168
 40
0.162054369
 40
0.271596773
 40
0.4104633496
 40
0.5784508008
 40
1.0
 40
1.0
 40
1.0
 40
1.0
 10
6.6851042588
 20
2.9452154857
 30
0.0
 10
6.6851048025
 20
2.9452627317
 30
0.0
 10
6.6851708829
 20
2.9453362113
 30
0.0
 10
6.6852800137
 20
2.9454062744
 30
0.0
 10
6.6854121576
 20
2.9454721471
 30
0.0
 10
6.6855791838
 20
2.9455391555
 30
0.0
 10
6.6858736945
 20
2.9456400257
 30
0.0
 10
6.6863347431
 20
2.9457675696
 30
0.0
 10
6.6869985756
 20
2.9459211672
 30
0.0
 10
6.6881670996
 20
2.9461554963
 30
0.0
 10
6.6891186205
 20
2.9463146205
 30
0.0
 10
6.6897998932
 20
2.9464218646
 30
0.0
  0
SPLINE
  5
470
100
AcDbEntity
  8
0
100
AcDbSpline
 62
7
  6
CONTINUOUS
 70
0
 71
3
 72
16
 73
12
 74
0
 42
0.0000001
 43
0.0000001
 44
0.0000000001
 40
0.0
 40
0.0
 40
0.0
 40
0.0
 40
0.0322797022
 40
0.0715208869
 40
0.1689644843
 40
0.2879813406
 40
0.4232247023
 40
0.5686300182
 40
0.7176545703
 40
0.8637646873
 40
1.0
 40
1.0
 40
1.0
 40
1.0
 10
6.6897998932
 20
2.9464218646
 30
0.0
 10
6.690749596
 20
2.9465713644
 30
0.0
 10
6.6928585424
 20
2.9468724768
 30
0.0
 10
6.6978516192
 20
2.9475007034
 30
0.0
 10
6.7054244227
 20
2.9483125945
 30
0.0
 10
6.7158542684
 20
2.949284981
 30
0.0
 10
6.7277174513
 20
2.9502648993
 30
0.0
 10
6.7404799218
 20
2.951207647
 30
0.0
 10
6.7535724617
 20
2.9520698903
 30
0.0
 10
6.7663987932
 20
2.9528118272
 30
0.0
 10
6.7747979692
 20
2.9532253378
 30
0.0
 10
6.7788516498
 20
2.9534023687
 30
0.0
  0
SPLINE
  5
471
100
AcDbEntity
  8
0
100
AcDbSpline
 62
7
  6
CONTINUOUS
 70
0
 71
3
 72
16
 73
12
 74
0
 42
0.0000001
 43
0.0000001
 44
0.0000000001
 40
0.0
 40
0.0
 40
0.0
 40
0.0
 40
0.0365529218
 40
0.0618295667
 40
0.0930757558
 40
0.1750767619
 40
0.2843817983
 40
0.4215505366
 40
0.5867382433
 40
0.7797030749
 40
1.0
 40
1.0
 40
1.0
 40
1.0
 10
6.3926909123
 20
2.9459663515
 30
0.0
 10
6.3926909268
 20
2.9460266372
 30
0.0
 10
6.3927470292
 20
2.9461247447
 30
0.0
 10
6.392860962
 20
2.9462254802
 30
0.0
 10
6.3930519537
 20
2.9463532285
 30
0.0
 10
6.3933858752
 20
2.9465080859
 30
0.0
 10
6.3938963592
 20
2.9466904935
 30
0.0
 10
6.3945487707
 20
2.9468795779
 30
0.0
 10
6.3953420191
 20
2.9470753554
 30
0.0
 10
6.3962746276
 20
2.9472768428
 30
0.0
 10
6.3969438729
 20
2.9474061765
 30
0.0
 10
6.3973011485
 20
2.9474722275
 30
0.0
  0
SPLINE
  5
472
100
AcDbEntity
  8
0
100
AcDbSpline
 62
7
  6
CONTINUOUS
 70
0
 71
3
 72
13
 73
9
 74
0
 42
0.0000001
 43
0.0000001
 44
0.0000000001
 40
0.0
 40
0.0
 40
0.0
 40
0.0
 40
0.0761063043
 40
0.1686176732
 40
0.2765769309
 40
0.3987090404
 40
0.6800620344
 40
1.0
 40
1.0
 40
1.0
 40
1.0
 10
6.3973011485
 20
2.9474722275
 30
0.0
 10
6.3982429871
 20
2.9476463491
 30
0.0
 10
6.4003375202
 20
2.9479895333
 30
0.0
 10
6.403784899
 20
2.9484713331
 30
0.0
 10
6.4078149899
 20
2.9489642924
 30
0.0
 10
6.4142136537
 20
2.9496626665
 30
0.0
 10
6.4232795807
 20
2.9505035476
 30
0.0
 10
6.4308241634
 20
2.9510917073
 30
0.0
 10
6.4348402191
 20
2.9513804596
 30
0.0
  0
SPLINE
  5
473
100
AcDbEntity
  8
0
100
AcDbSpline
 62
7
  6
CONTINUOUS
 70
0
 71
3
 72
16
 73
12
 74
0
 42
0.0000001
 43
0.0000001
 44
0.0000000001
 40
0.0
 40
0.0
 40
0.0
 40
0.0
 40
0.0426248154
 40
0.0699161754
 40
0.1025716474
 40
0.1859388315
 40
0.295115545
 40
0.4309255049
 40
0.593682679
 40
0.7834610151
 40
1.0
 40
1.0
 40
1.0
 40
1.0
 10
6.0116150165
 20
2.9469452178
 30
0.0
 10
6.011615272
 20
2.947015656
 30
0.0
 10
6.0116660504
 20
2.9471297794
 30
0.0
 10
6.0117812078
 20
2.9472534323
 30
0.0
 10
6.0119671666
 20
2.9474018918
 30
0.0
 10
6.0122949476
 20
2.9475817171
 30
0.0
 10
6.0127967043
 20
2.9477893554
 30
0.0
 10
6.0134368404
 20
2.9480012443
 30
0.0
 10
6.014214619
 20
2.9482171598
 30
0.0
 10
6.0151293736
 20
2.9484360182
 30
0.0
 10
6.0157864538
 20
2.9485745286
 30
0.0
 10
6.016137314
 20
2.9486448446
 30
0.0
  0
LINE
  5
474
100
AcDbEntity
  8
0
100
AcDbLine
 62
7
  6
CONTINUOUS
 10
6.016137314
 20
2.9486448446
 11
6.0225788773
 21
2.9496756151
  0
SPLINE
  5
475
100
AcDbEntity
  8
0
100
AcDbSpline
 62
7
  6
CONTINUOUS
 70
0
 71
3
 72
16
 73
12
 74
0
 42
0.0000001
 43
0.0000001
 44
0.0000000001
 40
0.0
 40
0.0
 40
0.0
 40
0.0
 40
0.0483262569
 40
0.0775410802
 40
0.1115575449
 40
0.1962762766
 40
0.3054048754
 40
0.4400324585
 40
0.6006008824
 40
0.7872575984
 40
1.0
 40
1.0
 40
1.0
 40
1.0
 10
5.5678425674
 20
2.9480851553
 30
0.0
 10
5.5678422544
 20
2.9481566916
 30
0.0
 10
5.5678827176
 20
2.9482719238
 30
0.0
 10
5.567984765
 20
2.9484017919
 30
0.0
 10
5.5681458426
 20
2.9485515841
 30
0.0
 10
5.5684326916
 20
2.9487329019
 30
0.0
 10
5.5688735505
 20
2.9489391871
 30
0.0
 10
5.5694354521
 20
2.9491469646
 30
0.0
 10
5.5701176846
 20
2.9493559168
 30
0.0
 10
5.5709199045
 20
2.9495653452
 30
0.0
 10
5.5714965191
 20
2.9496963754
 30
0.0
 10
5.5718044181
 20
2.949762508
 30
0.0
  0
SPLINE
  5
476
100
AcDbEntity
  8
0
100
AcDbSpline
 62
7
  6
CONTINUOUS
 70
0
 71
3
 72
16
 73
12
 74
0
 42
0.0000001
 43
0.0000001
 44
0.0000000001
 40
0.0
 40
0.0
 40
0.0
 40
0.0
 40
0.0480320881
 40
0.0770028945
 40
0.1107752379
 40
0.195176157
 40
0.3042573828
 40
0.4390533719
 40
0.599927058
 40
0.7869396773
 40
1.0
 40
1.0
 40
1.0
 40
1.0
 10
5.091615648
 20
2.9493084976
 30
0.0
 10
5.0916154696
 20
2.9493855714
 30
0.0
 10
5.0916595927
 20
2.949509619
 30
0.0
 10
5.0917710107
 20
2.9496482144
 30
0.0
 10
5.0919470481
 20
2.9498071579
 30
0.0
 10
5.0922609789
 20
2.9499972066
 30
0.0
 10
5.0927430853
 20
2.9502107596
 30
0.0
 10
5.0933574794
 20
2.9504232692
 30
0.0
 10
5.0941029459
 20
2.9506343544
 30
0.0
 10
5.094978709
 20
2.9508432062
 30
0.0
 10
5.0956076878
 20
2.9509721754
 30
0.0
 10
5.0959433946
 20
2.951036873
 30
0.0
  0
LINE
  5
477
100
AcDbEntity
  8
0
100
AcDbLine
 62
7
  6
CONTINUOUS
 10
5.0959433946
 20
2.951036873
 11
5.1003330883
 21
2.9517165963
  0
SPLINE
  5
478
100
AcDbEntity
  8
0
100
AcDbSpline
 62
7
  6
CONTINUOUS
 70
0
 71
3
 72
16
 73
12
 74
0
 42
0.0000001
 43
0.0000001
 44
0.0000000001
 40
0.0
 40
0.0
 40
0.0
 40
0.0
 40
0.0469948175
 40
0.0754352456
 40
0.1087120394
 40
0.1922963133
 40
0.3009967356
 40
0.4359003008
 40
0.5973606203
 40
0.7854277502
 40
1.0
 40
1.0
 40
1.0
 40
1.0
 10
4.6153902371
 20
2.9505318674
 30
0.0
 10
4.615390127
 20
2.950605665
 30
0.0
 10
4.6154338698
 20
2.9507245556
 30
0.0
 10
4.6155436864
 20
2.9508553585
 30
0.0
 10
4.6157173938
 20
2.9510049269
 30
0.0
 10
4.6160270483
 20
2.9511815873
 30
0.0
 10
4.6165026872
 20
2.9513772062
 30
0.0
 10
4.6171097002
 20
2.9515693547
 30
0.0
 10
4.6178469803
 20
2.9517576834
 30
0.0
 10
4.6187137407
 20
2.9519414361
 30
0.0
 10
4.6193361553
 20
2.9520531887
 30
0.0
 10
4.6196684702
 20
2.9521088901
 30
0.0
  0
LINE
  5
479
100
AcDbEntity
  8
0
100
AcDbLine
 62
7
  6
CONTINUOUS
 10
4.6196684702
 20
2.9521088901
 11
4.6276231215
 21
2.9530056834
  0
SPLINE
  5
47A
100
AcDbEntity
  8
0
100
AcDbSpline
 62
7
  6
CONTINUOUS
 70
0
 71
3
 72
17
 73
13
 74
0
 42
0.0000001
 43
0.0000001
 44
0.0000000001
 40
0.0
 40
0.0
 40
0.0
 40
0.0
 40
0.0209690178
 40
0.0440770271
 40
0.0711616097
 40
0.103385486
 40
0.1856666278
 40
0.2939648737
 40
0.4294636831
 40
0.592479486
 40
0.7827843071
 40
1.0
 40
1.0
 40
1.0
 40
1.0
 10
4.1716149961
 20
2.9516720078
 30
0.0
 10
4.1716150176
 20
2.9517035943
 30
0.0
 10
4.1716274247
 20
2.951770433
 30
0.0
 10
4.1716807407
 20
2.9518650155
 30
0.0
 10
4.1717662595
 20
2.9519561551
 30
0.0
 10
4.1719369879
 20
2.9520851399
 30
0.0
 10
4.1722394895
 20
2.9522354245
 30
0.0
 10
4.1727029361
 20
2.9523991496
 30
0.0
 10
4.1732955332
 20
2.9525573613
 30
0.0
 10
4.1740161173
 20
2.952709682
 30
0.0
 10
4.1748632365
 20
2.9528555621
 30
0.0
 10
4.1754709884
 20
2.9529424733
 30
0.0
 10
4.1757953633
 20
2.9529853872
 30
0.0
  0
LINE
  5
47B
100
AcDbEntity
  8
0
100
AcDbLine
 62
7
  6
CONTINUOUS
 10
4.7248553157
 20
2.885574002
 11
4.7358698087
 21
2.8851558005
  0
LINE
  5
47C
100
AcDbEntity
  8
0
100
AcDbLine
 62
7
  6
CONTINUOUS
 10
4.7358698087
 20
2.8851558005
 11
4.7399910782
 21
2.8848845709
  0
LINE
  5
47D
100
AcDbEntity
  8
0
100
AcDbLine
 62
7
  6
CONTINUOUS
 10
4.7399910782
 20
2.8848845709
 11
4.7403009348
 21
2.8848086952
  0
LINE
  5
47E
100
AcDbEntity
  8
0
100
AcDbLine
 62
7
  6
CONTINUOUS
 10
3.7030359766
 20
2.9241681916
 11
3.7068812725
 21
2.9241659431
  0
LINE
  5
47F
100
AcDbEntity
  8
0
100
AcDbLine
 62
7
  6
CONTINUOUS
 10
4.6099883191
 20
2.9016943413
 11
4.6155747475
 21
2.9018645692
  0
LINE
  5
480
100
AcDbEntity
  8
0
100
AcDbLine
 62
7
  6
CONTINUOUS
 10
4.304362691
 20
2.9008109585
 11
4.3063850935
 21
2.9007405775
  0
SPLINE
  5
481
100
AcDbEntity
  8
0
100
AcDbSpline
 62
7
  6
CONTINUOUS
 70
0
 71
3
 72
13
 73
9
 74
0
 42
0.0000001
 43
0.0000001
 44
0.0000000001
 40
0.0
 40
0.0
 40
0.0
 40
0.0
 40
0.3178506558
 40
0.6064418868
 40
0.7317259772
 40
0.8406174792
 40
0.9306775582
 40
1.0
 40
1.0
 40
1.0
 40
1.0
 10
4.3063850935
 20
2.9007405775
 30
0.0
 10
4.3124634296
 20
2.9005270568
 30
0.0
 10
4.3240594107
 20
2.9000861862
 30
0.0
 10
4.3380474884
 20
2.8994674978
 30
0.0
 10
4.3480377593
 20
2.8989591856
 30
0.0
 10
4.3542322596
 20
2.8986102779
 30
0.0
 10
4.3593552849
 20
2.8982831612
 30
0.0
 10
4.3623967579
 20
2.8980557745
 30
0.0
 10
4.3637182664
 20
2.8979409483
 30
0.0
  0
LINE
  5
482
100
AcDbEntity
  8
0
100
AcDbLine
 62
7
  6
CONTINUOUS
 10
4.3637182664
 20
2.8979409483
 11
4.3678823407
 21
2.8973810869
  0
LINE
  5
483
100
AcDbEntity
  8
0
100
AcDbLine
 62
7
  6
CONTINUOUS
 10
3.9090318002
 20
2.9234780803
 11
3.9113435355
 21
2.923388445
  0
SPLINE
  5
484
100
AcDbEntity
  8
0
100
AcDbSpline
 62
7
  6
CONTINUOUS
 70
0
 71
3
 72
15
 73
11
 74
0
 42
0.0000001
 43
0.0000001
 44
0.0000000001
 40
0.0
 40
0.0
 40
0.0
 40
0.0
 40
0.2963549619
 40
0.4459736649
 40
0.5891777822
 40
0.7206936644
 40
0.835684558
 40
0.929953544
 40
0.9681767962
 40
1.0
 40
1.0
 40
1.0
 40
1.0
 10
3.9113435355
 20
2.923388445
 30
0.0
 10
3.9192184196
 20
2.9230779267
 30
0.0
 10
3.9310662019
 20
2.9225358035
 30
0.0
 10
3.946711736
 20
2.9216947932
 30
0.0
 10
3.9579763514
 20
2.9210241366
 30
0.0
 10
3.9683175726
 20
2.9203414657
 30
0.0
 10
3.9773551805
 20
2.9196719827
 30
0.0
 10
3.9839133499
 20
2.9191168543
 30
0.0
 10
3.9882619258
 20
2.9186875141
 30
0.0
 10
3.9901133648
 20
2.9184816638
 30
0.0
 10
3.990953454
 20
2.9183795008
 30
0.0
  0
SPLINE
  5
485
100
AcDbEntity
  8
0
100
AcDbSpline
 62
7
  6
CONTINUOUS
 70
0
 71
3
 72
18
 73
14
 74
0
 42
0.0000001
 43
0.0000001
 44
0.0000000001
 40
0.0
 40
0.0
 40
0.0
 40
0.0
 40
0.2274318935
 40
0.4259020654
 40
0.5949305939
 40
0.7343197689
 40
0.8439568107
 40
0.8876227245
 40
0.9238859309
 40
0.9528261125
 40
0.9746341184
 40
0.9898171904
 40
1.0
 40
1.0
 40
1.0
 40
1.0
 10
3.990953454
 20
2.9183795008
 30
0.0
 10
3.991307019
 20
2.9183365039
 30
0.0
 10
3.9919687735
 20
2.9182530157
 30
0.0
 10
3.992891655
 20
2.918125006
 30
0.0
 10
3.9936761011
 20
2.9180030362
 30
0.0
 10
3.9943205763
 20
2.9178875293
 30
0.0
 10
3.9947689842
 20
2.9177915392
 30
0.0
 10
3.9950560854
 20
2.9177157458
 30
0.0
 10
3.9952189434
 20
2.917665074
 30
0.0
 10
3.9953465105
 20
2.9176167854
 30
0.0
 10
3.9954388193
 20
2.9175697876
 30
0.0
 10
3.9954988665
 20
2.9175261732
 30
0.0
 10
3.9955190875
 20
2.9174879549
 30
0.0
 10
3.9955190875
 20
2.9174720081
 30
0.0
  0
SPLINE
  5
486
100
AcDbEntity
  8
0
100
AcDbSpline
 62
7
  6
CONTINUOUS
 70
0
 71
3
 72
11
 73
7
 74
0
 42
0.0000001
 43
0.0000001
 44
0.0000000001
 40
0.0
 40
0.0
 40
0.0
 40
0.0
 40
0.3092798471
 40
0.581313559
 40
0.812509739
 40
1.0
 40
1.0
 40
1.0
 40
1.0
 10
4.2897694804
 20
2.9210958057
 30
0.0
 10
4.2914283132
 20
2.9209673612
 30
0.0
 10
4.2945452022
 20
2.9207126265
 30
0.0
 10
4.2988975523
 20
2.9203081725
 30
0.0
 10
4.3025920156
 20
2.9199095009
 30
0.0
 10
4.3048262201
 20
2.9196213055
 30
0.0
 10
4.3058239435
 20
2.9194734438
 30
0.0
  0
SPLINE
  5
487
100
AcDbEntity
  8
0
100
AcDbSpline
 62
7
  6
CONTINUOUS
 70
0
 71
3
 72
16
 73
12
 74
0
 42
0.0000001
 43
0.0000001
 44
0.0000000001
 40
0.0
 40
0.0
 40
0.0
 40
0.0
 40
0.2233032673
 40
0.4185649687
 40
0.5853268438
 40
0.7233093999
 40
0.8325850051
 40
0.9135499061
 40
0.9437950298
 40
0.9676644845
 40
1.0
 40
1.0
 40
1.0
 40
1.0
 10
4.3058239435
 20
2.9194734438
 30
0.0
 10
4.3061695984
 20
2.9194222181
 30
0.0
 10
4.3068168581
 20
2.9193217304
 30
0.0
 10
4.3077192342
 20
2.9191643259
 30
0.0
 10
4.3084865097
 20
2.91901058
 30
0.0
 10
4.3091171759
 20
2.918861487
 30
0.0
 10
4.3096103424
 20
2.9187166664
 30
0.0
 10
4.3099331508
 20
2.9185936196
 30
0.0
 10
4.310119226
 20
2.9184901382
 30
0.0
 10
4.3102266455
 20
2.9184116706
 30
0.0
 10
4.3102847646
 20
2.9183301539
 30
0.0
 10
4.310284768
 20
2.9182795545
 30
0.0
  0
SPLINE
  5
488
100
AcDbEntity
  8
0
100
AcDbSpline
 62
7
  6
CONTINUOUS
 70
0
 71
3
 72
12
 73
8
 74
0
 42
0.0000001
 43
0.0000001
 44
0.0000000001
 40
0.0
 40
0.0
 40
0.0
 40
0.0
 40
0.383613635
 40
0.6709098662
 40
0.7804440867
 40
0.8693435129
 40
1.0
 40
1.0
 40
1.0
 40
1.0
 10
4.7332270754
 20
2.9200363625
 30
0.0
 10
4.7333947213
 20
2.9199859115
 30
0.0
 10
4.733685456
 20
2.9198891994
 30
0.0
 10
4.7340122659
 20
2.9197445616
 30
0.0
 10
4.7341987748
 20
2.9196224783
 30
0.0
 10
4.7343108688
 20
2.9195242371
 30
0.0
 10
4.734364697
 20
2.919427295
 30
0.0
 10
4.7343649105
 20
2.9193676667
 30
0.0
  0
LINE
  5
489
100
AcDbEntity
  8
0
100
AcDbLine
 62
7
  6
CONTINUOUS
 10
5.2099786465
 20
2.9222274111
 11
5.2123100167
 21
2.921924359
  0
SPLINE
  5
48A
100
AcDbEntity
  8
0
100
AcDbSpline
 62
7
  6
CONTINUOUS
 70
0
 71
3
 72
17
 73
13
 74
0
 42
0.0000001
 43
0.0000001
 44
0.0000000001
 40
0.0
 40
0.0
 40
0.0
 40
0.0
 40
0.2192087599
 40
0.4110775158
 40
0.5753559252
 40
0.7118956369
 40
0.8207602401
 40
0.9026445123
 40
0.9341406305
 40
0.9600228705
 40
0.9813555438
 40
1.0
 40
1.0
 40
1.0
 40
1.0
 10
5.2123100167
 20
2.921924359
 30
0.0
 10
5.2126437227
 20
2.9218750014
 30
0.0
 10
5.2132686913
 20
2.9217766914
 30
0.0
 10
5.2141397828
 20
2.9216173952
 30
0.0
 10
5.2148808374
 20
2.92145651
 30
0.0
 10
5.2154906644
 20
2.9212948221
 30
0.0
 10
5.2159677505
 20
2.9211327211
 30
0.0
 10
5.2162796703
 20
2.9209881645
 30
0.0
 10
5.2164566468
 20
2.9208662517
 30
0.0
 10
5.2165447049
 20
2.9207820285
 30
0.0
 10
5.216600237
 20
2.9206956016
 30
0.0
 10
5.2166136999
 20
2.9206336891
 30
0.0
 10
5.2166137095
 20
2.9206049975
 30
0.0
  0
LINE
  5
48B
100
AcDbEntity
  8
0
100
AcDbLine
 62
7
  6
CONTINUOUS
 10
5.6903715869
 20
2.9233853584
 11
5.694681753
 21
2.9229822235
  0
SPLINE
  5
48C
100
AcDbEntity
  8
0
100
AcDbSpline
 62
7
  6
CONTINUOUS
 70
0
 71
3
 72
17
 73
13
 74
0
 42
0.0000001
 43
0.0000001
 44
0.0000000001
 40
0.0
 40
0.0
 40
0.0
 40
0.0
 40
0.2204787062
 40
0.4132630156
 40
0.578130135
 40
0.7149522382
 40
0.8237975713
 40
0.9052136307
 40
0.9362412383
 40
0.9615043109
 40
0.982101183
 40
1.0
 40
1.0
 40
1.0
 40
1.0
 10
5.694681753
 20
2.9229822235
 30
0.0
 10
5.695005762
 20
2.9229428593
 30
0.0
 10
5.6956124541
 20
2.9228637172
 30
0.0
 10
5.6964583461
 20
2.9227327544
 30
0.0
 10
5.6971779342
 20
2.9225978804
 30
0.0
 10
5.6977702144
 20
2.9224598248
 30
0.0
 10
5.6982336505
 20
2.9223189789
 30
0.0
 10
5.698537177
 20
2.9221913834
 30
0.0
 10
5.6987096552
 20
2.9220816443
 30
0.0
 10
5.6987951302
 20
2.9220054348
 30
0.0
 10
5.6988491667
 20
2.9219263307
 30
0.0
 10
5.6988621391
 20
2.9218688948
 30
0.0
 10
5.698862061
 20
2.9218423979
 30
0.0
  0
LINE
  5
48D
100
AcDbEntity
  8
0
100
AcDbLine
 62
7
  6
CONTINUOUS
 10
6.5905716163
 20
2.9237383897
 11
6.6013485412
 21
2.9241659431
  0
SPLINE
  5
48E
100
AcDbEntity
  8
0
100
AcDbSpline
 62
7
  6
CONTINUOUS
 70
0
 71
3
 72
11
 73
7
 74
0
 42
0.0000001
 43
0.0000001
 44
0.0000000001
 40
0.0
 40
0.0
 40
0.0
 40
0.0
 40
0.2560115516
 40
0.5304188915
 40
0.7891343405
 40
1.0
 40
1.0
 40
1.0
 40
1.0
 10
6.5102276271
 20
2.9192910405
 30
0.0
 10
6.5170808833
 20
2.919723563
 30
0.0
 10
6.5312820673
 20
2.9205844045
 30
0.0
 10
6.5524142407
 20
2.9217922694
 30
0.0
 10
6.5723413023
 20
2.9228613136
 30
0.0
 10
6.5849213808
 20
2.9234839405
 30
0.0
 10
6.5905716163
 20
2.9237383897
 30
0.0
  0
SPLINE
  5
48F
100
AcDbEntity
  8
0
100
AcDbSpline
 62
7
  6
CONTINUOUS
 70
0
 71
3
 72
18
 73
14
 74
0
 42
0.0000001
 43
0.0000001
 44
0.0000000001
 40
0.0
 40
0.0
 40
0.0
 40
0.0
 40
0.0102320301
 40
0.0254626224
 40
0.0472937428
 40
0.076233934
 40
0.1124795463
 40
0.156116609
 40
0.2656883535
 40
0.4050460873
 40
0.5741247209
 40
0.772625949
 40
1.0
 40
1.0
 40
1.0
 40
1.0
 10
6.3127110794
 20
2.9174720258
 30
0.0
 10
6.3127112654
 20
2.9174880354
 30
0.0
 10
6.3127317553
 20
2.9175261667
 30
0.0
 10
6.3127918843
 20
2.9175698556
 30
0.0
 10
6.3128842244
 20
2.9176168656
 30
0.0
 10
6.3130116688
 20
2.9176651738
 30
0.0
 10
6.3131743087
 20
2.9177158384
 30
0.0
 10
6.313460982
 20
2.9177916116
 30
0.0
 10
6.3139088156
 20
2.9178875588
 30
0.0
 10
6.3145526854
 20
2.9180029907
 30
0.0
 10
6.3153365748
 20
2.9181248163
 30
0.0
 10
6.3162587391
 20
2.9182527016
 30
0.0
 10
6.3169199071
 20
2.9183361361
 30
0.0
 10
6.3172730913
 20
2.9183790979
 30
0.0
  0
SPLINE
  5
490
100
AcDbEntity
  8
0
100
AcDbSpline
 62
7
  6
CONTINUOUS
 70
0
 71
3
 72
15
 73
11
 74
0
 42
0.0000001
 43
0.0000001
 44
0.0000000001
 40
0.0
 40
0.0
 40
0.0
 40
0.0
 40
0.0317867756
 40
0.0701224047
 40
0.1649389771
 40
0.2807397391
 40
0.4130617293
 40
0.5568147765
 40
0.7063640773
 40
1.0
 40
1.0
 40
1.0
 40
1.0
 10
6.3172730913
 20
2.9183790979
 30
0.0
 10
6.3181365122
 20
2.9184841255
 30
0.0
 10
6.3200436771
 20
2.9186957338
 30
0.0
 10
6.3245353411
 20
2.9191371936
 30
0.0
 10
6.3313237953
 20
2.9197080794
 30
0.0
 10
6.3406825479
 20
2.9203955986
 30
0.0
 10
6.3513827547
 20
2.9210951411
 30
0.0
 10
6.3630091356
 20
2.9217791666
 30
0.0
 10
6.3790471526
 20
2.922628798
 30
0.0
 10
6.3911623079
 20
2.9231716916
 30
0.0
 10
6.399191272
 20
2.9234777384
 30
0.0
  0
SPLINE
  5
491
100
AcDbEntity
  8
0
100
AcDbSpline
 62
7
  6
CONTINUOUS
 70
0
 71
3
 72
16
 73
12
 74
0
 42
0.0000001
 43
0.0000001
 44
0.0000000001
 40
0.0
 40
0.0
 40
0.0
 40
0.0
 40
0.0323487425
 40
0.056205502
 40
0.0864296952
 40
0.1673518456
 40
0.2766243999
 40
0.4146864835
 40
0.5815140585
 40
0.7767590259
 40
1.0
 40
1.0
 40
1.0
 40
1.0
 10
5.9979450708
 20
2.9182795555
 30
0.0
 10
5.9979451404
 20
2.9183300836
 30
0.0
 10
5.9980030343
 20
2.9184114551
 30
0.0
 10
5.9981101783
 20
2.9184898782
 30
0.0
 10
5.998295732
 20
2.9185932384
 30
0.0
 10
5.9986178139
 20
2.9187161699
 30
0.0
 10
5.9991101055
 20
2.9188608418
 30
0.0
 10
5.999739842
 20
2.9190097302
 30
0.0
 10
6.0005059034
 20
2.9191633212
 30
0.0
 10
6.0014065937
 20
2.9193205973
 30
0.0
 10
6.0020525398
 20
2.9194209945
 30
0.0
 10
6.0023974629
 20
2.919472169
 30
0.0
  0
SPLINE
  5
492
100
AcDbEntity
  8
0
100
AcDbSpline
 62
7
  6
CONTINUOUS
 70
0
 71
3
 72
11
 73
7
 74
0
 42
0.0000001
 43
0.0000001
 44
0.0000000001
 40
0.0
 40
0.0
 40
0.0
 40
0.0
 40
0.1873703209
 40
0.4185759466
 40
0.6906137498
 40
1.0
 40
1.0
 40
1.0
 40
1.0
 10
6.0023974629
 20
2.919472169
 30
0.0
 10
6.0033958261
 20
2.9196202913
 30
0.0
 10
6.0056323394
 20
2.9199089589
 30
0.0
 10
6.0093310645
 20
2.920308027
 30
0.0
 10
6.0136897338
 20
2.9207131568
 30
0.0
 10
6.0168112943
 20
2.920968189
 30
0.0
 10
6.0184728705
 20
2.9210967739
 30
0.0
  0
SPLINE
  5
493
100
AcDbEntity
  8
0
100
AcDbSpline
 62
7
  6
CONTINUOUS
 70
0
 71
3
 72
12
 73
8
 74
0
 42
0.0000001
 43
0.0000001
 44
0.0000000001
 40
0.0
 40
0.0
 40
0.0
 40
0.0
 40
0.1311897312
 40
0.2201379109
 40
0.329620738
 40
0.6166596298
 40
1.0
 40
1.0
 40
1.0
 40
1.0
 10
5.5738653974
 20
2.9193676764
 30
0.0
 10
5.5738654785
 20
2.9194266609
 30
0.0
 10
5.5739179268
 20
2.9195226943
 30
0.0
 10
5.5740280545
 20
2.9196202654
 30
0.0
 10
5.5742111595
 20
2.9197412769
 30
0.0
 10
5.5745324648
 20
2.9198847075
 30
0.0
 10
5.5748184518
 20
2.9199805372
 30
0.0
 10
5.5749833927
 20
2.9200305435
 30
0.0
  0
SPLINE
  5
494
100
AcDbEntity
  8
0
100
AcDbSpline
 62
7
  6
CONTINUOUS
 70
0
 71
3
 72
17
 73
13
 74
0
 42
0.0000001
 43
0.0000001
 44
0.0000000001
 40
0.0
 40
0.0
 40
0.0
 40
0.0
 40
0.0187020099
 40
0.0400775955
 40
0.06599361
 40
0.0975227912
 40
0.179499871
 40
0.2884547655
 40
0.424999994
 40
0.5892116548
 40
0.7809566661
 40
1.0
 40
1.0
 40
1.0
 40
1.0
 10
5.0916158272
 20
2.9206049975
 30
0.0
 10
5.0916157967
 20
2.9206335567
 30
0.0
 10
5.0916290469
 20
2.9206951701
 30
0.0
 10
5.0916840381
 20
2.9207812565
 30
0.0
 10
5.0917713611
 20
2.9208651443
 30
0.0
 10
5.091946973
 20
2.9209865679
 30
0.0
 10
5.0922566595
 20
2.9211304852
 30
0.0
 10
5.0927301957
 20
2.9212918912
 30
0.0
 10
5.0933352183
 20
2.9214529792
 30
0.0
 10
5.0940701604
 20
2.9216132528
 30
0.0
 10
5.0949338974
 20
2.9217719567
 30
0.0
 10
5.0955535595
 20
2.9218699076
 30
0.0
 10
5.0958844191
 20
2.9219190843
 30
0.0
  0
LINE
  5
495
100
AcDbEntity
  8
0
100
AcDbLine
 62
7
  6
CONTINUOUS
 10
5.0958844191
 20
2.9219190843
 11
5.0982009508
 21
2.922221623
  0
SPLINE
  5
496
100
AcDbEntity
  8
0
100
AcDbSpline
 62
7
  6
CONTINUOUS
 70
0
 71
3
 72
17
 73
13
 74
0
 42
0.0000001
 43
0.0000001
 44
0.0000000001
 40
0.0
 40
0.0
 40
0.0
 40
0.0
 40
0.0178537646
 40
0.0384036006
 40
0.063630333
 40
0.0946389675
 40
0.1760055233
 40
0.2847174885
 40
0.4213992056
 40
0.5862114284
 40
0.7791208856
 40
1.0
 40
1.0
 40
1.0
 40
1.0
 10
4.6093680413
 20
2.9218423922
 30
0.0
 10
4.6093679028
 20
2.9218689572
 30
0.0
 10
4.6093808254
 20
2.921926583
 30
0.0
 10
4.6094350543
 20
2.9220059288
 30
0.0
 10
4.6095209295
 20
2.9220823422
 30
0.0
 10
4.6096943062
 20
2.9221923226
 30
0.0
 10
4.609999198
 20
2.9223201931
 30
0.0
 10
4.610464586
 20
2.9224614681
 30
0.0
 10
4.6110594693
 20
2.922599886
 30
0.0
 10
4.6117826896
 20
2.9227351125
 30
0.0
 10
4.6126336632
 20
2.9228664057
 30
0.0
 10
4.6132442765
 20
2.9229456913
 30
0.0
 10
4.6135705559
 20
2.9229851283
 30
0.0
  0
LINE
  5
497
100
AcDbEntity
  8
0
100
AcDbLine
 62
7
  6
CONTINUOUS
 10
4.6135705559
 20
2.9229851283
 11
4.6217836724
 21
2.9236304465
  0
SPLINE
  5
498
100
AcDbEntity
  8
0
100
AcDbSpline
 62
7
  6
CONTINUOUS
 70
0
 71
3
 72
14
 73
10
 74
0
 42
0.0000001
 43
0.0000001
 44
0.0000000001
 40
0.0
 40
0.0
 40
0.0
 40
0.0
 40
0.0674244216
 40
0.1628701684
 40
0.2815467893
 40
0.4177619586
 40
0.5648886009
 40
0.7157931524
 40
1.0
 40
1.0
 40
1.0
 40
1.0
 10
3.7068812725
 20
2.9241659431
 30
0.0
 10
3.7089316259
 20
2.9241050569
 30
0.0
 10
3.7138829658
 20
2.9239107523
 30
0.0
 10
3.7224397203
 20
2.9235238988
 30
0.0
 10
3.7330850979
 20
2.9229975511
 30
0.0
 10
3.7452990192
 20
2.9223583319
 30
0.0
 10
3.7584903712
 20
2.9216359014
 30
0.0
 10
3.7761751512
 20
2.9206282164
 30
0.0
 10
3.7893888383
 20
2.9198346781
 30
0.0
 10
3.7980181102
 20
2.9192900431
 30
0.0
  0
LINE
  5
499
100
AcDbEntity
  8
0
100
AcDbLine
 62
7
  6
CONTINUOUS
 10
3.5219467664
 20
2.9536986901
 11
3.5230181937
 21
2.9536597043
  0
SPLINE
  5
49A
100
AcDbEntity
  8
0
100
AcDbSpline
 62
7
  6
CONTINUOUS
 70
0
 71
3
 72
17
 73
13
 74
0
 42
0.0000001
 43
0.0000001
 44
0.0000000001
 40
0.0
 40
0.0
 40
0.0
 40
0.0
 40
0.1285833606
 40
0.2708252313
 40
0.4194065402
 40
0.5666712756
 40
0.7050232306
 40
0.8273564076
 40
0.8805068335
 40
0.9273960027
 40
0.9673956499
 40
1.0
 40
1.0
 40
1.0
 40
1.0
 10
3.5230181937
 20
2.9536597043
 30
0.0
 10
3.5271167506
 20
2.9535079308
 30
0.0
 10
3.5357470199
 20
2.9531280575
 30
0.0
 10
3.5491053349
 20
2.9524065235
 30
0.0
 10
3.5630515666
 20
2.951531321
 30
0.0
 10
3.5768661966
 20
2.9505477673
 30
0.0
 10
3.5898368579
 20
2.9495068096
 30
0.0
 10
3.5998063781
 20
2.9486009904
 30
0.0
 10
3.606862431
 20
2.9478780062
 30
0.0
 10
3.6113016235
 20
2.9473815624
 30
0.0
 10
3.6150840637
 20
2.9469117593
 30
0.0
 10
3.617377279
 20
2.9465872706
 30
0.0
 10
3.6184046418
 20
2.9464258521
 30
0.0
  0
SPLINE
  5
49B
100
AcDbEntity
  8
0
100
AcDbSpline
 62
7
  6
CONTINUOUS
 70
0
 71
3
 72
16
 73
12
 74
0
 42
0.0000001
 43
0.0000001
 44
0.0000000001
 40
0.0
 40
0.0
 40
0.0
 40
0.0
 40
0.4216518527
 40
0.5894767459
 40
0.7282283
 40
0.8378650189
 40
0.8818132347
 40
0.9185847564
 40
0.9483122225
 40
0.971279123
 40
1.0
 40
1.0
 40
1.0
 40
1.0
 10
3.6184046418
 20
2.9464258521
 30
0.0
 10
3.6190900003
 20
2.946318169
 30
0.0
 10
3.6200469129
 20
2.9461584896
 30
0.0
 10
3.6212218474
 20
2.9459230013
 30
0.0
 10
3.6218891892
 20
2.945768655
 30
0.0
 10
3.6223530491
 20
2.9456406881
 30
0.0
 10
3.6226498025
 20
2.9455395222
 30
0.0
 10
3.6228182459
 20
2.9454723471
 30
0.0
 10
3.622951588
 20
2.9454062891
 30
0.0
 10
3.6230613208
 20
2.945336399
 30
0.0
 10
3.6231281639
 20
2.9452625712
 30
0.0
 10
3.6231281639
 20
2.9452153152
 30
0.0
  0
SPLINE
  5
49C
100
AcDbEntity
  8
0
100
AcDbSpline
 62
7
  6
CONTINUOUS
 70
0
 71
3
 72
13
 73
9
 74
0
 42
0.0000001
 43
0.0000001
 44
0.0000000001
 40
0.0
 40
0.0
 40
0.0
 40
0.0
 40
0.3198299818
 40
0.6010673685
 40
0.7232003126
 40
0.8311839756
 40
0.9237622808
 40
1.0
 40
1.0
 40
1.0
 40
1.0
 10
3.8733844266
 20
2.9513807822
 30
0.0
 10
3.8773970682
 20
2.9510923489
 30
0.0
 10
3.8849349866
 20
2.9505049308
 30
0.0
 10
3.893993468
 20
2.9496648246
 30
0.0
 10
3.9003877648
 20
2.9489674247
 30
0.0
 10
3.9044169828
 20
2.9484749707
 30
0.0
 10
3.9078654256
 20
2.9479934864
 30
0.0
 10
3.9099614542
 20
2.9476507765
 30
0.0
 10
3.9109045093
 20
2.947476851
 30
0.0
  0
SPLINE
  5
49D
100
AcDbEntity
  8
0
100
AcDbSpline
 62
7
  6
CONTINUOUS
 70
0
 71
3
 72
16
 73
12
 74
0
 42
0.0000001
 43
0.0000001
 44
0.0000000001
 40
0.0
 40
0.0
 40
0.0
 40
0.0
 40
0.2203578389
 40
0.4132659046
 40
0.5783670162
 40
0.7155784929
 40
0.8249914536
 40
0.9070748338
 40
0.9383260781
 40
0.9635738266
 40
1.0
 40
1.0
 40
1.0
 40
1.0
 10
3.9109045093
 20
2.947476851
 30
0.0
 10
3.9112636568
 20
2.9474106141
 30
0.0
 10
3.9119362338
 20
2.9472809473
 30
0.0
 10
3.9128733414
 20
2.9470788686
 30
0.0
 10
3.9136703592
 20
2.9468824201
 30
0.0
 10
3.9143261713
 20
2.9466927856
 30
0.0
 10
3.9148396727
 20
2.9465098285
 30
0.0
 10
3.9151757356
 20
2.9463545594
 30
0.0
 10
3.9153679033
 20
2.9462263605
 30
0.0
 10
3.9154823277
 20
2.9461254656
 30
0.0
 10
3.9155383703
 20
2.9460267721
 30
0.0
 10
3.9155379205
 20
2.9459664038
 30
0.0
  0
LINE
  5
49E
100
AcDbEntity
  8
0
100
AcDbLine
 62
7
  6
CONTINUOUS
 10
4.2856572711
 20
2.9496747639
 11
4.292097792
 21
2.948643838
  0
SPLINE
  5
49F
100
AcDbEntity
  8
0
100
AcDbSpline
 62
7
  6
CONTINUOUS
 70
0
 71
3
 72
17
 73
13
 74
0
 42
0.0000001
 43
0.0000001
 44
0.0000000001
 40
0.0
 40
0.0
 40
0.0
 40
0.0
 40
0.2164515144
 40
0.4061337425
 40
0.5689003836
 40
0.704784598
 40
0.8140442233
 40
0.8589219498
 40
0.8975203722
 40
0.9301664176
 40
0.9574280607
 40
1.0
 40
1.0
 40
1.0
 40
1.0
 10
4.292097792
 20
2.948643838
 30
0.0
 10
4.2924481972
 20
2.9485735708
 30
0.0
 10
4.2931044006
 20
2.9484351597
 30
0.0
 10
4.2940179891
 20
2.9482163086
 30
0.0
 10
4.2947951594
 20
2.9480006022
 30
0.0
 10
4.2954347022
 20
2.947788616
 30
0.0
 10
4.2958782672
 20
2.9476060203
 30
0.0
 10
4.2961602021
 20
2.9474578217
 30
0.0
 10
4.2963224574
 20
2.9473553764
 30
0.0
 10
4.2964500333
 20
2.9472532099
 30
0.0
 10
4.2965649106
 20
2.9471296806
 30
0.0
 10
4.2966150516
 20
2.9470154993
 30
0.0
 10
4.2966150277
 20
2.9469452091
 30
0.0
  0
SPLINE
  5
4A0
100
AcDbEntity
  8
0
100
AcDbSpline
 62
7
  6
CONTINUOUS
 70
0
 71
3
 72
16
 73
12
 74
0
 42
0.0000001
 43
0.0000001
 44
0.0000000001
 40
0.0
 40
0.0
 40
0.0
 40
0.0
 40
0.2127626822
 40
0.3994667531
 40
0.5600893617
 40
0.694757836
 40
0.8038945925
 40
0.8885722783
 40
0.9225480546
 40
0.9517192204
 40
1.0
 40
1.0
 40
1.0
 40
1.0
 10
4.736415216
 20
2.9497646936
 30
0.0
 10
4.7367238732
 20
2.9496984711
 30
0.0
 10
4.7373019554
 20
2.9495672635
 30
0.0
 10
4.7381062793
 20
2.9493575729
 30
0.0
 10
4.7387903816
 20
2.9491483608
 30
0.0
 10
4.7393538338
 20
2.9489403313
 30
0.0
 10
4.739795836
 20
2.9487338061
 30
0.0
 10
4.7400833526
 20
2.9485522625
 30
0.0
 10
4.7402446632
 20
2.948402236
 30
0.0
 10
4.7403467123
 20
2.9482721206
 30
0.0
 10
4.7403872139
 20
2.9481567955
 30
0.0
 10
4.740386973
 20
2.9480851605
 30
0.0
  0
LINE
  5
4A1
100
AcDbEntity
  8
0
100
AcDbLine
 62
7
  6
CONTINUOUS
 10
5.2079194693
 20
2.9517134795
 11
5.2122452894
 21
2.9510449045
  0
SPLINE
  5
4A2
100
AcDbEntity
  8
0
100
AcDbSpline
 62
7
  6
CONTINUOUS
 70
0
 71
3
 72
16
 73
12
 74
0
 42
0.0000001
 43
0.0000001
 44
0.0000000001
 40
0.0
 40
0.0
 40
0.0
 40
0.0
 40
0.2133252592
 40
0.4004780354
 40
0.5613958327
 40
0.6961675875
 40
0.8051818048
 40
0.8894935696
 40
0.923214949
 40
0.9521260659
 40
1.0
 40
1.0
 40
1.0
 40
1.0
 10
5.2122452894
 20
2.9510449045
 30
0.0
 10
5.212584415
 20
2.9509799488
 30
0.0
 10
5.2132196637
 20
2.9508504591
 30
0.0
 10
5.2141040119
 20
2.9506406775
 30
0.0
 10
5.2148564857
 20
2.9504286273
 30
0.0
 10
5.2154764441
 20
2.9502151285
 30
0.0
 10
5.2159628027
 20
2.9500005626
 30
0.0
 10
5.2162795084
 20
2.9498096044
 30
0.0
 10
5.2164571862
 20
2.9496498807
 30
0.0
 10
5.216569633
 20
2.9495106998
 30
0.0
 10
5.2166143201
 20
2.9493859867
 30
0.0
 10
5.2166141953
 20
2.9493084976
 30
0.0
  0
LINE
  5
4A3
100
AcDbEntity
  8
0
100
AcDbLine
 62
7
  6
CONTINUOUS
 10
5.6805861549
 20
2.9530077793
 11
5.6885867807
 21
2.9521044887
  0
SPLINE
  5
4A4
100
AcDbEntity
  8
0
100
AcDbSpline
 62
7
  6
CONTINUOUS
 70
0
 71
3
 72
16
 73
12
 74
0
 42
0.0000001
 43
0.0000001
 44
0.0000000001
 40
0.0
 40
0.0
 40
0.0
 40
0.0
 40
0.2143099147
 40
0.4022270235
 40
0.56363483
 40
0.6985683931
 40
0.8073656532
 40
0.8910734131
 40
0.9244066926
 40
0.9529013115
 40
1.0
 40
1.0
 40
1.0
 40
1.0
 10
5.6885867807
 20
2.9521044887
 30
0.0
 10
5.6889168897
 20
2.9520489277
 30
0.0
 10
5.6895352877
 20
2.9519374448
 30
0.0
 10
5.6903965975
 20
2.9517541626
 30
0.0
 10
5.6911295526
 20
2.9515663147
 30
0.0
 10
5.6917332991
 20
2.9513746613
 30
0.0
 10
5.692206627
 20
2.9511795838
 30
0.0
 10
5.692514923
 20
2.9510034848
 30
0.0
 10
5.6926879034
 20
2.9508543749
 30
0.0
 10
5.6927972872
 20
2.9507239529
 30
0.0
 10
5.6928408631
 20
2.950605459
 30
0.0
 10
5.6928407834
 20
2.9505318909
 30
0.0
  0
SPLINE
  5
4A5
100
AcDbEntity
  8
0
100
AcDbSpline
 62
7
  6
CONTINUOUS
 70
0
 71
3
 72
17
 73
13
 74
0
 42
0.0000001
 43
0.0000001
 44
0.0000000001
 40
0.0
 40
0.0
 40
0.0
 40
0.0
 40
0.2173990708
 40
0.4075957535
 40
0.5704492122
 40
0.7059509148
 40
0.8143651608
 40
0.8967046672
 40
0.92893119
 40
0.956000228
 40
0.9790755266
 40
1.0
 40
1.0
 40
1.0
 40
1.0
 10
6.1323956388
 20
2.9529911956
 30
0.0
 10
6.1327230655
 20
2.95294819
 30
0.0
 10
6.1333361339
 20
2.9528610767
 30
0.0
 10
6.1341903841
 20
2.9527146723
 30
0.0
 10
6.1349167629
 20
2.952561704
 30
0.0
 10
6.1355144678
 20
2.9524028709
 30
0.0
 10
6.1359823847
 20
2.9522385701
 30
0.0
 10
6.1362879924
 20
2.9520875398
 30
0.0
 10
6.1364605142
 20
2.9519578238
 30
0.0
 10
6.1365469217
 20
2.9518661689
 30
0.0
 10
6.13660082
 20
2.9517710213
 30
0.0
 10
6.1366133867
 20
2.9517037404
 30
0.0
 10
6.1366134205
 20
2.9516719552
 30
0.0
  0
SPLINE
  5
4A6
100
AcDbEntity
  8
0
100
AcDbSpline
 62
7
  6
CONTINUOUS
 70
0
 71
3
 72
12
 73
8
 74
0
 42
0.0000001
 43
0.0000001
 44
0.0000000001
 40
0.0
 40
0.0
 40
0.0
 40
0.0
 40
0.2363584216
 40
0.5067405238
 40
0.7736466358
 40
0.8941638236
 40
1.0
 40
1.0
 40
1.0
 40
1.0
 10
6.8903495717
 20
2.947230585
 30
0.0
 10
6.8970577871
 20
2.9478349741
 30
0.0
 10
6.9114483699
 20
2.9490360726
 30
0.0
 10
6.933431468
 20
2.9507046714
 30
0.0
 10
6.9521323816
 20
2.951994949
 30
0.0
 10
6.9661611988
 20
2.9528719579
 30
0.0
 10
6.9726009455
 20
2.9532412854
 30
0.0
 10
6.975612601
 20
2.9534023687
 30
0.0
  0
SPLINE
  5
4A7
100
AcDbEntity
  8
0
100
AcDbSpline
 62
7
  6
CONTINUOUS
 70
0
 71
3
 72
14
 73
10
 74
0
 42
0.0000001
 43
0.0000001
 44
0.0000000001
 40
0.0
 40
0.0
 40
0.0
 40
0.0
 40
0.0891758841
 40
0.2003175006
 40
0.3280876471
 40
0.4666587017
 40
0.7504001603
 40
0.8825442948
 40
1.0
 40
1.0
 40
1.0
 40
1.0
 10
3.3240202783
 20
2.9538202862
 30
0.0
 10
3.3268145164
 20
2.9537024431
 30
0.0
 10
3.3330891844
 20
2.9533891292
 30
0.0
 10
3.3433615884
 20
2.952796593
 30
0.0
 10
3.3551764402
 20
2.9520466256
 30
0.0
 10
3.3723881484
 20
2.9508733803
 30
0.0
 10
3.3897293691
 20
2.9495844992
 30
0.0
 10
3.4064014449
 20
2.9482348324
 30
0.0
 10
3.4142004663
 20
2.9475621337
 30
0.0
 10
3.4178692374
 20
2.9472316087
 30
0.0
  0
SPLINE
  5
4A8
100
AcDbEntity
  8
0
100
AcDbSpline
 62
7
  6
CONTINUOUS
 70
0
 71
3
 72
17
 73
13
 74
0
 42
0.0000001
 43
0.0000001
 44
0.0000000001
 40
0.0
 40
0.0
 40
0.0
 40
0.0
 40
0.2293931913
 40
0.4293159356
 40
0.5994642368
 40
0.7395515314
 40
0.8493284577
 40
0.9286413113
 40
0.9569166909
 40
0.9777538627
 40
0.9915891472
 40
1.0
 40
1.0
 40
1.0
 40
1.0
 10
5.2122539751
 20
2.8865462789
 30
0.0
 10
5.212591531
 20
2.8865269833
 30
0.0
 10
5.213223149
 20
2.8864885709
 30
0.0
 10
5.2141045302
 20
2.8864262033
 30
0.0
 10
5.2148538361
 20
2.8863632398
 30
0.0
 10
5.2154697597
 20
2.8863000755
 30
0.0
 10
5.2159508238
 20
2.886237065
 30
0.0
 10
5.2162666569
 20
2.8861810187
 30
0.0
 10
5.2164499256
 20
2.8861334401
 30
0.0
 10
5.2165372606
 20
2.8861008718
 30
0.0
 10
5.2165933579
 20
2.8860717312
 30
0.0
 10
5.2166144448
 20
2.8860414954
 30
0.0
 10
5.2166143528
 20
2.8860290989
 30
0.0
  0
SPLINE
  5
4A9
100
AcDbEntity
  8
0
100
AcDbSpline
 62
7
  6
CONTINUOUS
 70
0
 71
3
 72
17
 73
13
 74
0
 42
0.0000001
 43
0.0000001
 44
0.0000000001
 40
0.0
 40
0.0
 40
0.0
 40
0.0
 40
0.0309487423
 40
0.0541714878
 40
0.083870973
 40
0.1204657493
 40
0.1641772034
 40
0.2733666228
 40
0.4117428258
 40
0.5791603963
 40
0.7753536403
 40
1.0
 40
1.0
 40
1.0
 40
1.0
 10
5.0916157034
 20
2.8995184491
 30
0.0
 10
5.0916156895
 20
2.8995617698
 30
0.0
 10
5.0916686478
 20
2.8996312509
 30
0.0
 10
5.0917648225
 20
2.8996946563
 30
0.0
 10
5.091877896
 20
2.8997510656
 30
0.0
 10
5.0920214648
 20
2.8998063311
 30
0.0
 10
5.0922744983
 20
2.8998866816
 30
0.0
 10
5.0926710943
 20
2.8999826035
 30
0.0
 10
5.0932418091
 20
2.9000914081
 30
0.0
 10
5.0939361956
 20
2.9001995902
 30
0.0
 10
5.0947526353
 20
2.9003069398
 30
0.0
 10
5.0953380017
 20
2.9003731831
 30
0.0
 10
5.0956506843
 20
2.9004064764
 30
0.0
  0
LINE
  5
4AA
100
AcDbEntity
  8
0
100
AcDbLine
 62
7
  6
CONTINUOUS
 10
5.0956506843
 20
2.9004064764
 11
5.0977029629
 21
2.900600055
  0
LINE
  5
4AB
100
AcDbEntity
  8
0
100
AcDbLine
 62
7
  6
CONTINUOUS
 10
5.940347473
 20
2.8973810869
 11
5.9445138198
 21
2.8979411456
  0
SPLINE
  5
4AC
100
AcDbEntity
  8
0
100
AcDbSpline
 62
7
  6
CONTINUOUS
 70
0
 71
3
 72
13
 73
9
 74
0
 42
0.0000001
 43
0.0000001
 44
0.0000000001
 40
0.0
 40
0.0
 40
0.0
 40
0.0
 40
0.0698690558
 40
0.1598421558
 40
0.2681894332
 40
0.3927126637
 40
0.6802924983
 40
1.0
 40
1.0
 40
1.0
 40
1.0
 10
5.9445138198
 20
2.8979411456
 30
0.0
 10
5.9457584562
 20
2.8980492647
 30
0.0
 10
5.9486086473
 20
2.8982640565
 30
0.0
 10
5.95339417
 20
2.8985732593
 30
0.0
 10
5.9591575452
 20
2.8989028664
 30
0.0
 10
5.9684512586
 20
2.899384078
 30
0.0
 10
5.9815235124
 20
2.8999746167
 30
0.0
 10
5.9923741496
 20
2.900398673
 30
0.0
 10
5.9980870446
 20
2.9006063023
 30
0.0
  0
LINE
  5
4AD
100
AcDbEntity
  8
0
100
AcDbLine
 62
7
  6
CONTINUOUS
 10
5.9980870446
 20
2.9006063023
 11
6.0038662307
 21
2.9008109322
  0
LINE
  5
4AE
100
AcDbEntity
  8
0
100
AcDbLine
 62
7
  6
CONTINUOUS
 10
5.6930876886
 20
2.9018546795
 11
5.6984977004
 21
2.9016838088
  0
LINE
  5
4AF
100
AcDbEntity
  8
0
100
AcDbLine
 62
7
  6
CONTINUOUS
 10
5.6984977004
 20
2.9016838088
 11
5.702699115
 21
2.9014540086
  0
SPLINE
  5
4B0
100
AcDbEntity
  8
0
100
AcDbSpline
 62
7
  6
CONTINUOUS
 70
0
 71
3
 72
15
 73
11
 74
0
 42
0.0000001
 43
0.0000001
 44
0.0000000001
 40
0.0
 40
0.0
 40
0.0
 40
0.0
 40
0.4243316172
 40
0.7310271016
 40
0.8401219704
 40
0.8836749757
 40
0.9199873158
 40
0.9492172666
 40
0.9716980955
 40
1.0
 40
1.0
 40
1.0
 40
1.0
 10
5.702699115
 20
2.9014540086
 30
0.0
 10
5.7032674627
 20
2.9014122314
 30
0.0
 10
5.7042457529
 20
2.9013296786
 30
0.0
 10
5.7053665866
 20
2.9011926126
 30
0.0
 10
5.705972687
 20
2.9010760664
 30
0.0
 10
5.7062186058
 20
2.9010123691
 30
0.0
 10
5.7063580184
 20
2.9009682056
 30
0.0
 10
5.7064683084
 20
2.9009222094
 30
0.0
 10
5.7065597943
 20
2.9008718097
 30
0.0
 10
5.7066147671
 20
2.9008126862
 30
0.0
 10
5.706614869
 20
2.9007746766
 30
0.0
  0
SPLINE
  5
4B1
100
AcDbEntity
  8
0
100
AcDbSpline
 62
7
  6
CONTINUOUS
 70
0
 71
3
 72
17
 73
13
 74
0
 42
0.0000001
 43
0.0000001
 44
0.0000000001
 40
0.0
 40
0.0
 40
0.0
 40
0.0
 40
0.2249696013
 40
0.4213065321
 40
0.5885678257
 40
0.7266200321
 40
0.8355871743
 40
0.8792859577
 40
0.9159201192
 40
0.9456902106
 40
0.9689909298
 40
1.0
 40
1.0
 40
1.0
 40
1.0
 10
5.2125565586
 20
2.9004088937
 30
0.0
 10
5.2128713596
 20
2.9003755273
 30
0.0
 10
5.2134605016
 20
2.900309162
 30
0.0
 10
5.2142817406
 20
2.900201618
 30
0.0
 10
5.214979357
 20
2.9000931471
 30
0.0
 10
5.2155521182
 20
2.8999839577
 30
0.0
 10
5.2159500246
 20
2.8998876729
 30
0.0
 10
5.2162041803
 20
2.8998071367
 30
0.0
 10
5.2163486934
 20
2.8997517078
 30
0.0
 10
5.2164627446
 20
2.8996951486
 30
0.0
 10
5.2165598358
 20
2.8996315916
 30
0.0
 10
5.2166138353
 20
2.8995620822
 30
0.0
 10
5.2166141428
 20
2.8995184491
 30
0.0
  0
SPLINE
  5
4B2
100
AcDbEntity
  8
0
100
AcDbSpline
 62
7
  6
CONTINUOUS
 70
0
 71
3
 72
15
 73
11
 74
0
 42
0.0000001
 43
0.0000001
 44
0.0000000001
 40
0.0
 40
0.0
 40
0.0
 40
0.0
 40
0.0281588341
 40
0.0505116995
 40
0.0795950554
 40
0.1157585988
 40
0.1591769392
 40
0.2681095633
 40
0.5752786778
 40
1.0
 40
1.0
 40
1.0
 40
1.0
 10
4.601614851
 20
2.9007746785
 30
0.0
 10
4.6016149122
 20
2.900812693
 30
0.0
 10
4.6016696456
 20
2.9008719686
 30
0.0
 10
4.6017611024
 20
2.9009224831
 30
0.0
 10
4.6018713938
 20
2.9009685693
 30
0.0
 10
4.6020109765
 20
2.9010128164
 30
0.0
 10
4.6022575974
 20
2.9010766736
 30
0.0
 10
4.6028671464
 20
2.9011936104
 30
0.0
 10
4.6039948761
 20
2.9013305515
 30
0.0
 10
4.6049794378
 20
2.9014133465
 30
0.0
 10
4.6055512781
 20
2.9014552727
 30
0.0
  0
LINE
  5
4B3
100
AcDbEntity
  8
0
100
AcDbLine
 62
7
  6
CONTINUOUS
 10
4.6055512781
 20
2.9014552727
 11
4.6099883191
 21
2.9016943413
  0
LINE
  5
4B4
100
AcDbEntity
  8
0
100
AcDbLine
 62
7
  6
CONTINUOUS
 10
5.5679300771
 20
2.8848087185
 11
5.5723879026
 21
2.8851570942
  0
LINE
  5
4B5
100
AcDbEntity
  8
0
100
AcDbLine
 62
7
  6
CONTINUOUS
 10
5.5723879026
 20
2.8851570942
 11
5.5782047125
 21
2.8853963883
  0
SPLINE
  5
4B6
100
AcDbEntity
  8
0
100
AcDbSpline
 62
7
  6
CONTINUOUS
 70
0
 71
3
 72
17
 73
13
 74
0
 42
0.0000001
 43
0.0000001
 44
0.0000000001
 40
0.0
 40
0.0
 40
0.0
 40
0.0
 40
0.0084694982
 40
0.0223296822
 40
0.0431438055
 40
0.0713438646
 40
0.1504708851
 40
0.2602209654
 40
0.4004084775
 40
0.5706910026
 40
0.7706877383
 40
1.0
 40
1.0
 40
1.0
 40
1.0
 10
5.0916158346
 20
2.8860290989
 30
0.0
 10
5.0916158086
 20
2.8860414041
 30
0.0
 10
5.0916365777
 20
2.8860712972
 30
0.0
 10
5.0916918428
 20
2.886100328
 30
0.0
 10
5.0917777359
 20
2.8861326316
 30
0.0
 10
5.0919578664
 20
2.8861799264
 30
0.0
 10
5.0922687022
 20
2.8862355998
 30
0.0
 10
5.0927426889
 20
2.8862981093
 30
0.0
 10
5.093350088
 20
2.8863608016
 30
0.0
 10
5.0940891192
 20
2.8864233128
 30
0.0
 10
5.0949580823
 20
2.8864852543
 30
0.0
 10
5.0955806623
 20
2.8865234357
 30
0.0
 10
5.0959132768
 20
2.8865426193
 30
0.0
  0
SPLINE
  5
4B7
100
AcDbEntity
  8
0
100
AcDbSpline
 62
7
  6
CONTINUOUS
 70
0
 71
3
 72
9
 73
5
 74
0
 42
0.0000001
 43
0.0000001
 44
0.0000000001
 40
0.0
 40
0.0
 40
0.0
 40
0.0
 40
0.3258202984
 40
1.0
 40
1.0
 40
1.0
 40
1.0
 10
4.3678823407
 20
2.8973810869
 30
0.0
 10
4.3678865621
 20
2.8973780898
 30
0.0
 10
4.367898841
 20
2.8973685947
 30
0.0
 10
4.3679100111
 20
2.8973539521
 30
0.0
 10
4.3679100111
 20
2.8973432397
 30
0.0
  0
LINE
  5
4B8
100
AcDbEntity
  8
0
100
AcDbLine
 62
7
  6
CONTINUOUS
 10
6.6013485412
 20
2.9241659431
 11
6.605193837
 21
2.9241681915
  0
LINE
  5
4B9
100
AcDbEntity
  8
0
100
AcDbLine
 62
7
  6
CONTINUOUS
 10
6.9842095353
 20
2.9538202862
 11
6.9897457774
 21
2.9540119526
  0
SPLINE
  5
4BA
100
AcDbEntity
  8
0
100
AcDbSpline
 62
7
  6
CONTINUOUS
 70
0
 71
3
 72
16
 73
12
 74
0
 42
0.0000001
 43
0.0000001
 44
0.0000000001
 40
0.0
 40
0.0
 40
0.0
 40
0.0
 40
0.2311222309
 40
0.4324240715
 40
0.6032373816
 40
0.7432939755
 40
0.8525615713
 40
0.9310881871
 40
0.9792016402
 40
0.992414114
 40
1.0
 40
1.0
 40
1.0
 40
1.0
 10
6.9897457774
 20
2.9540119526
 30
0.0
 10
6.9900692599
 20
2.9540193834
 30
0.0
 10
6.9906745421
 20
2.9540313331
 30
0.0
 10
6.9915190106
 20
2.9540404155
 30
0.0
 10
6.9922361293
 20
2.9540391592
 30
0.0
 10
6.9928240791
 20
2.9540279975
 30
0.0
 10
6.9932831152
 20
2.9540070732
 30
0.0
 10
6.9936112688
 20
2.9539786381
 30
0.0
 10
6.9938063551
 20
2.9539441916
 30
0.0
 10
6.9938957633
 20
2.9539106717
 30
0.0
 10
6.9939177598
 20
2.9538854308
 30
0.0
 10
6.9939179338
 20
2.9538748121
 30
0.0
  0
SPLINE
  5
4BB
100
AcDbEntity
  8
0
100
AcDbSpline
 62
7
  6
CONTINUOUS
 70
0
 71
3
 72
17
 73
13
 74
0
 42
0.0000001
 43
0.0000001
 44
0.0000000001
 40
0.0
 40
0.0
 40
0.0
 40
0.0
 40
0.2293630287
 40
0.4294113264
 40
0.5997275474
 40
0.739911964
 40
0.849605571
 40
0.9287034185
 40
0.9569083811
 40
0.9777282481
 40
0.9915802086
 40
1.0
 40
1.0
 40
1.0
 40
1.0
 10
5.0960053911
 20
2.8855102901
 30
0.0
 10
5.0956656559
 20
2.8855296476
 30
0.0
 10
5.0950297339
 20
2.8855681809
 30
0.0
 10
5.0941421463
 20
2.8856307119
 30
0.0
 10
5.09338731
 20
2.8856938392
 30
0.0
 10
5.0927670361
 20
2.8857571602
 30
0.0
 10
5.0922830803
 20
2.8858203396
 30
0.0
 10
5.0919656928
 20
2.885876638
 30
0.0
 10
5.0917816688
 20
2.8859244188
 30
0.0
 10
5.0916938129
 20
2.8859570916
 30
0.0
 10
5.0916373414
 20
2.885986348
 30
0.0
 10
5.0916158609
 20
2.8860166072
 30
0.0
 10
5.0916158346
 20
2.8860290989
 30
0.0
  0
LINE
  5
4BC
100
AcDbEntity
  8
0
100
AcDbLine
 62
7
  6
CONTINUOUS
 10
6.9938652039
 20
2.9538202862
 11
6.9897358612
 21
2.9531289571
  0
SPLINE
  5
4BD
100
AcDbEntity
  8
0
100
AcDbSpline
 62
7
  6
CONTINUOUS
 70
0
 71
3
 72
17
 73
13
 74
0
 42
0.0000001
 43
0.0000001
 44
0.0000000001
 40
0.0
 40
0.0
 40
0.0
 40
0.0
 40
0.0156855405
 40
0.0344726931
 40
0.0584747773
 40
0.0887105415
 40
0.1694938233
 40
0.2785141968
 40
0.4161415371
 40
0.5823768861
 40
0.7770704504
 40
1.0
 40
1.0
 40
1.0
 40
1.0
 10
4.310284768
 20
2.9182795545
 30
0.0
 10
4.3102847694
 20
2.9182589746
 30
0.0
 10
4.3102721949
 20
2.9182134399
 30
0.0
 10
4.310222227
 20
2.9181535047
 30
0.0
 10
4.3101445574
 20
2.9180965499
 30
0.0
 10
4.3099869846
 20
2.9180146291
 30
0.0
 10
4.3097123988
 20
2.9179217568
 30
0.0
 10
4.3092946669
 20
2.9178211122
 30
0.0
 10
4.3087612663
 20
2.9177249045
 30
0.0
 10
4.3081135135
 20
2.9176333303
 30
0.0
 10
4.3073522617
 20
2.9175470552
 30
0.0
 10
4.3068066157
 20
2.9174966687
 30
0.0
 10
4.306515166
 20
2.9174720081
 30
0.0
  0
SPLINE
  5
4BE
100
AcDbEntity
  8
0
100
AcDbSpline
 62
7
  6
CONTINUOUS
 70
0
 71
3
 72
15
 73
11
 74
0
 42
0.0000001
 43
0.0000001
 44
0.0000000001
 40
0.0
 40
0.0
 40
0.0
 40
0.0
 40
0.0483402961
 40
0.1104411893
 40
0.194078261
 40
0.3023741867
 40
0.4366519469
 40
0.5975192418
 40
0.7852612487
 40
1.0
 40
1.0
 40
1.0
 40
1.0
 10
3.9155379205
 20
2.9459664038
 30
0.0
 10
3.9155376399
 20
2.9459287511
 30
0.0
 10
3.9155059146
 20
2.9458429593
 30
0.0
 10
3.9153921041
 20
2.9457394708
 30
0.0
 10
3.9152192914
 20
2.9456417107
 30
0.0
 10
3.914982468
 20
2.9455480371
 30
0.0
 10
3.9146812662
 20
2.9454577136
 30
0.0
 10
3.9143150517
 20
2.9453711477
 30
0.0
 10
3.9138840035
 20
2.9452885117
 30
0.0
 10
3.9135743035
 20
2.9452394928
 30
0.0
 10
3.9134087936
 20
2.9452153152
 30
0.0
  0
SPLINE
  5
4BF
100
AcDbEntity
  8
0
100
AcDbSpline
 62
7
  6
CONTINUOUS
 70
0
 71
3
 72
14
 73
10
 74
0
 42
0.0000001
 43
0.0000001
 44
0.0000000001
 40
0.0
 40
0.0
 40
0.0
 40
0.0
 40
0.3815650444
 40
0.5397322769
 40
0.6758738942
 40
0.7898324554
 40
0.8815463101
 40
0.9512843422
 40
1.0
 40
1.0
 40
1.0
 40
1.0
 10
5.0957802355
 20
2.898616773
 30
0.0
 10
5.0952529625
 20
2.8986719351
 30
0.0
 10
5.0945077653
 20
2.8987573749
 30
0.0
 10
5.0935782605
 20
2.8988913791
 30
0.0
 10
5.0930188637
 20
2.8989861142
 30
0.0
 10
5.0925535216
 20
2.8990811327
 30
0.0
 10
5.0921823123
 20
2.8991760307
 30
0.0
 10
5.0919061484
 20
2.8992703536
 30
0.0
 10
5.0917570496
 20
2.8993444772
 30
0.0
 10
5.0917031599
 20
2.8993854321
 30
0.0
  0
LINE
  5
4C0
100
AcDbEntity
  8
0
100
AcDbLine
 62
7
  6
CONTINUOUS
 10
5.0917031599
 20
2.8993854321
 11
5.0916157034
 21
2.8995184491
  0
SPLINE
  5
4C1
100
AcDbEntity
  8
0
100
AcDbSpline
 62
7
  6
CONTINUOUS
 70
0
 71
3
 72
15
 73
11
 74
0
 42
0.0000001
 43
0.0000001
 44
0.0000000001
 40
0.0
 40
0.0
 40
0.0
 40
0.0
 40
0.4230924518
 40
0.7300481335
 40
0.8395641194
 40
0.8833402558
 40
0.9198573086
 40
0.9492482561
 40
0.9718267723
 40
1.0
 40
1.0
 40
1.0
 40
1.0
 10
4.6056948646
 20
2.8999194145
 30
0.0
 10
4.6051030786
 20
2.8999855264
 30
0.0
 10
4.6040832297
 20
2.9001104416
 30
0.0
 10
4.60291547
 20
2.9002965809
 30
0.0
 10
4.6022836066
 20
2.9004404417
 30
0.0
 10
4.6020269717
 20
2.9005156084
 30
0.0
 10
4.6018815585
 20
2.9005664757
 30
0.0
 10
4.601766634
 20
2.9006179291
 30
0.0
 10
4.6016720548
 20
2.9006731441
 30
0.0
 10
4.6016147872
 20
2.9007350271
 30
0.0
 10
4.601614851
 20
2.9007746785
 30
0.0
  0
LINE
  5
4C2
100
AcDbEntity
  8
0
100
AcDbLine
 62
7
  6
CONTINUOUS
 10
3.3164410223
 20
2.9534023687
 11
3.3143646097
 21
2.9538202862
  0
LINE
  5
4C3
100
AcDbEntity
  8
0
100
AcDbLine
 62
7
  6
CONTINUOUS
 10
3.3184772896
 20
2.9531311875
 11
3.3164410223
 21
2.9534023687
  0
LINE
  5
4C4
100
AcDbEntity
  8
0
100
AcDbLine
 62
7
  6
CONTINUOUS
 10
5.5723643346
 20
2.8846346334
 11
5.5679543542
 21
2.8847894601
  0
SPLINE
  5
4C5
100
AcDbEntity
  8
0
100
AcDbSpline
 62
7
  6
CONTINUOUS
 70
0
 71
3
 72
9
 73
5
 74
0
 42
0.0000001
 43
0.0000001
 44
0.0000000001
 40
0.0
 40
0.0
 40
0.0
 40
0.0
 40
0.3690656136
 40
1.0
 40
1.0
 40
1.0
 40
1.0
 10
5.5679543542
 20
2.8847894601
 30
0.0
 10
5.5679507296
 20
2.8847908568
 30
0.0
 10
5.5679416951
 20
2.8847947199
 30
0.0
 10
5.5679300224
 20
2.8848020782
 30
0.0
 10
5.5679300771
 20
2.8848087185
 30
0.0
  0
SPLINE
  5
4C6
100
AcDbEntity
  8
0
100
AcDbSpline
 62
7
  6
CONTINUOUS
 70
0
 71
3
 72
15
 73
11
 74
0
 42
0.0000001
 43
0.0000001
 44
0.0000000001
 40
0.0
 40
0.0
 40
0.0
 40
0.0
 40
0.1002641727
 40
0.1389297781
 40
0.1839058969
 40
0.2935158228
 40
0.4298892084
 40
0.5931726716
 40
0.7832778893
 40
1.0
 40
1.0
 40
1.0
 40
1.0
 10
6.1366134205
 20
2.9516719552
 30
0.0
 10
6.136613592
 20
2.9515104298
 30
0.0
 10
6.1364159262
 20
2.9513215088
 30
0.0
 10
6.1361725898
 20
2.9511661207
 30
0.0
 10
6.1358957775
 20
2.9510184109
 30
0.0
 10
6.135463278
 20
2.9508389279
 30
0.0
 10
6.1348373195
 20
2.9506293081
 30
0.0
 10
6.1340774838
 20
2.9504164536
 30
0.0
 10
6.1331846406
 20
2.9502002945
 30
0.0
 10
6.1325436102
 20
2.9500635195
 30
0.0
 10
6.1322014391
 20
2.9499941143
 30
0.0
  0
SPLINE
  5
4C7
100
AcDbEntity
  8
0
100
AcDbSpline
 62
7
  6
CONTINUOUS
 70
0
 71
3
 72
15
 73
11
 74
0
 42
0.0000001
 43
0.0000001
 44
0.0000000001
 40
0.0
 40
0.0
 40
0.0
 40
0.0
 40
0.0283032016
 40
0.0509630999
 40
0.0804041126
 40
0.1169294781
 40
0.1606797577
 40
0.2700760589
 40
0.5767669893
 40
1.0
 40
1.0
 40
1.0
 40
1.0
 10
5.706614869
 20
2.9007746766
 30
0.0
 10
5.706614975
 20
2.9007351985
 30
0.0
 10
5.7065579084
 20
2.9006736278
 30
0.0
 10
5.7064639338
 20
2.9006186674
 30
0.0
 10
5.7063499208
 20
2.9005674394
 30
0.0
 10
5.7062058431
 20
2.900516796
 30
0.0
 10
5.7059517911
 20
2.9004419956
 30
0.0
 10
5.7053263042
 20
2.9002987987
 30
0.0
 10
5.7041694463
 20
2.9001135192
 30
0.0
 10
5.7031589364
 20
2.8999893545
 30
0.0
 10
5.7025722715
 20
2.8999235971
 30
0.0
  0
SPLINE
  5
4C8
100
AcDbEntity
  8
0
100
AcDbSpline
 62
7
  6
CONTINUOUS
 70
0
 71
3
 72
17
 73
13
 74
0
 42
0.0000001
 43
0.0000001
 44
0.0000000001
 40
0.0
 40
0.0
 40
0.0
 40
0.0
 40
0.0305988698
 40
0.0537696836
 40
0.083515153
 40
0.1202189545
 40
0.1640569363
 40
0.2734074198
 40
0.4118085135
 40
0.5791797509
 40
0.7753265857
 40
1.0
 40
1.0
 40
1.0
 40
1.0
 10
5.2166141428
 20
2.8995184491
 30
0.0
 10
5.2166144535
 20
2.89947437
 30
0.0
 10
5.2165595891
 20
2.899403476
 30
0.0
 10
5.2164605623
 20
2.8993394584
 30
0.0
 10
5.2163435903
 20
2.899282198
 30
0.0
 10
5.216195105
 20
2.8992261517
 30
0.0
 10
5.2159337158
 20
2.8991446493
 30
0.0
 10
5.215524785
 20
2.8990472922
 30
0.0
 10
5.2149369278
 20
2.8989368564
 30
0.0
 10
5.2142221452
 20
2.8988271152
 30
0.0
 10
5.2133817744
 20
2.898718281
 30
0.0
 10
5.2127792429
 20
2.8986511843
 30
0.0
 10
5.2124573429
 20
2.8986174752
 30
0.0
  0
SPLINE
  5
4C9
100
AcDbEntity
  8
0
100
AcDbSpline
 62
7
  6
CONTINUOUS
 70
0
 71
3
 72
16
 73
12
 74
0
 42
0.0000001
 43
0.0000001
 44
0.0000000001
 40
0.0
 40
0.0
 40
0.0
 40
0.0
 40
0.0461179787
 40
0.0744962875
 40
0.1078583655
 40
0.1918099905
 40
0.3009112344
 40
0.4361706995
 40
0.5978258045
 40
0.7858305871
 40
1.0
 40
1.0
 40
1.0
 40
1.0
 10
5.6928407834
 20
2.9505318909
 30
0.0
 10
5.6928406999
 20
2.9504548264
 30
0.0
 10
5.6927929653
 20
2.9503305177
 30
0.0
 10
5.6926771407
 20
2.9501925917
 30
0.0
 10
5.6924929433
 20
2.9500317297
 30
0.0
 10
5.6921655925
 20
2.949837744
 30
0.0
 10
5.6916626704
 20
2.9496172695
 30
0.0
 10
5.6910209284
 20
2.9493952686
 30
0.0
 10
5.6902417448
 20
2.9491719868
 30
0.0
 10
5.6893262947
 20
2.9489483573
 30
0.0
 10
5.6886688712
 20
2.9488085163
 30
0.0
 10
5.6883180104
 20
2.9487379663
 30
0.0
  0
SPLINE
  5
4CA
100
AcDbEntity
  8
0
100
AcDbSpline
 62
7
  6
CONTINUOUS
 70
0
 71
3
 72
16
 73
12
 74
0
 42
0.0000001
 43
0.0000001
 44
0.0000000001
 40
0.0
 40
0.0
 40
0.0
 40
0.0
 40
0.0084376566
 40
0.0223319238
 40
0.0713778285
 40
0.1504702091
 40
0.2600114724
 40
0.4000661026
 40
0.5704036713
 40
0.7705491507
 40
1.0
 40
1.0
 40
1.0
 40
1.0
 10
5.2166143528
 20
2.8860290989
 30
0.0
 10
5.2166142598
 20
2.8860165686
 30
0.0
 10
5.216592546
 20
2.8859863303
 30
0.0
 10
5.2164987227
 20
2.885938011
 30
0.0
 10
5.2162929555
 20
2.8858820397
 30
0.0
 10
5.2159462518
 20
2.8858202713
 30
0.0
 10
5.2154616959
 20
2.8857570159
 30
0.0
 10
5.2148414082
 20
2.8856936498
 30
0.0
 10
5.2140857583
 20
2.8856305288
 30
0.0
 10
5.2131970074
 20
2.8855679894
 30
0.0
 10
5.2125601718
 20
2.885529444
 30
0.0
 10
5.2122199689
 20
2.8855100774
 30
0.0
  0
SPLINE
  5
4CB
100
AcDbEntity
  8
0
100
AcDbSpline
 62
7
  6
CONTINUOUS
 70
0
 71
3
 72
16
 73
12
 74
0
 42
0.0000001
 43
0.0000001
 44
0.0000000001
 40
0.0
 40
0.0
 40
0.0
 40
0.0
 40
0.2305959146
 40
0.4315567659
 40
0.6023490419
 40
0.7425517424
 40
0.8520443089
 40
0.9308273276
 40
0.979169786
 40
0.9924475649
 40
1.0
 40
1.0
 40
1.0
 40
1.0
 10
5.9445867818
 20
2.897075077
 30
0.0
 10
5.9442563684
 20
2.897079318
 30
0.0
 10
5.9436380166
 20
2.8970888778
 30
0.0
 10
5.9427750982
 20
2.8971085958
 30
0.0
 10
5.9420417877
 20
2.8971328718
 30
0.0
 10
5.9414400811
 20
2.8971615589
 30
0.0
 10
5.9409700065
 20
2.8971951881
 30
0.0
 10
5.9406339795
 20
2.8972320029
 30
0.0
 10
5.9404340621
 20
2.8972711612
 30
0.0
 10
5.940342878
 20
2.897306639
 30
0.0
 10
5.9403201983
 20
2.8973324182
 30
0.0
 10
5.9403200622
 20
2.8973432399
 30
0.0
  0
SPLINE
  5
4CC
100
AcDbEntity
  8
0
100
AcDbSpline
 62
7
  6
CONTINUOUS
 70
0
 71
3
 72
16
 73
12
 74
0
 42
0.0000001
 43
0.0000001
 44
0.0000000001
 40
0.0
 40
0.0
 40
0.0
 40
0.0
 40
0.2203368439
 40
0.4131785137
 40
0.5781578361
 40
0.715027579
 40
0.8239704605
 40
0.9057179927
 40
0.9369650879
 40
0.9623963266
 40
1.0
 40
1.0
 40
1.0
 40
1.0
 10
4.6137361408
 20
2.9205071582
 30
0.0
 10
4.6133973671
 20
2.9205605283
 30
0.0
 10
4.6127629228
 20
2.9206660269
 30
0.0
 10
4.6118787519
 20
2.9208341235
 30
0.0
 10
4.6111269762
 20
2.9210011667
 30
0.0
 10
4.6105089144
 20
2.921166329
 30
0.0
 10
4.6100256147
 20
2.9213296897
 30
0.0
 10
4.6097094924
 20
2.9214719647
 30
0.0
 10
4.6095290769
 20
2.9215918906
 30
0.0
 10
4.6094202577
 20
2.9216887929
 30
0.0
 10
4.6093683465
 20
2.9217838633
 30
0.0
 10
4.6093680413
 20
2.9218423922
 30
0.0
  0
SPLINE
  5
4CD
100
AcDbEntity
  8
0
100
AcDbSpline
 62
7
  6
CONTINUOUS
 70
0
 71
3
 72
16
 73
12
 74
0
 42
0.0000001
 43
0.0000001
 44
0.0000000001
 40
0.0
 40
0.0
 40
0.0
 40
0.0
 40
0.0074960362
 40
0.0207344414
 40
0.0690742407
 40
0.1479094257
 40
0.257452538
 40
0.3976492502
 40
0.5683698323
 40
0.7693350298
 40
1.0
 40
1.0
 40
1.0
 40
1.0
 10
4.3679100111
 20
2.8973432397
 30
0.0
 10
4.3679100111
 20
2.8973324261
 30
0.0
 10
4.3678873086
 20
2.8973064313
 30
0.0
 10
4.3677955775
 20
2.8972710229
 30
0.0
 10
4.3675942976
 20
2.8972316574
 30
0.0
 10
4.367255849
 20
2.8971948466
 30
0.0
 10
4.3667824838
 20
2.8971611379
 30
0.0
 10
4.3661767819
 20
2.8971324593
 30
0.0
 10
4.3654386678
 20
2.8971082209
 30
0.0
 10
4.3645699733
 20
2.8970885112
 30
0.0
 10
4.3639473797
 20
2.8970789546
 30
0.0
 10
4.3636146567
 20
2.8970747181
 30
0.0
  0
SPLINE
  5
4CE
100
AcDbEntity
  8
0
100
AcDbSpline
 62
7
  6
CONTINUOUS
 70
0
 71
3
 72
17
 73
13
 74
0
 42
0.0000001
 43
0.0000001
 44
0.0000000001
 40
0.0
 40
0.0
 40
0.0
 40
0.0
 40
0.2195110421
 40
0.41168156
 40
0.5762177323
 40
0.7129242959
 40
0.8218189493
 40
0.9035922978
 40
0.9349580131
 40
0.9606421622
 40
0.9816978924
 40
1.0
 40
1.0
 40
1.0
 40
1.0
 10
5.0961172719
 20
2.9192569427
 30
0.0
 10
5.0957684743
 20
2.9193072569
 30
0.0
 10
5.0951151451
 20
2.9194075091
 30
0.0
 10
5.0942043292
 20
2.9195700492
 30
0.0
 10
5.0934292803
 20
2.9197343184
 30
0.0
 10
5.0927914168
 20
2.9198994594
 30
0.0
 10
5.0922924193
 20
2.9200651403
 30
0.0
 10
5.0919660368
 20
2.9202128694
 30
0.0
 10
5.0917806114
 20
2.9203376066
 30
0.0
 10
5.0916884072
 20
2.9204236736
 30
0.0
 10
5.0916301072
 20
2.9205120387
 30
0.0
 10
5.0916158585
 20
2.9205756149
 30
0.0
 10
5.0916158272
 20
2.9206049975
 30
0.0
  0
SPLINE
  5
4CF
100
AcDbEntity
  8
0
100
AcDbSpline
 62
7
  6
CONTINUOUS
 70
0
 71
3
 72
16
 73
12
 74
0
 42
0.0000001
 43
0.0000001
 44
0.0000000001
 40
0.0
 40
0.0
 40
0.0
 40
0.0
 40
0.2149978181
 40
0.4047481278
 40
0.5688037172
 40
0.7068766614
 40
0.8188610212
 40
0.9047369941
 40
0.9647040767
 40
0.9852624238
 40
1.0
 40
1.0
 40
1.0
 40
1.0
 10
6.3173678926
 20
2.9170450802
 30
0.0
 10
6.3170337252
 20
2.9170510991
 30
0.0
 10
6.3164046674
 20
2.9170647906
 30
0.0
 10
6.3155208828
 20
2.9170930495
 30
0.0
 10
6.3147569734
 20
2.9171277443
 30
0.0
 10
6.3141145597
 20
2.9171690338
 30
0.0
 10
6.3135942338
 20
2.9172165125
 30
0.0
 10
6.313197339
 20
2.9172707425
 30
0.0
 10
6.3129429831
 20
2.9173238941
 30
0.0
 10
6.3128041699
 20
2.917375557
 30
0.0
 10
6.3127559748
 20
2.9174035627
 30
0.0
 10
6.3127390388
 20
2.9174189913
 30
0.0
  0
SPLINE
  5
4D0
100
AcDbEntity
  8
0
100
AcDbSpline
 62
7
  6
CONTINUOUS
 70
0
 71
3
 72
14
 73
10
 74
0
 42
0.0000001
 43
0.0000001
 44
0.0000000001
 40
0.0
 40
0.0
 40
0.0
 40
0.0
 40
0.3960740897
 40
0.5550245421
 40
0.6882679858
 40
0.7966022988
 40
0.8816934243
 40
0.947002662
 40
1.0
 40
1.0
 40
1.0
 40
1.0
 10
5.5755686966
 20
2.9186126642
 30
0.0
 10
5.5753188037
 20
2.9186646938
 30
0.0
 10
5.5749698606
 20
2.9187453838
 30
0.0
 10
5.5745459843
 20
2.9188767639
 30
0.0
 10
5.5743047219
 20
2.9189691655
 30
0.0
 10
5.574115544
 20
2.9190626625
 30
0.0
 10
5.5739777343
 20
2.9191578614
 30
0.0
 10
5.5738885863
 20
2.9192569226
 30
0.0
 10
5.5738653504
 20
2.9193335221
 30
0.0
 10
5.5738653974
 20
2.9193676764
 30
0.0
  0
SPLINE
  5
4D1
100
AcDbEntity
  8
0
100
AcDbSpline
 62
7
  6
CONTINUOUS
 70
0
 71
3
 72
16
 73
12
 74
0
 42
0.0000001
 43
0.0000001
 44
0.0000000001
 40
0.0
 40
0.0
 40
0.0
 40
0.0
 40
0.0147369531
 40
0.0352952697
 40
0.0952635311
 40
0.1811413195
 40
0.2931269608
 40
0.4311995125
 40
0.5952526843
 40
0.7850020264
 40
1.0
 40
1.0
 40
1.0
 40
1.0
 10
3.9954907749
 20
2.9174189913
 30
0.0
 10
3.9954738372
 20
2.9174035613
 30
0.0
 10
3.9954256354
 20
2.9173755537
 30
0.0
 10
3.9952868011
 20
2.9173238877
 30
0.0
 10
3.9950324049
 20
2.9172707335
 30
0.0
 10
3.9946354488
 20
2.9172165006
 30
0.0
 10
3.9941150472
 20
2.9171690201
 30
0.0
 10
3.9934725481
 20
2.9171277298
 30
0.0
 10
3.9927085403
 20
2.9170930354
 30
0.0
 10
3.9918246401
 20
2.9170647769
 30
0.0
 10
3.9911954977
 20
2.917051086
 30
0.0
 10
3.9908612845
 20
2.9170450675
 30
0.0
  0
SPLINE
  5
4D2
100
AcDbEntity
  8
0
100
AcDbSpline
 62
7
  6
CONTINUOUS
 70
0
 71
3
 72
18
 73
14
 74
0
 42
0.0000001
 43
0.0000001
 44
0.0000000001
 40
0.0
 40
0.0
 40
0.0
 40
0.0
 40
0.2237438518
 40
0.4192645998
 40
0.5862421028
 40
0.7244187436
 40
0.8336681366
 40
0.8774999143
 40
0.9142352053
 40
0.9440725311
 40
0.9674605476
 40
0.9853929934
 40
1.0
 40
1.0
 40
1.0
 40
1.0
 10
6.0023846034
 20
2.9174189913
 30
0.0
 10
6.0020418456
 20
2.9174443803
 30
0.0
 10
6.0013998818
 20
2.9174965279
 30
0.0
 10
6.0005038172
 20
2.9175867616
 30
0.0
 10
5.9997406578
 20
2.9176832449
 30
0.0
 10
5.9991122585
 20
2.9177856406
 30
0.0
 10
5.9986745531
 20
2.9178805034
 30
0.0
 10
5.9983946924
 20
2.9179628706
 30
0.0
 10
5.9982353295
 20
2.9180213168
 30
0.0
 10
5.998110307
 20
2.9180809728
 30
0.0
 10
5.9980192271
 20
2.9181423098
 30
0.0
 10
5.9979602643
 20
2.9182068523
 30
0.0
 10
5.9979450399
 20
2.9182571174
 30
0.0
 10
5.9979450708
 20
2.9182795555
 30
0.0
  0
LINE
  5
4D3
100
AcDbEntity
  8
0
100
AcDbLine
 62
7
  6
CONTINUOUS
 10
6.6051934465
 20
2.9241659431
 11
6.6010691613
 21
2.9237085385
  0
SPLINE
  5
4D4
100
AcDbEntity
  8
0
100
AcDbSpline
 62
7
  6
CONTINUOUS
 70
0
 71
3
 72
16
 73
12
 74
0
 42
0.0000001
 43
0.0000001
 44
0.0000000001
 40
0.0
 40
0.0
 40
0.0
 40
0.0
 40
0.0468315714
 40
0.0753675334
 40
0.1087932308
 40
0.1926822661
 40
0.3015740351
 40
0.4366346166
 40
0.5981348884
 40
0.7859983711
 40
1.0
 40
1.0
 40
1.0
 40
1.0
 10
5.2166141953
 20
2.9493084976
 30
0.0
 10
5.216614066
 20
2.9492282332
 30
0.0
 10
5.2165655091
 20
2.9490989915
 30
0.0
 10
5.2164458989
 20
2.9489559794
 30
0.0
 10
5.2162565751
 20
2.9487910231
 30
0.0
 10
5.2159199299
 20
2.9485940142
 30
0.0
 10
5.2154028091
 20
2.9483728412
 30
0.0
 10
5.2147428751
 20
2.9481531171
 30
0.0
 10
5.2139415425
 20
2.9479349508
 30
0.0
 10
5.2130001722
 20
2.9477192827
 30
0.0
 10
5.2123243002
 20
2.9475862077
 30
0.0
 10
5.2119636454
 20
2.9475194755
 30
0.0
  0
SPLINE
  5
4D5
100
AcDbEntity
  8
0
100
AcDbSpline
 62
7
  6
CONTINUOUS
 70
0
 71
3
 72
16
 73
12
 74
0
 42
0.0000001
 43
0.0000001
 44
0.0000000001
 40
0.0
 40
0.0
 40
0.0
 40
0.0
 40
0.0374836938
 40
0.0628625132
 40
0.0940706432
 40
0.1757950162
 40
0.2848083548
 40
0.421822403
 40
0.5868690026
 40
0.77970568
 40
1.0
 40
1.0
 40
1.0
 40
1.0
 10
5.698862061
 20
2.9218423979
 30
0.0
 10
5.6988618879
 20
2.9217836894
 30
0.0
 10
5.6988097833
 20
2.9216882021
 30
0.0
 10
5.69870043
 20
2.9215910339
 30
0.0
 10
5.6985188891
 20
2.9214706639
 30
0.0
 10
5.6982005799
 20
2.9213279212
 30
0.0
 10
5.6977137626
 20
2.921164045
 30
0.0
 10
5.6970912158
 20
2.9209984273
 30
0.0
 10
5.6963342989
 20
2.9208307815
 30
0.0
 10
5.6954444613
 20
2.9206621078
 30
0.0
 10
5.6948060642
 20
2.9205562492
 30
0.0
 10
5.6944652083
 20
2.9205027045
 30
0.0
  0
SPLINE
  5
4D6
100
AcDbEntity
  8
0
100
AcDbSpline
 62
7
  6
CONTINUOUS
 70
0
 71
3
 72
17
 73
13
 74
0
 42
0.0000001
 43
0.0000001
 44
0.0000000001
 40
0.0
 40
0.0
 40
0.0
 40
0.0
 40
0.0218778802
 40
0.0459047102
 40
0.0738167548
 40
0.1067326372
 40
0.1899414868
 40
0.298536093
 40
0.4336645321
 40
0.5956819716
 40
0.7845291703
 40
1.0
 40
1.0
 40
1.0
 40
1.0
 10
4.740386973
 20
2.9480851605
 30
0.0
 10
4.7403868466
 20
2.9480475732
 30
0.0
 10
4.7403726091
 20
2.9479682759
 30
0.0
 10
4.7403122241
 20
2.94785507
 30
0.0
 10
4.7402152837
 20
2.9477449389
 30
0.0
 10
4.7400225356
 20
2.947588486
 30
0.0
 10
4.7396808831
 20
2.9474033625
 30
0.0
 10
4.7391572912
 20
2.9471988154
 30
0.0
 10
4.7384890043
 20
2.946998234
 30
0.0
 10
4.7376771598
 20
2.9468021308
 30
0.0
 10
4.7367228706
 20
2.9466112055
 30
0.0
 10
4.7360378613
 20
2.9464953912
 30
0.0
 10
4.7356721875
 20
2.9464377317
 30
0.0
  0
SPLINE
  5
4D7
100
AcDbEntity
  8
0
100
AcDbSpline
 62
7
  6
CONTINUOUS
 70
0
 71
3
 72
17
 73
13
 74
0
 42
0.0000001
 43
0.0000001
 44
0.0000000001
 40
0.0
 40
0.0
 40
0.0
 40
0.0
 40
0.0183447608
 40
0.0394270072
 40
0.06512624
 40
0.0965035308
 40
0.178317434
 40
0.2872773709
 40
0.423988521
 40
0.5884790172
 40
0.7805739655
 40
1.0
 40
1.0
 40
1.0
 40
1.0
 10
5.2166137095
 20
2.9206049975
 30
0.0
 10
5.2166137193
 20
2.9205757162
 30
0.0
 10
5.2165996747
 20
2.9205123721
 30
0.0
 10
5.2165418623
 20
2.9204242502
 30
0.0
 10
5.2164503042
 20
2.9203384257
 30
0.0
 10
5.2162660584
 20
2.9202140446
 30
0.0
 10
5.2159415195
 20
2.9200667628
 30
0.0
 10
5.2154453481
 20
2.9199016406
 30
0.0
 10
5.2148112562
 20
2.919736938
 30
0.0
 10
5.21404097
 20
2.9195731255
 30
0.0
 10
5.2131358295
 20
2.9194110245
 30
0.0
 10
5.2124865738
 20
2.9193110444
 30
0.0
 10
5.2121399469
 20
2.9192608672
 30
0.0
  0
SPLINE
  5
4D8
100
AcDbEntity
  8
0
100
AcDbSpline
 62
7
  6
CONTINUOUS
 70
0
 71
3
 72
12
 73
8
 74
0
 42
0.0000001
 43
0.0000001
 44
0.0000000001
 40
0.0
 40
0.0
 40
0.0
 40
0.0
 40
0.355240231
 40
0.6409484605
 40
0.8560195889
 40
0.9368763407
 40
1.0
 40
1.0
 40
1.0
 40
1.0
 10
6.6899539279
 20
2.9446326423
 30
0.0
 10
6.6894169161
 20
2.9446451246
 30
0.0
 10
6.6884480657
 20
2.9446748353
 30
0.0
 10
6.6871557073
 20
2.9447473189
 30
0.0
 10
6.6862794081
 20
2.9448303177
 30
0.0
 10
6.6857432689
 20
2.9449166341
 30
0.0
 10
6.68553062
 20
2.944965025
 30
0.0
 10
6.6854391179
 20
2.9449921885
 30
0.0
  0
LINE
  5
4D9
100
AcDbEntity
  8
0
100
AcDbLine
 62
7
  6
CONTINUOUS
 10
6.8738955169
 20
2.9446403279
 11
6.8689455644
 21
2.9447177714
  0
SPLINE
  5
4DA
100
AcDbEntity
  8
0
100
AcDbSpline
 62
7
  6
CONTINUOUS
 70
0
 71
3
 72
9
 73
5
 74
0
 42
0.0000001
 43
0.0000001
 44
0.0000000001
 40
0.0
 40
0.0
 40
0.0
 40
0.0
 40
0.3231901255
 40
1.0
 40
1.0
 40
1.0
 40
1.0
 10
6.8689455644
 20
2.9447177714
 30
0.0
 10
6.868941819
 20
2.9447199991
 30
0.0
 10
6.8689307623
 20
2.9447271777
 30
0.0
 10
6.8689209903
 20
2.9447397238
 30
0.0
 10
6.8689210135
 20
2.9447488498
 30
0.0
  0
SPLINE
  5
4DB
100
AcDbEntity
  8
0
100
AcDbSpline
 62
7
  6
CONTINUOUS
 70
0
 71
3
 72
12
 73
8
 74
0
 42
0.0000001
 43
0.0000001
 44
0.0000000001
 40
0.0
 40
0.0
 40
0.0
 40
0.0
 40
0.0631205343
 40
0.1439755357
 40
0.3590463412
 40
0.6447568279
 40
1.0
 40
1.0
 40
1.0
 40
1.0
 10
3.6227906958
 20
2.9449921885
 30
0.0
 10
3.6226991826
 20
2.9449650217
 30
0.0
 10
3.6224865042
 20
2.944916626
 30
0.0
 10
3.6219502806
 20
2.944830302
 30
0.0
 10
3.621073831
 20
2.9447472985
 30
0.0
 10
3.6197812446
 20
2.9446748138
 30
0.0
 10
3.6188122212
 20
2.944645106
 30
0.0
 10
3.6182751134
 20
2.9446326257
 30
0.0
  0
LINE
  5
4DC
100
AcDbEntity
  8
0
100
AcDbLine
 62
7
  6
CONTINUOUS
 10
3.7068051863
 20
2.9237383897
 11
3.7030363672
 21
2.9241659431
  0
LINE
  5
4DD
100
AcDbEntity
  8
0
100
AcDbLine
 62
7
  6
CONTINUOUS
 10
3.7071958612
 20
2.9237056212
 11
3.7068051863
 21
2.9237383897
  0
SPLINE
  5
4DE
100
AcDbEntity
  8
0
100
AcDbSpline
 62
7
  6
CONTINUOUS
 70
0
 71
3
 72
14
 73
10
 74
0
 42
0.0000001
 43
0.0000001
 44
0.0000000001
 40
0.0
 40
0.0
 40
0.0
 40
0.0
 40
0.0536838879
 40
0.1194407253
 40
0.2047681038
 40
0.3131993222
 40
0.4463697354
 40
0.605028537
 40
1.0
 40
1.0
 40
1.0
 40
1.0
 10
4.7343649105
 20
2.9193676667
 30
0.0
 10
4.7343650303
 20
2.9193342046
 30
0.0
 10
4.7343429779
 20
2.9192593146
 30
0.0
 10
4.7342572364
 20
2.9191618932
 30
0.0
 10
4.7341243497
 20
2.9190683382
 30
0.0
 10
4.7339418892
 20
2.9189764972
 30
0.0
 10
4.7337092612
 20
2.9188857041
 30
0.0
 10
4.7333008888
 20
2.9187565585
 30
0.0
 10
4.7329645947
 20
2.9186771156
 30
0.0
 10
4.7327237894
 20
2.9186258864
 30
0.0
  0
LINE
  5
4DF
100
AcDbEntity
  8
0
100
AcDbLine
 62
7
  6
CONTINUOUS
 10
3.9134087936
 20
2.9452153152
 11
3.9117825495
 21
2.9450261891
  0
LINE
  5
4E0
100
AcDbEntity
  8
0
100
AcDbLine
 62
7
  6
CONTINUOUS
 10
4.1760167282
 20
2.9499965371
 11
4.1730722826
 21
2.950738599
  0
SPLINE
  5
4E1
100
AcDbEntity
  8
0
100
AcDbSpline
 62
7
  6
CONTINUOUS
 70
0
 71
3
 72
13
 73
9
 74
0
 42
0.0000001
 43
0.0000001
 44
0.0000000001
 40
0.0
 40
0.0
 40
0.0
 40
0.0
 40
0.378203348
 40
0.6636868332
 40
0.773426912
 40
0.8632992493
 40
0.9367593393
 40
1.0
 40
1.0
 40
1.0
 40
1.0
 10
4.1730722826
 20
2.950738599
 30
0.0
 10
4.1728572043
 20
2.9508107933
 30
0.0
 10
4.1724835076
 20
2.9509484998
 30
0.0
 10
4.1720645473
 20
2.9511528787
 30
0.0
 10
4.1718263926
 20
2.9513213791
 30
0.0
 10
4.1717080776
 20
2.9514359696
 30
0.0
 10
4.1716334161
 20
2.951551615
 30
0.0
 10
4.1716149702
 20
2.9516340719
 30
0.0
 10
4.1716149961
 20
2.9516720078
 30
0.0
  0
SPLINE
  5
4E2
100
AcDbEntity
  8
0
100
AcDbSpline
 62
7
  6
CONTINUOUS
 70
0
 71
3
 72
16
 73
12
 74
0
 42
0.0000001
 43
0.0000001
 44
0.0000000001
 40
0.0
 40
0.0
 40
0.0
 40
0.0
 40
0.2142977558
 40
0.40243763
 40
0.5641905323
 40
0.6994673423
 40
0.8084943862
 40
0.8923587928
 40
0.9256736961
 40
0.9540008081
 40
1.0
 40
1.0
 40
1.0
 40
1.0
 10
4.6199466962
 20
2.9487310379
 30
0.0
 10
4.6195931532
 20
2.9488018488
 30
0.0
 10
4.6189306539
 20
2.9489422039
 30
0.0
 10
4.6180080936
 20
2.9491666366
 30
0.0
 10
4.6172228997
 20
2.9493907299
 30
0.0
 10
4.6165764094
 20
2.949613528
 30
0.0
 10
4.6160700307
 20
2.9498349358
 30
0.0
 10
4.6157405049
 20
2.9500296856
 30
0.0
 10
4.6155550597
 20
2.9501912042
 30
0.0
 10
4.6154384803
 20
2.9503296305
 30
0.0
 10
4.6153903525
 20
2.950454472
 30
0.0
 10
4.6153902371
 20
2.9505318674
 30
0.0
  0
SPLINE
  5
4E3
100
AcDbEntity
  8
0
100
AcDbSpline
 62
7
  6
CONTINUOUS
 70
0
 71
3
 72
16
 73
12
 74
0
 42
0.0000001
 43
0.0000001
 44
0.0000000001
 40
0.0
 40
0.0
 40
0.0
 40
0.0
 40
0.2139416952
 40
0.4017593507
 40
0.5631813892
 40
0.6980994948
 40
0.8069095218
 40
0.890835612
 40
0.9243213196
 40
0.9529425727
 40
1.0
 40
1.0
 40
1.0
 40
1.0
 10
5.0962071066
 20
2.9475306517
 30
0.0
 10
5.0958508555
 20
2.9475970205
 30
0.0
 10
5.0951832369
 20
2.9477293374
 30
0.0
 10
5.094253489
 20
2.9479437036
 30
0.0
 10
5.0934623167
 20
2.9481604715
 30
0.0
 10
5.0928110766
 20
2.9483789281
 30
0.0
 10
5.092300896
 20
2.9485987882
 30
0.0
 10
5.0919687694
 20
2.9487945389
 30
0.0
 10
5.0917819442
 20
2.9489583505
 30
0.0
 10
5.0916637555
 20
2.9491005375
 30
0.0
 10
5.0916158325
 20
2.9492287906
 30
0.0
 10
5.091615648
 20
2.9493084976
 30
0.0
  0
SPLINE
  5
4E4
100
AcDbEntity
  8
0
100
AcDbSpline
 62
7
  6
CONTINUOUS
 70
0
 71
3
 72
17
 73
13
 74
0
 42
0.0000001
 43
0.0000001
 44
0.0000000001
 40
0.0
 40
0.0
 40
0.0
 40
0.0
 40
0.2154450044
 40
0.4042546505
 40
0.5661515197
 40
0.7011725046
 40
0.8097876846
 40
0.8930940172
 40
0.9260669452
 40
0.9540307554
 40
0.9780970652
 40
1.0
 40
1.0
 40
1.0
 40
1.0
 10
5.5725473843
 20
2.9464393663
 30
0.0
 10
5.5721825149
 20
2.9464969635
 30
0.0
 10
5.5714990386
 20
2.9466126373
 30
0.0
 10
5.5705470553
 20
2.9468033023
 30
0.0
 10
5.5697374083
 20
2.9469992849
 30
0.0
 10
5.5690709848
 20
2.9471998459
 30
0.0
 10
5.5685485421
 20
2.9474042031
 30
0.0
 10
5.5682073434
 20
2.9475890894
 30
0.0
 10
5.5680146245
 20
2.9477453248
 30
0.0
 10
5.5679175999
 20
2.9478553151
 30
0.0
 10
5.567857076
 20
2.947968373
 30
0.0
 10
5.5678427318
 20
2.9480476023
 30
0.0
 10
5.5678425674
 20
2.9480851553
 30
0.0
  0
SPLINE
  5
4E5
100
AcDbEntity
  8
0
100
AcDbSpline
 62
7
  6
CONTINUOUS
 70
0
 71
3
 72
15
 73
11
 74
0
 42
0.0000001
 43
0.0000001
 44
0.0000000001
 40
0.0
 40
0.0
 40
0.0
 40
0.0
 40
0.0967714361
 40
0.1347028866
 40
0.1790613862
 40
0.2878801507
 40
0.4243239055
 40
0.5887134209
 40
0.7807619096
 40
1.0
 40
1.0
 40
1.0
 40
1.0
 10
4.2966150277
 20
2.9469452091
 30
0.0
 10
4.2966149721
 20
2.9467814059
 30
0.0
 10
4.2963985015
 20
2.9465952978
 30
0.0
 10
4.2961391835
 20
2.9464561566
 30
0.0
 10
4.2958405969
 20
2.9463245077
 30
0.0
 10
4.295374987
 20
2.9461730627
 30
0.0
 10
4.2947011071
 20
2.9460058294
 30
0.0
 10
4.2938821317
 20
2.9458463431
 30
0.0
 10
4.2929194595
 20
2.945694076
 30
0.0
 10
4.2922290784
 20
2.9456039536
 30
0.0
 10
4.2918606416
 20
2.9455595729
 30
0.0
  0
SPLINE
  5
4E6
100
AcDbEntity
  8
0
100
AcDbSpline
 62
7
  6
CONTINUOUS
 70
0
 71
3
 72
15
 73
11
 74
0
 42
0.0000001
 43
0.0000001
 44
0.0000000001
 40
0.0
 40
0.0
 40
0.0
 40
0.0
 40
0.219681857
 40
0.4117307065
 40
0.5758332708
 40
0.7121017996
 40
0.820903518
 40
0.865283664
 40
0.903241793
 40
1.0
 40
1.0
 40
1.0
 40
1.0
 10
6.0163693903
 20
2.9455595335
 30
0.0
 10
6.0160001867
 20
2.9456039005
 30
0.0
 10
6.0153090169
 20
2.9456939122
 30
0.0
 10
6.014346045
 20
2.9458461688
 30
0.0
 10
6.0135278864
 20
2.9460058614
 30
0.0
 10
6.0128548353
 20
2.9461731434
 30
0.0
 10
6.0123895139
 20
2.9463245038
 30
0.0
 10
6.0120908151
 20
2.9464561141
 30
0.0
 10
6.0118314586
 20
2.9465951042
 30
0.0
 10
6.0116144224
 20
2.9467814343
 30
0.0
 10
6.0116150165
 20
2.9469452178
 30
0.0
  0
SPLINE
  5
4E7
100
AcDbEntity
  8
0
100
AcDbSpline
 62
7
  6
CONTINUOUS
 70
0
 71
3
 72
17
 73
13
 74
0
 42
0.0000001
 43
0.0000001
 44
0.0000000001
 40
0.0
 40
0.0
 40
0.0
 40
0.0
 40
0.2208043159
 40
0.4138227932
 40
0.5788407237
 40
0.7157375122
 40
0.82458709
 40
0.9059314375
 40
0.936848855
 40
0.9619135584
 40
0.9822644425
 40
1.0
 40
1.0
 40
1.0
 40
1.0
 10
6.3968257181
 20
2.9449921885
 30
0.0
 10
6.3965062655
 20
2.9450197049
 30
0.0
 10
6.3959079943
 20
2.9450765898
 30
0.0
 10
6.3950732494
 20
2.945176206
 30
0.0
 10
6.3943625633
 20
2.9452839957
 30
0.0
 10
6.3937768981
 20
2.9453991991
 30
0.0
 10
6.3933177785
 20
2.9455214821
 30
0.0
 10
6.3930160618
 20
2.9456359929
 30
0.0
 10
6.392843737
 20
2.9457374768
 30
0.0
 10
6.3927581913
 20
2.9458090709
 30
0.0
 10
6.3927038983
 20
2.9458848296
 30
0.0
 10
6.3926909061
 20
2.9459405972
 30
0.0
 10
6.3926909123
 20
2.9459663515
 30
0.0
  0
ENDSEC
  0
SECTION
  2
OBJECTS
  0
DICTIONARY
  5
C
100
AcDbDictionary
280
0
281
1
  3
ACAD_GROUP
350
D
  3
ACAD_MLINESTYLE
350
17
  3
ACAD_LAYOUT
350
1A
  3
ACAD_PLOTSETTINGS
350
19
  3
ACAD_PLOTSTYLENAME
350
E
  0
DICTIONARY
  5
D
102
{ACAD_REACTORS
330
C
102
}
100
AcDbDictionary
280
0
281
1
  0
ACDBDICTIONARYWDFLT
  5
E
102
{ACAD_REACTORS
330
C
102
}
100
AcDbDictionary
281
1
  3
Normal
350
F
100
AcDbDictionaryWithDefault
340
F
  0
DICTIONARY
  5
17
102
{ACAD_REACTORS
330
C
102
}
100
AcDbDictionary
280
0
281
1
  3
Standard
350
18
  0
DICTIONARY
  5
19
102
{ACAD_REACTORS
330
C
102
}
100
AcDbDictionary
281
1
  0
DICTIONARY
  5
1A
102
{ACAD_REACTORS
330
C
102
}
100
AcDbDictionary
281
1
  3
Model
350
4E8
  3
Layout1
350
4E9
  0
ACDBPLACEHOLDER
  5
F
102
{ACAD_REACTORS
330
E
102
}
  0
MLINESTYLE
  5
18
102
{ACAD_REACTORS
330
17
102
}
100
AcDbMlineStyle
  2
STANDARD
 70
0
  3

 62
256
 51
90.0
 52
90.0
 71
2
 49
0.5
 62
256
  6
BYLAYER
 49
-0.5
 62
256
  6
BYLAYER
  0
LAYOUT
  5
4E8
102
{ACAD_REACTORS
330
1A
102
}
100
AcDbPlotSettings
  1

  2
none_device
  4
ANSI_A_(11.00_x_8.50_Inches)
  6

 40
0.0
 41
0.0
 42
0.0
 43
0.0
 44
279.4
 45
215.9
 46
0.0
 47
0.0
 48
0.0
 49
0.0
140
0.0
141
0.0
142
1.0
143
1.0
 70
1024
 72
0
 73
0
 74
0
  7

 75
0
147
1.0
148
0.0
149
0.0
100
AcDbLayout
  1
Model
 70
0
 71
0
 10
0.0
 20
0.0
 11
11.0
 21
8.5
 12
0.0
 22
0.0
 32
0.0
 14
0.0
 24
0.0
 34
0.0
 15
0.0
 25
0.0
 35
0.0
146
0.0
 13
0.0
 23
0.0
 33
0.0
 16
1.0
 26
0.0
 36
0.0
 17
0.0
 27
1.0
 37
0.0
 76
0
330
21D
345
0
346
0
  0
LAYOUT
  5
4E9
102
{ACAD_REACTORS
330
1A
102
}
100
AcDbPlotSettings
  1

  2
none_device
  4
ANSI_A_(11.00_x_8.50_Inches)
  6

 40
0.0
 41
0.0
 42
0.0
 43
0.0
 44
279.4
 45
215.9
 46
0.0
 47
0.0
 48
0.0
 49
0.0
140
0.0
141
0.0
142
1.0
143
1.0
 70
0
 72
0
 73
0
 74
0
  7

 75
0
147
1.0
148
0.0
149
0.0
100
AcDbLayout
  1
Layout1
 70
0
 71
1
 10
0.0
 20
0.0
 11
11.0
 21
8.5
 12
0.0
 22
0.0
 32
0.0
 14
0.0
 24
0.0
 34
0.0
 15
0.0
 25
0.0
 35
0.0
146
0.0
 13
0.0
 23
0.0
 33
0.0
 16
1.0
 26
0.0
 36
0.0
 17
0.0
 27
1.0
 37
0.0
 76
0
330
21E
345
0
346
0
  0
ENDSEC
  0
EOF
