  0
SECTION
  2
HEADER
  9
$ACADVER
  1
AC1015
  9
$DWGCODEPAGE
  3
ANSI_1252
  9
$EXTMAX
 10
11.0
 20
8.5
 30
0.0
  9
$EXTMIN
 10
0.0
 20
0.0
 30
0.0
  9
$LIMMIN
 10
0.0
 20
0.0
  9
$LIMMAX
 10
11.0
 20
8.5
  9
$VIEWCTR
 10
5.5
 20
4.25
  9
$VIEWSIZE
 40
8.5
  9
$CLAYER
  8
0
  9
$LTSCALE
 40
0.605
  9
$CELTYPE
  6
BYLAYER
  9
$DIMSCALE
 40
1.0
  9
$DIMASZ
 40
0.1
  9
$DIMEXO
 40
0.06875
  9
$DIMDLI
 40
0.418
  9
$DIMEXE
 40
0.198
  9
$DIMCEN
 40
0.099
  9
$DIMLFAC
 40
1.0
  9
$DIMBLK
  1
_FILLED
  9
$DIMTXT
 40
0.08
  9
$DIMTOL
 70
1
  9
$DIMLIM
 70
0
  9
$DIMTFAC
 40
1.0
  9
$DIMTP
 40
0.01
  9
$DIMTM
 40
0.01
  9
$PDMODE
 70
3
  9
$PDSIZE
 40
0.06
  9
$HANDSEED
  5
341
  9
$TILEMODE
 70
1
  9
$MEASUREMENT
 70
0
  9
$INSUNITS
 70
1
  0
ENDSEC
  0
SECTION
  2
CLASSES
  0
CLASS
  1
ACDBDICTIONARYWDFLT
  2
AcDbDictionaryWithDefault
  3
AutoCAD 2000
 90
0
280
0
281
0
  0
CLASS
  1
ACDBPLACEHOLDER
  2
AcDbPlaceHolder
  3
AutoCAD 2000
 90
0
280
0
281
0
  0
CLASS
  1
LAYOUT
  2
AcDbLayout
  3
AutoCAD 2000
 90
0
280
0
281
0
  0
ENDSEC
  0
SECTION
  2
TABLES
  0
TABLE
  2
VPORT
  5
8
100
AcDbSymbolTable
 70
2
  0
VPORT
  5
1F4
100
AcDbSymbolTableRecord
100
AcDbViewportTableRecord
  2
*ACTIVE
 70
0
 10
0.0
 20
0.0
 11
1.0
 21
1.0
 12
5.5
 22
4.25
 13
0.0
 23
0.0
 14
1.0
 24
1.0
 15
0.0
 25
0.0
 16
0.0
 26
0.0
 36
1.0
 17
0.0
 27
0.0
 37
0.0
 40
8.5
 41
1.2941176471
 42
50.0
 43
0.0
 44
0.0
 50
0.0
 51
0.0
 71
0
 72
100
 73
1
 74
1
 75
0
 76
0
 77
0
 78
0
  0
ENDTAB
  0
TABLE
  2
LTYPE
  5
5
100
AcDbSymbolTable
 70
6
  0
LTYPE
  5
14
100
AcDbSymbolTableRecord
100
AcDbLinetypeTableRecord
  2
BYBLOCK
 70
0
  3

 72
65
 73
0
 40
0.0
  0
LTYPE
  5
15
100
AcDbSymbolTableRecord
100
AcDbLinetypeTableRecord
  2
BYLAYER
 70
0
  3

 72
65
 73
0
 40
0.0
  0
LTYPE
  5
16
100
AcDbSymbolTableRecord
100
AcDbLinetypeTableRecord
  2
CONTINUOUS
 70
64
  3
Solid line
 72
65
 73
0
 40
0.0
  0
LTYPE
  5
1F5
100
AcDbSymbolTableRecord
100
AcDbLinetypeTableRecord
  2
CENTER
 70
64
  3
____ _ ____ _ ____ _ ____ _ ____ _ ____ _ ____
 72
65
 73
4
 40
0.6
 49
0.375
 74
0
 49
-0.075
 74
0
 49
0.075
 74
0
 49
-0.075
 74
0
  0
LTYPE
  5
1F6
100
AcDbSymbolTableRecord
100
AcDbLinetypeTableRecord
  2
HIDDEN
 70
64
  3
- - - - - - - - - - - - - - - - - - - -
 72
65
 73
2
 40
0.2
 49
0.1
 74
0
 49
-0.1
 74
0
  0
LTYPE
  5
1F7
100
AcDbSymbolTableRecord
100
AcDbLinetypeTableRecord
  2
PHANTOM
 70
64
  3
_____ _ _ _____ _ _ _____ _ _ _____
 72
65
 73
6
 40
0.8
 49
0.45
 74
0
 49
-0.05
 74
0
 49
0.1
 74
0
 49
-0.05
 74
0
 49
0.1
 74
0
 49
-0.05
 74
0
  0
LTYPE
  5
1F8
100
AcDbSymbolTableRecord
100
AcDbLinetypeTableRecord
  2
DOT
 70
64
  3
. . . . . . . . . . . . . . . . . . . .
 72
65
 73
2
 40
0.2
 49
0.1
 74
0
 49
-0.1
 74
0
  0
LTYPE
  5
1F9
100
AcDbSymbolTableRecord
100
AcDbLinetypeTableRecord
  2
DASHED
 70
64
  3
- - - - - - - - - - - - - - - - - - - -
 72
65
 73
2
 40
0.2
 49
0.1
 74
0
 49
-0.1
 74
0
  0
ENDTAB
  0
TABLE
  2
LAYER
  5
2
100
AcDbSymbolTable
 70
36
  0
LAYER
  5
10
100
AcDbSymbolTableRecord
100
AcDbLayerTableRecord
  2
0
 70
0
 62
7
  6
CONTINUOUS
370
-3
390
F
  0
LAYER
  5
1FA
100
AcDbSymbolTableRecord
100
AcDbLayerTableRecord
  2
DEFAULT_1
 70
0
 62
7
  6
CENTER
370
-3
390
F
  0
LAYER
  5
1FB
100
AcDbSymbolTableRecord
100
AcDbLayerTableRecord
  2
DEFAULT_2
 70
0
 62
8
  6
HIDDEN
370
-3
390
F
  0
LAYER
  5
1FC
100
AcDbSymbolTableRecord
100
AcDbLayerTableRecord
  2
DEFAULT_3
 70
0
 62
7
  6
PHANTOM
370
-3
390
F
  0
LAYER
  5
1FD
100
AcDbSymbolTableRecord
100
AcDbLayerTableRecord
  2
DEFAULT_COORDINATE_SYSTEM
 70
0
 62
7
  6
CONTINUOUS
370
-3
390
F
  0
LAYER
  5
1FE
100
AcDbSymbolTableRecord
100
AcDbLayerTableRecord
  2
DEFAULT_DATUM_AXES
 70
0
 62
7
  6
CONTINUOUS
370
-3
390
F
  0
LAYER
  5
1FF
100
AcDbSymbolTableRecord
100
AcDbLayerTableRecord
  2
DEFAULT_DATUM_CURVES
 70
0
 62
7
  6
CONTINUOUS
370
-3
390
F
  0
LAYER
  5
200
100
AcDbSymbolTableRecord
100
AcDbLayerTableRecord
  2
DEFAULT_DATUM_PLANES
 70
0
 62
7
  6
CONTINUOUS
370
-3
390
F
  0
ENDTAB
  0
TABLE
  2
STYLE
  5
3
100
AcDbSymbolTable
 70
1
  0
STYLE
  5
11
100
AcDbSymbolTableRecord
100
AcDbTextStyleTableRecord
  2
STANDARD
 70
0
 40
0.0
 41
0.8
 50
0.0
 71
0
 42
0.2
  3
txt
  4

  0
STYLE
  5
201
100
AcDbSymbolTableRecord
100
AcDbTextStyleTableRecord
  2
TEXTSTYLE_1
 70
0
 40
0.0
 41
0.8
 50
0.0
 71
0
 42
0.2
  3
gdt
  4

  0
ENDTAB
  0
TABLE
  2
VIEW
  5
6
100
AcDbSymbolTable
 70
0
  0
ENDTAB
  0
TABLE
  2
UCS
  5
7
100
AcDbSymbolTable
 70
0
  0
ENDTAB
  0
TABLE
  2
APPID
  5
9
100
AcDbSymbolTable
 70
1
  0
APPID
  5
202
100
AcDbSymbolTableRecord
100
AcDbRegAppTableRecord
  2
ACAD
 70
0
  0
ENDTAB
  0
TABLE
  2
BLOCK_RECORD
  5
1
100
AcDbSymbolTable
 70
0
  0
BLOCK_RECORD
  5
203
100
AcDbSymbolTableRecord
100
AcDbBlockTableRecord
  2
*Model_Space
  0
BLOCK_RECORD
  5
204
100
AcDbSymbolTableRecord
100
AcDbBlockTableRecord
  2
*Paper_Space
  0
ENDTAB
  0
TABLE
  2
DIMSTYLE
  5
A
100
AcDbSymbolTable
 70
1
100
AcDbDimStyleTable
 71
0
  0
DIMSTYLE
105
205
100
AcDbSymbolTableRecord
100
AcDbDimStyleTableRecord
  2
STANDARD
 70
0
  3

  4

 40
1.0
 41
0.1
 42
0.0625
 43
0.38
 44
0.18
 45
0.0
 46
0.0
 47
0.01
 48
0.01
140
0.08
141
0.09
142
0.0
143
25.4
144
1.0
145
0.0
146
1.0
147
0.09
 71
1.0
 72
0.0
 73
1
 74
1
 75
0
 76
0
 77
0
 78
4
170
0
171
2
172
0
173
0
174
0
175
0
176
0
177
0
178
0
270
2
271
2
272
2
273
2
274
2
275
0
280
0
281
0
282
0
283
1
284
4
285
0
286
0
287
3
288
0
340
11
  0
ENDTAB
  0
ENDSEC
  0
SECTION
  2
BLOCKS
  0
BLOCK
  5
20
100
AcDbEntity
  8
0
100
AcDbBlockBegin
  2
*Model_Space
 70
0
 10
0.0
 20
0.0
 30
0.0
  3
*Model_Space
  1

  0
ENDBLK
  5
21
100
AcDbEntity
  8
0
100
AcDbBlockEnd
  0
BLOCK
  5
1C
100
AcDbEntity
  8
0
100
AcDbBlockBegin
  2
*Paper_Space
 70
0
 10
0.0
 20
0.0
 30
0.0
  3
*Paper_Space
  1

  0
ENDBLK
  5
1D
100
AcDbEntity
  8
0
100
AcDbBlockEnd
  0
ENDSEC
  0
SECTION
  2
ENTITIES
  0
LINE
  5
206
100
AcDbEntity
  8
0
100
AcDbLine
 62
6
  6
CONTINUOUS
 10
3.5243847847
 20
1.7898145793
 11
3.4637229478
 21
1.8504764162
  0
LINE
  5
207
100
AcDbEntity
  8
0
100
AcDbLine
 62
6
  6
CONTINUOUS
 10
3.6718681905
 20
1.7898145793
 11
3.6112063536
 21
1.8504764162
  0
LINE
  5
208
100
AcDbEntity
  8
0
100
AcDbLine
 62
9
  6
CONTINUOUS
 10
3.6533187504
 20
1.5778145793
 11
3.7804508191
 21
1.5778145793
  0
LINE
  5
209
100
AcDbEntity
  8
0
100
AcDbLine
 62
9
  6
CONTINUOUS
 10
3.8008021562
 20
1.5778145793
 11
3.9279342248
 21
1.5778145793
  0
LINE
  5
20A
100
AcDbEntity
  8
0
100
AcDbLine
 62
9
  6
CONTINUOUS
 10
4.2207993619
 20
1.5778145793
 11
4.3479314305
 21
1.5778145793
  0
LINE
  5
20B
100
AcDbEntity
  8
0
100
AcDbLine
 62
9
  6
CONTINUOUS
 10
4.4221111418
 20
1.5778145793
 11
4.5492432104
 21
1.5778145793
  0
LINE
  5
20C
100
AcDbEntity
  8
0
100
AcDbLine
 62
9
  6
CONTINUOUS
 10
4.8493696002
 20
1.5778145793
 11
5.0304508191
 21
1.5778145793
  0
LINE
  5
20D
100
AcDbEntity
  8
0
100
AcDbLine
 62
9
  6
CONTINUOUS
 10
5.1067242085
 20
1.5778145793
 11
5.2338562771
 21
1.5778145793
  0
LINE
  5
20E
100
AcDbEntity
  8
0
100
AcDbLine
 62
9
  6
CONTINUOUS
 10
5.5908187504
 20
1.5778145793
 11
5.7179508191
 21
1.5778145793
  0
LINE
  5
20F
100
AcDbEntity
  8
0
100
AcDbLine
 62
9
  6
CONTINUOUS
 10
6.0749132923
 20
1.5778145793
 11
6.202045361
 21
1.5778145793
  0
LINE
  5
210
100
AcDbEntity
  8
0
100
AcDbLine
 62
9
  6
CONTINUOUS
 10
6.2783187504
 20
1.5778145793
 11
6.4593999693
 21
1.5778145793
  0
LINE
  5
211
100
AcDbEntity
  8
0
100
AcDbLine
 62
9
  6
CONTINUOUS
 10
6.759526359
 20
1.5778145793
 11
6.8866584277
 21
1.5778145793
  0
LINE
  5
212
100
AcDbEntity
  8
0
100
AcDbLine
 62
9
  6
CONTINUOUS
 10
6.960838139
 20
1.5778145793
 11
7.0879702076
 21
1.5778145793
  0
LINE
  5
213
100
AcDbEntity
  8
0
100
AcDbLine
 62
9
  6
CONTINUOUS
 10
7.3808353446
 20
1.5778145793
 11
7.5079674133
 21
1.5778145793
  0
LINE
  5
214
100
AcDbEntity
  8
0
100
AcDbLine
 62
9
  6
CONTINUOUS
 10
7.5283187504
 20
1.5778145793
 11
7.6554508191
 21
1.5778145793
  0
LINE
  5
215
100
AcDbEntity
  8
0
100
AcDbLine
 62
9
  6
CONTINUOUS
 10
3.5625217227
 20
1.647485589
 11
4.0187312525
 21
1.647485589
  0
LINE
  5
216
100
AcDbEntity
  8
0
100
AcDbLine
 62
9
  6
CONTINUOUS
 10
4.1300023342
 20
1.647485589
 11
4.6400402381
 21
1.647485589
  0
LINE
  5
217
100
AcDbEntity
  8
0
100
AcDbLine
 62
9
  6
CONTINUOUS
 10
4.7585725725
 20
1.647485589
 11
5.3246533048
 21
1.647485589
  0
LINE
  5
218
100
AcDbEntity
  8
0
100
AcDbLine
 62
9
  6
CONTINUOUS
 10
5.5000217227
 20
1.647485589
 11
5.8087478467
 21
1.647485589
  0
LINE
  5
219
100
AcDbEntity
  8
0
100
AcDbLine
 62
9
  6
CONTINUOUS
 10
5.9841162647
 20
1.647485589
 11
6.5501969969
 21
1.647485589
  0
LINE
  5
21A
100
AcDbEntity
  8
0
100
AcDbLine
 62
9
  6
CONTINUOUS
 10
6.6687293314
 20
1.647485589
 11
7.1787672353
 21
1.647485589
  0
LINE
  5
21B
100
AcDbEntity
  8
0
100
AcDbLine
 62
9
  6
CONTINUOUS
 10
7.290038317
 20
1.647485589
 11
7.7462478467
 21
1.647485589
  0
LINE
  5
21C
100
AcDbEntity
  8
0
100
AcDbLine
 62
6
  6
CONTINUOUS
 10
4.0918653962
 20
1.7898145793
 11
4.0312035592
 21
1.8504764162
  0
LINE
  5
21D
100
AcDbEntity
  8
0
100
AcDbLine
 62
6
  6
CONTINUOUS
 10
3.5243847847
 20
1.7898145793
 11
3.5625217227
 21
1.647485589
  0
LINE
  5
21E
100
AcDbEntity
  8
0
100
AcDbLine
 62
6
  6
CONTINUOUS
 10
3.1843847847
 20
2.4368966671
 11
3.1843847847
 21
2.0398145793
  0
LINE
  5
21F
100
AcDbEntity
  8
0
100
AcDbLine
 62
6
  6
CONTINUOUS
 10
3.5243847847
 20
1.7898145793
 11
4.0568681905
 21
1.7898145793
  0
LINE
  5
220
100
AcDbEntity
  8
0
100
AcDbLine
 62
6
  6
CONTINUOUS
 10
4.0918653962
 20
1.7898145793
 11
4.6781771761
 21
1.7898145793
  0
LINE
  5
221
100
AcDbEntity
  8
0
100
AcDbLine
 62
6
  6
CONTINUOUS
 10
4.7204356345
 20
1.7898145793
 11
5.3627902428
 21
1.7898145793
  0
LINE
  5
222
100
AcDbEntity
  8
0
100
AcDbLine
 62
6
  6
CONTINUOUS
 10
5.4618847847
 20
1.7898145793
 11
5.8468847847
 21
1.7898145793
  0
LINE
  5
223
100
AcDbEntity
  8
0
100
AcDbLine
 62
6
  6
CONTINUOUS
 10
5.9459793267
 20
1.7898145793
 11
6.5883339349
 21
1.7898145793
  0
LINE
  5
224
100
AcDbEntity
  8
0
100
AcDbLine
 62
6
  6
CONTINUOUS
 10
6.6305923934
 20
1.7898145793
 11
7.2169041733
 21
1.7898145793
  0
LINE
  5
225
100
AcDbEntity
  8
0
100
AcDbLine
 62
6
  6
CONTINUOUS
 10
7.251901379
 20
1.7898145793
 11
7.7843847847
 21
1.7898145793
  0
LINE
  5
226
100
AcDbEntity
  8
0
100
AcDbLine
 62
6
  6
CONTINUOUS
 10
4.7204356345
 20
1.7898145793
 11
4.6597737976
 21
1.8504764162
  0
LINE
  5
227
100
AcDbEntity
  8
0
100
AcDbLine
 62
6
  6
CONTINUOUS
 10
3.6718681905
 20
1.7898145793
 11
3.7100051285
 21
1.647485589
  0
LINE
  5
228
100
AcDbEntity
  8
0
100
AcDbLine
 62
6
  6
CONTINUOUS
 10
3.4637229478
 20
1.9498145793
 11
3.4637229478
 21
1.8504764162
  0
LINE
  5
229
100
AcDbEntity
  8
0
100
AcDbLine
 62
9
  6
CONTINUOUS
 10
3.2743847847
 20
1.9498145793
 11
8.0343847847
 21
1.9498145793
  0
LINE
  5
22A
100
AcDbEntity
  8
0
100
AcDbLine
 62
9
  6
CONTINUOUS
 10
3.1843847847
 20
2.0398145793
 11
8.1243847847
 21
2.0398145793
  0
LINE
  5
22B
100
AcDbEntity
  8
0
100
AcDbLine
 62
6
  6
CONTINUOUS
 10
3.5904750707
 20
1.9498145793
 11
3.5904750707
 21
1.8499625127
  0
LINE
  5
22C
100
AcDbEntity
  8
0
100
AcDbLine
 62
6
  6
CONTINUOUS
 10
3.6112063536
 20
1.9498145793
 11
3.6112063536
 21
1.8504764162
  0
LINE
  5
22D
100
AcDbEntity
  8
0
100
AcDbLine
 62
6
  6
CONTINUOUS
 10
4.0918653962
 20
1.7898145793
 11
4.1300023342
 21
1.647485589
  0
LINE
  5
22E
100
AcDbEntity
  8
0
100
AcDbLine
 62
6
  6
CONTINUOUS
 10
3.7379584765
 20
1.9498145793
 11
3.7379584765
 21
1.8499625127
  0
LINE
  5
22F
100
AcDbEntity
  8
0
100
AcDbLine
 62
9
  6
CONTINUOUS
 10
3.1843847847
 20
2.4368966671
 11
8.1243847847
 21
2.4368966671
  0
LINE
  5
230
100
AcDbEntity
  8
0
100
AcDbLine
 62
6
  6
CONTINUOUS
 10
5.4618847847
 20
1.7898145793
 11
5.4012229478
 21
1.8504764162
  0
LINE
  5
231
100
AcDbEntity
  8
0
100
AcDbLine
 62
6
  6
CONTINUOUS
 10
3.9907779045
 20
1.9498145793
 11
3.9907779045
 21
1.8499625127
  0
LINE
  5
232
100
AcDbEntity
  8
0
100
AcDbLine
 62
6
  6
CONTINUOUS
 10
4.0312035592
 20
1.9498145793
 11
4.0312035592
 21
1.8504764162
  0
LINE
  5
233
100
AcDbEntity
  8
0
100
AcDbLine
 62
6
  6
CONTINUOUS
 10
4.1579556822
 20
1.9498145793
 11
4.1579556822
 21
1.8499625127
  0
LINE
  5
234
100
AcDbEntity
  8
0
100
AcDbLine
 62
6
  6
CONTINUOUS
 10
4.9743847847
 20
5.7848145793
 11
4.8605281646
 21
5.6709579591
  0
LINE
  5
235
100
AcDbEntity
  8
0
100
AcDbLine
 62
9
  6
CONTINUOUS
 10
3.3027409985
 20
2.6494288142
 11
8.006028571
 21
2.6494288142
  0
LINE
  5
236
100
AcDbEntity
  8
0
100
AcDbLine
 62
6
  6
CONTINUOUS
 10
5.9459793267
 20
1.7898145793
 11
5.8964320557
 21
1.8393618502
  0
LINE
  5
237
100
AcDbEntity
  8
0
100
AcDbLine
 62
6
  6
CONTINUOUS
 10
4.7204356345
 20
1.7898145793
 11
4.7585725725
 21
1.647485589
  0
LINE
  5
238
100
AcDbEntity
  8
0
100
AcDbLine
 62
6
  6
CONTINUOUS
 10
4.4107751102
 20
1.9498145793
 11
4.4107751102
 21
1.8499625127
  0
LINE
  5
239
100
AcDbEntity
  8
0
100
AcDbLine
 62
6
  6
CONTINUOUS
 10
6.2033339349
 20
1.7898145793
 11
6.142672098
 21
1.8504764162
  0
LINE
  5
23A
100
AcDbEntity
  8
0
100
AcDbLine
 62
6
  6
CONTINUOUS
 10
4.5375272331
 20
1.9498145793
 11
4.5375272331
 21
1.8504764162
  0
LINE
  5
23B
100
AcDbEntity
  8
0
100
AcDbLine
 62
6
  6
CONTINUOUS
 10
4.6120868901
 20
1.9498145793
 11
4.6120868901
 21
1.8499625127
  0
LINE
  5
23C
100
AcDbEntity
  8
0
100
AcDbLine
 62
6
  6
CONTINUOUS
 10
4.6597737976
 20
1.9498145793
 11
4.6597737976
 21
1.8504764162
  0
LINE
  5
23D
100
AcDbEntity
  8
0
100
AcDbLine
 62
6
  6
CONTINUOUS
 10
6.1003847847
 20
6.5118145793
 11
6.025892627
 21
6.4327745362
  0
LINE
  5
23E
100
AcDbEntity
  8
0
100
AcDbLine
 62
6
  6
CONTINUOUS
 10
6.6305923934
 20
1.7898145793
 11
6.6094631642
 21
1.8109438085
  0
LINE
  5
23F
100
AcDbEntity
  8
0
100
AcDbLine
 62
6
  6
CONTINUOUS
 10
6.8319041733
 20
1.7898145793
 11
6.7712423363
 21
1.8504764162
  0
LINE
  5
240
100
AcDbEntity
  8
0
100
AcDbLine
 62
6
  6
CONTINUOUS
 10
4.7865259205
 20
1.9498145793
 11
4.7865259205
 21
1.8499625127
  0
LINE
  5
241
100
AcDbEntity
  8
0
100
AcDbLine
 62
6
  6
CONTINUOUS
 10
4.8605281646
 20
5.6709579591
 11
4.8605281646
 21
5.5236711994
  0
LINE
  5
242
100
AcDbEntity
  8
0
100
AcDbLine
 62
6
  6
CONTINUOUS
 10
4.0568681905
 20
1.7898145793
 11
4.0187312525
 21
1.647485589
  0
LINE
  5
243
100
AcDbEntity
  8
0
100
AcDbLine
 62
6
  6
CONTINUOUS
 10
5.4618847847
 20
1.7898145793
 11
5.5000217227
 21
1.647485589
  0
LINE
  5
244
100
AcDbEntity
  8
0
100
AcDbLine
 62
6
  6
CONTINUOUS
 10
5.0003847847
 20
5.8753145793
 11
5.0003847847
 21
6.0283145793
  0
LINE
  5
245
100
AcDbEntity
  8
0
100
AcDbLine
 62
6
  6
CONTINUOUS
 10
5.0393453485
 20
1.9498145793
 11
5.0393453485
 21
1.8499625127
  0
LINE
  5
246
100
AcDbEntity
  8
0
100
AcDbLine
 62
6
  6
CONTINUOUS
 10
5.0448847847
 20
5.8703145793
 11
5.0448847847
 21
5.7848145793
  0
LINE
  5
247
100
AcDbEntity
  8
0
100
AcDbLine
 62
6
  6
CONTINUOUS
 10
5.1293847847
 20
5.2848145793
 11
5.1293847847
 21
5.2148145793
  0
LINE
  5
248
100
AcDbEntity
  8
0
100
AcDbLine
 62
6
  6
CONTINUOUS
 10
5.1660974715
 20
1.9498145793
 11
5.1660974715
 21
1.8504764162
  0
LINE
  5
249
100
AcDbEntity
  8
0
100
AcDbLine
 62
6
  6
CONTINUOUS
 10
5.1863847847
 20
7.0218145793
 11
5.1863847847
 21
6.7718145793
  0
LINE
  5
24A
100
AcDbEntity
  8
0
100
AcDbLine
 62
6
  6
CONTINUOUS
 10
5.1865451566
 20
7.0218145793
 11
5.1865451566
 21
6.7718145793
  0
LINE
  5
24B
100
AcDbEntity
  8
0
100
AcDbLine
 62
6
  6
CONTINUOUS
 10
5.1878274725
 20
7.0218145793
 11
5.1878274725
 21
6.7718145793
  0
LINE
  5
24C
100
AcDbEntity
  8
0
100
AcDbLine
 62
6
  6
CONTINUOUS
 10
5.1903885896
 20
7.0218145793
 11
5.1903885896
 21
6.7718145793
  0
LINE
  5
24D
100
AcDbEntity
  8
0
100
AcDbLine
 62
6
  6
CONTINUOUS
 10
4.4768653962
 20
1.7898145793
 11
4.4387284582
 21
1.647485589
  0
LINE
  5
24E
100
AcDbEntity
  8
0
100
AcDbLine
 62
6
  6
CONTINUOUS
 10
6.3083855015
 20
5.875315296
 11
6.3033847847
 21
5.8703145793
  0
LINE
  5
24F
100
AcDbEntity
  8
0
100
AcDbLine
 62
6
  6
CONTINUOUS
 10
6.1424040226
 20
5.1998145793
 11
6.1683847847
 21
5.2148145793
  0
LINE
  5
250
100
AcDbEntity
  8
0
100
AcDbLine
 62
6
  6
CONTINUOUS
 10
7.251901379
 20
1.7898145793
 11
7.2344027761
 21
1.8073131821
  0
LINE
  5
251
100
AcDbEntity
  8
0
100
AcDbLine
 62
6
  6
CONTINUOUS
 10
5.194221488
 20
7.0218145793
 11
5.194221488
 21
6.7718145793
  0
LINE
  5
252
100
AcDbEntity
  8
0
100
AcDbLine
 62
6
  6
CONTINUOUS
 10
5.199315662
 20
7.0218145793
 11
5.199315662
 21
6.7718145793
  0
LINE
  5
253
100
AcDbEntity
  8
0
100
AcDbLine
 62
6
  6
CONTINUOUS
 10
5.2056571488
 20
7.0218145793
 11
5.2056571488
 21
6.7718145793
  0
LINE
  5
254
100
AcDbEntity
  8
0
100
AcDbLine
 62
6
  6
CONTINUOUS
 10
5.2083847847
 20
7.1038145793
 11
5.2083847847
 21
7.0218145793
  0
LINE
  5
255
100
AcDbEntity
  8
0
100
AcDbLine
 62
6
  6
CONTINUOUS
 10
5.2083847847
 20
6.7718145793
 11
5.2083847847
 21
6.5118145793
  0
LINE
  5
256
100
AcDbEntity
  8
0
100
AcDbLine
 62
6
  6
CONTINUOUS
 10
5.2132285669
 20
7.0218145793
 11
5.2132285669
 21
6.7718145793
  0
LINE
  5
257
100
AcDbEntity
  8
0
100
AcDbLine
 62
6
  6
CONTINUOUS
 10
5.2220091635
 20
7.0218145793
 11
5.2220091635
 21
6.7718145793
  0
LINE
  5
258
100
AcDbEntity
  8
0
100
AcDbLine
 62
6
  6
CONTINUOUS
 10
5.2319748717
 20
7.0218145793
 11
5.2319748717
 21
6.7718145793
  0
LINE
  5
259
100
AcDbEntity
  8
0
100
AcDbLine
 62
6
  6
CONTINUOUS
 10
5.243098376
 20
7.0218145793
 11
5.243098376
 21
6.7718145793
  0
LINE
  5
25A
100
AcDbEntity
  8
0
100
AcDbLine
 62
6
  6
CONTINUOUS
 10
5.2553491878
 20
7.0218145793
 11
5.2553491878
 21
6.7718145793
  0
LINE
  5
25B
100
AcDbEntity
  8
0
100
AcDbLine
 62
6
  6
CONTINUOUS
 10
5.2574564747
 20
5.6709579591
 11
5.2574564747
 21
5.5236711994
  0
LINE
  5
25C
100
AcDbEntity
  8
0
100
AcDbLine
 62
6
  6
CONTINUOUS
 10
5.2662967235
 20
7.0218145793
 11
5.2662967235
 21
6.7718145793
  0
LINE
  5
25D
100
AcDbEntity
  8
0
100
AcDbLine
 62
6
  6
CONTINUOUS
 10
5.2686937285
 20
7.0218145793
 11
5.2686937285
 21
6.7718145793
  0
LINE
  5
25E
100
AcDbEntity
  8
0
100
AcDbLine
 62
6
  6
CONTINUOUS
 10
5.2830954215
 20
7.0218145793
 11
5.2830954215
 21
6.7718145793
  0
LINE
  5
25F
100
AcDbEntity
  8
0
100
AcDbLine
 62
6
  6
CONTINUOUS
 10
5.2932817397
 20
7.0218145793
 11
5.2932817397
 21
6.7718145793
  0
LINE
  5
260
100
AcDbEntity
  8
0
100
AcDbLine
 62
6
  6
CONTINUOUS
 10
5.2966999568
 20
1.9498145793
 11
5.2966999568
 21
1.8499625127
  0
LINE
  5
261
100
AcDbEntity
  8
0
100
AcDbLine
 62
6
  6
CONTINUOUS
 10
5.2985147928
 20
7.0218145793
 11
5.2985147928
 21
6.7718145793
  0
LINE
  5
262
100
AcDbEntity
  8
0
100
AcDbLine
 62
6
  6
CONTINUOUS
 10
5.3149095791
 20
7.0218145793
 11
5.3149095791
 21
6.7718145793
  0
LINE
  5
263
100
AcDbEntity
  8
0
100
AcDbLine
 62
6
  6
CONTINUOUS
 10
5.3242230764
 20
7.0218145793
 11
5.3242230764
 21
6.7718145793
  0
LINE
  5
264
100
AcDbEntity
  8
0
100
AcDbLine
 62
6
  6
CONTINUOUS
 10
5.3322348433
 20
7.0218145793
 11
5.3322348433
 21
6.7718145793
  0
LINE
  5
265
100
AcDbEntity
  8
0
100
AcDbLine
 62
6
  6
CONTINUOUS
 10
5.3504430981
 20
7.0218145793
 11
5.3504430981
 21
6.7718145793
  0
LINE
  5
266
100
AcDbEntity
  8
0
100
AcDbLine
 62
6
  6
CONTINUOUS
 10
5.3587817338
 20
7.0218145793
 11
5.3587817338
 21
6.7718145793
  0
LINE
  5
267
100
AcDbEntity
  8
0
100
AcDbLine
 62
6
  6
CONTINUOUS
 10
5.369484436
 20
7.0218145793
 11
5.369484436
 21
6.7718145793
  0
LINE
  5
268
100
AcDbEntity
  8
0
100
AcDbLine
 62
6
  6
CONTINUOUS
 10
5.3893066659
 20
7.0218145793
 11
5.3893066659
 21
6.7718145793
  0
LINE
  5
269
100
AcDbEntity
  8
0
100
AcDbLine
 62
6
  6
CONTINUOUS
 10
5.3965790801
 20
7.0218145793
 11
5.3965790801
 21
6.7718145793
  0
LINE
  5
26A
100
AcDbEntity
  8
0
100
AcDbLine
 62
6
  6
CONTINUOUS
 10
5.4012229478
 20
1.9498145793
 11
5.4012229478
 21
1.8504764162
  0
LINE
  5
26B
100
AcDbEntity
  8
0
100
AcDbLine
 62
6
  6
CONTINUOUS
 10
5.4098554564
 20
7.0218145793
 11
5.4098554564
 21
6.7718145793
  0
LINE
  5
26C
100
AcDbEntity
  8
0
100
AcDbLine
 62
6
  6
CONTINUOUS
 10
5.4310744849
 20
7.0218145793
 11
5.4310744849
 21
6.7718145793
  0
LINE
  5
26D
100
AcDbEntity
  8
0
100
AcDbLine
 62
6
  6
CONTINUOUS
 10
5.4372009997
 20
7.0218145793
 11
5.4372009997
 21
6.7718145793
  0
LINE
  5
26E
100
AcDbEntity
  8
0
100
AcDbLine
 62
6
  6
CONTINUOUS
 10
4.6781771761
 20
1.7898145793
 11
4.6400402381
 21
1.647485589
  0
LINE
  5
26F
100
AcDbEntity
  8
0
100
AcDbLine
 62
6
  6
CONTINUOUS
 10
6.4482414049
 20
5.5236711994
 11
6.3343847847
 21
5.4098145793
  0
LINE
  5
270
100
AcDbEntity
  8
0
100
AcDbLine
 62
6
  6
CONTINUOUS
 10
5.9459793267
 20
1.7898145793
 11
5.9841162647
 21
1.647485589
  0
LINE
  5
271
100
AcDbEntity
  8
0
100
AcDbLine
 62
6
  6
CONTINUOUS
 10
5.4529055914
 20
7.0218145793
 11
5.4529055914
 21
6.7718145793
  0
LINE
  5
272
100
AcDbEntity
  8
0
100
AcDbLine
 62
6
  6
CONTINUOUS
 10
5.4752889384
 20
7.0218145793
 11
5.4752889384
 21
6.7718145793
  0
LINE
  5
273
100
AcDbEntity
  8
0
100
AcDbLine
 62
6
  6
CONTINUOUS
 10
5.4802024303
 20
7.0218145793
 11
5.4802024303
 21
6.7718145793
  0
LINE
  5
274
100
AcDbEntity
  8
0
100
AcDbLine
 62
6
  6
CONTINUOUS
 10
5.4981631746
 20
7.0218145793
 11
5.4981631746
 21
6.7718145793
  0
LINE
  5
275
100
AcDbEntity
  8
0
100
AcDbLine
 62
6
  6
CONTINUOUS
 10
5.5214656034
 20
7.0218145793
 11
5.5214656034
 21
6.7718145793
  0
LINE
  5
276
100
AcDbEntity
  8
0
100
AcDbLine
 62
6
  6
CONTINUOUS
 10
5.5251122392
 20
7.0218145793
 11
5.5251122392
 21
6.7718145793
  0
LINE
  5
277
100
AcDbEntity
  8
0
100
AcDbLine
 62
6
  6
CONTINUOUS
 10
5.5279750707
 20
1.9498145793
 11
5.5279750707
 21
1.8499625127
  0
LINE
  5
278
100
AcDbEntity
  8
0
100
AcDbLine
 62
6
  6
CONTINUOUS
 10
5.5451323545
 20
7.0218145793
 11
5.5451323545
 21
6.7718145793
  0
LINE
  5
279
100
AcDbEntity
  8
0
100
AcDbLine
 62
6
  6
CONTINUOUS
 10
5.5690985588
 20
7.0218145793
 11
5.5690985588
 21
6.7718145793
  0
LINE
  5
27A
100
AcDbEntity
  8
0
100
AcDbLine
 62
6
  6
CONTINUOUS
 10
5.5714383852
 20
7.0218145793
 11
5.5714383852
 21
6.7718145793
  0
LINE
  5
27B
100
AcDbEntity
  8
0
100
AcDbLine
 62
6
  6
CONTINUOUS
 10
5.5932985268
 20
7.0218145793
 11
5.5932985268
 21
6.7718145793
  0
LINE
  5
27C
100
AcDbEntity
  8
0
100
AcDbLine
 62
6
  6
CONTINUOUS
 10
5.6176659279
 20
7.0218145793
 11
5.6176659279
 21
6.7718145793
  0
LINE
  5
27D
100
AcDbEntity
  8
0
100
AcDbLine
 62
6
  6
CONTINUOUS
 10
5.6186733092
 20
7.0218145793
 11
5.6186733092
 21
6.7718145793
  0
LINE
  5
27E
100
AcDbEntity
  8
0
100
AcDbLine
 62
6
  6
CONTINUOUS
 10
5.6421339729
 20
7.0218145793
 11
5.6421339729
 21
6.7718145793
  0
LINE
  5
27F
100
AcDbEntity
  8
0
100
AcDbLine
 62
6
  6
CONTINUOUS
 10
5.6666355965
 20
7.0218145793
 11
5.6666355965
 21
6.7718145793
  0
LINE
  5
280
100
AcDbEntity
  8
0
100
AcDbLine
 62
6
  6
CONTINUOUS
 10
6.2033339349
 20
1.7898145793
 11
6.2414708729
 21
1.647485589
  0
LINE
  5
281
100
AcDbEntity
  8
0
100
AcDbLine
 62
6
  6
CONTINUOUS
 10
5.6900962602
 20
7.0218145793
 11
5.6900962602
 21
6.7718145793
  0
LINE
  5
282
100
AcDbEntity
  8
0
100
AcDbLine
 62
6
  6
CONTINUOUS
 10
5.6911036415
 20
7.0218145793
 11
5.6911036415
 21
6.7718145793
  0
LINE
  5
283
100
AcDbEntity
  8
0
100
AcDbLine
 62
6
  6
CONTINUOUS
 10
5.7154710427
 20
7.0218145793
 11
5.7154710427
 21
6.7718145793
  0
LINE
  5
284
100
AcDbEntity
  8
0
100
AcDbLine
 62
6
  6
CONTINUOUS
 10
5.7373311843
 20
7.0218145793
 11
5.7373311843
 21
6.7718145793
  0
LINE
  5
285
100
AcDbEntity
  8
0
100
AcDbLine
 62
6
  6
CONTINUOUS
 10
5.7396710107
 20
7.0218145793
 11
5.7396710107
 21
6.7718145793
  0
LINE
  5
286
100
AcDbEntity
  8
0
100
AcDbLine
 62
6
  6
CONTINUOUS
 10
5.763637215
 20
7.0218145793
 11
5.763637215
 21
6.7718145793
  0
LINE
  5
287
100
AcDbEntity
  8
0
100
AcDbLine
 62
6
  6
CONTINUOUS
 10
5.7807944987
 20
1.9498145793
 11
5.7807944987
 21
1.8499625127
  0
LINE
  5
288
100
AcDbEntity
  8
0
100
AcDbLine
 62
6
  6
CONTINUOUS
 10
5.7836573303
 20
7.0218145793
 11
5.7836573303
 21
6.7718145793
  0
LINE
  5
289
100
AcDbEntity
  8
0
100
AcDbLine
 62
6
  6
CONTINUOUS
 10
5.7873039661
 20
7.0218145793
 11
5.7873039661
 21
6.7718145793
  0
LINE
  5
28A
100
AcDbEntity
  8
0
100
AcDbLine
 62
6
  6
CONTINUOUS
 10
5.8106063949
 20
7.0218145793
 11
5.8106063949
 21
6.7718145793
  0
LINE
  5
28B
100
AcDbEntity
  8
0
100
AcDbLine
 62
6
  6
CONTINUOUS
 10
5.8285671392
 20
7.0218145793
 11
5.8285671392
 21
6.7718145793
  0
LINE
  5
28C
100
AcDbEntity
  8
0
100
AcDbLine
 62
6
  6
CONTINUOUS
 10
5.8334806311
 20
7.0218145793
 11
5.8334806311
 21
6.7718145793
  0
LINE
  5
28D
100
AcDbEntity
  8
0
100
AcDbLine
 62
6
  6
CONTINUOUS
 10
5.855863978
 20
7.0218145793
 11
5.855863978
 21
6.7718145793
  0
LINE
  5
28E
100
AcDbEntity
  8
0
100
AcDbLine
 62
6
  6
CONTINUOUS
 10
5.8715685697
 20
7.0218145793
 11
5.8715685697
 21
6.7718145793
  0
LINE
  5
28F
100
AcDbEntity
  8
0
100
AcDbLine
 62
6
  6
CONTINUOUS
 10
5.8776950845
 20
7.0218145793
 11
5.8776950845
 21
6.7718145793
  0
LINE
  5
290
100
AcDbEntity
  8
0
100
AcDbLine
 62
6
  6
CONTINUOUS
 10
5.898914113
 20
7.0218145793
 11
5.898914113
 21
6.7718145793
  0
LINE
  5
291
100
AcDbEntity
  8
0
100
AcDbLine
 62
6
  6
CONTINUOUS
 10
5.9075466217
 20
1.9498145793
 11
5.9075466217
 21
1.8504764162
  0
LINE
  5
292
100
AcDbEntity
  8
0
100
AcDbLine
 62
6
  6
CONTINUOUS
 10
5.9121904893
 20
7.0218145793
 11
5.9121904893
 21
6.7718145793
  0
LINE
  5
293
100
AcDbEntity
  8
0
100
AcDbLine
 62
6
  6
CONTINUOUS
 10
5.9194629036
 20
7.0218145793
 11
5.9194629036
 21
6.7718145793
  0
LINE
  5
294
100
AcDbEntity
  8
0
100
AcDbLine
 62
6
  6
CONTINUOUS
 10
5.1054356345
 20
1.7898145793
 11
5.0672986965
 21
1.647485589
  0
LINE
  5
295
100
AcDbEntity
  8
0
100
AcDbLine
 62
6
  6
CONTINUOUS
 10
4.8605281646
 20
5.5236711994
 11
4.9743847847
 21
5.4098145793
  0
LINE
  5
296
100
AcDbEntity
  8
0
100
AcDbLine
 62
6
  6
CONTINUOUS
 10
5.9392851335
 20
7.0218145793
 11
5.9392851335
 21
6.7718145793
  0
LINE
  5
297
100
AcDbEntity
  8
0
100
AcDbLine
 62
6
  6
CONTINUOUS
 10
5.9499878357
 20
7.0218145793
 11
5.9499878357
 21
6.7718145793
  0
LINE
  5
298
100
AcDbEntity
  8
0
100
AcDbLine
 62
6
  6
CONTINUOUS
 10
5.9583264714
 20
7.0218145793
 11
5.9583264714
 21
6.7718145793
  0
LINE
  5
299
100
AcDbEntity
  8
0
100
AcDbLine
 62
6
  6
CONTINUOUS
 10
5.9765347262
 20
7.0218145793
 11
5.9765347262
 21
6.7718145793
  0
LINE
  5
29A
100
AcDbEntity
  8
0
100
AcDbLine
 62
6
  6
CONTINUOUS
 10
5.9845464931
 20
7.0218145793
 11
5.9845464931
 21
6.7718145793
  0
LINE
  5
29B
100
AcDbEntity
  8
0
100
AcDbLine
 62
6
  6
CONTINUOUS
 10
5.9938599904
 20
7.0218145793
 11
5.9938599904
 21
6.7718145793
  0
LINE
  5
29C
100
AcDbEntity
  8
0
100
AcDbLine
 62
6
  6
CONTINUOUS
 10
6.0102547766
 20
7.0218145793
 11
6.0102547766
 21
6.7718145793
  0
LINE
  5
29D
100
AcDbEntity
  8
0
100
AcDbLine
 62
6
  6
CONTINUOUS
 10
6.0120696127
 20
1.9498145793
 11
6.0120696127
 21
1.8499625127
  0
LINE
  5
29E
100
AcDbEntity
  8
0
100
AcDbLine
 62
6
  6
CONTINUOUS
 10
6.0154878298
 20
7.0218145793
 11
6.0154878298
 21
6.7718145793
  0
LINE
  5
29F
100
AcDbEntity
  8
0
100
AcDbLine
 62
6
  6
CONTINUOUS
 10
6.025674148
 20
7.0218145793
 11
6.025674148
 21
6.7718145793
  0
LINE
  5
2A0
100
AcDbEntity
  8
0
100
AcDbLine
 62
6
  6
CONTINUOUS
 10
6.040075841
 20
7.0218145793
 11
6.040075841
 21
6.7718145793
  0
LINE
  5
2A1
100
AcDbEntity
  8
0
100
AcDbLine
 62
6
  6
CONTINUOUS
 10
6.0424728459
 20
7.0218145793
 11
6.0424728459
 21
6.7718145793
  0
LINE
  5
2A2
100
AcDbEntity
  8
0
100
AcDbLine
 62
6
  6
CONTINUOUS
 10
6.0513130948
 20
5.6709579591
 11
6.0513130948
 21
5.5236711994
  0
LINE
  5
2A3
100
AcDbEntity
  8
0
100
AcDbLine
 62
6
  6
CONTINUOUS
 10
6.0534203817
 20
7.0218145793
 11
6.0534203817
 21
6.7718145793
  0
LINE
  5
2A4
100
AcDbEntity
  8
0
100
AcDbLine
 62
6
  6
CONTINUOUS
 10
6.0656711935
 20
7.0218145793
 11
6.0656711935
 21
6.7718145793
  0
LINE
  5
2A5
100
AcDbEntity
  8
0
100
AcDbLine
 62
6
  6
CONTINUOUS
 10
6.0767946978
 20
7.0218145793
 11
6.0767946978
 21
6.7718145793
  0
LINE
  5
2A6
100
AcDbEntity
  8
0
100
AcDbLine
 62
6
  6
CONTINUOUS
 10
6.086760406
 20
7.0218145793
 11
6.086760406
 21
6.7718145793
  0
LINE
  5
2A7
100
AcDbEntity
  8
0
100
AcDbLine
 62
6
  6
CONTINUOUS
 10
6.0955410026
 20
7.0218145793
 11
6.0955410026
 21
6.7718145793
  0
LINE
  5
2A8
100
AcDbEntity
  8
0
100
AcDbLine
 62
6
  6
CONTINUOUS
 10
6.1003847847
 20
7.1038145793
 11
6.1003847847
 21
7.0218145793
  0
LINE
  5
2A9
100
AcDbEntity
  8
0
100
AcDbLine
 62
6
  6
CONTINUOUS
 10
6.1003847847
 20
6.7718145793
 11
6.1003847847
 21
6.5118145793
  0
LINE
  5
2AA
100
AcDbEntity
  8
0
100
AcDbLine
 62
6
  6
CONTINUOUS
 10
6.1031124207
 20
7.0218145793
 11
6.1031124207
 21
6.7718145793
  0
LINE
  5
2AB
100
AcDbEntity
  8
0
100
AcDbLine
 62
6
  6
CONTINUOUS
 10
6.1094539075
 20
7.0218145793
 11
6.1094539075
 21
6.7718145793
  0
LINE
  5
2AC
100
AcDbEntity
  8
0
100
AcDbLine
 62
6
  6
CONTINUOUS
 10
6.1145480815
 20
7.0218145793
 11
6.1145480815
 21
6.7718145793
  0
LINE
  5
2AD
100
AcDbEntity
  8
0
100
AcDbLine
 62
6
  6
CONTINUOUS
 10
6.1183809799
 20
7.0218145793
 11
6.1183809799
 21
6.7718145793
  0
LINE
  5
2AE
100
AcDbEntity
  8
0
100
AcDbLine
 62
6
  6
CONTINUOUS
 10
6.1209420969
 20
7.0218145793
 11
6.1209420969
 21
6.7718145793
  0
LINE
  5
2AF
100
AcDbEntity
  8
0
100
AcDbLine
 62
6
  6
CONTINUOUS
 10
6.1222244128
 20
7.0218145793
 11
6.1222244128
 21
6.7718145793
  0
LINE
  5
2B0
100
AcDbEntity
  8
0
100
AcDbLine
 62
6
  6
CONTINUOUS
 10
6.1223847847
 20
7.0218145793
 11
6.1223847847
 21
6.7718145793
  0
LINE
  5
2B1
100
AcDbEntity
  8
0
100
AcDbLine
 62
6
  6
CONTINUOUS
 10
6.142672098
 20
1.9498145793
 11
6.142672098
 21
1.8504764162
  0
LINE
  5
2B2
100
AcDbEntity
  8
0
100
AcDbLine
 62
6
  6
CONTINUOUS
 10
6.1793847847
 20
5.2848145793
 11
6.1793847847
 21
5.2148145793
  0
LINE
  5
2B3
100
AcDbEntity
  8
0
100
AcDbLine
 62
6
  6
CONTINUOUS
 10
5.3627902428
 20
1.7898145793
 11
5.3246533048
 21
1.647485589
  0
LINE
  5
2B4
100
AcDbEntity
  8
0
100
AcDbLine
 62
6
  6
CONTINUOUS
 10
5.1663655468
 20
5.1998145793
 11
5.1403847847
 21
5.2148145793
  0
LINE
  5
2B5
100
AcDbEntity
  8
0
100
AcDbLine
 62
6
  6
CONTINUOUS
 10
6.6305923934
 20
1.7898145793
 11
6.6687293314
 21
1.647485589
  0
LINE
  5
2B6
100
AcDbEntity
  8
0
100
AcDbLine
 62
6
  6
CONTINUOUS
 10
6.8319041733
 20
1.7898145793
 11
6.8700411113
 21
1.647485589
  0
LINE
  5
2B7
100
AcDbEntity
  8
0
100
AcDbLine
 62
6
  6
CONTINUOUS
 10
6.2638847847
 20
5.8703145793
 11
6.2638847847
 21
5.7848145793
  0
LINE
  5
2B8
100
AcDbEntity
  8
0
100
AcDbLine
 62
6
  6
CONTINUOUS
 10
6.2694242209
 20
1.9498145793
 11
6.2694242209
 21
1.8499625127
  0
LINE
  5
2B9
100
AcDbEntity
  8
0
100
AcDbLine
 62
6
  6
CONTINUOUS
 10
6.3083847847
 20
5.8753145793
 11
6.3083847847
 21
6.0283145793
  0
LINE
  5
2BA
100
AcDbEntity
  8
0
100
AcDbLine
 62
6
  6
CONTINUOUS
 10
4.0743667933
 20
1.8073131821
 11
4.0568681905
 21
1.7898145793
  0
LINE
  5
2BB
100
AcDbEntity
  8
0
100
AcDbLine
 62
9
  6
CONTINUOUS
 10
4.7084143723
 20
4.9041898949
 11
6.6003551972
 21
4.9041898949
  0
LINE
  5
2BC
100
AcDbEntity
  8
0
100
AcDbLine
 62
6
  6
CONTINUOUS
 10
5.000384068
 20
5.875315296
 11
5.0053847847
 21
5.8703145793
  0
LINE
  5
2BD
100
AcDbEntity
  8
0
100
AcDbLine
 62
6
  6
CONTINUOUS
 10
6.4482414049
 20
5.6709579591
 11
6.4482414049
 21
5.5236711994
  0
LINE
  5
2BE
100
AcDbEntity
  8
0
100
AcDbLine
 62
6
  6
CONTINUOUS
 10
6.5222436489
 20
1.9498145793
 11
6.5222436489
 21
1.8499625127
  0
LINE
  5
2BF
100
AcDbEntity
  8
0
100
AcDbLine
 62
6
  6
CONTINUOUS
 10
6.6489957719
 20
1.9498145793
 11
6.6489957719
 21
1.8504764162
  0
LINE
  5
2C0
100
AcDbEntity
  8
0
100
AcDbLine
 62
6
  6
CONTINUOUS
 10
5.8468847847
 20
1.7898145793
 11
5.8087478467
 21
1.647485589
  0
LINE
  5
2C1
100
AcDbEntity
  8
0
100
AcDbLine
 62
6
  6
CONTINUOUS
 10
4.5375272331
 20
1.8504764162
 11
4.4768653962
 21
1.7898145793
  0
LINE
  5
2C2
100
AcDbEntity
  8
0
100
AcDbLine
 62
6
  6
CONTINUOUS
 10
5.0893847847
 20
5.1998145793
 11
4.9663847847
 21
5.1794976124
  0
LINE
  5
2C3
100
AcDbEntity
  8
0
100
AcDbLine
 62
9
  6
CONTINUOUS
 10
4.9663847847
 20
5.1794976124
 11
6.3423847847
 21
5.1794976124
  0
LINE
  5
2C4
100
AcDbEntity
  8
0
100
AcDbLine
 62
6
  6
CONTINUOUS
 10
5.089400185
 20
5.1998145793
 11
6.2193693845
 21
5.1998145793
  0
LINE
  5
2C5
100
AcDbEntity
  8
0
100
AcDbLine
 62
7
  6
CONTINUOUS
 10
5.1293847847
 20
5.2148145793
 11
6.1793847847
 21
5.2148145793
  0
LINE
  5
2C6
100
AcDbEntity
  8
0
100
AcDbLine
 62
9
  6
CONTINUOUS
 10
5.0993847847
 20
5.2848145793
 11
6.2093847847
 21
5.2848145793
  0
LINE
  5
2C7
100
AcDbEntity
  8
0
100
AcDbLine
 62
6
  6
CONTINUOUS
 10
6.2193847847
 20
5.1998145793
 11
6.3423847847
 21
5.1794976124
  0
LINE
  5
2C8
100
AcDbEntity
  8
0
100
AcDbLine
 62
6
  6
CONTINUOUS
 10
7.251901379
 20
1.7898145793
 11
7.290038317
 21
1.647485589
  0
LINE
  5
2C9
100
AcDbEntity
  8
0
100
AcDbLine
 62
6
  6
CONTINUOUS
 10
6.6966826794
 20
1.9498145793
 11
6.6966826794
 21
1.8499625127
  0
LINE
  5
2CA
100
AcDbEntity
  8
0
100
AcDbLine
 62
6
  6
CONTINUOUS
 10
6.7712423363
 20
1.9498145793
 11
6.7712423363
 21
1.8504764162
  0
LINE
  5
2CB
100
AcDbEntity
  8
0
100
AcDbLine
 62
6
  6
CONTINUOUS
 10
6.8979944593
 20
1.9498145793
 11
6.8979944593
 21
1.8499625127
  0
LINE
  5
2CC
100
AcDbEntity
  8
0
100
AcDbLine
 62
6
  6
CONTINUOUS
 10
4.6993064053
 20
1.8109438085
 11
4.6781771761
 21
1.7898145793
  0
LINE
  5
2CD
100
AcDbEntity
  8
0
100
AcDbLine
 62
6
  6
CONTINUOUS
 10
4.9743847847
 20
5.4098145793
 11
6.3343847847
 21
5.4098145793
  0
LINE
  5
2CE
100
AcDbEntity
  8
0
100
AcDbLine
 62
6
  6
CONTINUOUS
 10
5.2083847847
 20
6.5118145793
 11
5.2828769424
 21
6.4327745362
  0
LINE
  5
2CF
100
AcDbEntity
  8
0
100
AcDbLine
 62
6
  6
CONTINUOUS
 10
7.1508138873
 20
1.9498145793
 11
7.1508138873
 21
1.8499625127
  0
LINE
  5
2D0
100
AcDbEntity
  8
0
100
AcDbLine
 62
6
  6
CONTINUOUS
 10
5.1660974715
 20
1.8504764162
 11
5.1054356345
 21
1.7898145793
  0
LINE
  5
2D1
100
AcDbEntity
  8
0
100
AcDbLine
 62
6
  6
CONTINUOUS
 10
4.9743847847
 20
5.7848145793
 11
6.3343847847
 21
5.7848145793
  0
LINE
  5
2D2
100
AcDbEntity
  8
0
100
AcDbLine
 62
6
  6
CONTINUOUS
 10
6.4482414049
 20
5.6709579591
 11
6.3343847847
 21
5.7848145793
  0
LINE
  5
2D3
100
AcDbEntity
  8
0
100
AcDbLine
 62
6
  6
CONTINUOUS
 10
7.2775660102
 20
1.9498145793
 11
7.2775660102
 21
1.8504764162
  0
LINE
  5
2D4
100
AcDbEntity
  8
0
100
AcDbLine
 62
6
  6
CONTINUOUS
 10
7.317991665
 20
1.9498145793
 11
7.317991665
 21
1.8499625127
  0
LINE
  5
2D5
100
AcDbEntity
  8
0
100
AcDbLine
 62
6
  6
CONTINUOUS
 10
6.5883339349
 20
1.7898145793
 11
6.5501969969
 21
1.647485589
  0
LINE
  5
2D6
100
AcDbEntity
  8
0
100
AcDbLine
 62
6
  6
CONTINUOUS
 10
5.4123375138
 20
1.8393618502
 11
5.3627902428
 21
1.7898145793
  0
LINE
  5
2D7
100
AcDbEntity
  8
0
100
AcDbLine
 62
6
  6
CONTINUOUS
 10
5.0053923892
 20
5.8703145793
 11
6.3033771803
 21
5.8703145793
  0
LINE
  5
2D8
100
AcDbEntity
  8
0
100
AcDbLine
 62
6
  6
CONTINUOUS
 10
5.0003847847
 20
5.9103145793
 11
6.3083847847
 21
5.9103145793
  0
LINE
  5
2D9
100
AcDbEntity
  8
0
100
AcDbLine
 62
6
  6
CONTINUOUS
 10
6.3083847847
 20
6.0083145793
 11
5.0003847847
 21
6.0083145793
  0
LINE
  5
2DA
100
AcDbEntity
  8
0
100
AcDbLine
 62
6
  6
CONTINUOUS
 10
5.0003847847
 20
6.0283145793
 11
6.3083847847
 21
6.0283145793
  0
LINE
  5
2DB
100
AcDbEntity
  8
0
100
AcDbLine
 62
6
  6
CONTINUOUS
 10
7.570811093
 20
1.9498145793
 11
7.570811093
 21
1.8499625127
  0
LINE
  5
2DC
100
AcDbEntity
  8
0
100
AcDbLine
 62
6
  6
CONTINUOUS
 10
5.9075466217
 20
1.8504764162
 11
5.8468847847
 21
1.7898145793
  0
LINE
  5
2DD
100
AcDbEntity
  8
0
100
AcDbLine
 62
9
  6
CONTINUOUS
 10
5.2828769424
 20
6.3470420066
 11
6.025892627
 21
6.3470420066
  0
LINE
  5
2DE
100
AcDbEntity
  8
0
100
AcDbLine
 62
6
  6
CONTINUOUS
 10
7.6975632159
 20
1.9498145793
 11
7.6975632159
 21
1.8504764162
  0
LINE
  5
2DF
100
AcDbEntity
  8
0
100
AcDbLine
 62
6
  6
CONTINUOUS
 10
7.7182944987
 20
1.9498145793
 11
7.7182944987
 21
1.8499625127
  0
LINE
  5
2E0
100
AcDbEntity
  8
0
100
AcDbLine
 62
6
  6
CONTINUOUS
 10
7.8450466217
 20
1.9498145793
 11
7.8450466217
 21
1.8504764162
  0
LINE
  5
2E1
100
AcDbEntity
  8
0
100
AcDbLine
 62
6
  6
CONTINUOUS
 10
7.2169041733
 20
1.7898145793
 11
7.1787672353
 21
1.647485589
  0
LINE
  5
2E2
100
AcDbEntity
  8
0
100
AcDbLine
 62
9
  6
CONTINUOUS
 10
5.2828769424
 20
6.4327745362
 11
6.025892627
 21
6.4327745362
  0
LINE
  5
2E3
100
AcDbEntity
  8
0
100
AcDbLine
 62
6
  6
CONTINUOUS
 10
5.2083847847
 20
6.5118145793
 11
6.1003847847
 21
6.5118145793
  0
LINE
  5
2E4
100
AcDbEntity
  8
0
100
AcDbLine
 62
6
  6
CONTINUOUS
 10
8.1243847847
 20
2.4368966671
 11
8.1243847847
 21
2.0398145793
  0
LINE
  5
2E5
100
AcDbEntity
  8
0
100
AcDbLine
 62
6
  6
CONTINUOUS
 10
6.6489957719
 20
1.8504764162
 11
6.5883339349
 21
1.7898145793
  0
LINE
  5
2E6
100
AcDbEntity
  8
0
100
AcDbLine
 62
6
  6
CONTINUOUS
 10
5.1863847855
 20
6.7718145793
 11
6.1223847841
 21
6.7718145793
  0
LINE
  5
2E7
100
AcDbEntity
  8
0
100
AcDbLine
 62
6
  6
CONTINUOUS
 10
7.636901379
 20
1.7898145793
 11
7.598764441
 21
1.647485589
  0
LINE
  5
2E8
100
AcDbEntity
  8
0
100
AcDbLine
 62
6
  6
CONTINUOUS
 10
7.7843847847
 20
1.7898145793
 11
7.7462478467
 21
1.647485589
  0
LINE
  5
2E9
100
AcDbEntity
  8
0
100
AcDbLine
 62
6
  6
CONTINUOUS
 10
5.1863847855
 20
7.0218145793
 11
6.1223847841
 21
7.0218145793
  0
LINE
  5
2EA
100
AcDbEntity
  8
0
100
AcDbLine
 62
6
  6
CONTINUOUS
 10
7.2775660102
 20
1.8504764162
 11
7.2169041733
 21
1.7898145793
  0
LINE
  5
2EB
100
AcDbEntity
  8
0
100
AcDbLine
 62
6
  6
CONTINUOUS
 10
5.2083847847
 20
7.1038145793
 11
6.1003847847
 21
7.1038145793
  0
LINE
  5
2EC
100
AcDbEntity
  8
0
100
AcDbLine
 62
6
  6
CONTINUOUS
 10
7.6975632159
 20
1.8504764162
 11
7.636901379
 21
1.7898145793
  0
LINE
  5
2ED
100
AcDbEntity
  8
0
100
AcDbLine
 62
6
  6
CONTINUOUS
 10
7.8450466217
 20
1.8504764162
 11
7.7843847847
 21
1.7898145793
  0
ARC
  5
2EE
100
AcDbEntity
  8
0
100
AcDbCircle
 62
6
  6
CONTINUOUS
 10
3.8008021562
 20
1.6718145793
 40
0.094
100
AcDbArc
 50
195.0
 51
270.0
  0
ARC
  5
2EF
100
AcDbEntity
  8
0
100
AcDbCircle
 62
6
  6
CONTINUOUS
 10
3.7804508191
 20
1.6718145793
 40
0.094
100
AcDbArc
 50
270.0
 51
276.2386671674
  0
ARC
  5
2F0
100
AcDbEntity
  8
0
100
AcDbCircle
 62
6
  6
CONTINUOUS
 10
3.6533187504
 20
1.6718145793
 40
0.094
100
AcDbArc
 50
195.0
 51
270.0
  0
ARC
  5
2F1
100
AcDbEntity
  8
0
100
AcDbCircle
 62
6
  6
CONTINUOUS
 10
3.2743847847
 20
2.0398145793
 40
0.09
100
AcDbArc
 50
180.0
 51
270.0
  0
ARC
  5
2F2
100
AcDbEntity
  8
0
100
AcDbCircle
 62
6
  6
CONTINUOUS
 10
4.3479314305
 20
1.6718145793
 40
0.094
100
AcDbArc
 50
270.0
 51
345.0
  0
ARC
  5
2F3
100
AcDbEntity
  8
0
100
AcDbCircle
 62
6
  6
CONTINUOUS
 10
4.2207993619
 20
1.6718145793
 40
0.094
100
AcDbArc
 50
195.0
 51
270.0
  0
ARC
  5
2F4
100
AcDbEntity
  8
0
100
AcDbCircle
 62
6
  6
CONTINUOUS
 10
3.9279342248
 20
1.6718145793
 40
0.094
100
AcDbArc
 50
270.0
 51
345.0
  0
ARC
  5
2F5
100
AcDbEntity
  8
0
100
AcDbCircle
 62
6
  6
CONTINUOUS
 10
4.4221111418
 20
1.6718145793
 40
0.094
100
AcDbArc
 50
246.6925094067
 51
270.0
  0
ARC
  5
2F6
100
AcDbEntity
  8
0
100
AcDbCircle
 62
6
  6
CONTINUOUS
 10
3.4343847847
 20
2.4368966671
 40
0.25
100
AcDbArc
 50
121.7743418842
 51
180.0
  0
ARC
  5
2F7
100
AcDbEntity
  8
0
100
AcDbCircle
 62
6
  6
CONTINUOUS
 10
5.5908187504
 20
1.6718145793
 40
0.094
100
AcDbArc
 50
195.0
 51
270.0
  0
ARC
  5
2F8
100
AcDbEntity
  8
0
100
AcDbCircle
 62
6
  6
CONTINUOUS
 10
4.9765016689
 20
1.6718145793
 40
0.094
100
AcDbArc
 50
270.0
 51
345.0
  0
ARC
  5
2F9
100
AcDbEntity
  8
0
100
AcDbCircle
 62
6
  6
CONTINUOUS
 10
4.8493696002
 20
1.6718145793
 40
0.094
100
AcDbArc
 50
195.0
 51
270.0
  0
ARC
  5
2FA
100
AcDbEntity
  8
0
100
AcDbCircle
 62
6
  6
CONTINUOUS
 10
5.0304508191
 20
1.6718145793
 40
0.094
100
AcDbArc
 50
270.0
 51
294.0233092346
  0
ARC
  5
2FB
100
AcDbEntity
  8
0
100
AcDbCircle
 62
6
  6
CONTINUOUS
 10
5.1067242085
 20
1.6718145793
 40
0.094
100
AcDbArc
 50
226.119995971
 51
270.0
  0
ARC
  5
2FC
100
AcDbEntity
  8
0
100
AcDbCircle
 62
6
  6
CONTINUOUS
 10
5.2338562771
 20
1.6718145793
 40
0.094
100
AcDbArc
 50
270.0
 51
345.0
  0
ARC
  5
2FD
100
AcDbEntity
  8
0
100
AcDbCircle
 62
6
  6
CONTINUOUS
 10
4.5492432104
 20
1.6718145793
 40
0.094
100
AcDbArc
 50
270.0
 51
345.0
  0
ARC
  5
2FE
100
AcDbEntity
  8
0
100
AcDbCircle
 62
6
  6
CONTINUOUS
 10
1.7230155638
 20
5.1998145793
 40
3.0
100
AcDbArc
 50
301.7743418842
 51
354.3448067127
  0
ARC
  5
2FF
100
AcDbEntity
  8
0
100
AcDbCircle
 62
6
  6
CONTINUOUS
 10
5.0169055825
 20
4.8736420108
 40
0.31
100
AcDbArc
 50
99.3793462095
 51
174.3448067127
  0
ARC
  5
300
100
AcDbEntity
  8
0
100
AcDbCircle
 62
6
  6
CONTINUOUS
 10
5.0993847847
 20
5.4098145793
 40
0.125
100
AcDbArc
 50
180.0
 51
270.0
  0
ARC
  5
301
100
AcDbEntity
  8
0
100
AcDbCircle
 62
6
  6
CONTINUOUS
 10
5.2373936121
 20
6.3899082714
 40
0.0625
100
AcDbArc
 50
316.6967024623
 51
43.3032975377
  0
ARC
  5
302
100
AcDbEntity
  8
0
100
AcDbCircle
 62
6
  6
CONTINUOUS
 10
6.4593999693
 20
1.6718145793
 40
0.094
100
AcDbArc
 50
270.0
 51
345.0
  0
ARC
  5
303
100
AcDbEntity
  8
0
100
AcDbCircle
 62
6
  6
CONTINUOUS
 10
6.3322679006
 20
1.6718145793
 40
0.094
100
AcDbArc
 50
195.0
 51
270.0
  0
ARC
  5
304
100
AcDbEntity
  8
0
100
AcDbCircle
 62
6
  6
CONTINUOUS
 10
5.7179508191
 20
1.6718145793
 40
0.094
100
AcDbArc
 50
270.0
 51
345.0
  0
ARC
  5
305
100
AcDbEntity
  8
0
100
AcDbCircle
 62
6
  6
CONTINUOUS
 10
6.2783187504
 20
1.6718145793
 40
0.094
100
AcDbArc
 50
245.9766907654
 51
270.0
  0
ARC
  5
306
100
AcDbEntity
  8
0
100
AcDbCircle
 62
6
  6
CONTINUOUS
 10
6.759526359
 20
1.6718145793
 40
0.094
100
AcDbArc
 50
195.0
 51
270.0
  0
ARC
  5
307
100
AcDbEntity
  8
0
100
AcDbCircle
 62
6
  6
CONTINUOUS
 10
6.0749132923
 20
1.6718145793
 40
0.094
100
AcDbArc
 50
195.0
 51
270.0
  0
ARC
  5
308
100
AcDbEntity
  8
0
100
AcDbCircle
 62
6
  6
CONTINUOUS
 10
6.202045361
 20
1.6718145793
 40
0.094
100
AcDbArc
 50
270.0
 51
313.880004029
  0
ARC
  5
309
100
AcDbEntity
  8
0
100
AcDbCircle
 62
6
  6
CONTINUOUS
 10
7.3808353446
 20
1.6718145793
 40
0.094
100
AcDbArc
 50
195.0
 51
270.0
  0
ARC
  5
30A
100
AcDbEntity
  8
0
100
AcDbCircle
 62
6
  6
CONTINUOUS
 10
7.0879702076
 20
1.6718145793
 40
0.094
100
AcDbArc
 50
270.0
 51
345.0
  0
ARC
  5
30B
100
AcDbEntity
  8
0
100
AcDbCircle
 62
6
  6
CONTINUOUS
 10
6.960838139
 20
1.6718145793
 40
0.094
100
AcDbArc
 50
195.0
 51
270.0
  0
ARC
  5
30C
100
AcDbEntity
  8
0
100
AcDbCircle
 62
6
  6
CONTINUOUS
 10
6.8866584277
 20
1.6718145793
 40
0.094
100
AcDbArc
 50
270.0
 51
293.3074905933
  0
ARC
  5
30D
100
AcDbEntity
  8
0
100
AcDbCircle
 62
6
  6
CONTINUOUS
 10
7.5079674133
 20
1.6718145793
 40
0.094
100
AcDbArc
 50
270.0
 51
345.0
  0
ARC
  5
30E
100
AcDbEntity
  8
0
100
AcDbCircle
 62
6
  6
CONTINUOUS
 10
7.5283187504
 20
1.6718145793
 40
0.094
100
AcDbArc
 50
263.7613328326
 51
270.0
  0
ARC
  5
30F
100
AcDbEntity
  8
0
100
AcDbCircle
 62
6
  6
CONTINUOUS
 10
7.6554508191
 20
1.6718145793
 40
0.094
100
AcDbArc
 50
270.0
 51
345.0
  0
ARC
  5
310
100
AcDbEntity
  8
0
100
AcDbCircle
 62
6
  6
CONTINUOUS
 10
8.0343847847
 20
2.0398145793
 40
0.09
100
AcDbArc
 50
270.0
 51
360.0
  0
ARC
  5
311
100
AcDbEntity
  8
0
100
AcDbCircle
 62
6
  6
CONTINUOUS
 10
7.8743847847
 20
2.4368966671
 40
0.25
100
AcDbArc
 50
0.0
 51
58.2256581159
  0
ARC
  5
312
100
AcDbEntity
  8
0
100
AcDbCircle
 62
6
  6
CONTINUOUS
 10
9.5857540057
 20
5.1998145793
 40
3.0
100
AcDbArc
 50
185.6551932873
 51
238.2256581158
  0
ARC
  5
313
100
AcDbEntity
  8
0
100
AcDbCircle
 62
6
  6
CONTINUOUS
 10
5.6543847847
 20
5.9969103555
 40
0.5105
100
AcDbArc
 50
136.6967024623
 51
176.4727074729
  0
ARC
  5
314
100
AcDbEntity
  8
0
100
AcDbCircle
 62
6
  6
CONTINUOUS
 10
5.6543847847
 20
5.9969103555
 40
0.5105
100
AcDbArc
 50
3.5272925271
 51
43.3032975377
  0
ARC
  5
315
100
AcDbEntity
  8
0
100
AcDbCircle
 62
6
  6
CONTINUOUS
 10
6.291863987
 20
4.8736420108
 40
0.31
100
AcDbArc
 50
5.6551932873
 51
80.6206537905
  0
ARC
  5
316
100
AcDbEntity
  8
0
100
AcDbCircle
 62
6
  6
CONTINUOUS
 10
6.2093847847
 20
5.4098145793
 40
0.125
100
AcDbArc
 50
270.0
 51
360.0
  0
ARC
  5
317
100
AcDbEntity
  8
0
100
AcDbCircle
 62
6
  6
CONTINUOUS
 10
6.0713759574
 20
6.3899082714
 40
0.0625
100
AcDbArc
 50
136.6967024623
 51
223.3032975377
  0
SPLINE
  5
318
100
AcDbEntity
  8
0
100
AcDbSpline
 62
6
  6
CONTINUOUS
 70
0
 71
3
 72
26
 73
22
 74
20
 42
0.0000001
 43
0.0000001
 44
0.0000000001
 12
0.0635961097
 22
-0.0632092564
 32
0.0
 13
0.0861336272
 23
0.0249173337
 33
0.0
 40
0.0
 40
0.0
 40
0.0
 40
0.0
 40
0.0715760495
 40
0.1419013255
 40
0.210889996
 40
0.278474654
 40
0.3445923442
 40
0.4092146237
 40
0.4723470117
 40
0.5340291173
 40
0.5943643936
 40
0.6535178
 40
0.6827272057
 40
0.7117336771
 40
0.7692823504
 40
0.7979244349
 40
0.8265334095
 40
0.8838239918
 40
0.9415319382
 40
0.9706537495
 40
1.0
 40
1.0
 40
1.0
 40
1.0
 10
4.6120868901
 20
1.8499625127
 30
0.0
 10
4.6136042095
 20
1.8484544231
 30
0.0
 10
4.6166528111
 20
1.845504893
 30
0.0
 10
4.6213165311
 20
1.8412630237
 30
0.0
 10
4.626034464
 20
1.8372631545
 30
0.0
 10
4.6308070454
 20
1.8335289085
 30
0.0
 10
4.6356354056
 20
1.8300865461
 30
0.0
 10
4.6405196071
 20
1.8269634951
 30
0.0
 10
4.6454583047
 20
1.8241876011
 30
0.0
 10
4.6504488582
 20
1.8217866419
 30
0.0
 10
4.655487519
 20
1.8197901947
 30
0.0
 10
4.6597391971
 20
1.8184775497
 30
0.0
 10
4.6631509028
 20
1.8176569962
 30
0.0
 10
4.6665479608
 20
1.8169954397
 30
0.0
 10
4.6699695345
 20
1.8165637705
 30
0.0
 10
4.6733962931
 20
1.8163708004
 30
0.0
 10
4.676820733
 20
1.8163377142
 30
0.0
 10
4.6811115737
 20
1.8165988522
 30
0.0
 10
4.685375338
 20
1.817253213
 30
0.0
 10
4.6887660968
 20
1.8180052987
 30
0.0
 10
4.6904549982
 20
1.8184566001
 30
0.0
 10
4.6912975645
 20
1.8187003436
 30
0.0
 11
4.6120868901
 21
1.8499625127
 31
0.0
 11
4.6167024464
 21
1.8455031436
 31
0.0
 11
4.6213705365
 21
1.8412638866
 31
0.0
 11
4.6260923718
 21
1.8372676949
 31
0.0
 11
4.6308689053
 21
1.8335383044
 31
0.0
 11
4.6357001379
 21
1.830102333
 31
0.0
 11
4.6405858272
 21
1.8269870686
 31
0.0
 11
4.6455243339
 21
1.8242201804
 31
0.0
 11
4.6505118995
 21
1.821829917
 31
0.0
 11
4.6555441835
 21
1.8198439558
 31
0.0
 11
4.6606142039
 21
1.818285936
 31
0.0
 11
4.6631608528
 21
1.8176742859
 31
0.0
 11
4.6657138764
 21
1.817177674
 31
0.0
 11
4.6708338016
 21
1.8165348476
 31
0.0
 11
4.6733979552
 21
1.8163906921
 31
0.0
 11
4.6759630708
 21
1.8163660777
 31
0.0
 11
4.6810907066
 21
1.8166757817
 31
0.0
 11
4.6862057734
 21
1.8174571532
 31
0.0
 11
4.6887551873
 21
1.8180219058
 31
0.0
 11
4.6912975645
 21
1.8187003436
 31
0.0
  0
SPLINE
  5
319
100
AcDbEntity
  8
0
100
AcDbSpline
 62
6
  6
CONTINUOUS
 70
0
 71
3
 72
16
 73
12
 74
10
 42
0.0000001
 43
0.0000001
 44
0.0000000001
 12
0.1131933079
 22
0.0095118361
 32
0.0
 13
0.101586205
 23
0.0508275803
 33
0.0
 40
0.0
 40
0.0
 40
0.0
 40
0.0
 40
0.0625125541
 40
0.1250228489
 40
0.1875342945
 40
0.2500460618
 40
0.3750487214
 40
0.500053005
 40
0.6250476141
 40
0.7500503932
 40
1.0
 40
1.0
 40
1.0
 40
1.0
 10
4.5041409666
 20
1.8168427579
 30
0.0
 10
4.5064996342
 20
1.8170409609
 30
0.0
 10
4.511210919
 20
1.8175124078
 30
0.0
 10
4.518251866
 20
1.8184406854
 30
0.0
 10
4.5252614114
 20
1.819582247
 30
0.0
 10
4.5345575912
 20
1.8213785337
 30
0.0
 10
4.5460753406
 20
1.8241213146
 30
0.0
 10
4.5597022321
 20
1.8281316619
 30
0.0
 10
4.5731219303
 20
1.8327868093
 30
0.0
 10
4.5907283467
 20
1.8397523595
 30
0.0
 10
4.6036230794
 20
1.8457277348
 30
0.0
 10
4.6120868901
 20
1.8499625127
 30
0.0
 11
4.5041409666
 21
1.8168427579
 31
0.0
 11
4.5112066738
 21
1.8175492688
 31
0.0
 11
4.5182465942
 21
1.8184762269
 31
0.0
 11
4.5252552516
 21
1.8196165376
 31
0.0
 11
4.5322273258
 21
1.8209627499
 31
0.0
 11
4.5460430075
 21
1.8242411672
 31
0.0
 11
4.5596680483
 21
1.8282392392
 31
0.0
 11
4.5730860696
 21
1.8328816323
 31
0.0
 11
4.5862937157
 21
1.8380950333
 31
0.0
 11
4.6120868901
 21
1.8499625127
 31
0.0
  0
SPLINE
  5
31A
100
AcDbEntity
  8
0
100
AcDbSpline
 62
6
  6
CONTINUOUS
 70
0
 71
3
 72
37
 73
33
 74
31
 42
0.0000001
 43
0.0000001
 44
0.0000000001
 12
0.1045714196
 22
-0.1039353146
 32
0.0
 13
0.1042538523
 23
0.1042538523
 33
0.0
 40
0.0
 40
0.0
 40
0.0
 40
0.0
 40
0.0698604899
 40
0.1040322248
 40
0.1376632857
 40
0.1707326647
 40
0.2032203844
 40
0.2351164604
 40
0.2664212169
 40
0.2971402699
 40
0.3272928408
 40
0.3569156439
 40
0.3860606554
 40
0.4147963836
 40
0.4432098585
 40
0.4714028306
 40
0.4994860336
 40
0.527577498
 40
0.5557947535
 40
0.5842473264
 40
0.6130351659
 40
0.6422430106
 40
0.6719369199
 40
0.702166488
 40
0.7329662451
 40
0.7643534321
 40
0.7963320819
 40
0.828901321
 40
0.8620501495
 40
0.8957578506
 40
0.9300030254
 40
1.0
 40
1.0
 40
1.0
 40
1.0
 10
7.570811093
 20
1.8499625127
 30
0.0
 10
7.5732462298
 20
1.8475421887
 30
0.0
 10
7.5769512139
 20
1.8440150143
 30
0.0
 10
7.582036626
 20
1.8395516985
 30
0.0
 10
7.5858583107
 20
1.8363927229
 30
0.0
 10
7.5897156108
 20
1.8334106219
 30
0.0
 10
7.593609043
 20
1.8306194454
 30
0.0
 10
7.5975385676
 20
1.8280335168
 30
0.0
 10
7.6015036983
 20
1.825667485
 30
0.0
 10
7.6055031143
 20
1.8235358882
 30
0.0
 10
7.6095350627
 20
1.821653572
 30
0.0
 10
7.6135975136
 20
1.8200359072
 30
0.0
 10
7.6176866345
 20
1.8186949864
 30
0.0
 10
7.6217983761
 20
1.8176424632
 30
0.0
 10
7.6259283339
 20
1.8168907021
 30
0.0
 10
7.6300702999
 20
1.8164448115
 30
0.0
 10
7.634218334
 20
1.8163092248
 30
0.0
 10
7.6383659004
 20
1.8164883507
 30
0.0
 10
7.6425065325
 20
1.816977249
 30
0.0
 10
7.6466343264
 20
1.8177712286
 30
0.0
 10
7.6507431628
 20
1.8188646695
 30
0.0
 10
7.6548287759
 20
1.820244927
 30
0.0
 10
7.6588871968
 20
1.8219001916
 30
0.0
 10
7.6629147314
 20
1.8238181216
 30
0.0
 10
7.6669094505
 20
1.8259832936
 30
0.0
 10
7.6708696832
 20
1.8283808397
 30
0.0
 10
7.6747942089
 20
1.8309961985
 30
0.0
 10
7.6786825989
 20
1.8338147886
 30
0.0
 10
7.6825348667
 20
1.8368223616
 30
0.0
 10
7.686351587
 20
1.8400049435
 30
0.0
 10
7.6914301348
 20
1.8444973252
 30
0.0
 10
7.6951307312
 20
1.8480439314
 30
0.0
 10
7.6975632159
 20
1.8504764162
 30
0.0
 11
7.570811093
 21
1.8499625127
 31
0.0
 11
7.5782844867
 21
1.8428745564
 31
0.0
 11
7.5820728819
 21
1.8395532053
 31
0.0
 11
7.585896587
 21
1.8363963553
 31
0.0
 11
7.589755965
 21
1.8334168866
 31
0.0
 11
7.5936509414
 21
1.830629004
 31
0.0
 11
7.5975814018
 21
1.8280470335
 31
0.0
 11
7.6015469199
 21
1.8256853862
 31
0.0
 11
7.605545768
 21
1.823558829
 31
0.0
 11
7.6095758797
 21
1.8216822211
 31
0.0
 11
7.6136349389
 21
1.820070041
 31
0.0
 11
7.6177192185
 21
1.8187346089
 31
0.0
 11
7.6218244951
 21
1.8176874874
 31
0.0
 11
7.6259463447
 21
1.8169393016
 31
0.0
 11
7.6300793208
 21
1.8164958977
 31
0.0
 11
7.6342176514
 21
1.8163616005
 31
0.0
 11
7.6383555702
 21
1.8165391716
 31
0.0
 11
7.6424873335
 21
1.8170253896
 31
0.0
 11
7.6466072029
 21
1.8178155999
 31
0.0
 11
7.6507098013
 21
1.8189035374
 31
0.0
 11
7.6547907954
 21
1.820278276
 31
0.0
 11
7.658846041
 21
1.8219280502
 31
0.0
 11
7.6628719224
 21
1.8238403265
 31
0.0
 11
7.6668662245
 21
1.8260005363
 31
0.0
 11
7.670826962
 21
1.8283937777
 31
0.0
 11
7.6747525025
 21
1.831005267
 31
0.0
 11
7.6786424948
 21
1.8338206488
 31
0.0
 11
7.682496878
 21
1.8368256652
 31
0.0
 11
7.6863156321
 21
1.8400061881
 31
0.0
 11
7.6900991643
 21
1.8433494525
 31
0.0
 11
7.6975632159
 21
1.8504764162
 31
0.0
  0
SPLINE
  5
31B
100
AcDbEntity
  8
0
100
AcDbSpline
 62
6
  6
CONTINUOUS
 70
0
 71
3
 72
29
 73
25
 74
23
 42
0.0000001
 43
0.0000001
 44
0.0000000001
 12
0.2362370576
 22
-0.1181987063
 32
0.0
 13
0.2362370576
 23
0.1181987063
 33
0.0
 40
0.0
 40
0.0
 40
0.0
 40
0.0
 40
0.062490468
 40
0.1249869447
 40
0.1874825453
 40
0.2499775147
 40
0.3124738066
 40
0.3437275781
 40
0.3749816993
 40
0.406235159
 40
0.4374899473
 40
0.4687452776
 40
0.5000000631
 40
0.5312548428
 40
0.5625101657
 40
0.5937649542
 40
0.6250184055
 40
0.6562725113
 40
0.6875262768
 40
0.7500225345
 40
0.8125174775
 40
0.875013056
 40
0.9375095281
 40
1.0
 40
1.0
 40
1.0
 40
1.0
 10
7.317991665
 20
1.8499625127
 30
0.0
 10
7.3229125197
 20
1.8475004152
 30
0.0
 10
7.3328417492
 20
1.8427469855
 30
0.0
 10
7.3480115851
 20
1.8362231208
 30
0.0
 10
7.3634676335
 20
1.8304032631
 30
0.0
 10
7.3792095726
 20
1.8254034286
 30
0.0
 10
7.3925542142
 20
1.822016968
 30
0.0
 10
7.4033448657
 20
1.8198368363
 30
0.0
 10
7.4114898763
 20
1.8184778491
 30
0.0
 10
7.419677863
 20
1.8174066526
 30
0.0
 10
7.4278997518
 20
1.8166354602
 30
0.0
 10
7.4361446986
 20
1.8161692103
 30
0.0
 10
7.4444013951
 20
1.8160122653
 30
0.0
 10
7.4526580913
 20
1.816169206
 30
0.0
 10
7.4609030363
 20
1.8166354667
 30
0.0
 10
7.4691249239
 20
1.8174066556
 30
0.0
 10
7.477312909
 20
1.8184778494
 30
0.0
 10
7.485457916
 20
1.8198368427
 30
0.0
 10
7.4962485629
 20
1.8220169721
 30
0.0
 10
7.5095931988
 20
1.8254034313
 30
0.0
 10
7.52533513
 20
1.8304032664
 30
0.0
 10
7.5407911745
 20
1.8362231213
 30
0.0
 10
7.5559610086
 20
1.8427469853
 30
0.0
 10
7.5658902379
 20
1.8475004151
 30
0.0
 10
7.570811093
 20
1.8499625127
 30
0.0
 11
7.317991665
 21
1.8499625127
 31
0.0
 11
7.3328872373
 21
1.8428482633
 31
0.0
 11
7.3480592983
 21
1.8363404532
 31
0.0
 11
7.3635153368
 21
1.8305399137
 31
0.0
 11
7.3792546303
 21
1.8255595002
 31
0.0
 11
7.3952606632
 21
1.8215161941
 31
0.0
 11
7.4033533876
 21
1.8198828846
 31
0.0
 11
7.4114970818
 21
1.8185258076
 31
0.0
 11
7.4196833794
 21
1.817456668
 31
0.0
 11
7.4279035279
 21
1.8166862895
 31
0.0
 11
7.436146705
 21
1.8162207594
 31
0.0
 11
7.4444013957
 21
1.8160645793
 31
0.0
 11
7.4526560849
 21
1.8162207577
 31
0.0
 11
7.4608992598
 21
1.8166862936
 31
0.0
 11
7.4691194083
 21
1.8174566712
 31
0.0
 11
7.4773057039
 21
1.8185258095
 31
0.0
 11
7.4854493934
 21
1.8198828896
 31
0.0
 11
7.4935421162
 21
1.8215161991
 31
0.0
 11
7.5095481404
 21
1.8255595031
 31
0.0
 11
7.5252874267
 21
1.8305399162
 31
0.0
 11
7.5407434598
 21
1.8363404534
 31
0.0
 11
7.5559155197
 21
1.8428482628
 31
0.0
 11
7.570811093
 21
1.8499625127
 31
0.0
  0
SPLINE
  5
31C
100
AcDbEntity
  8
0
100
AcDbSpline
 62
6
  6
CONTINUOUS
 70
0
 71
3
 72
37
 73
33
 74
31
 42
0.0000001
 43
0.0000001
 44
0.0000000001
 12
0.1042538521
 22
-0.1042538521
 32
0.0
 13
0.1045714195
 23
0.1039353145
 33
0.0
 40
0.0
 40
0.0
 40
0.0
 40
0.0
 40
0.0699969606
 40
0.1042421298
 40
0.137949835
 40
0.1710986712
 40
0.2036679183
 40
0.2356465754
 40
0.2670337714
 40
0.2978335399
 40
0.328063118
 40
0.3577570359
 40
0.3869648937
 40
0.4157527466
 40
0.4442053259
 40
0.4724225897
 40
0.5005140639
 40
0.5285972677
 40
0.5567902434
 40
0.5852037236
 40
0.6139394476
 40
0.6430844556
 40
0.6727072589
 40
0.702859819
 40
0.7335788559
 40
0.764883605
 40
0.7967796729
 40
0.8292673745
 40
0.8623367367
 40
0.895967789
 40
0.9301395172
 40
1.0
 40
1.0
 40
1.0
 40
1.0
 10
4.6597737976
 20
1.8504764162
 30
0.0
 10
4.6622062818
 20
1.8480439319
 30
0.0
 10
4.6659068777
 20
1.8444973266
 30
0.0
 10
4.6709854249
 20
1.8400049454
 30
0.0
 10
4.674802145
 20
1.8368223628
 30
0.0
 10
4.6786544134
 20
1.8338147889
 30
0.0
 10
4.6825428043
 20
1.8309961982
 30
0.0
 10
4.6864673311
 20
1.828380839
 30
0.0
 10
4.6904275653
 20
1.8259832926
 30
0.0
 10
4.694422286
 20
1.8238181204
 30
0.0
 10
4.6984498216
 20
1.821900189
 30
0.0
 10
4.7025082441
 20
1.820244924
 30
0.0
 10
4.70659386
 20
1.8188646697
 30
0.0
 10
4.7107026973
 20
1.8177712264
 30
0.0
 10
4.7148304923
 20
1.8169772442
 30
0.0
 10
4.7189711266
 20
1.8164883545
 30
0.0
 10
4.7231186935
 20
1.8163092248
 30
0.0
 10
4.7272667288
 20
1.816444808
 30
0.0
 10
4.7314086941
 20
1.8168907091
 30
0.0
 10
4.7355386525
 20
1.8176424662
 30
0.0
 10
4.7396503948
 20
1.8186949871
 30
0.0
 10
4.7437395132
 20
1.8200359147
 30
0.0
 10
4.7478019637
 20
1.821653578
 30
0.0
 10
4.7518339117
 20
1.8235358921
 30
0.0
 10
4.7558333251
 20
1.8256674902
 30
0.0
 10
4.7597984536
 20
1.8280335227
 30
0.0
 10
4.7637279769
 20
1.8306194502
 30
0.0
 10
4.7676214074
 20
1.8334106253
 30
0.0
 10
4.7714787058
 20
1.8363927251
 30
0.0
 10
4.7753003888
 20
1.8395517002
 30
0.0
 10
4.7803858002
 20
1.8440150153
 30
0.0
 10
4.7840907839
 20
1.847542189
 30
0.0
 10
4.7865259205
 20
1.8499625127
 30
0.0
 11
4.6597737976
 21
1.8504764162
 31
0.0
 11
4.6672378479
 21
1.8433494542
 31
0.0
 11
4.6710213794
 21
1.8400061902
 31
0.0
 11
4.6748401337
 21
1.8368256666
 31
0.0
 11
4.6786945176
 21
1.8338206492
 31
0.0
 11
4.6825845108
 21
1.8310052667
 31
0.0
 11
4.6865100523
 21
1.8283937771
 31
0.0
 11
4.6904707912
 21
1.8260005354
 31
0.0
 11
4.694465095
 21
1.8238403251
 31
0.0
 11
4.6984909775
 21
1.8219280478
 31
0.0
 11
4.7025462245
 21
1.8202782737
 31
0.0
 11
4.7066272212
 21
1.8189035367
 31
0.0
 11
4.7107298211
 21
1.8178155976
 31
0.0
 11
4.7148496914
 21
1.8170253867
 31
0.0
 11
4.7189814564
 21
1.8165391733
 31
0.0
 11
4.7231193767
 21
1.8163616006
 31
0.0
 11
4.7272577075
 21
1.8164958965
 31
0.0
 11
4.7313906835
 21
1.8169393061
 31
0.0
 11
4.7355125341
 21
1.8176874908
 31
0.0
 11
4.7396178103
 21
1.8187346112
 31
0.0
 11
4.7437020881
 21
1.820070047
 31
0.0
 11
4.7477611472
 21
1.8216822274
 31
0.0
 11
4.7517912579
 21
1.8235588336
 31
0.0
 11
4.7557901032
 21
1.8256853911
 31
0.0
 11
4.7597556196
 21
1.8280470391
 31
0.0
 11
4.7636860789
 21
1.8306290091
 31
0.0
 11
4.7675810532
 21
1.8334168901
 31
0.0
 11
4.7714404291
 21
1.8363963573
 31
0.0
 11
4.7752641329
 21
1.8395532069
 31
0.0
 11
4.7790525274
 21
1.8428745574
 31
0.0
 11
4.7865259205
 21
1.8499625127
 31
0.0
  0
SPLINE
  5
31D
100
AcDbEntity
  8
0
100
AcDbSpline
 62
6
  6
CONTINUOUS
 70
0
 71
3
 72
37
 73
33
 74
31
 42
0.0000001
 43
0.0000001
 44
0.0000000001
 12
0.1045714196
 22
-0.1039353146
 32
0.0
 13
0.1042538523
 23
0.1042538523
 33
0.0
 40
0.0
 40
0.0
 40
0.0
 40
0.0
 40
0.0698604899
 40
0.1040322248
 40
0.1376632857
 40
0.1707326647
 40
0.2032203844
 40
0.2351164604
 40
0.2664212169
 40
0.2971402699
 40
0.3272928408
 40
0.3569156439
 40
0.3860606554
 40
0.4147963836
 40
0.4432098585
 40
0.4714028306
 40
0.4994860336
 40
0.527577498
 40
0.5557947535
 40
0.5842473264
 40
0.6130351659
 40
0.6422430106
 40
0.6719369199
 40
0.702166488
 40
0.7329662451
 40
0.7643534321
 40
0.7963320819
 40
0.828901321
 40
0.8620501495
 40
0.8957578506
 40
0.9300030254
 40
1.0
 40
1.0
 40
1.0
 40
1.0
 10
7.7182944987
 20
1.8499625127
 30
0.0
 10
7.7207296356
 20
1.8475421887
 30
0.0
 10
7.7244346196
 20
1.8440150143
 30
0.0
 10
7.7295200318
 20
1.8395516985
 30
0.0
 10
7.7333417165
 20
1.8363927229
 30
0.0
 10
7.7371990166
 20
1.8334106219
 30
0.0
 10
7.7410924488
 20
1.8306194454
 30
0.0
 10
7.7450219734
 20
1.8280335168
 30
0.0
 10
7.7489871041
 20
1.825667485
 30
0.0
 10
7.7529865201
 20
1.8235358882
 30
0.0
 10
7.7570184684
 20
1.821653572
 30
0.0
 10
7.7610809193
 20
1.8200359072
 30
0.0
 10
7.7651700402
 20
1.8186949864
 30
0.0
 10
7.7692817819
 20
1.8176424632
 30
0.0
 10
7.7734117396
 20
1.8168907021
 30
0.0
 10
7.7775537056
 20
1.8164448115
 30
0.0
 10
7.7817017398
 20
1.8163092248
 30
0.0
 10
7.7858493061
 20
1.8164883507
 30
0.0
 10
7.7899899383
 20
1.816977249
 30
0.0
 10
7.7941177321
 20
1.8177712286
 30
0.0
 10
7.7982265686
 20
1.8188646695
 30
0.0
 10
7.8023121816
 20
1.820244927
 30
0.0
 10
7.8063706025
 20
1.8219001916
 30
0.0
 10
7.8103981371
 20
1.8238181216
 30
0.0
 10
7.8143928563
 20
1.8259832936
 30
0.0
 10
7.818353089
 20
1.8283808397
 30
0.0
 10
7.8222776147
 20
1.8309961985
 30
0.0
 10
7.8261660046
 20
1.8338147886
 30
0.0
 10
7.8300182725
 20
1.8368223616
 30
0.0
 10
7.8338349928
 20
1.8400049435
 30
0.0
 10
7.8389135405
 20
1.8444973252
 30
0.0
 10
7.8426141369
 20
1.8480439314
 30
0.0
 10
7.8450466217
 20
1.8504764162
 30
0.0
 11
7.7182944987
 21
1.8499625127
 31
0.0
 11
7.7257678924
 21
1.8428745564
 31
0.0
 11
7.7295562877
 21
1.8395532053
 31
0.0
 11
7.7333799928
 21
1.8363963553
 31
0.0
 11
7.7372393707
 21
1.8334168866
 31
0.0
 11
7.7411343471
 21
1.830629004
 31
0.0
 11
7.7450648076
 21
1.8280470335
 31
0.0
 11
7.7490303256
 21
1.8256853862
 31
0.0
 11
7.7530291738
 21
1.823558829
 31
0.0
 11
7.7570592855
 21
1.8216822211
 31
0.0
 11
7.7611183447
 21
1.820070041
 31
0.0
 11
7.7652026242
 21
1.8187346089
 31
0.0
 11
7.7693079008
 21
1.8176874874
 31
0.0
 11
7.7734297504
 21
1.8169393016
 31
0.0
 11
7.7775627265
 21
1.8164958977
 31
0.0
 11
7.7817010571
 21
1.8163616005
 31
0.0
 11
7.785838976
 21
1.8165391716
 31
0.0
 11
7.7899707393
 21
1.8170253896
 31
0.0
 11
7.7940906087
 21
1.8178155999
 31
0.0
 11
7.798193207
 21
1.8189035374
 31
0.0
 11
7.8022742012
 21
1.820278276
 31
0.0
 11
7.8063294468
 21
1.8219280502
 31
0.0
 11
7.8103553281
 21
1.8238403265
 31
0.0
 11
7.8143496303
 21
1.8260005363
 31
0.0
 11
7.8183103678
 21
1.8283937777
 31
0.0
 11
7.8222359083
 21
1.831005267
 31
0.0
 11
7.8261259005
 21
1.8338206488
 31
0.0
 11
7.8299802838
 21
1.8368256652
 31
0.0
 11
7.8337990379
 21
1.8400061881
 31
0.0
 11
7.8375825701
 21
1.8433494525
 31
0.0
 11
7.8450466217
 21
1.8504764162
 31
0.0
  0
SPLINE
  5
31E
100
AcDbEntity
  8
0
100
AcDbSpline
 62
6
  6
CONTINUOUS
 70
0
 71
3
 72
10
 73
6
 74
4
 42
0.0000001
 43
0.0000001
 44
0.0000000001
 12
0.0382259602
 22
0.0144121487
 32
0.0
 13
0.0365347056
 23
0.0182797525
 33
0.0
 40
0.0
 40
0.0
 40
0.0
 40
0.0
 40
0.2500252119
 40
0.5000433623
 40
1.0
 40
1.0
 40
1.0
 40
1.0
 10
7.680926191
 20
1.8334922765
 30
0.0
 10
7.6841120089
 20
1.83469341
 30
0.0
 10
7.6904474345
 20
1.8371926526
 30
0.0
 10
7.7029714976
 20
1.8425421484
 30
0.0
 10
7.7122059092
 20
1.8469161515
 30
0.0
 10
7.7182944987
 20
1.8499625127
 30
0.0
 11
7.680926191
 21
1.8334922765
 31
0.0
 11
7.6904293107
 21
1.8372366235
 31
0.0
 11
7.6998236573
 21
1.8412453361
 31
0.0
 11
7.7182944987
 21
1.8499625127
 31
0.0
  0
SPLINE
  5
31F
100
AcDbEntity
  8
0
100
AcDbSpline
 62
6
  6
CONTINUOUS
 70
0
 71
3
 72
37
 73
33
 74
31
 42
0.0000001
 43
0.0000001
 44
0.0000000001
 12
0.1042538521
 22
-0.1042538521
 32
0.0
 13
0.1045714195
 23
0.1039353145
 33
0.0
 40
0.0
 40
0.0
 40
0.0
 40
0.0
 40
0.0699969606
 40
0.1042421298
 40
0.137949835
 40
0.1710986712
 40
0.2036679183
 40
0.2356465754
 40
0.2670337714
 40
0.2978335399
 40
0.328063118
 40
0.3577570359
 40
0.3869648937
 40
0.4157527466
 40
0.4442053259
 40
0.4724225897
 40
0.5005140639
 40
0.5285972677
 40
0.5567902434
 40
0.5852037236
 40
0.6139394476
 40
0.6430844556
 40
0.6727072589
 40
0.702859819
 40
0.7335788559
 40
0.764883605
 40
0.7967796729
 40
0.8292673745
 40
0.8623367367
 40
0.895967789
 40
0.9301395172
 40
1.0
 40
1.0
 40
1.0
 40
1.0
 10
6.7712423363
 20
1.8504764162
 30
0.0
 10
6.7736748206
 20
1.8480439319
 30
0.0
 10
6.7773754165
 20
1.8444973266
 30
0.0
 10
6.7824539637
 20
1.8400049454
 30
0.0
 10
6.7862706838
 20
1.8368223628
 30
0.0
 10
6.7901229522
 20
1.8338147889
 30
0.0
 10
6.7940113431
 20
1.8309961982
 30
0.0
 10
6.7979358699
 20
1.828380839
 30
0.0
 10
6.801896104
 20
1.8259832926
 30
0.0
 10
6.8058908248
 20
1.8238181204
 30
0.0
 10
6.8099183604
 20
1.821900189
 30
0.0
 10
6.8139767828
 20
1.820244924
 30
0.0
 10
6.8180623987
 20
1.8188646697
 30
0.0
 10
6.822171236
 20
1.8177712264
 30
0.0
 10
6.826299031
 20
1.8169772442
 30
0.0
 10
6.8304396654
 20
1.8164883545
 30
0.0
 10
6.8345872322
 20
1.8163092248
 30
0.0
 10
6.8387352675
 20
1.816444808
 30
0.0
 10
6.8428772329
 20
1.8168907091
 30
0.0
 10
6.8470071912
 20
1.8176424662
 30
0.0
 10
6.8511189336
 20
1.8186949871
 30
0.0
 10
6.8552080519
 20
1.8200359147
 30
0.0
 10
6.8592705025
 20
1.821653578
 30
0.0
 10
6.8633024505
 20
1.8235358921
 30
0.0
 10
6.8673018639
 20
1.8256674902
 30
0.0
 10
6.8712669924
 20
1.8280335227
 30
0.0
 10
6.8751965156
 20
1.8306194502
 30
0.0
 10
6.8790899462
 20
1.8334106253
 30
0.0
 10
6.8829472445
 20
1.8363927251
 30
0.0
 10
6.8867689276
 20
1.8395517002
 30
0.0
 10
6.8918543389
 20
1.8440150153
 30
0.0
 10
6.8955593227
 20
1.847542189
 30
0.0
 10
6.8979944593
 20
1.8499625127
 30
0.0
 11
6.7712423363
 21
1.8504764162
 31
0.0
 11
6.7787063866
 21
1.8433494542
 31
0.0
 11
6.7824899182
 21
1.8400061902
 31
0.0
 11
6.7863086724
 21
1.8368256666
 31
0.0
 11
6.7901630563
 21
1.8338206492
 31
0.0
 11
6.7940530495
 21
1.8310052667
 31
0.0
 11
6.7979785911
 21
1.8283937771
 31
0.0
 11
6.8019393299
 21
1.8260005354
 31
0.0
 11
6.8059336337
 21
1.8238403251
 31
0.0
 11
6.8099595162
 21
1.8219280478
 31
0.0
 11
6.8140147633
 21
1.8202782737
 31
0.0
 11
6.8180957599
 21
1.8189035367
 31
0.0
 11
6.8221983599
 21
1.8178155976
 31
0.0
 11
6.8263182302
 21
1.8170253867
 31
0.0
 11
6.8304499952
 21
1.8165391733
 31
0.0
 11
6.8345879154
 21
1.8163616006
 31
0.0
 11
6.8387262462
 21
1.8164958965
 31
0.0
 11
6.8428592222
 21
1.8169393061
 31
0.0
 11
6.8469810728
 21
1.8176874908
 31
0.0
 11
6.8510863491
 21
1.8187346112
 31
0.0
 11
6.8551706268
 21
1.820070047
 31
0.0
 11
6.859229686
 21
1.8216822274
 31
0.0
 11
6.8632597967
 21
1.8235588336
 31
0.0
 11
6.867258642
 21
1.8256853911
 31
0.0
 11
6.8712241583
 21
1.8280470391
 31
0.0
 11
6.8751546176
 21
1.8306290091
 31
0.0
 11
6.879049592
 21
1.8334168901
 31
0.0
 11
6.8829089678
 21
1.8363963573
 31
0.0
 11
6.8867326717
 21
1.8395532069
 31
0.0
 11
6.8905210662
 21
1.8428745574
 31
0.0
 11
6.8979944593
 21
1.8499625127
 31
0.0
  0
SPLINE
  5
320
100
AcDbEntity
  8
0
100
AcDbSpline
 62
6
  6
CONTINUOUS
 70
0
 71
3
 72
41
 73
37
 74
35
 42
0.0000001
 43
0.0000001
 44
0.0000000001
 12
0.3267337774
 22
-0.3267337774
 32
0.0
 13
0.3267337774
 23
0.3267337774
 33
0.0
 40
0.0
 40
0.0
 40
0.0
 40
0.0
 40
0.0352330202
 40
0.0699775857
 40
0.1042038256
 40
0.1378879984
 40
0.1710086997
 40
0.2035453775
 40
0.2354873688
 40
0.2668342747
 40
0.2975908446
 40
0.3277753149
 40
0.357423424
 40
0.3865862235
 40
0.4153313998
 40
0.4295759411
 40
0.4437499533
 40
0.4719343306
 40
0.5000000441
 40
0.5280657537
 40
0.5562501295
 40
0.570424142
 40
0.5846686823
 40
0.61341385
 40
0.6425766411
 40
0.6722247458
 40
0.702409207
 40
0.7331657656
 40
0.7645126656
 40
0.7964546507
 40
0.8289913169
 40
0.8621120073
 40
0.8957961745
 40
0.9300224131
 40
0.9647669792
 40
1.0
 40
1.0
 40
1.0
 40
1.0
 10
6.0513130948
 20
5.5236711994
 30
0.0
 10
6.0551503674
 20
5.5198339268
 30
0.0
 10
6.0628544539
 20
5.5122946554
 30
0.0
 10
6.0745940471
 20
5.5013478146
 30
0.0
 10
6.0864428604
 20
5.4908755273
 30
0.0
 10
6.0984023413
 20
5.4809157067
 30
0.0
 10
6.1104734285
 20
5.4715083181
 30
0.0
 10
6.122657676
 20
5.4626974606
 30
0.0
 10
6.1349550984
 20
5.4545280081
 30
0.0
 10
6.1473642593
 20
5.4470458937
 30
0.0
 10
6.1598812015
 20
5.4402968524
 30
0.0
 10
6.1725005383
 20
5.434327585
 30
0.0
 10
6.1852162118
 20
5.4291864913
 30
0.0
 10
6.1980159908
 20
5.4249120259
 30
0.0
 10
6.2087758769
 20
5.4220943158
 30
0.0
 10
6.2174010772
 20
5.4203178088
 30
0.0
 10
6.2259991654
 20
5.418866052
 30
0.0
 10
6.2367878177
 20
5.4176443413
 30
0.0
 10
6.2497772696
 20
5.4171500484
 30
0.0
 10
6.2627667224
 20
5.417644332
 30
0.0
 10
6.2735553719
 20
5.4188660625
 30
0.0
 10
6.2821534586
 20
5.4203178248
 30
0.0
 10
6.2907786598
 20
5.42209432
 30
0.0
 10
6.3015385443
 20
5.4249120271
 30
0.0
 10
6.3143383155
 20
5.4291865055
 30
0.0
 10
6.3270539859
 20
5.4343275971
 30
0.0
 10
6.3396733208
 20
5.4402968598
 30
0.0
 10
6.3521902575
 20
5.4470459028
 30
0.0
 10
6.3645994138
 20
5.4545280178
 30
0.0
 10
6.3768968332
 20
5.4626974682
 30
0.0
 10
6.3890810772
 20
5.471508323
 30
0.0
 10
6.4011521611
 20
5.4809157088
 30
0.0
 10
6.4131116396
 20
5.490875528
 30
0.0
 10
6.4249604522
 20
5.5013478146
 30
0.0
 10
6.4367000455
 20
5.5122946553
 30
0.0
 10
6.4444041322
 20
5.5198339267
 30
0.0
 10
6.4482414049
 20
5.5236711994
 30
0.0
 11
6.0513130948
 21
5.5236711994
 31
0.0
 11
6.062953754
 21
5.5122896815
 31
0.0
 11
6.0747008152
 21
5.5013465332
 31
0.0
 11
6.0865563244
 21
5.4908794417
 31
0.0
 11
6.0985223163
 21
5.4809261302
 31
0.0
 11
6.1106000043
 21
5.4715268881
 31
0.0
 11
6.1227892478
 21
5.4627262345
 31
0.0
 11
6.1350897801
 21
5.4545690832
 31
0.0
 11
6.1475003908
 21
5.4471006376
 31
0.0
 11
6.1600158212
 21
5.4403673429
 31
0.0
 11
6.1726297268
 21
5.4344159771
 31
0.0
 11
6.1853350155
 21
5.4292922015
 31
0.0
 11
6.1981201845
 21
5.4250350901
 31
0.0
 11
6.2109721201
 21
5.4216813114
 31
0.0
 11
6.2174189727
 21
5.4203543828
 31
0.0
 11
6.223877101
 21
5.4192647582
 31
0.0
 11
6.2368181653
 21
5.4178044801
 31
0.0
 11
6.2497772704
 21
5.4173145793
 31
0.0
 11
6.2627363739
 21
5.4178044763
 31
0.0
 11
6.2756774357
 21
5.4192647691
 31
0.0
 11
6.2821355637
 21
5.4203543968
 31
0.0
 11
6.2885824171
 21
5.4216813196
 31
0.0
 11
6.3014343496
 21
5.425035094
 31
0.0
 11
6.3142195121
 21
5.4292922128
 31
0.0
 11
6.3269247983
 21
5.4344159891
 31
0.0
 11
6.3395387009
 21
5.4403673515
 31
0.0
 11
6.3520541254
 21
5.4471006461
 31
0.0
 11
6.3644647324
 21
5.4545690925
 31
0.0
 11
6.376765262
 21
5.4627262425
 31
0.0
 11
6.3889545013
 21
5.4715268929
 31
0.0
 11
6.4010321854
 21
5.4809261318
 31
0.0
 11
6.4129981752
 21
5.4908794419
 31
0.0
 11
6.4248536839
 21
5.501346533
 31
0.0
 11
6.4366007454
 21
5.5122896814
 31
0.0
 11
6.4482414049
 21
5.5236711994
 31
0.0
  0
SPLINE
  5
321
100
AcDbEntity
  8
0
100
AcDbSpline
 62
6
  6
CONTINUOUS
 70
0
 71
3
 72
41
 73
37
 74
35
 42
0.0000001
 43
0.0000001
 44
0.0000000001
 12
0.3267337774
 22
0.3267337774
 32
0.0
 13
0.3267337774
 23
-0.3267337774
 33
0.0
 40
0.0
 40
0.0
 40
0.0
 40
0.0
 40
0.0352330202
 40
0.0699775857
 40
0.1042038256
 40
0.1378879984
 40
0.1710086997
 40
0.2035453775
 40
0.2354873688
 40
0.2668342747
 40
0.2975908446
 40
0.3277753149
 40
0.357423424
 40
0.3865862235
 40
0.4153313998
 40
0.4295759411
 40
0.4437499533
 40
0.4719343306
 40
0.5000000441
 40
0.5280657537
 40
0.5562501295
 40
0.570424142
 40
0.5846686823
 40
0.61341385
 40
0.6425766411
 40
0.6722247458
 40
0.702409207
 40
0.7331657656
 40
0.7645126656
 40
0.7964546507
 40
0.8289913169
 40
0.8621120073
 40
0.8957961745
 40
0.9300224131
 40
0.9647669792
 40
1.0
 40
1.0
 40
1.0
 40
1.0
 10
6.0513130948
 20
5.6709579591
 30
0.0
 10
6.0551503674
 20
5.6747952317
 30
0.0
 10
6.0628544539
 20
5.6823345031
 30
0.0
 10
6.0745940471
 20
5.6932813439
 30
0.0
 10
6.0864428604
 20
5.7037536312
 30
0.0
 10
6.0984023413
 20
5.7137134518
 30
0.0
 10
6.1104734285
 20
5.7231208404
 30
0.0
 10
6.122657676
 20
5.7319316979
 30
0.0
 10
6.1349550984
 20
5.7401011504
 30
0.0
 10
6.1473642593
 20
5.7475832648
 30
0.0
 10
6.1598812015
 20
5.7543323061
 30
0.0
 10
6.1725005383
 20
5.7603015735
 30
0.0
 10
6.1852162118
 20
5.7654426672
 30
0.0
 10
6.1980159908
 20
5.7697171326
 30
0.0
 10
6.2087758769
 20
5.7725348427
 30
0.0
 10
6.2174010772
 20
5.7743113497
 30
0.0
 10
6.2259991654
 20
5.7757631065
 30
0.0
 10
6.2367878177
 20
5.7769848172
 30
0.0
 10
6.2497772696
 20
5.7774791101
 30
0.0
 10
6.2627667224
 20
5.7769848266
 30
0.0
 10
6.2735553719
 20
5.775763096
 30
0.0
 10
6.2821534586
 20
5.7743113337
 30
0.0
 10
6.2907786598
 20
5.7725348385
 30
0.0
 10
6.3015385443
 20
5.7697171314
 30
0.0
 10
6.3143383155
 20
5.765442653
 30
0.0
 10
6.3270539859
 20
5.7603015614
 30
0.0
 10
6.3396733208
 20
5.7543322987
 30
0.0
 10
6.3521902575
 20
5.7475832557
 30
0.0
 10
6.3645994138
 20
5.7401011408
 30
0.0
 10
6.3768968332
 20
5.7319316903
 30
0.0
 10
6.3890810772
 20
5.7231208356
 30
0.0
 10
6.4011521611
 20
5.7137134497
 30
0.0
 10
6.4131116396
 20
5.7037536305
 30
0.0
 10
6.4249604522
 20
5.6932813439
 30
0.0
 10
6.4367000455
 20
5.6823345032
 30
0.0
 10
6.4444041322
 20
5.6747952318
 30
0.0
 10
6.4482414049
 20
5.6709579591
 30
0.0
 11
6.0513130948
 21
5.6709579591
 31
0.0
 11
6.062953754
 21
5.682339477
 31
0.0
 11
6.0747008152
 21
5.6932826253
 31
0.0
 11
6.0865563244
 21
5.7037497168
 31
0.0
 11
6.0985223163
 21
5.7137030284
 31
0.0
 11
6.1106000043
 21
5.7231022704
 31
0.0
 11
6.1227892478
 21
5.731902924
 31
0.0
 11
6.1350897801
 21
5.7400600753
 31
0.0
 11
6.1475003908
 21
5.7475285209
 31
0.0
 11
6.1600158212
 21
5.7542618156
 31
0.0
 11
6.1726297268
 21
5.7602131814
 31
0.0
 11
6.1853350155
 21
5.7653369571
 31
0.0
 11
6.1981201845
 21
5.7695940684
 31
0.0
 11
6.2109721201
 21
5.7729478471
 31
0.0
 11
6.2174189727
 21
5.7742747757
 31
0.0
 11
6.223877101
 21
5.7753644003
 31
0.0
 11
6.2368181653
 21
5.7768246784
 31
0.0
 11
6.2497772704
 21
5.7773145792
 31
0.0
 11
6.2627363739
 21
5.7768246823
 31
0.0
 11
6.2756774357
 21
5.7753643894
 31
0.0
 11
6.2821355637
 21
5.7742747618
 31
0.0
 11
6.2885824171
 21
5.7729478389
 31
0.0
 11
6.3014343496
 21
5.7695940645
 31
0.0
 11
6.3142195121
 21
5.7653369457
 31
0.0
 11
6.3269247983
 21
5.7602131694
 31
0.0
 11
6.3395387009
 21
5.754261807
 31
0.0
 11
6.3520541254
 21
5.7475285124
 31
0.0
 11
6.3644647324
 21
5.7400600661
 31
0.0
 11
6.376765262
 21
5.731902916
 31
0.0
 11
6.3889545013
 21
5.7231022656
 31
0.0
 11
6.4010321854
 21
5.7137030267
 31
0.0
 11
6.4129981752
 21
5.7037497166
 31
0.0
 11
6.4248536839
 21
5.6932826255
 31
0.0
 11
6.4366007454
 21
5.6823394771
 31
0.0
 11
6.4482414049
 21
5.6709579591
 31
0.0
  0
SPLINE
  5
322
100
AcDbEntity
  8
0
100
AcDbSpline
 62
6
  6
CONTINUOUS
 70
0
 71
3
 72
33
 73
29
 74
27
 42
0.0000001
 43
0.0000001
 44
0.0000000001
 12
0.7418559145
 22
-0.3709279572
 32
0.0
 13
0.7418559145
 23
0.3709279572
 33
0.0
 40
0.0
 40
0.0
 40
0.0
 40
0.0
 40
0.062489251
 40
0.0937382787
 40
0.1249881405
 40
0.1874825029
 40
0.2187310444
 40
0.2499823585
 40
0.3124774496
 40
0.3437306198
 40
0.3749841309
 40
0.4062369828
 40
0.437491161
 40
0.4687458768
 40
0.5000000494
 40
0.5312542181
 40
0.5625089291
 40
0.5937631079
 40
0.6250159518
 40
0.6562694488
 40
0.6875226134
 40
0.7500176827
 40
0.7812689886
 40
0.8125175235
 40
0.8750118648
 40
0.9062617213
 40
0.9375107476
 40
1.0
 40
1.0
 40
1.0
 40
1.0
 10
5.2574564747
 20
5.5236711994
 30
0.0
 10
5.2729091481
 20
5.5159448627
 30
0.0
 10
5.2962949785
 20
5.5047570902
 30
0.0
 10
5.3279064524
 20
5.4907937286
 30
0.0
 10
5.3598127554
 20
5.4775147483
 30
0.0
 10
5.3921720633
 20
5.4653401986
 30
0.0
 10
5.4249742856
 20
5.4544539101
 30
0.0
 10
5.4580670131
 20
5.4444870579
 30
0.0
 10
5.491591981
 20
5.4359867983
 30
0.0
 10
5.5254735545
 20
5.4291477478
 30
0.0
 10
5.5510480826
 20
5.4248846261
 30
0.0
 10
5.5767572334
 20
5.4215244132
 30
0.0
 10
5.6025726536
 20
5.4191053134
 30
0.0
 10
5.628460328
 20
5.4176427788
 30
0.0
 10
5.6543848246
 20
5.4171504835
 30
0.0
 10
5.6803093206
 20
5.4176427687
 30
0.0
 10
5.7061969912
 20
5.4191053306
 30
0.0
 10
5.7320124086
 20
5.4215244206
 30
0.0
 10
5.7577215547
 20
5.4248846259
 30
0.0
 10
5.7832960725
 20
5.4291477626
 30
0.0
 10
5.8171776349
 20
5.4359868087
 30
0.0
 10
5.8507025936
 20
5.4444870656
 30
0.0
 10
5.8837953098
 20
5.4544539202
 30
0.0
 10
5.9165975227
 20
5.4653402053
 30
0.0
 10
5.9489568222
 20
5.4775147514
 30
0.0
 10
5.9808631179
 20
5.4907937294
 30
0.0
 10
6.0124745904
 20
5.5047570903
 30
0.0
 10
6.035860421
 20
5.5159448625
 30
0.0
 10
6.0513130948
 20
5.5236711994
 30
0.0
 11
5.2574564747
 21
5.5236711994
 31
0.0
 11
5.3042319154
 21
5.5013465332
 31
0.0
 11
5.3279429338
 21
5.4908794417
 31
0.0
 11
5.3518749177
 21
5.4809261302
 31
0.0
 11
5.4004087807
 21
5.4627262345
 31
0.0
 11
5.4250098453
 21
5.4545690832
 31
0.0
 11
5.4498310667
 21
5.4471006376
 31
0.0
 11
5.5000897387
 21
5.4344159771
 31
0.0
 11
5.525500316
 21
5.4292922015
 31
0.0
 11
5.551070654
 21
5.4250350901
 31
0.0
 11
5.5767745252
 21
5.4216813114
 31
0.0
 11
5.6025844871
 21
5.4192647582
 31
0.0
 11
5.6284666156
 21
5.4178044801
 31
0.0
 11
5.6543848258
 21
5.4173145793
 31
0.0
 11
5.6803030328
 21
5.4178044763
 31
0.0
 11
5.7061851565
 21
5.4192647691
 31
0.0
 11
5.7319951192
 21
5.4216813196
 31
0.0
 11
5.7576989844
 21
5.425035094
 31
0.0
 11
5.7832693092
 21
5.4292922128
 31
0.0
 11
5.8086798817
 21
5.4344159891
 31
0.0
 11
5.8589385358
 21
5.4471006461
 31
0.0
 11
5.8837597498
 21
5.4545690925
 31
0.0
 11
5.9083608091
 21
5.4627262425
 31
0.0
 11
5.9568946558
 21
5.4809261318
 31
0.0
 11
5.9808266355
 21
5.4908794419
 31
0.0
 11
6.004537653
 21
5.501346533
 31
0.0
 11
6.0513130948
 21
5.5236711994
 31
0.0
  0
SPLINE
  5
323
100
AcDbEntity
  8
0
100
AcDbSpline
 62
6
  6
CONTINUOUS
 70
0
 71
3
 72
33
 73
29
 74
27
 42
0.0000001
 43
0.0000001
 44
0.0000000001
 12
0.7418559145
 22
0.3709279572
 32
0.0
 13
0.7418559145
 23
-0.3709279572
 33
0.0
 40
0.0
 40
0.0
 40
0.0
 40
0.0
 40
0.062489251
 40
0.0937382787
 40
0.1249881405
 40
0.1874825029
 40
0.2187310444
 40
0.2499823585
 40
0.3124774496
 40
0.3437306198
 40
0.3749841309
 40
0.4062369828
 40
0.437491161
 40
0.4687458768
 40
0.5000000494
 40
0.5312542181
 40
0.5625089291
 40
0.5937631079
 40
0.6250159518
 40
0.6562694488
 40
0.6875226134
 40
0.7500176827
 40
0.7812689886
 40
0.8125175235
 40
0.8750118648
 40
0.9062617213
 40
0.9375107476
 40
1.0
 40
1.0
 40
1.0
 40
1.0
 10
5.2574564747
 20
5.6709579591
 30
0.0
 10
5.2729091481
 20
5.6786842959
 30
0.0
 10
5.2962949785
 20
5.6898720683
 30
0.0
 10
5.3279064524
 20
5.7038354299
 30
0.0
 10
5.3598127554
 20
5.7171144102
 30
0.0
 10
5.3921720633
 20
5.72928896
 30
0.0
 10
5.4249742856
 20
5.7401752484
 30
0.0
 10
5.4580670131
 20
5.7501421006
 30
0.0
 10
5.491591981
 20
5.7586423603
 30
0.0
 10
5.5254735545
 20
5.7654814107
 30
0.0
 10
5.5510480826
 20
5.7697445324
 30
0.0
 10
5.5767572334
 20
5.7731047454
 30
0.0
 10
5.6025726536
 20
5.7755238451
 30
0.0
 10
5.628460328
 20
5.7769863797
 30
0.0
 10
5.6543848246
 20
5.777478675
 30
0.0
 10
5.6803093206
 20
5.7769863898
 30
0.0
 10
5.7061969912
 20
5.7755238279
 30
0.0
 10
5.7320124086
 20
5.7731047379
 30
0.0
 10
5.7577215547
 20
5.7697445326
 30
0.0
 10
5.7832960725
 20
5.7654813959
 30
0.0
 10
5.8171776349
 20
5.7586423498
 30
0.0
 10
5.8507025936
 20
5.7501420929
 30
0.0
 10
5.8837953098
 20
5.7401752383
 30
0.0
 10
5.9165975227
 20
5.7292889532
 30
0.0
 10
5.9489568222
 20
5.7171144071
 30
0.0
 10
5.9808631179
 20
5.7038354291
 30
0.0
 10
6.0124745904
 20
5.6898720682
 30
0.0
 10
6.035860421
 20
5.678684296
 30
0.0
 10
6.0513130948
 20
5.6709579591
 30
0.0
 11
5.2574564747
 21
5.6709579591
 31
0.0
 11
5.3042319154
 21
5.6932826253
 31
0.0
 11
5.3279429338
 21
5.7037497168
 31
0.0
 11
5.3518749177
 21
5.7137030284
 31
0.0
 11
5.4004087807
 21
5.731902924
 31
0.0
 11
5.4250098453
 21
5.7400600753
 31
0.0
 11
5.4498310667
 21
5.7475285209
 31
0.0
 11
5.5000897387
 21
5.7602131814
 31
0.0
 11
5.525500316
 21
5.7653369571
 31
0.0
 11
5.551070654
 21
5.7695940684
 31
0.0
 11
5.5767745252
 21
5.7729478471
 31
0.0
 11
5.6025844871
 21
5.7753644003
 31
0.0
 11
5.6284666156
 21
5.7768246784
 31
0.0
 11
5.6543848258
 21
5.7773145792
 31
0.0
 11
5.6803030328
 21
5.7768246823
 31
0.0
 11
5.7061851565
 21
5.7753643894
 31
0.0
 11
5.7319951192
 21
5.7729478389
 31
0.0
 11
5.7576989844
 21
5.7695940645
 31
0.0
 11
5.7832693092
 21
5.7653369457
 31
0.0
 11
5.8086798817
 21
5.7602131694
 31
0.0
 11
5.8589385358
 21
5.7475285124
 31
0.0
 11
5.8837597498
 21
5.7400600661
 31
0.0
 11
5.9083608091
 21
5.731902916
 31
0.0
 11
5.9568946558
 21
5.7137030267
 31
0.0
 11
5.9808266355
 21
5.7037497166
 31
0.0
 11
6.004537653
 21
5.6932826255
 31
0.0
 11
6.0513130948
 21
5.6709579591
 31
0.0
  0
SPLINE
  5
324
100
AcDbEntity
  8
0
100
AcDbSpline
 62
6
  6
CONTINUOUS
 70
0
 71
3
 72
37
 73
33
 74
31
 42
0.0000001
 43
0.0000001
 44
0.0000000001
 12
0.1042538521
 22
-0.1042538521
 32
0.0
 13
0.1045714195
 23
0.1039353145
 33
0.0
 40
0.0
 40
0.0
 40
0.0
 40
0.0
 40
0.0699969606
 40
0.1042421298
 40
0.137949835
 40
0.1710986712
 40
0.2036679183
 40
0.2356465754
 40
0.2670337714
 40
0.2978335399
 40
0.328063118
 40
0.3577570359
 40
0.3869648937
 40
0.4157527466
 40
0.4442053259
 40
0.4724225897
 40
0.5005140639
 40
0.5285972677
 40
0.5567902434
 40
0.5852037236
 40
0.6139394476
 40
0.6430844556
 40
0.6727072589
 40
0.702859819
 40
0.7335788559
 40
0.764883605
 40
0.7967796729
 40
0.8292673745
 40
0.8623367367
 40
0.895967789
 40
0.9301395172
 40
1.0
 40
1.0
 40
1.0
 40
1.0
 10
4.0312035592
 20
1.8504764162
 30
0.0
 10
4.0336360435
 20
1.8480439319
 30
0.0
 10
4.0373366394
 20
1.8444973266
 30
0.0
 10
4.0424151866
 20
1.8400049454
 30
0.0
 10
4.0462319067
 20
1.8368223628
 30
0.0
 10
4.0500841751
 20
1.8338147889
 30
0.0
 10
4.053972566
 20
1.8309961982
 30
0.0
 10
4.0578970928
 20
1.828380839
 30
0.0
 10
4.0618573269
 20
1.8259832926
 30
0.0
 10
4.0658520477
 20
1.8238181204
 30
0.0
 10
4.0698795833
 20
1.821900189
 30
0.0
 10
4.0739380057
 20
1.820244924
 30
0.0
 10
4.0780236216
 20
1.8188646697
 30
0.0
 10
4.0821324589
 20
1.8177712264
 30
0.0
 10
4.0862602539
 20
1.8169772442
 30
0.0
 10
4.0904008883
 20
1.8164883545
 30
0.0
 10
4.0945484551
 20
1.8163092248
 30
0.0
 10
4.0986964904
 20
1.816444808
 30
0.0
 10
4.1028384558
 20
1.8168907091
 30
0.0
 10
4.1069684141
 20
1.8176424662
 30
0.0
 10
4.1110801565
 20
1.8186949871
 30
0.0
 10
4.1151692748
 20
1.8200359147
 30
0.0
 10
4.1192317254
 20
1.821653578
 30
0.0
 10
4.1232636734
 20
1.8235358921
 30
0.0
 10
4.1272630868
 20
1.8256674902
 30
0.0
 10
4.1312282153
 20
1.8280335227
 30
0.0
 10
4.1351577385
 20
1.8306194502
 30
0.0
 10
4.1390511691
 20
1.8334106253
 30
0.0
 10
4.1429084674
 20
1.8363927251
 30
0.0
 10
4.1467301505
 20
1.8395517002
 30
0.0
 10
4.1518155618
 20
1.8440150153
 30
0.0
 10
4.1555205456
 20
1.847542189
 30
0.0
 10
4.1579556822
 20
1.8499625127
 30
0.0
 11
4.0312035592
 21
1.8504764162
 31
0.0
 11
4.0386676095
 21
1.8433494542
 31
0.0
 11
4.0424511411
 21
1.8400061902
 31
0.0
 11
4.0462698953
 21
1.8368256666
 31
0.0
 11
4.0501242792
 21
1.8338206492
 31
0.0
 11
4.0540142724
 21
1.8310052667
 31
0.0
 11
4.057939814
 21
1.8283937771
 31
0.0
 11
4.0619005528
 21
1.8260005354
 31
0.0
 11
4.0658948566
 21
1.8238403251
 31
0.0
 11
4.0699207391
 21
1.8219280478
 31
0.0
 11
4.0739759862
 21
1.8202782737
 31
0.0
 11
4.0780569828
 21
1.8189035367
 31
0.0
 11
4.0821595828
 21
1.8178155976
 31
0.0
 11
4.0862794531
 21
1.8170253867
 31
0.0
 11
4.0904112181
 21
1.8165391733
 31
0.0
 11
4.0945491383
 21
1.8163616006
 31
0.0
 11
4.0986874691
 21
1.8164958965
 31
0.0
 11
4.1028204451
 21
1.8169393061
 31
0.0
 11
4.1069422957
 21
1.8176874908
 31
0.0
 11
4.111047572
 21
1.8187346112
 31
0.0
 11
4.1151318497
 21
1.820070047
 31
0.0
 11
4.1191909089
 21
1.8216822274
 31
0.0
 11
4.1232210196
 21
1.8235588336
 31
0.0
 11
4.1272198649
 21
1.8256853911
 31
0.0
 11
4.1311853812
 21
1.8280470391
 31
0.0
 11
4.1351158406
 21
1.8306290091
 31
0.0
 11
4.1390108149
 21
1.8334168901
 31
0.0
 11
4.1428701907
 21
1.8363963573
 31
0.0
 11
4.1466938946
 21
1.8395532069
 31
0.0
 11
4.1504822891
 21
1.8428745574
 31
0.0
 11
4.1579556822
 21
1.8499625127
 31
0.0
  0
SPLINE
  5
325
100
AcDbEntity
  8
0
100
AcDbSpline
 62
6
  6
CONTINUOUS
 70
0
 71
3
 72
37
 73
33
 74
31
 42
0.0000001
 43
0.0000001
 44
0.0000000001
 12
0.1042538521
 22
-0.1042538521
 32
0.0
 13
0.1045714195
 23
0.1039353145
 33
0.0
 40
0.0
 40
0.0
 40
0.0
 40
0.0
 40
0.0699969606
 40
0.1042421298
 40
0.137949835
 40
0.1710986712
 40
0.2036679183
 40
0.2356465754
 40
0.2670337714
 40
0.2978335399
 40
0.328063118
 40
0.3577570359
 40
0.3869648937
 40
0.4157527466
 40
0.4442053259
 40
0.4724225897
 40
0.5005140639
 40
0.5285972677
 40
0.5567902434
 40
0.5852037236
 40
0.6139394476
 40
0.6430844556
 40
0.6727072589
 40
0.702859819
 40
0.7335788559
 40
0.764883605
 40
0.7967796729
 40
0.8292673745
 40
0.8623367367
 40
0.895967789
 40
0.9301395172
 40
1.0
 40
1.0
 40
1.0
 40
1.0
 10
6.142672098
 20
1.8504764162
 30
0.0
 10
6.1451045823
 20
1.8480439319
 30
0.0
 10
6.1488051781
 20
1.8444973266
 30
0.0
 10
6.1538837254
 20
1.8400049454
 30
0.0
 10
6.1577004455
 20
1.8368223628
 30
0.0
 10
6.1615527138
 20
1.8338147889
 30
0.0
 10
6.1654411047
 20
1.8309961982
 30
0.0
 10
6.1693656316
 20
1.828380839
 30
0.0
 10
6.1733258657
 20
1.8259832926
 30
0.0
 10
6.1773205864
 20
1.8238181204
 30
0.0
 10
6.181348122
 20
1.821900189
 30
0.0
 10
6.1854065445
 20
1.820244924
 30
0.0
 10
6.1894921604
 20
1.8188646697
 30
0.0
 10
6.1936009977
 20
1.8177712264
 30
0.0
 10
6.1977287927
 20
1.8169772442
 30
0.0
 10
6.201869427
 20
1.8164883545
 30
0.0
 10
6.2060169939
 20
1.8163092248
 30
0.0
 10
6.2101650292
 20
1.816444808
 30
0.0
 10
6.2143069945
 20
1.8168907091
 30
0.0
 10
6.2184369529
 20
1.8176424662
 30
0.0
 10
6.2225486953
 20
1.8186949871
 30
0.0
 10
6.2266378136
 20
1.8200359147
 30
0.0
 10
6.2307002641
 20
1.821653578
 30
0.0
 10
6.2347322121
 20
1.8235358921
 30
0.0
 10
6.2387316255
 20
1.8256674902
 30
0.0
 10
6.242696754
 20
1.8280335227
 30
0.0
 10
6.2466262773
 20
1.8306194502
 30
0.0
 10
6.2505197078
 20
1.8334106253
 30
0.0
 10
6.2543770062
 20
1.8363927251
 30
0.0
 10
6.2581986892
 20
1.8395517002
 30
0.0
 10
6.2632841006
 20
1.8440150153
 30
0.0
 10
6.2669890843
 20
1.847542189
 30
0.0
 10
6.2694242209
 20
1.8499625127
 30
0.0
 11
6.142672098
 21
1.8504764162
 31
0.0
 11
6.1501361483
 21
1.8433494542
 31
0.0
 11
6.1539196798
 21
1.8400061902
 31
0.0
 11
6.1577384341
 21
1.8368256666
 31
0.0
 11
6.161592818
 21
1.8338206492
 31
0.0
 11
6.1654828112
 21
1.8310052667
 31
0.0
 11
6.1694083527
 21
1.8283937771
 31
0.0
 11
6.1733690916
 21
1.8260005354
 31
0.0
 11
6.1773633954
 21
1.8238403251
 31
0.0
 11
6.1813892779
 21
1.8219280478
 31
0.0
 11
6.1854445249
 21
1.8202782737
 31
0.0
 11
6.1895255216
 21
1.8189035367
 31
0.0
 11
6.1936281216
 21
1.8178155976
 31
0.0
 11
6.1977479918
 21
1.8170253867
 31
0.0
 11
6.2018797569
 21
1.8165391733
 31
0.0
 11
6.2060176771
 21
1.8163616006
 31
0.0
 11
6.2101560079
 21
1.8164958965
 31
0.0
 11
6.2142889839
 21
1.8169393061
 31
0.0
 11
6.2184108345
 21
1.8176874908
 31
0.0
 11
6.2225161107
 21
1.8187346112
 31
0.0
 11
6.2266003885
 21
1.820070047
 31
0.0
 11
6.2306594476
 21
1.8216822274
 31
0.0
 11
6.2346895583
 21
1.8235588336
 31
0.0
 11
6.2386884037
 21
1.8256853911
 31
0.0
 11
6.24265392
 21
1.8280470391
 31
0.0
 11
6.2465843793
 21
1.8306290091
 31
0.0
 11
6.2504793536
 21
1.8334168901
 31
0.0
 11
6.2543387295
 21
1.8363963573
 31
0.0
 11
6.2581624333
 21
1.8395532069
 31
0.0
 11
6.2619508278
 21
1.8428745574
 31
0.0
 11
6.2694242209
 21
1.8499625127
 31
0.0
  0
SPLINE
  5
326
100
AcDbEntity
  8
0
100
AcDbSpline
 62
6
  6
CONTINUOUS
 70
0
 71
3
 72
26
 73
22
 74
20
 42
0.0000001
 43
0.0000001
 44
0.0000000001
 12
0.0861333233
 22
-0.0249164666
 32
0.0
 13
0.0635957317
 23
0.0632088807
 33
0.0
 40
0.0
 40
0.0
 40
0.0
 40
0.0
 40
0.0293462098
 40
0.058467984
 40
0.1161758759
 40
0.1734664446
 40
0.2020754164
 40
0.2307175026
 40
0.2882662058
 40
0.3172726987
 40
0.346482122
 40
0.4056355679
 40
0.4659708956
 40
0.5276530251
 40
0.5907854292
 40
0.6554077321
 40
0.7215254116
 40
0.7891100523
 40
0.8580987114
 40
0.9284239704
 40
1.0
 40
1.0
 40
1.0
 40
1.0
 10
6.6174725177
 20
1.8187001973
 30
0.0
 10
6.6183150799
 20
1.8184564627
 30
0.0
 10
6.6200039727
 20
1.8180051783
 30
0.0
 10
6.6233947126
 20
1.817253121
 30
0.0
 10
6.6276584551
 20
1.8165988065
 30
0.0
 10
6.6319492698
 20
1.8163377059
 30
0.0
 10
6.6353736888
 20
1.8163708101
 30
0.0
 10
6.6388004265
 20
1.8165638069
 30
0.0
 10
6.6422219773
 20
1.8169955034
 30
0.0
 10
6.645619014
 20
1.8176570721
 30
0.0
 10
6.6490306981
 20
1.8184776366
 30
0.0
 10
6.6532823455
 20
1.8197903023
 30
0.0
 10
6.6583209719
 20
1.8217867573
 30
0.0
 10
6.6633114913
 20
1.8241877178
 30
0.0
 10
6.6682501526
 20
1.8269636113
 30
0.0
 10
6.67313432
 20
1.8300866531
 30
0.0
 10
6.677962647
 20
1.8335290011
 30
0.0
 10
6.6827351955
 20
1.8372632287
 30
0.0
 10
6.6874530967
 20
1.8412630763
 30
0.0
 10
6.6921167869
 20
1.8455049205
 30
0.0
 10
6.6951653694
 20
1.8484544325
 30
0.0
 10
6.6966826794
 20
1.8499625127
 30
0.0
 11
6.6174725177
 21
1.8187001973
 31
0.0
 11
6.6200148818
 21
1.8180217849
 31
0.0
 11
6.6225642814
 21
1.817457055
 31
0.0
 11
6.6276793199
 21
1.8166757345
 31
0.0
 11
6.6328069264
 21
1.816366073
 31
0.0
 11
6.6353720265
 21
1.8163907029
 31
0.0
 11
6.6379361639
 21
1.8165348774
 31
0.0
 11
6.6430560563
 21
1.8171777394
 31
0.0
 11
6.6456090642
 21
1.8176743616
 31
0.0
 11
6.6481556965
 21
1.8182860205
 31
0.0
 11
6.6532256815
 21
1.8198440603
 31
0.0
 11
6.6582579319
 21
1.8218300317
 31
0.0
 11
6.6632454625
 21
1.824220297
 31
0.0
 11
6.6681839332
 21
1.8269871834
 31
0.0
 11
6.6730695892
 21
1.83010244
 31
0.0
 11
6.6779007879
 21
1.8335383967
 31
0.0
 11
6.6826772881
 21
1.8372677687
 31
0.0
 11
6.6873990921
 21
1.841263939
 31
0.0
 11
6.6920671521
 21
1.845503171
 31
0.0
 11
6.6966826794
 21
1.8499625127
 31
0.0
  0
SPLINE
  5
327
100
AcDbEntity
  8
0
100
AcDbSpline
 62
6
  6
CONTINUOUS
 70
0
 71
3
 72
35
 73
31
 74
29
 42
0.0000001
 43
0.0000001
 44
0.0000000001
 12
0.1000820451
 22
-0.0854878895
 32
0.0
 13
0.0933549692
 23
0.0927870935
 33
0.0
 40
0.0
 40
0.0
 40
0.0
 40
0.0
 40
0.034091372
 40
0.0676719829
 40
0.1007241817
 40
0.1332374489
 40
0.1652096028
 40
0.1966422485
 40
0.2579164508
 40
0.287830671
 40
0.3173121732
 40
0.3464181024
 40
0.3752196472
 40
0.4037992842
 40
0.4322466398
 40
0.4606576522
 40
0.4891309535
 40
0.5177607391
 40
0.5466350453
 40
0.5758340138
 40
0.6054249136
 40
0.6354612558
 40
0.6659845895
 40
0.6970251435
 40
0.7285999477
 40
0.7933600058
 40
0.8265535837
 40
0.8602710958
 40
0.9292005676
 40
1.0
 40
1.0
 40
1.0
 40
1.0
 10
5.8969019156
 20
1.839717706
 30
0.0
 10
5.898039227
 20
1.8387462395
 30
0.0
 10
5.9003223981
 20
1.8368475276
 30
0.0
 10
5.903801359
 20
1.8341213659
 30
0.0
 10
5.9073097552
 20
1.8315483281
 30
0.0
 10
5.9108475289
 20
1.8291389428
 30
0.0
 10
5.9144147249
 20
1.8269038014
 30
0.0
 10
5.91916764
 20
1.8241938776
 30
0.0
 10
5.9240188574
 20
1.8218441744
 30
0.0
 10
5.9289550182
 20
1.8199237703
 30
0.0
 10
5.9326494342
 20
1.8187212429
 30
0.0
 10
5.936362082
 20
1.8177541117
 30
0.0
 10
5.940089899
 20
1.817031522
 30
0.0
 10
5.9438283816
 20
1.8165575673
 30
0.0
 10
5.9475732057
 20
1.8163355113
 30
0.0
 10
5.9513198394
 20
1.8163696099
 30
0.0
 10
5.955063404
 20
1.8166585334
 30
0.0
 10
5.9587995246
 20
1.8171983786
 30
0.0
 10
5.9625236892
 20
1.817986439
 30
0.0
 10
5.9662317925
 20
1.8190167047
 30
0.0
 10
5.9699208438
 20
1.8202798343
 30
0.0
 10
5.9735878058
 20
1.8217674044
 30
0.0
 10
5.9772299139
 20
1.8234703224
 30
0.0
 10
5.980845766
 20
1.8253772517
 30
0.0
 10
5.9856701931
 20
1.8282008109
 30
0.0
 10
5.9903948205
 20
1.8313703924
 30
0.0
 10
5.9950238212
 20
1.834827647
 30
0.0
 10
5.9996863446
 20
1.8385414513
 30
0.0
 10
6.0054333175
 20
1.8435352831
 30
0.0
 10
6.0098664531
 20
1.8477727549
 30
0.0
 10
6.0120696127
 20
1.8499625127
 30
0.0
 11
5.8969019156
 21
1.839717706
 31
0.0
 11
5.9003533818
 21
1.8368502332
 31
0.0
 11
5.9038339384
 21
1.8341259105
 31
0.0
 11
5.9073435673
 21
1.8315551671
 31
0.0
 11
5.9108822235
 21
1.8291485182
 31
0.0
 11
5.9144498019
 21
1.8269164993
 31
0.0
 11
5.9180454058
 21
1.8248699103
 31
0.0
 11
5.9253148639
 21
1.8213769669
 31
0.0
 11
5.9289853404
 21
1.819951941
 31
0.0
 11
5.9326760922
 21
1.8187535343
 31
0.0
 11
5.9363840605
 21
1.8177904194
 31
0.0
 11
5.9401060414
 21
1.8170706198
 31
0.0
 11
5.9438380582
 21
1.816598704
 31
0.0
 11
5.9475758779
 21
1.8163780957
 31
0.0
 11
5.9513152661
 21
1.8164118578
 31
0.0
 11
5.9550519752
 21
1.8166991815
 31
0.0
 11
5.9587817494
 21
1.8172369009
 31
0.0
 11
5.9625003529
 21
1.8180217225
 31
0.0
 11
5.9662040788
 21
1.8190478873
 31
0.0
 11
5.9698897863
 21
1.8203069921
 31
0.0
 11
5.9735543648
 21
1.8217905013
 31
0.0
 11
5.9771951434
 21
1.823489208
 31
0.0
 11
5.9808104594
 21
1.8253923672
 31
0.0
 11
5.9843987908
 21
1.8274890191
 31
0.0
 11
5.9914897186
 21
1.8322193211
 31
0.0
 11
5.994991697
 21
1.8348317188
 31
0.0
 11
5.9984645725
 21
1.8375948617
 31
0.0
 11
6.0053235049
 21
1.8435336252
 31
0.0
 11
6.0120696127
 21
1.8499625127
 31
0.0
  0
SPLINE
  5
328
100
AcDbEntity
  8
0
100
AcDbSpline
 62
6
  6
CONTINUOUS
 70
0
 71
3
 72
37
 73
33
 74
31
 42
0.0000001
 43
0.0000001
 44
0.0000000001
 12
0.1042538521
 22
-0.1042538521
 32
0.0
 13
0.1045714195
 23
0.1039353145
 33
0.0
 40
0.0
 40
0.0
 40
0.0
 40
0.0
 40
0.0699969606
 40
0.1042421298
 40
0.137949835
 40
0.1710986712
 40
0.2036679183
 40
0.2356465754
 40
0.2670337714
 40
0.2978335399
 40
0.328063118
 40
0.3577570359
 40
0.3869648937
 40
0.4157527466
 40
0.4442053259
 40
0.4724225897
 40
0.5005140639
 40
0.5285972677
 40
0.5567902434
 40
0.5852037236
 40
0.6139394476
 40
0.6430844556
 40
0.6727072589
 40
0.702859819
 40
0.7335788559
 40
0.764883605
 40
0.7967796729
 40
0.8292673745
 40
0.8623367367
 40
0.895967789
 40
0.9301395172
 40
1.0
 40
1.0
 40
1.0
 40
1.0
 10
3.6112063536
 20
1.8504764162
 30
0.0
 10
3.6136388378
 20
1.8480439319
 30
0.0
 10
3.6173394337
 20
1.8444973266
 30
0.0
 10
3.6224179809
 20
1.8400049454
 30
0.0
 10
3.626234701
 20
1.8368223628
 30
0.0
 10
3.6300869694
 20
1.8338147889
 30
0.0
 10
3.6339753603
 20
1.8309961982
 30
0.0
 10
3.6378998871
 20
1.828380839
 30
0.0
 10
3.6418601213
 20
1.8259832926
 30
0.0
 10
3.645854842
 20
1.8238181204
 30
0.0
 10
3.6498823776
 20
1.821900189
 30
0.0
 10
3.6539408
 20
1.820244924
 30
0.0
 10
3.6580264159
 20
1.8188646697
 30
0.0
 10
3.6621352533
 20
1.8177712264
 30
0.0
 10
3.6662630483
 20
1.8169772442
 30
0.0
 10
3.6704036826
 20
1.8164883545
 30
0.0
 10
3.6745512494
 20
1.8163092248
 30
0.0
 10
3.6786992847
 20
1.816444808
 30
0.0
 10
3.6828412501
 20
1.8168907091
 30
0.0
 10
3.6869712084
 20
1.8176424662
 30
0.0
 10
3.6910829508
 20
1.8186949871
 30
0.0
 10
3.6951720691
 20
1.8200359147
 30
0.0
 10
3.6992345197
 20
1.821653578
 30
0.0
 10
3.7032664677
 20
1.8235358921
 30
0.0
 10
3.7072658811
 20
1.8256674902
 30
0.0
 10
3.7112310096
 20
1.8280335227
 30
0.0
 10
3.7151605328
 20
1.8306194502
 30
0.0
 10
3.7190539634
 20
1.8334106253
 30
0.0
 10
3.7229112617
 20
1.8363927251
 30
0.0
 10
3.7267329448
 20
1.8395517002
 30
0.0
 10
3.7318183561
 20
1.8440150153
 30
0.0
 10
3.7355233399
 20
1.847542189
 30
0.0
 10
3.7379584765
 20
1.8499625127
 30
0.0
 11
3.6112063536
 21
1.8504764162
 31
0.0
 11
3.6186704038
 21
1.8433494542
 31
0.0
 11
3.6224539354
 21
1.8400061902
 31
0.0
 11
3.6262726896
 21
1.8368256666
 31
0.0
 11
3.6301270735
 21
1.8338206492
 31
0.0
 11
3.6340170667
 21
1.8310052667
 31
0.0
 11
3.6379426083
 21
1.8283937771
 31
0.0
 11
3.6419033471
 21
1.8260005354
 31
0.0
 11
3.6458976509
 21
1.8238403251
 31
0.0
 11
3.6499235334
 21
1.8219280478
 31
0.0
 11
3.6539787805
 21
1.8202782737
 31
0.0
 11
3.6580597772
 21
1.8189035367
 31
0.0
 11
3.6621623771
 21
1.8178155976
 31
0.0
 11
3.6662822474
 21
1.8170253867
 31
0.0
 11
3.6704140124
 21
1.8165391733
 31
0.0
 11
3.6745519327
 21
1.8163616006
 31
0.0
 11
3.6786902634
 21
1.8164958965
 31
0.0
 11
3.6828232394
 21
1.8169393061
 31
0.0
 11
3.68694509
 21
1.8176874908
 31
0.0
 11
3.6910503663
 21
1.8187346112
 31
0.0
 11
3.695134644
 21
1.820070047
 31
0.0
 11
3.6991937032
 21
1.8216822274
 31
0.0
 11
3.7032238139
 21
1.8235588336
 31
0.0
 11
3.7072226592
 21
1.8256853911
 31
0.0
 11
3.7111881755
 21
1.8280470391
 31
0.0
 11
3.7151186349
 21
1.8306290091
 31
0.0
 11
3.7190136092
 21
1.8334168901
 31
0.0
 11
3.7228729851
 21
1.8363963573
 31
0.0
 11
3.7266966889
 21
1.8395532069
 31
0.0
 11
3.7304850834
 21
1.8428745574
 31
0.0
 11
3.7379584765
 21
1.8499625127
 31
0.0
  0
SPLINE
  5
329
100
AcDbEntity
  8
0
100
AcDbSpline
 62
6
  6
CONTINUOUS
 70
0
 71
3
 72
37
 73
33
 74
31
 42
0.0000001
 43
0.0000001
 44
0.0000000001
 12
0.1042538521
 22
-0.1042538521
 32
0.0
 13
0.1045714195
 23
0.1039353145
 33
0.0
 40
0.0
 40
0.0
 40
0.0
 40
0.0
 40
0.0699969606
 40
0.1042421298
 40
0.137949835
 40
0.1710986712
 40
0.2036679183
 40
0.2356465754
 40
0.2670337714
 40
0.2978335399
 40
0.328063118
 40
0.3577570359
 40
0.3869648937
 40
0.4157527466
 40
0.4442053259
 40
0.4724225897
 40
0.5005140639
 40
0.5285972677
 40
0.5567902434
 40
0.5852037236
 40
0.6139394476
 40
0.6430844556
 40
0.6727072589
 40
0.702859819
 40
0.7335788559
 40
0.764883605
 40
0.7967796729
 40
0.8292673745
 40
0.8623367367
 40
0.895967789
 40
0.9301395172
 40
1.0
 40
1.0
 40
1.0
 40
1.0
 10
5.4012229478
 20
1.8504764162
 30
0.0
 10
5.4036554321
 20
1.8480439319
 30
0.0
 10
5.4073560279
 20
1.8444973266
 30
0.0
 10
5.4124345752
 20
1.8400049454
 30
0.0
 10
5.4162512953
 20
1.8368223628
 30
0.0
 10
5.4201035636
 20
1.8338147889
 30
0.0
 10
5.4239919545
 20
1.8309961982
 30
0.0
 10
5.4279164814
 20
1.828380839
 30
0.0
 10
5.4318767155
 20
1.8259832926
 30
0.0
 10
5.4358714362
 20
1.8238181204
 30
0.0
 10
5.4398989718
 20
1.821900189
 30
0.0
 10
5.4439573943
 20
1.820244924
 30
0.0
 10
5.4480430102
 20
1.8188646697
 30
0.0
 10
5.4521518475
 20
1.8177712264
 30
0.0
 10
5.4562796425
 20
1.8169772442
 30
0.0
 10
5.4604202768
 20
1.8164883545
 30
0.0
 10
5.4645678437
 20
1.8163092248
 30
0.0
 10
5.468715879
 20
1.816444808
 30
0.0
 10
5.4728578443
 20
1.8168907091
 30
0.0
 10
5.4769878027
 20
1.8176424662
 30
0.0
 10
5.4810995451
 20
1.8186949871
 30
0.0
 10
5.4851886634
 20
1.8200359147
 30
0.0
 10
5.4892511139
 20
1.821653578
 30
0.0
 10
5.4932830619
 20
1.8235358921
 30
0.0
 10
5.4972824753
 20
1.8256674902
 30
0.0
 10
5.5012476038
 20
1.8280335227
 30
0.0
 10
5.5051771271
 20
1.8306194502
 30
0.0
 10
5.5090705576
 20
1.8334106253
 30
0.0
 10
5.512927856
 20
1.8363927251
 30
0.0
 10
5.516749539
 20
1.8395517002
 30
0.0
 10
5.5218349504
 20
1.8440150153
 30
0.0
 10
5.5255399341
 20
1.847542189
 30
0.0
 10
5.5279750707
 20
1.8499625127
 30
0.0
 11
5.4012229478
 21
1.8504764162
 31
0.0
 11
5.4086869981
 21
1.8433494542
 31
0.0
 11
5.4124705296
 21
1.8400061902
 31
0.0
 11
5.4162892839
 21
1.8368256666
 31
0.0
 11
5.4201436678
 21
1.8338206492
 31
0.0
 11
5.424033661
 21
1.8310052667
 31
0.0
 11
5.4279592025
 21
1.8283937771
 31
0.0
 11
5.4319199414
 21
1.8260005354
 31
0.0
 11
5.4359142452
 21
1.8238403251
 31
0.0
 11
5.4399401277
 21
1.8219280478
 31
0.0
 11
5.4439953747
 21
1.8202782737
 31
0.0
 11
5.4480763714
 21
1.8189035367
 31
0.0
 11
5.4521789714
 21
1.8178155976
 31
0.0
 11
5.4562988416
 21
1.8170253867
 31
0.0
 11
5.4604306066
 21
1.8165391733
 31
0.0
 11
5.4645685269
 21
1.8163616006
 31
0.0
 11
5.4687068577
 21
1.8164958965
 31
0.0
 11
5.4728398337
 21
1.8169393061
 31
0.0
 11
5.4769616843
 21
1.8176874908
 31
0.0
 11
5.4810669605
 21
1.8187346112
 31
0.0
 11
5.4851512383
 21
1.820070047
 31
0.0
 11
5.4892102974
 21
1.8216822274
 31
0.0
 11
5.4932404081
 21
1.8235588336
 31
0.0
 11
5.4972392534
 21
1.8256853911
 31
0.0
 11
5.5012047698
 21
1.8280470391
 31
0.0
 11
5.5051352291
 21
1.8306290091
 31
0.0
 11
5.5090302034
 21
1.8334168901
 31
0.0
 11
5.5128895793
 21
1.8363963573
 31
0.0
 11
5.5167132831
 21
1.8395532069
 31
0.0
 11
5.5205016776
 21
1.8428745574
 31
0.0
 11
5.5279750707
 21
1.8499625127
 31
0.0
  0
SPLINE
  5
32A
100
AcDbEntity
  8
0
100
AcDbSpline
 62
6
  6
CONTINUOUS
 70
0
 71
3
 72
10
 73
6
 74
4
 42
0.0000001
 43
0.0000001
 44
0.0000000001
 12
0.0365342184
 22
-0.0182795087
 32
0.0
 13
0.0382254266
 23
-0.0144120199
 33
0.0
 40
0.0
 40
0.0
 40
0.0
 40
0.0
 40
0.4999565758
 40
0.7499747296
 40
1.0
 40
1.0
 40
1.0
 40
1.0
 10
3.5904750707
 20
1.8499625127
 30
0.0
 10
3.5965635783
 20
1.8469161925
 30
0.0
 10
3.6057978648
 20
1.8425422456
 30
0.0
 10
3.618321756
 20
1.8371928099
 30
0.0
 10
3.6246570943
 20
1.8346935914
 30
0.0
 10
3.6278428685
 20
1.8334924684
 30
0.0
 11
3.5904750707
 21
1.8499625127
 31
0.0
 11
3.6089456607
 21
1.8412454474
 31
0.0
 11
3.6183398786
 21
1.8372367796
 31
0.0
 11
3.6278428685
 21
1.8334924684
 31
0.0
  0
SPLINE
  5
32B
100
AcDbEntity
  8
0
100
AcDbSpline
 62
6
  6
CONTINUOUS
 70
0
 71
3
 72
24
 73
20
 74
18
 42
0.0000001
 43
0.0000001
 44
0.0000000001
 12
0.0593694682
 22
-0.0590083254
 32
0.0
 13
0.0822941812
 23
0.015309603
 33
0.0
 40
0.0
 40
0.0
 40
0.0
 40
0.0
 40
0.0712619827
 40
0.1413742594
 40
0.2102609352
 40
0.2778632605
 40
0.3441241547
 40
0.4090072909
 40
0.4725090001
 40
0.5346453897
 40
0.5954745196
 40
0.6551072188
 40
0.7137018936
 40
0.7426803165
 40
0.7714840936
 40
0.8286942758
 40
0.8856397573
 40
0.9426376512
 40
1.0
 40
1.0
 40
1.0
 40
1.0
 10
3.9907779045
 20
1.8499625127
 30
0.0
 10
3.9921881665
 20
1.8485608293
 30
0.0
 10
3.9950209215
 20
1.845814936
 30
0.0
 10
3.999348188
 20
1.8418522296
 30
0.0
 10
4.003722097
 20
1.8380956232
 30
0.0
 10
4.0081430088
 20
1.8345637964
 30
0.0
 10
4.0126117379
 20
1.8312773705
 30
0.0
 10
4.0171285984
 20
1.8282580949
 30
0.0
 10
4.0216930108
 20
1.8255283098
 30
0.0
 10
4.0263030937
 20
1.8231101278
 30
0.0
 10
4.0309564621
 20
1.8210265949
 30
0.0
 10
4.0356490884
 20
1.8193001619
 30
0.0
 10
4.0396023326
 20
1.8181694181
 30
0.0
 10
4.0427729343
 20
1.8174647745
 30
0.0
 10
4.0459316753
 20
1.8168974352
 30
0.0
 10
4.0498991197
 20
1.8164377245
 30
0.0
 10
4.0546785605
 20
1.8162969704
 30
0.0
 10
4.0594560755
 20
1.8165736617
 30
0.0
 10
4.0626187377
 20
1.8170289041
 30
0.0
 10
4.0641922668
 20
1.8173216357
 30
0.0
 11
3.9907779045
 21
1.8499625127
 31
0.0
 11
3.99506347
 21
1.8458133049
 31
0.0
 11
3.9993942881
 21
1.8418526042
 31
0.0
 11
4.0037713296
 21
1.8380988065
 31
0.0
 11
4.0081954677
 21
1.8345706035
 31
0.0
 11
4.0126668529
 21
1.8312888747
 31
0.0
 11
4.0171853122
 21
1.8282754797
 31
0.0
 11
4.0217502991
 21
1.8255523845
 31
0.0
 11
4.0263593048
 21
1.8231420912
 31
0.0
 11
4.0310091702
 21
1.8210672699
 31
0.0
 11
4.0356957742
 21
1.8193491202
 31
0.0
 11
4.0404129359
 21
1.8180056934
 31
0.0
 11
4.0427809605
 21
1.8174800104
 31
0.0
 11
4.0451541067
 21
1.8170541558
 31
0.0
 11
4.0499114153
 21
1.8165054923
 31
0.0
 11
4.054676071
 21
1.8163663861
 31
0.0
 11
4.0594392762
 21
1.8166402749
 31
0.0
 11
4.0641922668
 21
1.8173216357
 31
0.0
  0
SPLINE
  5
32C
100
AcDbEntity
  8
0
100
AcDbSpline
 62
6
  6
CONTINUOUS
 70
0
 71
3
 72
29
 73
25
 74
23
 42
0.0000001
 43
0.0000001
 44
0.0000000001
 12
0.2362370576
 22
-0.1181987063
 32
0.0
 13
0.2362370576
 23
0.1181987063
 33
0.0
 40
0.0
 40
0.0
 40
0.0
 40
0.0
 40
0.062490468
 40
0.1249869447
 40
0.1874825453
 40
0.2499775147
 40
0.3124738066
 40
0.3437275781
 40
0.3749816993
 40
0.406235159
 40
0.4374899473
 40
0.4687452776
 40
0.5000000631
 40
0.5312548428
 40
0.5625101657
 40
0.5937649542
 40
0.6250184055
 40
0.6562725113
 40
0.6875262768
 40
0.7500225345
 40
0.8125174775
 40
0.875013056
 40
0.9375095281
 40
1.0
 40
1.0
 40
1.0
 40
1.0
 10
3.7379584765
 20
1.8499625127
 30
0.0
 10
3.7428793313
 20
1.8475004152
 30
0.0
 10
3.7528085607
 20
1.8427469855
 30
0.0
 10
3.7679783966
 20
1.8362231208
 30
0.0
 10
3.7834344451
 20
1.8304032631
 30
0.0
 10
3.7991763842
 20
1.8254034286
 30
0.0
 10
3.8125210257
 20
1.822016968
 30
0.0
 10
3.8233116772
 20
1.8198368363
 30
0.0
 10
3.8314566878
 20
1.8184778491
 30
0.0
 10
3.8396446745
 20
1.8174066526
 30
0.0
 10
3.8478665633
 20
1.8166354602
 30
0.0
 10
3.8561115101
 20
1.8161692103
 30
0.0
 10
3.8643682067
 20
1.8160122653
 30
0.0
 10
3.8726249028
 20
1.816169206
 30
0.0
 10
3.8808698479
 20
1.8166354667
 30
0.0
 10
3.8890917355
 20
1.8174066556
 30
0.0
 10
3.8972797205
 20
1.8184778494
 30
0.0
 10
3.9054247275
 20
1.8198368427
 30
0.0
 10
3.9162153744
 20
1.8220169721
 30
0.0
 10
3.9295600103
 20
1.8254034313
 30
0.0
 10
3.9453019416
 20
1.8304032664
 30
0.0
 10
3.960757986
 20
1.8362231213
 30
0.0
 10
3.9759278201
 20
1.8427469853
 30
0.0
 10
3.9858570494
 20
1.8475004151
 30
0.0
 10
3.9907779045
 20
1.8499625127
 30
0.0
 11
3.7379584765
 21
1.8499625127
 31
0.0
 11
3.7528540488
 21
1.8428482633
 31
0.0
 11
3.7680261098
 21
1.8363404532
 31
0.0
 11
3.7834821483
 21
1.8305399137
 31
0.0
 11
3.7992214418
 21
1.8255595002
 31
0.0
 11
3.8152274747
 21
1.8215161941
 31
0.0
 11
3.8233201991
 21
1.8198828846
 31
0.0
 11
3.8314638933
 21
1.8185258076
 31
0.0
 11
3.839650191
 21
1.817456668
 31
0.0
 11
3.8478703394
 21
1.8166862895
 31
0.0
 11
3.8561135165
 21
1.8162207594
 31
0.0
 11
3.8643682072
 21
1.8160645793
 31
0.0
 11
3.8726228964
 21
1.8162207577
 31
0.0
 11
3.8808660713
 21
1.8166862936
 31
0.0
 11
3.8890862198
 21
1.8174566712
 31
0.0
 11
3.8972725154
 21
1.8185258095
 31
0.0
 11
3.905416205
 21
1.8198828896
 31
0.0
 11
3.9135089278
 21
1.8215161991
 31
0.0
 11
3.9295149519
 21
1.8255595031
 31
0.0
 11
3.9452542382
 21
1.8305399162
 31
0.0
 11
3.9607102713
 21
1.8363404534
 31
0.0
 11
3.9758823312
 21
1.8428482628
 31
0.0
 11
3.9907779045
 21
1.8499625127
 31
0.0
  0
SPLINE
  5
32D
100
AcDbEntity
  8
0
100
AcDbSpline
 62
6
  6
CONTINUOUS
 70
0
 71
3
 72
16
 73
12
 74
10
 42
0.0000001
 43
0.0000001
 44
0.0000000001
 12
0.101587283
 22
-0.0508281196
 32
0.0
 13
0.1131945623
 23
-0.0095113025
 33
0.0
 40
0.0
 40
0.0
 40
0.0
 40
0.0
 40
0.2499495345
 40
0.3749523168
 40
0.4999469387
 40
0.6249512602
 40
0.7499539362
 40
0.8124657068
 40
0.8749771673
 40
0.937487464
 40
1.0
 40
1.0
 40
1.0
 40
1.0
 10
6.6966826794
 20
1.8499625127
 30
0.0
 10
6.7051465774
 20
1.8457276911
 30
0.0
 10
6.7180414469
 20
1.8397522576
 30
0.0
 10
6.7356480551
 20
1.8327866518
 30
0.0
 10
6.7490679053
 20
1.8281314756
 30
0.0
 10
6.7626949546
 20
1.8241211211
 30
0.0
 10
6.7742128361
 20
1.8213783425
 30
0.0
 10
6.7835091231
 20
1.8195820737
 30
0.0
 10
6.7905187491
 20
1.8184405336
 30
0.0
 10
6.797559775
 20
1.8175122781
 30
0.0
 10
6.8022711112
 20
1.8170408462
 30
0.0
 10
6.8046298042
 20
1.8168426543
 30
0.0
 11
6.6966826794
 21
1.8499625127
 31
0.0
 11
6.7224761244
 21
1.8380949203
 31
0.0
 11
6.7356839163
 21
1.8328814773
 31
0.0
 11
6.7491020891
 21
1.8282390568
 31
0.0
 11
6.7627272886
 21
1.8242409752
 31
0.0
 11
6.7765431286
 21
1.8209625645
 31
0.0
 11
6.7835152825
 21
1.8196163657
 31
0.0
 11
6.7905240212
 21
1.8184760751
 31
0.0
 11
6.7975640208
 21
1.8175491391
 31
0.0
 11
6.8046298042
 21
1.8168426543
 31
0.0
  0
SPLINE
  5
32E
100
AcDbEntity
  8
0
100
AcDbSpline
 62
6
  6
CONTINUOUS
 70
0
 71
3
 72
37
 73
33
 74
31
 42
0.0000001
 43
0.0000001
 44
0.0000000001
 12
0.1045714196
 22
-0.1039353146
 32
0.0
 13
0.1042538523
 23
0.1042538523
 33
0.0
 40
0.0
 40
0.0
 40
0.0
 40
0.0
 40
0.0698604899
 40
0.1040322248
 40
0.1376632857
 40
0.1707326647
 40
0.2032203844
 40
0.2351164604
 40
0.2664212169
 40
0.2971402699
 40
0.3272928408
 40
0.3569156439
 40
0.3860606554
 40
0.4147963836
 40
0.4432098585
 40
0.4714028306
 40
0.4994860336
 40
0.527577498
 40
0.5557947535
 40
0.5842473264
 40
0.6130351659
 40
0.6422430106
 40
0.6719369199
 40
0.702166488
 40
0.7329662451
 40
0.7643534321
 40
0.7963320819
 40
0.828901321
 40
0.8620501495
 40
0.8957578506
 40
0.9300030254
 40
1.0
 40
1.0
 40
1.0
 40
1.0
 10
4.4107751102
 20
1.8499625127
 30
0.0
 10
4.4132102471
 20
1.8475421887
 30
0.0
 10
4.4169152311
 20
1.8440150143
 30
0.0
 10
4.4220006432
 20
1.8395516985
 30
0.0
 10
4.4258223279
 20
1.8363927229
 30
0.0
 10
4.429679628
 20
1.8334106219
 30
0.0
 10
4.4335730602
 20
1.8306194454
 30
0.0
 10
4.4375025848
 20
1.8280335168
 30
0.0
 10
4.4414677155
 20
1.825667485
 30
0.0
 10
4.4454671315
 20
1.8235358882
 30
0.0
 10
4.4494990799
 20
1.821653572
 30
0.0
 10
4.4535615308
 20
1.8200359072
 30
0.0
 10
4.4576506517
 20
1.8186949864
 30
0.0
 10
4.4617623933
 20
1.8176424632
 30
0.0
 10
4.4658923511
 20
1.8168907021
 30
0.0
 10
4.4700343171
 20
1.8164448115
 30
0.0
 10
4.4741823512
 20
1.8163092248
 30
0.0
 10
4.4783299176
 20
1.8164883507
 30
0.0
 10
4.4824705497
 20
1.816977249
 30
0.0
 10
4.4865983436
 20
1.8177712286
 30
0.0
 10
4.49070718
 20
1.8188646695
 30
0.0
 10
4.4947927931
 20
1.820244927
 30
0.0
 10
4.498851214
 20
1.8219001916
 30
0.0
 10
4.5028787486
 20
1.8238181216
 30
0.0
 10
4.5068734677
 20
1.8259832936
 30
0.0
 10
4.5108337004
 20
1.8283808397
 30
0.0
 10
4.5147582261
 20
1.8309961985
 30
0.0
 10
4.5186466161
 20
1.8338147886
 30
0.0
 10
4.5224988839
 20
1.8368223616
 30
0.0
 10
4.5263156043
 20
1.8400049435
 30
0.0
 10
4.531394152
 20
1.8444973252
 30
0.0
 10
4.5350947484
 20
1.8480439314
 30
0.0
 10
4.5375272331
 20
1.8504764162
 30
0.0
 11
4.4107751102
 21
1.8499625127
 31
0.0
 11
4.4182485039
 21
1.8428745564
 31
0.0
 11
4.4220368991
 21
1.8395532053
 31
0.0
 11
4.4258606042
 21
1.8363963553
 31
0.0
 11
4.4297199822
 21
1.8334168866
 31
0.0
 11
4.4336149586
 21
1.830629004
 31
0.0
 11
4.437545419
 21
1.8280470335
 31
0.0
 11
4.4415109371
 21
1.8256853862
 31
0.0
 11
4.4455097852
 21
1.823558829
 31
0.0
 11
4.4495398969
 21
1.8216822211
 31
0.0
 11
4.4535989562
 21
1.820070041
 31
0.0
 11
4.4576832357
 21
1.8187346089
 31
0.0
 11
4.4617885123
 21
1.8176874874
 31
0.0
 11
4.4659103619
 21
1.8169393016
 31
0.0
 11
4.470043338
 21
1.8164958977
 31
0.0
 11
4.4741816686
 21
1.8163616005
 31
0.0
 11
4.4783195875
 21
1.8165391716
 31
0.0
 11
4.4824513507
 21
1.8170253896
 31
0.0
 11
4.4865712202
 21
1.8178155999
 31
0.0
 11
4.4906738185
 21
1.8189035374
 31
0.0
 11
4.4947548126
 21
1.820278276
 31
0.0
 11
4.4988100582
 21
1.8219280502
 31
0.0
 11
4.5028359396
 21
1.8238403265
 31
0.0
 11
4.5068302418
 21
1.8260005363
 31
0.0
 11
4.5107909792
 21
1.8283937777
 31
0.0
 11
4.5147165197
 21
1.831005267
 31
0.0
 11
4.518606512
 21
1.8338206488
 31
0.0
 11
4.5224608952
 21
1.8368256652
 31
0.0
 11
4.5262796493
 21
1.8400061881
 31
0.0
 11
4.5300631815
 21
1.8433494525
 31
0.0
 11
4.5375272331
 21
1.8504764162
 31
0.0
  0
SPLINE
  5
32F
100
AcDbEntity
  8
0
100
AcDbSpline
 62
6
  6
CONTINUOUS
 70
0
 71
3
 72
29
 73
25
 74
23
 42
0.0000001
 43
0.0000001
 44
0.0000000001
 12
0.2362370576
 22
-0.1181987063
 32
0.0
 13
0.2362370576
 23
0.1181987063
 33
0.0
 40
0.0
 40
0.0
 40
0.0
 40
0.0
 40
0.062490468
 40
0.1249869447
 40
0.1874825453
 40
0.2499775147
 40
0.3124738066
 40
0.3437275781
 40
0.3749816993
 40
0.406235159
 40
0.4374899473
 40
0.4687452776
 40
0.5000000631
 40
0.5312548428
 40
0.5625101657
 40
0.5937649542
 40
0.6250184055
 40
0.6562725113
 40
0.6875262768
 40
0.7500225345
 40
0.8125174775
 40
0.875013056
 40
0.9375095281
 40
1.0
 40
1.0
 40
1.0
 40
1.0
 10
4.1579556822
 20
1.8499625127
 30
0.0
 10
4.162876537
 20
1.8475004152
 30
0.0
 10
4.1728057664
 20
1.8427469855
 30
0.0
 10
4.1879756023
 20
1.8362231208
 30
0.0
 10
4.2034316507
 20
1.8304032631
 30
0.0
 10
4.2191735899
 20
1.8254034286
 30
0.0
 10
4.2325182314
 20
1.822016968
 30
0.0
 10
4.2433088829
 20
1.8198368363
 30
0.0
 10
4.2514538935
 20
1.8184778491
 30
0.0
 10
4.2596418802
 20
1.8174066526
 30
0.0
 10
4.267863769
 20
1.8166354602
 30
0.0
 10
4.2761087158
 20
1.8161692103
 30
0.0
 10
4.2843654123
 20
1.8160122653
 30
0.0
 10
4.2926221085
 20
1.816169206
 30
0.0
 10
4.3008670536
 20
1.8166354667
 30
0.0
 10
4.3090889412
 20
1.8174066556
 30
0.0
 10
4.3172769262
 20
1.8184778494
 30
0.0
 10
4.3254219332
 20
1.8198368427
 30
0.0
 10
4.3362125801
 20
1.8220169721
 30
0.0
 10
4.349557216
 20
1.8254034313
 30
0.0
 10
4.3652991473
 20
1.8304032664
 30
0.0
 10
4.3807551917
 20
1.8362231213
 30
0.0
 10
4.3959250258
 20
1.8427469853
 30
0.0
 10
4.4058542551
 20
1.8475004151
 30
0.0
 10
4.4107751102
 20
1.8499625127
 30
0.0
 11
4.1579556822
 21
1.8499625127
 31
0.0
 11
4.1728512545
 21
1.8428482633
 31
0.0
 11
4.1880233155
 21
1.8363404532
 31
0.0
 11
4.203479354
 21
1.8305399137
 31
0.0
 11
4.2192186475
 21
1.8255595002
 31
0.0
 11
4.2352246804
 21
1.8215161941
 31
0.0
 11
4.2433174048
 21
1.8198828846
 31
0.0
 11
4.251461099
 21
1.8185258076
 31
0.0
 11
4.2596473966
 21
1.817456668
 31
0.0
 11
4.2678675451
 21
1.8166862895
 31
0.0
 11
4.2761107222
 21
1.8162207594
 31
0.0
 11
4.2843654129
 21
1.8160645793
 31
0.0
 11
4.2926201021
 21
1.8162207577
 31
0.0
 11
4.300863277
 21
1.8166862936
 31
0.0
 11
4.3090834255
 21
1.8174566712
 31
0.0
 11
4.3172697211
 21
1.8185258095
 31
0.0
 11
4.3254134107
 21
1.8198828896
 31
0.0
 11
4.3335061334
 21
1.8215161991
 31
0.0
 11
4.3495121576
 21
1.8255595031
 31
0.0
 11
4.3652514439
 21
1.8305399162
 31
0.0
 11
4.380707477
 21
1.8363404534
 31
0.0
 11
4.3958795369
 21
1.8428482628
 31
0.0
 11
4.4107751102
 21
1.8499625127
 31
0.0
  0
SPLINE
  5
330
100
AcDbEntity
  8
0
100
AcDbSpline
 62
6
  6
CONTINUOUS
 70
0
 71
3
 72
24
 73
20
 74
18
 42
0.0000001
 43
0.0000001
 44
0.0000000001
 12
0.0822947702
 22
-0.0153108991
 32
0.0
 13
0.059370047
 23
0.0590089006
 33
0.0
 40
0.0
 40
0.0
 40
0.0
 40
0.0
 40
0.0573625033
 40
0.1143605067
 40
0.1713060302
 40
0.2285162205
 40
0.2573199916
 40
0.2862983961
 40
0.3448930119
 40
0.4045256522
 40
0.465354713
 40
0.5274910223
 40
0.5909926825
 40
0.655875779
 40
0.7221366337
 40
0.7897389497
 40
0.8586256442
 40
0.9287379592
 40
1.0
 40
1.0
 40
1.0
 40
1.0
 10
7.2445764994
 20
1.8173217833
 30
0.0
 10
7.246150044
 20
1.8170290261
 30
0.0
 10
7.2493127389
 20
1.81657374
 30
0.0
 10
7.254090305
 20
1.8162969813
 30
0.0
 10
7.2588697993
 20
1.8164376705
 30
0.0
 10
7.2628372879
 20
1.8168973508
 30
0.0
 10
7.2659960651
 20
1.8174646622
 30
0.0
 10
7.2691667038
 20
1.8181692751
 30
0.0
 10
7.2731199916
 20
1.8192999999
 30
0.0
 10
7.2778126695
 20
1.8210264183
 30
0.0
 10
7.2824660925
 20
1.823109937
 30
0.0
 10
7.2870762257
 20
1.8255281211
 30
0.0
 10
7.2916406876
 20
1.8282579151
 30
0.0
 10
7.2961575978
 20
1.8312772054
 30
0.0
 10
7.3006263752
 20
1.8345636528
 30
0.0
 10
7.3050473341
 20
1.8380955078
 30
0.0
 10
7.3094212899
 20
1.8418521481
 30
0.0
 10
7.313748603
 20
1.845814893
 30
0.0
 10
7.3165813881
 20
1.8485608145
 30
0.0
 10
7.317991665
 20
1.8499625127
 30
0.0
 11
7.2445764994
 21
1.8173217833
 31
0.0
 11
7.2493295403
 21
1.8166403526
 31
0.0
 11
7.2540927975
 21
1.8163663972
 31
0.0
 11
7.2588575049
 21
1.8165054432
 31
0.0
 11
7.2636148661
 21
1.8170540643
 31
0.0
 11
7.2659880394
 21
1.817479898
 31
0.0
 11
7.2683560914
 21
1.8180055597
 31
0.0
 11
7.2730733053
 21
1.8193489597
 31
0.0
 11
7.2777599617
 21
1.8210670936
 31
0.0
 11
7.2824098804
 21
1.8231419032
 31
0.0
 11
7.2870189358
 21
1.8255521963
 31
0.0
 11
7.2915839729
 21
1.8282753005
 31
0.0
 11
7.2961024818
 21
1.8312887104
 31
0.0
 11
7.3005739148
 21
1.8345704601
 31
0.0
 11
7.3049981001
 21
1.8380986911
 31
0.0
 11
7.3093751888
 21
1.8418525226
 31
0.0
 11
7.3137060535
 21
1.8458132618
 31
0.0
 11
7.317991665
 21
1.8499625127
 31
0.0
  0
SPLINE
  5
331
100
AcDbEntity
  8
0
100
AcDbSpline
 62
6
  6
CONTINUOUS
 70
0
 71
3
 72
37
 73
33
 74
31
 42
0.0000001
 43
0.0000001
 44
0.0000000001
 12
0.1042538521
 22
-0.1042538521
 32
0.0
 13
0.1045714195
 23
0.1039353145
 33
0.0
 40
0.0
 40
0.0
 40
0.0
 40
0.0
 40
0.0699969606
 40
0.1042421298
 40
0.137949835
 40
0.1710986712
 40
0.2036679183
 40
0.2356465754
 40
0.2670337714
 40
0.2978335399
 40
0.328063118
 40
0.3577570359
 40
0.3869648937
 40
0.4157527466
 40
0.4442053259
 40
0.4724225897
 40
0.5005140639
 40
0.5285972677
 40
0.5567902434
 40
0.5852037236
 40
0.6139394476
 40
0.6430844556
 40
0.6727072589
 40
0.702859819
 40
0.7335788559
 40
0.764883605
 40
0.7967796729
 40
0.8292673745
 40
0.8623367367
 40
0.895967789
 40
0.9301395172
 40
1.0
 40
1.0
 40
1.0
 40
1.0
 10
3.4637229478
 20
1.8504764162
 30
0.0
 10
3.4661554321
 20
1.8480439319
 30
0.0
 10
3.4698560279
 20
1.8444973266
 30
0.0
 10
3.4749345752
 20
1.8400049454
 30
0.0
 10
3.4787512953
 20
1.8368223628
 30
0.0
 10
3.4826035636
 20
1.8338147889
 30
0.0
 10
3.4864919545
 20
1.8309961982
 30
0.0
 10
3.4904164814
 20
1.828380839
 30
0.0
 10
3.4943767155
 20
1.8259832926
 30
0.0
 10
3.4983714362
 20
1.8238181204
 30
0.0
 10
3.5023989718
 20
1.821900189
 30
0.0
 10
3.5064573943
 20
1.820244924
 30
0.0
 10
3.5105430102
 20
1.8188646697
 30
0.0
 10
3.5146518475
 20
1.8177712264
 30
0.0
 10
3.5187796425
 20
1.8169772442
 30
0.0
 10
3.5229202768
 20
1.8164883545
 30
0.0
 10
3.5270678437
 20
1.8163092248
 30
0.0
 10
3.531215879
 20
1.816444808
 30
0.0
 10
3.5353578443
 20
1.8168907091
 30
0.0
 10
3.5394878027
 20
1.8176424662
 30
0.0
 10
3.5435995451
 20
1.8186949871
 30
0.0
 10
3.5476886634
 20
1.8200359147
 30
0.0
 10
3.5517511139
 20
1.821653578
 30
0.0
 10
3.5557830619
 20
1.8235358921
 30
0.0
 10
3.5597824753
 20
1.8256674902
 30
0.0
 10
3.5637476038
 20
1.8280335227
 30
0.0
 10
3.5676771271
 20
1.8306194502
 30
0.0
 10
3.5715705576
 20
1.8334106253
 30
0.0
 10
3.575427856
 20
1.8363927251
 30
0.0
 10
3.579249539
 20
1.8395517002
 30
0.0
 10
3.5843349504
 20
1.8440150153
 30
0.0
 10
3.5880399341
 20
1.847542189
 30
0.0
 10
3.5904750707
 20
1.8499625127
 30
0.0
 11
3.4637229478
 21
1.8504764162
 31
0.0
 11
3.4711869981
 21
1.8433494542
 31
0.0
 11
3.4749705296
 21
1.8400061902
 31
0.0
 11
3.4787892839
 21
1.8368256666
 31
0.0
 11
3.4826436678
 21
1.8338206492
 31
0.0
 11
3.486533661
 21
1.8310052667
 31
0.0
 11
3.4904592025
 21
1.8283937771
 31
0.0
 11
3.4944199414
 21
1.8260005354
 31
0.0
 11
3.4984142452
 21
1.8238403251
 31
0.0
 11
3.5024401277
 21
1.8219280478
 31
0.0
 11
3.5064953747
 21
1.8202782737
 31
0.0
 11
3.5105763714
 21
1.8189035367
 31
0.0
 11
3.5146789714
 21
1.8178155976
 31
0.0
 11
3.5187988416
 21
1.8170253867
 31
0.0
 11
3.5229306066
 21
1.8165391733
 31
0.0
 11
3.5270685269
 21
1.8163616006
 31
0.0
 11
3.5312068577
 21
1.8164958965
 31
0.0
 11
3.5353398337
 21
1.8169393061
 31
0.0
 11
3.5394616843
 21
1.8176874908
 31
0.0
 11
3.5435669605
 21
1.8187346112
 31
0.0
 11
3.5476512383
 21
1.820070047
 31
0.0
 11
3.5517102974
 21
1.8216822274
 31
0.0
 11
3.5557404081
 21
1.8235588336
 31
0.0
 11
3.5597392534
 21
1.8256853911
 31
0.0
 11
3.5637047698
 21
1.8280470391
 31
0.0
 11
3.5676352291
 21
1.8306290091
 31
0.0
 11
3.5715302034
 21
1.8334168901
 31
0.0
 11
3.5753895793
 21
1.8363963573
 31
0.0
 11
3.5792132831
 21
1.8395532069
 31
0.0
 11
3.5830016776
 21
1.8428745574
 31
0.0
 11
3.5904750707
 21
1.8499625127
 31
0.0
  0
SPLINE
  5
332
100
AcDbEntity
  8
0
100
AcDbSpline
 62
6
  6
CONTINUOUS
 70
0
 71
3
 72
37
 73
33
 74
31
 42
0.0000001
 43
0.0000001
 44
0.0000000001
 12
0.1045714196
 22
-0.1039353146
 32
0.0
 13
0.1042538523
 23
0.1042538523
 33
0.0
 40
0.0
 40
0.0
 40
0.0
 40
0.0
 40
0.0698604899
 40
0.1040322248
 40
0.1376632857
 40
0.1707326647
 40
0.2032203844
 40
0.2351164604
 40
0.2664212169
 40
0.2971402699
 40
0.3272928408
 40
0.3569156439
 40
0.3860606554
 40
0.4147963836
 40
0.4432098585
 40
0.4714028306
 40
0.4994860336
 40
0.527577498
 40
0.5557947535
 40
0.5842473264
 40
0.6130351659
 40
0.6422430106
 40
0.6719369199
 40
0.702166488
 40
0.7329662451
 40
0.7643534321
 40
0.7963320819
 40
0.828901321
 40
0.8620501495
 40
0.8957578506
 40
0.9300030254
 40
1.0
 40
1.0
 40
1.0
 40
1.0
 10
5.0393453485
 20
1.8499625127
 30
0.0
 10
5.0417804854
 20
1.8475421887
 30
0.0
 10
5.0454854694
 20
1.8440150143
 30
0.0
 10
5.0505708816
 20
1.8395516985
 30
0.0
 10
5.0543925662
 20
1.8363927229
 30
0.0
 10
5.0582498664
 20
1.8334106219
 30
0.0
 10
5.0621432986
 20
1.8306194454
 30
0.0
 10
5.0660728231
 20
1.8280335168
 30
0.0
 10
5.0700379539
 20
1.825667485
 30
0.0
 10
5.0740373699
 20
1.8235358882
 30
0.0
 10
5.0780693182
 20
1.821653572
 30
0.0
 10
5.0821317691
 20
1.8200359072
 30
0.0
 10
5.08622089
 20
1.8186949864
 30
0.0
 10
5.0903326317
 20
1.8176424632
 30
0.0
 10
5.0944625894
 20
1.8168907021
 30
0.0
 10
5.0986045554
 20
1.8164448115
 30
0.0
 10
5.1027525896
 20
1.8163092248
 30
0.0
 10
5.1069001559
 20
1.8164883507
 30
0.0
 10
5.1110407881
 20
1.816977249
 30
0.0
 10
5.1151685819
 20
1.8177712286
 30
0.0
 10
5.1192774184
 20
1.8188646695
 30
0.0
 10
5.1233630314
 20
1.820244927
 30
0.0
 10
5.1274214523
 20
1.8219001916
 30
0.0
 10
5.1314489869
 20
1.8238181216
 30
0.0
 10
5.1354437061
 20
1.8259832936
 30
0.0
 10
5.1394039388
 20
1.8283808397
 30
0.0
 10
5.1433284645
 20
1.8309961985
 30
0.0
 10
5.1472168544
 20
1.8338147886
 30
0.0
 10
5.1510691223
 20
1.8368223616
 30
0.0
 10
5.1548858426
 20
1.8400049435
 30
0.0
 10
5.1599643903
 20
1.8444973252
 30
0.0
 10
5.1636649867
 20
1.8480439314
 30
0.0
 10
5.1660974715
 20
1.8504764162
 30
0.0
 11
5.0393453485
 21
1.8499625127
 31
0.0
 11
5.0468187422
 21
1.8428745564
 31
0.0
 11
5.0506071375
 21
1.8395532053
 31
0.0
 11
5.0544308426
 21
1.8363963553
 31
0.0
 11
5.0582902205
 21
1.8334168866
 31
0.0
 11
5.0621851969
 21
1.830629004
 31
0.0
 11
5.0661156574
 21
1.8280470335
 31
0.0
 11
5.0700811754
 21
1.8256853862
 31
0.0
 11
5.0740800236
 21
1.823558829
 31
0.0
 11
5.0781101353
 21
1.8216822211
 31
0.0
 11
5.0821691945
 21
1.820070041
 31
0.0
 11
5.086253474
 21
1.8187346089
 31
0.0
 11
5.0903587506
 21
1.8176874874
 31
0.0
 11
5.0944806002
 21
1.8169393016
 31
0.0
 11
5.0986135763
 21
1.8164958977
 31
0.0
 11
5.1027519069
 21
1.8163616005
 31
0.0
 11
5.1068898258
 21
1.8165391716
 31
0.0
 11
5.111021589
 21
1.8170253896
 31
0.0
 11
5.1151414585
 21
1.8178155999
 31
0.0
 11
5.1192440568
 21
1.8189035374
 31
0.0
 11
5.123325051
 21
1.820278276
 31
0.0
 11
5.1273802966
 21
1.8219280502
 31
0.0
 11
5.1314061779
 21
1.8238403265
 31
0.0
 11
5.1354004801
 21
1.8260005363
 31
0.0
 11
5.1393612176
 21
1.8283937777
 31
0.0
 11
5.1432867581
 21
1.831005267
 31
0.0
 11
5.1471767503
 21
1.8338206488
 31
0.0
 11
5.1510311336
 21
1.8368256652
 31
0.0
 11
5.1548498877
 21
1.8400061881
 31
0.0
 11
5.1586334199
 21
1.8433494525
 31
0.0
 11
5.1660974715
 21
1.8504764162
 31
0.0
  0
SPLINE
  5
333
100
AcDbEntity
  8
0
100
AcDbSpline
 62
6
  6
CONTINUOUS
 70
0
 71
3
 72
29
 73
25
 74
23
 42
0.0000001
 43
0.0000001
 44
0.0000000001
 12
0.2362370576
 22
-0.1181987063
 32
0.0
 13
0.2362370576
 23
0.1181987063
 33
0.0
 40
0.0
 40
0.0
 40
0.0
 40
0.0
 40
0.062490468
 40
0.1249869447
 40
0.1874825453
 40
0.2499775147
 40
0.3124738066
 40
0.3437275781
 40
0.3749816993
 40
0.406235159
 40
0.4374899473
 40
0.4687452776
 40
0.5000000631
 40
0.5312548428
 40
0.5625101657
 40
0.5937649542
 40
0.6250184055
 40
0.6562725113
 40
0.6875262768
 40
0.7500225345
 40
0.8125174775
 40
0.875013056
 40
0.9375095281
 40
1.0
 40
1.0
 40
1.0
 40
1.0
 10
4.7865259205
 20
1.8499625127
 30
0.0
 10
4.7914467753
 20
1.8475004152
 30
0.0
 10
4.8013760047
 20
1.8427469855
 30
0.0
 10
4.8165458406
 20
1.8362231208
 30
0.0
 10
4.8320018891
 20
1.8304032631
 30
0.0
 10
4.8477438282
 20
1.8254034286
 30
0.0
 10
4.8610884697
 20
1.822016968
 30
0.0
 10
4.8718791212
 20
1.8198368363
 30
0.0
 10
4.8800241319
 20
1.8184778491
 30
0.0
 10
4.8882121186
 20
1.8174066526
 30
0.0
 10
4.8964340074
 20
1.8166354602
 30
0.0
 10
4.9046789542
 20
1.8161692103
 30
0.0
 10
4.9129356507
 20
1.8160122653
 30
0.0
 10
4.9211923468
 20
1.816169206
 30
0.0
 10
4.9294372919
 20
1.8166354667
 30
0.0
 10
4.9376591795
 20
1.8174066556
 30
0.0
 10
4.9458471646
 20
1.8184778494
 30
0.0
 10
4.9539921715
 20
1.8198368427
 30
0.0
 10
4.9647828184
 20
1.8220169721
 30
0.0
 10
4.9781274544
 20
1.8254034313
 30
0.0
 10
4.9938693856
 20
1.8304032664
 30
0.0
 10
5.0093254301
 20
1.8362231213
 30
0.0
 10
5.0244952641
 20
1.8427469853
 30
0.0
 10
5.0344244935
 20
1.8475004151
 30
0.0
 10
5.0393453485
 20
1.8499625127
 30
0.0
 11
4.7865259205
 21
1.8499625127
 31
0.0
 11
4.8014214929
 21
1.8428482633
 31
0.0
 11
4.8165935538
 21
1.8363404532
 31
0.0
 11
4.8320495923
 21
1.8305399137
 31
0.0
 11
4.8477888858
 21
1.8255595002
 31
0.0
 11
4.8637949187
 21
1.8215161941
 31
0.0
 11
4.8718876431
 21
1.8198828846
 31
0.0
 11
4.8800313374
 21
1.8185258076
 31
0.0
 11
4.888217635
 21
1.817456668
 31
0.0
 11
4.8964377834
 21
1.8166862895
 31
0.0
 11
4.9046809605
 21
1.8162207594
 31
0.0
 11
4.9129356512
 21
1.8160645793
 31
0.0
 11
4.9211903405
 21
1.8162207577
 31
0.0
 11
4.9294335153
 21
1.8166862936
 31
0.0
 11
4.9376536639
 21
1.8174566712
 31
0.0
 11
4.9458399594
 21
1.8185258095
 31
0.0
 11
4.953983649
 21
1.8198828896
 31
0.0
 11
4.9620763718
 21
1.8215161991
 31
0.0
 11
4.9780823959
 21
1.8255595031
 31
0.0
 11
4.9938216822
 21
1.8305399162
 31
0.0
 11
5.0092777154
 21
1.8363404534
 31
0.0
 11
5.0244497753
 21
1.8428482628
 31
0.0
 11
5.0393453485
 21
1.8499625127
 31
0.0
  0
SPLINE
  5
334
100
AcDbEntity
  8
0
100
AcDbSpline
 62
6
  6
CONTINUOUS
 70
0
 71
3
 72
24
 73
20
 74
18
 42
0.0000001
 43
0.0000001
 44
0.0000000001
 12
0.1499853548
 22
-0.0750435815
 32
0.0
 13
0.165601677
 23
0.0265184904
 33
0.0
 40
0.0
 40
0.0
 40
0.0
 40
0.0
 40
0.1249754863
 40
0.1874734656
 40
0.2499728948
 40
0.3124686512
 40
0.374966784
 40
0.4999448175
 40
0.5624497119
 40
0.5937038058
 40
0.6249574374
 40
0.6562116252
 40
0.6874669874
 40
0.7499738047
 40
0.7812288987
 40
0.8124838892
 40
0.8749904531
 40
0.9374964948
 40
1.0
 40
1.0
 40
1.0
 40
1.0
 10
6.0120696127
 20
1.8499625127
 30
0.0
 10
6.0183177769
 20
1.84683631
 30
0.0
 10
6.0277969972
 20
1.8423529143
 30
0.0
 10
6.0406590872
 20
1.8368856059
 30
0.0
 10
6.0504211343
 20
1.8330646532
 30
0.0
 10
6.0602990118
 20
1.8295525614
 30
0.0
 10
6.0736195997
 20
1.8253220487
 30
0.0
 10
6.0871680732
 20
1.8218267508
 30
0.0
 10
6.0991805496
 20
1.8195216173
 30
0.0
 10
6.1060841409
 20
1.8184308274
 30
0.0
 10
6.1112790474
 20
1.8177290279
 30
0.0
 10
6.1164888274
 20
1.8171467006
 30
0.0
 10
6.1234511753
 20
1.8165327316
 30
0.0
 10
6.1304335273
 20
1.8161642819
 30
0.0
 10
6.1374219929
 20
1.8160460808
 30
0.0
 10
6.144411315
 20
1.8160964399
 30
0.0
 10
6.1531427536
 20
1.8164734729
 30
0.0
 10
6.1635864748
 20
1.8174191349
 30
0.0
 10
6.1705126365
 20
1.8183717132
 30
0.0
 10
6.1739628649
 20
1.8189242127
 30
0.0
 11
6.0120696127
 21
1.8499625127
 31
0.0
 11
6.0310302738
 21
1.8410290014
 31
0.0
 11
6.0406781434
 21
1.8369322745
 31
0.0
 11
6.0504406304
 21
1.8331160586
 31
0.0
 11
6.0603177739
 21
1.829609097
 31
0.0
 11
6.0703091023
 21
1.8264407451
 31
0.0
 11
6.0906139298
 21
1.8212401503
 31
0.0
 11
6.1009095025
 21
1.8192678283
 31
0.0
 11
6.1060870127
 21
1.8184502093
 31
0.0
 11
6.1112814837
 21
1.817748945
 31
0.0
 11
6.1164907673
 21
1.8171670151
 31
0.0
 11
6.1217123981
 21
1.8167066728
 31
0.0
 11
6.132181015
 21
1.8161555893
 31
0.0
 11
6.1374221075
 21
1.8160671513
 31
0.0
 11
6.1426637936
 21
1.8161047919
 31
0.0
 11
6.1531371617
 21
1.8165556818
 31
0.0
 11
6.1635775526
 21
1.8174996867
 31
0.0
 11
6.1739628649
 21
1.8189242127
 31
0.0
  0
SPLINE
  5
335
100
AcDbEntity
  8
0
100
AcDbSpline
 62
6
  6
CONTINUOUS
 70
0
 71
3
 72
37
 73
33
 74
31
 42
0.0000001
 43
0.0000001
 44
0.0000000001
 12
0.1045714196
 22
-0.1039353146
 32
0.0
 13
0.1042538523
 23
0.1042538523
 33
0.0
 40
0.0
 40
0.0
 40
0.0
 40
0.0
 40
0.0698604899
 40
0.1040322248
 40
0.1376632857
 40
0.1707326647
 40
0.2032203844
 40
0.2351164604
 40
0.2664212169
 40
0.2971402699
 40
0.3272928408
 40
0.3569156439
 40
0.3860606554
 40
0.4147963836
 40
0.4432098585
 40
0.4714028306
 40
0.4994860336
 40
0.527577498
 40
0.5557947535
 40
0.5842473264
 40
0.6130351659
 40
0.6422430106
 40
0.6719369199
 40
0.702166488
 40
0.7329662451
 40
0.7643534321
 40
0.7963320819
 40
0.828901321
 40
0.8620501495
 40
0.8957578506
 40
0.9300030254
 40
1.0
 40
1.0
 40
1.0
 40
1.0
 10
5.7807944987
 20
1.8499625127
 30
0.0
 10
5.7832296356
 20
1.8475421887
 30
0.0
 10
5.7869346196
 20
1.8440150143
 30
0.0
 10
5.7920200318
 20
1.8395516985
 30
0.0
 10
5.7958417165
 20
1.8363927229
 30
0.0
 10
5.7996990166
 20
1.8334106219
 30
0.0
 10
5.8035924488
 20
1.8306194454
 30
0.0
 10
5.8075219734
 20
1.8280335168
 30
0.0
 10
5.8114871041
 20
1.825667485
 30
0.0
 10
5.8154865201
 20
1.8235358882
 30
0.0
 10
5.8195184684
 20
1.821653572
 30
0.0
 10
5.8235809193
 20
1.8200359072
 30
0.0
 10
5.8276700402
 20
1.8186949864
 30
0.0
 10
5.8317817819
 20
1.8176424632
 30
0.0
 10
5.8359117396
 20
1.8168907021
 30
0.0
 10
5.8400537056
 20
1.8164448115
 30
0.0
 10
5.8442017398
 20
1.8163092248
 30
0.0
 10
5.8483493061
 20
1.8164883507
 30
0.0
 10
5.8524899383
 20
1.816977249
 30
0.0
 10
5.8566177321
 20
1.8177712286
 30
0.0
 10
5.8607265686
 20
1.8188646695
 30
0.0
 10
5.8648121816
 20
1.820244927
 30
0.0
 10
5.8688706025
 20
1.8219001916
 30
0.0
 10
5.8728981371
 20
1.8238181216
 30
0.0
 10
5.8768928563
 20
1.8259832936
 30
0.0
 10
5.880853089
 20
1.8283808397
 30
0.0
 10
5.8847776147
 20
1.8309961985
 30
0.0
 10
5.8886660046
 20
1.8338147886
 30
0.0
 10
5.8925182725
 20
1.8368223616
 30
0.0
 10
5.8963349928
 20
1.8400049435
 30
0.0
 10
5.9014135405
 20
1.8444973252
 30
0.0
 10
5.9051141369
 20
1.8480439314
 30
0.0
 10
5.9075466217
 20
1.8504764162
 30
0.0
 11
5.7807944987
 21
1.8499625127
 31
0.0
 11
5.7882678924
 21
1.8428745564
 31
0.0
 11
5.7920562877
 21
1.8395532053
 31
0.0
 11
5.7958799928
 21
1.8363963553
 31
0.0
 11
5.7997393707
 21
1.8334168866
 31
0.0
 11
5.8036343471
 21
1.830629004
 31
0.0
 11
5.8075648076
 21
1.8280470335
 31
0.0
 11
5.8115303256
 21
1.8256853862
 31
0.0
 11
5.8155291738
 21
1.823558829
 31
0.0
 11
5.8195592855
 21
1.8216822211
 31
0.0
 11
5.8236183447
 21
1.820070041
 31
0.0
 11
5.8277026242
 21
1.8187346089
 31
0.0
 11
5.8318079008
 21
1.8176874874
 31
0.0
 11
5.8359297504
 21
1.8169393016
 31
0.0
 11
5.8400627265
 21
1.8164958977
 31
0.0
 11
5.8442010571
 21
1.8163616005
 31
0.0
 11
5.848338976
 21
1.8165391716
 31
0.0
 11
5.8524707393
 21
1.8170253896
 31
0.0
 11
5.8565906087
 21
1.8178155999
 31
0.0
 11
5.860693207
 21
1.8189035374
 31
0.0
 11
5.8647742012
 21
1.820278276
 31
0.0
 11
5.8688294468
 21
1.8219280502
 31
0.0
 11
5.8728553281
 21
1.8238403265
 31
0.0
 11
5.8768496303
 21
1.8260005363
 31
0.0
 11
5.8808103678
 21
1.8283937777
 31
0.0
 11
5.8847359083
 21
1.831005267
 31
0.0
 11
5.8886259005
 21
1.8338206488
 31
0.0
 11
5.8924802838
 21
1.8368256652
 31
0.0
 11
5.8962990379
 21
1.8400061881
 31
0.0
 11
5.9000825701
 21
1.8433494525
 31
0.0
 11
5.9075466217
 21
1.8504764162
 31
0.0
  0
SPLINE
  5
336
100
AcDbEntity
  8
0
100
AcDbSpline
 62
6
  6
CONTINUOUS
 70
0
 71
3
 72
29
 73
25
 74
23
 42
0.0000001
 43
0.0000001
 44
0.0000000001
 12
0.2362370576
 22
-0.1181987063
 32
0.0
 13
0.2362370576
 23
0.1181987063
 33
0.0
 40
0.0
 40
0.0
 40
0.0
 40
0.0
 40
0.062490468
 40
0.1249869447
 40
0.1874825453
 40
0.2499775147
 40
0.3124738066
 40
0.3437275781
 40
0.3749816993
 40
0.406235159
 40
0.4374899473
 40
0.4687452776
 40
0.5000000631
 40
0.5312548428
 40
0.5625101657
 40
0.5937649542
 40
0.6250184055
 40
0.6562725113
 40
0.6875262768
 40
0.7500225345
 40
0.8125174775
 40
0.875013056
 40
0.9375095281
 40
1.0
 40
1.0
 40
1.0
 40
1.0
 10
5.5279750707
 20
1.8499625127
 30
0.0
 10
5.5328959255
 20
1.8475004152
 30
0.0
 10
5.5428251549
 20
1.8427469855
 30
0.0
 10
5.5579949908
 20
1.8362231208
 30
0.0
 10
5.5734510393
 20
1.8304032631
 30
0.0
 10
5.5891929784
 20
1.8254034286
 30
0.0
 10
5.6025376199
 20
1.822016968
 30
0.0
 10
5.6133282714
 20
1.8198368363
 30
0.0
 10
5.6214732821
 20
1.8184778491
 30
0.0
 10
5.6296612688
 20
1.8174066526
 30
0.0
 10
5.6378831576
 20
1.8166354602
 30
0.0
 10
5.6461281044
 20
1.8161692103
 30
0.0
 10
5.6543848009
 20
1.8160122653
 30
0.0
 10
5.662641497
 20
1.816169206
 30
0.0
 10
5.6708864421
 20
1.8166354667
 30
0.0
 10
5.6791083297
 20
1.8174066556
 30
0.0
 10
5.6872963148
 20
1.8184778494
 30
0.0
 10
5.6954413217
 20
1.8198368427
 30
0.0
 10
5.7062319686
 20
1.8220169721
 30
0.0
 10
5.7195766046
 20
1.8254034313
 30
0.0
 10
5.7353185358
 20
1.8304032664
 30
0.0
 10
5.7507745803
 20
1.8362231213
 30
0.0
 10
5.7659444143
 20
1.8427469853
 30
0.0
 10
5.7758736437
 20
1.8475004151
 30
0.0
 10
5.7807944987
 20
1.8499625127
 30
0.0
 11
5.5279750707
 21
1.8499625127
 31
0.0
 11
5.5428706431
 21
1.8428482633
 31
0.0
 11
5.5580427041
 21
1.8363404532
 31
0.0
 11
5.5734987425
 21
1.8305399137
 31
0.0
 11
5.589238036
 21
1.8255595002
 31
0.0
 11
5.6052440689
 21
1.8215161941
 31
0.0
 11
5.6133367933
 21
1.8198828846
 31
0.0
 11
5.6214804876
 21
1.8185258076
 31
0.0
 11
5.6296667852
 21
1.817456668
 31
0.0
 11
5.6378869336
 21
1.8166862895
 31
0.0
 11
5.6461301107
 21
1.8162207594
 31
0.0
 11
5.6543848014
 21
1.8160645793
 31
0.0
 11
5.6626394907
 21
1.8162207577
 31
0.0
 11
5.6708826655
 21
1.8166862936
 31
0.0
 11
5.6791028141
 21
1.8174566712
 31
0.0
 11
5.6872891096
 21
1.8185258095
 31
0.0
 11
5.6954327992
 21
1.8198828896
 31
0.0
 11
5.703525522
 21
1.8215161991
 31
0.0
 11
5.7195315461
 21
1.8255595031
 31
0.0
 11
5.7352708324
 21
1.8305399162
 31
0.0
 11
5.7507268656
 21
1.8363404534
 31
0.0
 11
5.7658989255
 21
1.8428482628
 31
0.0
 11
5.7807944987
 21
1.8499625127
 31
0.0
  0
SPLINE
  5
337
100
AcDbEntity
  8
0
100
AcDbSpline
 62
6
  6
CONTINUOUS
 70
0
 71
3
 72
41
 73
37
 74
35
 42
0.0000001
 43
0.0000001
 44
0.0000000001
 12
0.3267337774
 22
-0.3267337774
 32
0.0
 13
0.3267337774
 23
0.3267337774
 33
0.0
 40
0.0
 40
0.0
 40
0.0
 40
0.0
 40
0.0352330202
 40
0.0699775857
 40
0.1042038256
 40
0.1378879984
 40
0.1710086997
 40
0.2035453775
 40
0.2354873688
 40
0.2668342747
 40
0.2975908446
 40
0.3277753149
 40
0.357423424
 40
0.3865862235
 40
0.4153313998
 40
0.4295759411
 40
0.4437499533
 40
0.4719343306
 40
0.5000000441
 40
0.5280657537
 40
0.5562501295
 40
0.570424142
 40
0.5846686823
 40
0.61341385
 40
0.6425766411
 40
0.6722247458
 40
0.702409207
 40
0.7331657656
 40
0.7645126656
 40
0.7964546507
 40
0.8289913169
 40
0.8621120073
 40
0.8957961745
 40
0.9300224131
 40
0.9647669792
 40
1.0
 40
1.0
 40
1.0
 40
1.0
 10
4.8605281646
 20
5.5236711994
 30
0.0
 10
4.8643654372
 20
5.5198339268
 30
0.0
 10
4.8720695237
 20
5.5122946554
 30
0.0
 10
4.8838091169
 20
5.5013478146
 30
0.0
 10
4.8956579302
 20
5.4908755273
 30
0.0
 10
4.9076174111
 20
5.4809157067
 30
0.0
 10
4.9196884983
 20
5.4715083181
 30
0.0
 10
4.9318727458
 20
5.4626974606
 30
0.0
 10
4.9441701682
 20
5.4545280081
 30
0.0
 10
4.9565793291
 20
5.4470458937
 30
0.0
 10
4.9690962713
 20
5.4402968524
 30
0.0
 10
4.9817156081
 20
5.434327585
 30
0.0
 10
4.9944312816
 20
5.4291864913
 30
0.0
 10
5.0072310606
 20
5.4249120259
 30
0.0
 10
5.0179909467
 20
5.4220943158
 30
0.0
 10
5.026616147
 20
5.4203178088
 30
0.0
 10
5.0352142352
 20
5.418866052
 30
0.0
 10
5.0460028875
 20
5.4176443413
 30
0.0
 10
5.0589923394
 20
5.4171500484
 30
0.0
 10
5.0719817922
 20
5.417644332
 30
0.0
 10
5.0827704417
 20
5.4188660625
 30
0.0
 10
5.0913685284
 20
5.4203178248
 30
0.0
 10
5.0999937296
 20
5.42209432
 30
0.0
 10
5.1107536141
 20
5.4249120271
 30
0.0
 10
5.1235533853
 20
5.4291865055
 30
0.0
 10
5.1362690557
 20
5.4343275971
 30
0.0
 10
5.1488883906
 20
5.4402968598
 30
0.0
 10
5.1614053273
 20
5.4470459028
 30
0.0
 10
5.1738144836
 20
5.4545280178
 30
0.0
 10
5.1861119029
 20
5.4626974682
 30
0.0
 10
5.198296147
 20
5.471508323
 30
0.0
 10
5.2103672309
 20
5.4809157088
 30
0.0
 10
5.2223267094
 20
5.490875528
 30
0.0
 10
5.234175522
 20
5.5013478146
 30
0.0
 10
5.2459151153
 20
5.5122946553
 30
0.0
 10
5.253619202
 20
5.5198339267
 30
0.0
 10
5.2574564747
 20
5.5236711994
 30
0.0
 11
4.8605281646
 21
5.5236711994
 31
0.0
 11
4.8721688238
 21
5.5122896815
 31
0.0
 11
4.8839158849
 21
5.5013465332
 31
0.0
 11
4.8957713942
 21
5.4908794417
 31
0.0
 11
4.9077373861
 21
5.4809261302
 31
0.0
 11
4.9198150741
 21
5.4715268881
 31
0.0
 11
4.9320043176
 21
5.4627262345
 31
0.0
 11
4.9443048499
 21
5.4545690832
 31
0.0
 11
4.9567154606
 21
5.4471006376
 31
0.0
 11
4.969230891
 21
5.4403673429
 31
0.0
 11
4.9818447966
 21
5.4344159771
 31
0.0
 11
4.9945500853
 21
5.4292922015
 31
0.0
 11
5.0073352542
 21
5.4250350901
 31
0.0
 11
5.0201871899
 21
5.4216813114
 31
0.0
 11
5.0266340425
 21
5.4203543828
 31
0.0
 11
5.0330921708
 21
5.4192647582
 31
0.0
 11
5.0460332351
 21
5.4178044801
 31
0.0
 11
5.0589923402
 21
5.4173145793
 31
0.0
 11
5.0719514437
 21
5.4178044763
 31
0.0
 11
5.0848925055
 21
5.4192647691
 31
0.0
 11
5.0913506335
 21
5.4203543968
 31
0.0
 11
5.0977974868
 21
5.4216813196
 31
0.0
 11
5.1106494194
 21
5.425035094
 31
0.0
 11
5.1234345819
 21
5.4292922128
 31
0.0
 11
5.1361398681
 21
5.4344159891
 31
0.0
 11
5.1487537707
 21
5.4403673515
 31
0.0
 11
5.1612691952
 21
5.4471006461
 31
0.0
 11
5.1736798022
 21
5.4545690925
 31
0.0
 11
5.1859803318
 21
5.4627262425
 31
0.0
 11
5.1981695711
 21
5.4715268929
 31
0.0
 11
5.2102472552
 21
5.4809261318
 31
0.0
 11
5.222213245
 21
5.4908794419
 31
0.0
 11
5.2340687537
 21
5.501346533
 31
0.0
 11
5.2458158152
 21
5.5122896814
 31
0.0
 11
5.2574564747
 21
5.5236711994
 31
0.0
  0
SPLINE
  5
338
100
AcDbEntity
  8
0
100
AcDbSpline
 62
6
  6
CONTINUOUS
 70
0
 71
3
 72
41
 73
37
 74
35
 42
0.0000001
 43
0.0000001
 44
0.0000000001
 12
0.3267337774
 22
0.3267337774
 32
0.0
 13
0.3267337774
 23
-0.3267337774
 33
0.0
 40
0.0
 40
0.0
 40
0.0
 40
0.0
 40
0.0352330202
 40
0.0699775857
 40
0.1042038256
 40
0.1378879984
 40
0.1710086997
 40
0.2035453775
 40
0.2354873688
 40
0.2668342747
 40
0.2975908446
 40
0.3277753149
 40
0.357423424
 40
0.3865862235
 40
0.4153313998
 40
0.4295759411
 40
0.4437499533
 40
0.4719343306
 40
0.5000000441
 40
0.5280657537
 40
0.5562501295
 40
0.570424142
 40
0.5846686823
 40
0.61341385
 40
0.6425766411
 40
0.6722247458
 40
0.702409207
 40
0.7331657656
 40
0.7645126656
 40
0.7964546507
 40
0.8289913169
 40
0.8621120073
 40
0.8957961745
 40
0.9300224131
 40
0.9647669792
 40
1.0
 40
1.0
 40
1.0
 40
1.0
 10
4.8605281646
 20
5.6709579591
 30
0.0
 10
4.8643654372
 20
5.6747952317
 30
0.0
 10
4.8720695237
 20
5.6823345031
 30
0.0
 10
4.8838091169
 20
5.6932813439
 30
0.0
 10
4.8956579302
 20
5.7037536312
 30
0.0
 10
4.9076174111
 20
5.7137134518
 30
0.0
 10
4.9196884983
 20
5.7231208404
 30
0.0
 10
4.9318727458
 20
5.7319316979
 30
0.0
 10
4.9441701682
 20
5.7401011504
 30
0.0
 10
4.9565793291
 20
5.7475832648
 30
0.0
 10
4.9690962713
 20
5.7543323061
 30
0.0
 10
4.9817156081
 20
5.7603015735
 30
0.0
 10
4.9944312816
 20
5.7654426672
 30
0.0
 10
5.0072310606
 20
5.7697171326
 30
0.0
 10
5.0179909467
 20
5.7725348427
 30
0.0
 10
5.026616147
 20
5.7743113497
 30
0.0
 10
5.0352142352
 20
5.7757631065
 30
0.0
 10
5.0460028875
 20
5.7769848172
 30
0.0
 10
5.0589923394
 20
5.7774791101
 30
0.0
 10
5.0719817922
 20
5.7769848266
 30
0.0
 10
5.0827704417
 20
5.775763096
 30
0.0
 10
5.0913685284
 20
5.7743113337
 30
0.0
 10
5.0999937296
 20
5.7725348385
 30
0.0
 10
5.1107536141
 20
5.7697171314
 30
0.0
 10
5.1235533853
 20
5.765442653
 30
0.0
 10
5.1362690557
 20
5.7603015614
 30
0.0
 10
5.1488883906
 20
5.7543322987
 30
0.0
 10
5.1614053273
 20
5.7475832557
 30
0.0
 10
5.1738144836
 20
5.7401011408
 30
0.0
 10
5.1861119029
 20
5.7319316903
 30
0.0
 10
5.198296147
 20
5.7231208356
 30
0.0
 10
5.2103672309
 20
5.7137134497
 30
0.0
 10
5.2223267094
 20
5.7037536305
 30
0.0
 10
5.234175522
 20
5.6932813439
 30
0.0
 10
5.2459151153
 20
5.6823345032
 30
0.0
 10
5.253619202
 20
5.6747952318
 30
0.0
 10
5.2574564747
 20
5.6709579591
 30
0.0
 11
4.8605281646
 21
5.6709579591
 31
0.0
 11
4.8721688238
 21
5.682339477
 31
0.0
 11
4.8839158849
 21
5.6932826253
 31
0.0
 11
4.8957713942
 21
5.7037497168
 31
0.0
 11
4.9077373861
 21
5.7137030284
 31
0.0
 11
4.9198150741
 21
5.7231022704
 31
0.0
 11
4.9320043176
 21
5.731902924
 31
0.0
 11
4.9443048499
 21
5.7400600753
 31
0.0
 11
4.9567154606
 21
5.7475285209
 31
0.0
 11
4.969230891
 21
5.7542618156
 31
0.0
 11
4.9818447966
 21
5.7602131814
 31
0.0
 11
4.9945500853
 21
5.7653369571
 31
0.0
 11
5.0073352542
 21
5.7695940684
 31
0.0
 11
5.0201871899
 21
5.7729478471
 31
0.0
 11
5.0266340425
 21
5.7742747757
 31
0.0
 11
5.0330921708
 21
5.7753644003
 31
0.0
 11
5.0460332351
 21
5.7768246784
 31
0.0
 11
5.0589923402
 21
5.7773145792
 31
0.0
 11
5.0719514437
 21
5.7768246823
 31
0.0
 11
5.0848925055
 21
5.7753643894
 31
0.0
 11
5.0913506335
 21
5.7742747618
 31
0.0
 11
5.0977974868
 21
5.7729478389
 31
0.0
 11
5.1106494194
 21
5.7695940645
 31
0.0
 11
5.1234345819
 21
5.7653369457
 31
0.0
 11
5.1361398681
 21
5.7602131694
 31
0.0
 11
5.1487537707
 21
5.754261807
 31
0.0
 11
5.1612691952
 21
5.7475285124
 31
0.0
 11
5.1736798022
 21
5.7400600661
 31
0.0
 11
5.1859803318
 21
5.731902916
 31
0.0
 11
5.1981695711
 21
5.7231022656
 31
0.0
 11
5.2102472552
 21
5.7137030267
 31
0.0
 11
5.222213245
 21
5.7037497166
 31
0.0
 11
5.2340687537
 21
5.6932826255
 31
0.0
 11
5.2458158152
 21
5.6823394771
 31
0.0
 11
5.2574564747
 21
5.6709579591
 31
0.0
  0
SPLINE
  5
339
100
AcDbEntity
  8
0
100
AcDbSpline
 62
6
  6
CONTINUOUS
 70
0
 71
3
 72
35
 73
31
 74
29
 42
0.0000001
 43
0.0000001
 44
0.0000000001
 12
0.0933548739
 22
-0.0927869988
 32
0.0
 13
0.1000820141
 23
0.0854877188
 33
0.0
 40
0.0
 40
0.0
 40
0.0
 40
0.0
 40
0.070799448
 40
0.1397289441
 40
0.1734464752
 40
0.2066400787
 40
0.2714001714
 40
0.3029749935
 40
0.3340155719
 40
0.364538925
 40
0.3945752756
 40
0.4241661861
 40
0.4533651674
 40
0.482239479
 40
0.5108692647
 40
0.5393425696
 40
0.5677535821
 40
0.5962009289
 40
0.6247805581
 40
0.6535820948
 40
0.6826880072
 40
0.7121694906
 40
0.7420836945
 40
0.8033578602
 40
0.8347904855
 40
0.8667626215
 40
0.8992758706
 40
0.9323280507
 40
0.9659086432
 40
1.0
 40
1.0
 40
1.0
 40
1.0
 10
5.2966999568
 20
1.8499625127
 30
0.0
 10
5.2989031146
 20
1.8477727566
 30
0.0
 10
5.3033362466
 20
1.8435352876
 30
0.0
 10
5.3090832154
 20
1.8385414589
 30
0.0
 10
5.3137457363
 20
1.8348276565
 30
0.0
 10
5.3183747345
 20
1.8313704025
 30
0.0
 10
5.3230993588
 20
1.8282008208
 30
0.0
 10
5.3279237842
 20
1.8253772632
 30
0.0
 10
5.3315396351
 20
1.8234703348
 30
0.0
 10
5.3351817402
 20
1.8217674147
 30
0.0
 10
5.3388486986
 20
1.8202798417
 30
0.0
 10
5.3425377484
 20
1.8190167156
 30
0.0
 10
5.3462458488
 20
1.8179864506
 30
0.0
 10
5.3499700081
 20
1.8171983799
 30
0.0
 10
5.353706126
 20
1.8166585373
 30
0.0
 10
5.3574496868
 20
1.8163696173
 30
0.0
 10
5.3611963163
 20
1.8163355064
 30
0.0
 10
5.3649411363
 20
1.8165575594
 30
0.0
 10
5.3686796137
 20
1.8170315158
 30
0.0
 10
5.3724074265
 20
1.8177540979
 30
0.0
 10
5.3761200705
 20
1.818721221
 30
0.0
 10
5.3798144811
 20
1.819923745
 30
0.0
 10
5.3847506354
 20
1.8218441421
 30
0.0
 10
5.3896018484
 20
1.8241938343
 30
0.0
 10
5.3943547581
 20
1.8269037497
 30
0.0
 10
5.3979219505
 20
1.8291388841
 30
0.0
 10
5.4014597207
 20
1.8315482625
 30
0.0
 10
5.4049681137
 20
1.8341212931
 30
0.0
 10
5.4084470718
 20
1.8368474473
 30
0.0
 10
5.4107302412
 20
1.8387461542
 30
0.0
 10
5.4118675517
 20
1.8397176183
 30
0.0
 11
5.2966999568
 21
1.8499625127
 31
0.0
 11
5.3034460589
 21
1.84353363
 31
0.0
 11
5.3103049864
 21
1.8375948702
 31
0.0
 11
5.3137778602
 21
1.8348317284
 31
0.0
 11
5.3172798373
 21
1.8322193308
 31
0.0
 11
5.3243707607
 21
1.8274890296
 31
0.0
 11
5.3279590906
 21
1.8253923788
 31
0.0
 11
5.3315744055
 21
1.8234892198
 31
0.0
 11
5.3352151815
 21
1.8217905112
 31
0.0
 11
5.3388797563
 21
1.8203070006
 31
0.0
 11
5.3425654618
 21
1.8190478977
 31
0.0
 11
5.3462691851
 21
1.8180217322
 31
0.0
 11
5.3499877841
 21
1.8172369043
 31
0.0
 11
5.3537175545
 21
1.8166991856
 31
0.0
 11
5.3574542603
 21
1.8164118625
 31
0.0
 11
5.3611936446
 21
1.8163780923
 31
0.0
 11
5.3649314595
 21
1.8165986969
 31
0.0
 11
5.3686634715
 21
1.8170706121
 31
0.0
 11
5.3723854485
 21
1.8177904057
 31
0.0
 11
5.3760934124
 21
1.8187535133
 31
0.0
 11
5.3797841589
 21
1.8199519154
 31
0.0
 11
5.3834546309
 21
1.8213769361
 31
0.0
 11
5.3907240813
 21
1.8248698652
 31
0.0
 11
5.3943196812
 21
1.8269164475
 31
0.0
 11
5.3978872559
 21
1.8291484596
 31
0.0
 11
5.4014259087
 21
1.8315551015
 31
0.0
 11
5.4049355344
 21
1.8341258376
 31
0.0
 11
5.408416088
 21
1.8368501529
 31
0.0
 11
5.4118675517
 21
1.8397176183
 31
0.0
  0
SPLINE
  5
33A
100
AcDbEntity
  8
0
100
AcDbSpline
 62
6
  6
CONTINUOUS
 70
0
 71
3
 72
24
 73
20
 74
18
 42
0.0000001
 43
0.0000001
 44
0.0000000001
 12
0.1656014978
 22
-0.0265182464
 32
0.0
 13
0.149985162
 23
0.0750434851
 33
0.0
 40
0.0
 40
0.0
 40
0.0
 40
0.0
 40
0.0625035363
 40
0.1250095893
 40
0.1875161788
 40
0.2187711769
 40
0.2500262703
 40
0.3125330826
 40
0.3437884483
 40
0.3750426416
 40
0.4062962674
 40
0.4375503504
 40
0.5000552354
 40
0.6250332227
 40
0.6875313418
 40
0.7500270844
 40
0.8125265038
 40
0.8750244869
 40
1.0
 40
1.0
 40
1.0
 40
1.0
 10
5.1348069176
 20
1.81892418
 30
0.0
 10
5.138257144
 20
1.8183716853
 30
0.0
 10
5.1451832996
 20
1.8174191123
 30
0.0
 10
5.155627012
 20
1.8164734561
 30
0.0
 10
5.1643584424
 20
1.8160964421
 30
0.0
 10
5.1713477573
 20
1.8160460796
 30
0.0
 10
5.1783362141
 20
1.8161642833
 30
0.0
 10
5.1853185563
 20
1.8165327451
 30
0.0
 10
5.192280895
 20
1.8171467193
 30
0.0
 10
5.1974906687
 20
1.8177290433
 30
0.0
 10
5.2026855675
 20
1.8184308452
 30
0.0
 10
5.2095891474
 20
1.8195216403
 30
0.0
 10
5.2216016032
 20
1.8218267774
 30
0.0
 10
5.2351500548
 20
1.8253220723
 30
0.0
 10
5.2484706201
 20
1.8295525835
 30
0.0
 10
5.2583484824
 20
1.8330646715
 30
0.0
 10
5.2681105156
 20
1.8368856196
 30
0.0
 10
5.2809725897
 20
1.8423529223
 30
0.0
 10
5.2904517993
 20
1.8468363134
 30
0.0
 10
5.2966999568
 20
1.8499625127
 30
0.0
 11
5.1348069176
 21
1.81892418
 31
0.0
 11
5.145192223
 21
1.8174996636
 31
0.0
 11
5.155632603
 21
1.8165556679
 31
0.0
 11
5.1661059626
 21
1.8161047917
 31
0.0
 11
5.1713476432
 21
1.8160671509
 31
0.0
 11
5.1765887288
 21
1.8161555908
 31
0.0
 11
5.1870573307
 21
1.8167066869
 31
0.0
 11
5.192278955
 21
1.8171670325
 31
0.0
 11
5.1974882329
 21
1.8177489614
 31
0.0
 11
5.2026826959
 21
1.8184502274
 31
0.0
 11
5.2078601969
 21
1.8192678497
 31
0.0
 11
5.2181557536
 21
1.8212401755
 31
0.0
 11
5.2384605457
 21
1.8264407682
 31
0.0
 11
5.2484518581
 21
1.8296091186
 31
0.0
 11
5.2583289862
 21
1.8331160766
 31
0.0
 11
5.2680914588
 21
1.8369322879
 31
0.0
 11
5.2777393163
 21
1.8410290103
 31
0.0
 11
5.2966999568
 21
1.8499625127
 31
0.0
  0
SPLINE
  5
33B
100
AcDbEntity
  8
0
100
AcDbSpline
 62
6
  6
CONTINUOUS
 70
0
 71
3
 72
37
 73
33
 74
31
 42
0.0000001
 43
0.0000001
 44
0.0000000001
 12
0.1045714196
 22
-0.1039353146
 32
0.0
 13
0.1042538523
 23
0.1042538523
 33
0.0
 40
0.0
 40
0.0
 40
0.0
 40
0.0
 40
0.0698604899
 40
0.1040322248
 40
0.1376632857
 40
0.1707326647
 40
0.2032203844
 40
0.2351164604
 40
0.2664212169
 40
0.2971402699
 40
0.3272928408
 40
0.3569156439
 40
0.3860606554
 40
0.4147963836
 40
0.4432098585
 40
0.4714028306
 40
0.4994860336
 40
0.527577498
 40
0.5557947535
 40
0.5842473264
 40
0.6130351659
 40
0.6422430106
 40
0.6719369199
 40
0.702166488
 40
0.7329662451
 40
0.7643534321
 40
0.7963320819
 40
0.828901321
 40
0.8620501495
 40
0.8957578506
 40
0.9300030254
 40
1.0
 40
1.0
 40
1.0
 40
1.0
 10
6.5222436489
 20
1.8499625127
 30
0.0
 10
6.5246787858
 20
1.8475421887
 30
0.0
 10
6.5283837698
 20
1.8440150143
 30
0.0
 10
6.533469182
 20
1.8395516985
 30
0.0
 10
6.5372908667
 20
1.8363927229
 30
0.0
 10
6.5411481668
 20
1.8334106219
 30
0.0
 10
6.545041599
 20
1.8306194454
 30
0.0
 10
6.5489711236
 20
1.8280335168
 30
0.0
 10
6.5529362543
 20
1.825667485
 30
0.0
 10
6.5569356703
 20
1.8235358882
 30
0.0
 10
6.5609676186
 20
1.821653572
 30
0.0
 10
6.5650300695
 20
1.8200359072
 30
0.0
 10
6.5691191904
 20
1.8186949864
 30
0.0
 10
6.5732309321
 20
1.8176424632
 30
0.0
 10
6.5773608898
 20
1.8168907021
 30
0.0
 10
6.5815028558
 20
1.8164448115
 30
0.0
 10
6.58565089
 20
1.8163092248
 30
0.0
 10
6.5897984564
 20
1.8164883507
 30
0.0
 10
6.5939390885
 20
1.816977249
 30
0.0
 10
6.5980668824
 20
1.8177712286
 30
0.0
 10
6.6021757188
 20
1.8188646695
 30
0.0
 10
6.6062613318
 20
1.820244927
 30
0.0
 10
6.6103197527
 20
1.8219001916
 30
0.0
 10
6.6143472873
 20
1.8238181216
 30
0.0
 10
6.6183420065
 20
1.8259832936
 30
0.0
 10
6.6223022392
 20
1.8283808397
 30
0.0
 10
6.6262267649
 20
1.8309961985
 30
0.0
 10
6.6301151549
 20
1.8338147886
 30
0.0
 10
6.6339674227
 20
1.8368223616
 30
0.0
 10
6.637784143
 20
1.8400049435
 30
0.0
 10
6.6428626907
 20
1.8444973252
 30
0.0
 10
6.6465632871
 20
1.8480439314
 30
0.0
 10
6.6489957719
 20
1.8504764162
 30
0.0
 11
6.5222436489
 21
1.8499625127
 31
0.0
 11
6.5297170426
 21
1.8428745564
 31
0.0
 11
6.5335054379
 21
1.8395532053
 31
0.0
 11
6.537329143
 21
1.8363963553
 31
0.0
 11
6.5411885209
 21
1.8334168866
 31
0.0
 11
6.5450834973
 21
1.830629004
 31
0.0
 11
6.5490139578
 21
1.8280470335
 31
0.0
 11
6.5529794758
 21
1.8256853862
 31
0.0
 11
6.556978324
 21
1.823558829
 31
0.0
 11
6.5610084357
 21
1.8216822211
 31
0.0
 11
6.5650674949
 21
1.820070041
 31
0.0
 11
6.5691517744
 21
1.8187346089
 31
0.0
 11
6.573257051
 21
1.8176874874
 31
0.0
 11
6.5773789006
 21
1.8169393016
 31
0.0
 11
6.5815118767
 21
1.8164958977
 31
0.0
 11
6.5856502073
 21
1.8163616005
 31
0.0
 11
6.5897881262
 21
1.8165391716
 31
0.0
 11
6.5939198895
 21
1.8170253896
 31
0.0
 11
6.5980397589
 21
1.8178155999
 31
0.0
 11
6.6021423572
 21
1.8189035374
 31
0.0
 11
6.6062233514
 21
1.820278276
 31
0.0
 11
6.610278597
 21
1.8219280502
 31
0.0
 11
6.6143044784
 21
1.8238403265
 31
0.0
 11
6.6182987805
 21
1.8260005363
 31
0.0
 11
6.622259518
 21
1.8283937777
 31
0.0
 11
6.6261850585
 21
1.831005267
 31
0.0
 11
6.6300750507
 21
1.8338206488
 31
0.0
 11
6.633929434
 21
1.8368256652
 31
0.0
 11
6.6377481881
 21
1.8400061881
 31
0.0
 11
6.6415317203
 21
1.8433494525
 31
0.0
 11
6.6489957719
 21
1.8504764162
 31
0.0
  0
SPLINE
  5
33C
100
AcDbEntity
  8
0
100
AcDbSpline
 62
6
  6
CONTINUOUS
 70
0
 71
3
 72
29
 73
25
 74
23
 42
0.0000001
 43
0.0000001
 44
0.0000000001
 12
0.2362370576
 22
-0.1181987063
 32
0.0
 13
0.2362370576
 23
0.1181987063
 33
0.0
 40
0.0
 40
0.0
 40
0.0
 40
0.0
 40
0.062490468
 40
0.1249869447
 40
0.1874825453
 40
0.2499775147
 40
0.3124738066
 40
0.3437275781
 40
0.3749816993
 40
0.406235159
 40
0.4374899473
 40
0.4687452776
 40
0.5000000631
 40
0.5312548428
 40
0.5625101657
 40
0.5937649542
 40
0.6250184055
 40
0.6562725113
 40
0.6875262768
 40
0.7500225345
 40
0.8125174775
 40
0.875013056
 40
0.9375095281
 40
1.0
 40
1.0
 40
1.0
 40
1.0
 10
6.2694242209
 20
1.8499625127
 30
0.0
 10
6.2743450757
 20
1.8475004152
 30
0.0
 10
6.2842743051
 20
1.8427469855
 30
0.0
 10
6.299444141
 20
1.8362231208
 30
0.0
 10
6.3149001895
 20
1.8304032631
 30
0.0
 10
6.3306421286
 20
1.8254034286
 30
0.0
 10
6.3439867701
 20
1.822016968
 30
0.0
 10
6.3547774216
 20
1.8198368363
 30
0.0
 10
6.3629224323
 20
1.8184778491
 30
0.0
 10
6.371110419
 20
1.8174066526
 30
0.0
 10
6.3793323078
 20
1.8166354602
 30
0.0
 10
6.3875772546
 20
1.8161692103
 30
0.0
 10
6.3958339511
 20
1.8160122653
 30
0.0
 10
6.4040906472
 20
1.816169206
 30
0.0
 10
6.4123355923
 20
1.8166354667
 30
0.0
 10
6.4205574799
 20
1.8174066556
 30
0.0
 10
6.428745465
 20
1.8184778494
 30
0.0
 10
6.4368904719
 20
1.8198368427
 30
0.0
 10
6.4476811188
 20
1.8220169721
 30
0.0
 10
6.4610257548
 20
1.8254034313
 30
0.0
 10
6.476767686
 20
1.8304032664
 30
0.0
 10
6.4922237305
 20
1.8362231213
 30
0.0
 10
6.5073935646
 20
1.8427469853
 30
0.0
 10
6.5173227939
 20
1.8475004151
 30
0.0
 10
6.5222436489
 20
1.8499625127
 30
0.0
 11
6.2694242209
 21
1.8499625127
 31
0.0
 11
6.2843197933
 21
1.8428482633
 31
0.0
 11
6.2994918543
 21
1.8363404532
 31
0.0
 11
6.3149478927
 21
1.8305399137
 31
0.0
 11
6.3306871862
 21
1.8255595002
 31
0.0
 11
6.3466932191
 21
1.8215161941
 31
0.0
 11
6.3547859436
 21
1.8198828846
 31
0.0
 11
6.3629296378
 21
1.8185258076
 31
0.0
 11
6.3711159354
 21
1.817456668
 31
0.0
 11
6.3793360838
 21
1.8166862895
 31
0.0
 11
6.3875792609
 21
1.8162207594
 31
0.0
 11
6.3958339517
 21
1.8160645793
 31
0.0
 11
6.4040886409
 21
1.8162207577
 31
0.0
 11
6.4123318157
 21
1.8166862936
 31
0.0
 11
6.4205519643
 21
1.8174566712
 31
0.0
 11
6.4287382599
 21
1.8185258095
 31
0.0
 11
6.4368819494
 21
1.8198828896
 31
0.0
 11
6.4449746722
 21
1.8215161991
 31
0.0
 11
6.4609806963
 21
1.8255595031
 31
0.0
 11
6.4767199826
 21
1.8305399162
 31
0.0
 11
6.4921760158
 21
1.8363404534
 31
0.0
 11
6.5073480757
 21
1.8428482628
 31
0.0
 11
6.5222436489
 21
1.8499625127
 31
0.0
  0
SPLINE
  5
33D
100
AcDbEntity
  8
0
100
AcDbSpline
 62
6
  6
CONTINUOUS
 70
0
 71
3
 72
37
 73
33
 74
31
 42
0.0000001
 43
0.0000001
 44
0.0000000001
 12
0.1045714196
 22
-0.1039353146
 32
0.0
 13
0.1042538523
 23
0.1042538523
 33
0.0
 40
0.0
 40
0.0
 40
0.0
 40
0.0
 40
0.0698604899
 40
0.1040322248
 40
0.1376632857
 40
0.1707326647
 40
0.2032203844
 40
0.2351164604
 40
0.2664212169
 40
0.2971402699
 40
0.3272928408
 40
0.3569156439
 40
0.3860606554
 40
0.4147963836
 40
0.4432098585
 40
0.4714028306
 40
0.4994860336
 40
0.527577498
 40
0.5557947535
 40
0.5842473264
 40
0.6130351659
 40
0.6422430106
 40
0.6719369199
 40
0.702166488
 40
0.7329662451
 40
0.7643534321
 40
0.7963320819
 40
0.828901321
 40
0.8620501495
 40
0.8957578506
 40
0.9300030254
 40
1.0
 40
1.0
 40
1.0
 40
1.0
 10
7.1508138873
 20
1.8499625127
 30
0.0
 10
7.1532490242
 20
1.8475421887
 30
0.0
 10
7.1569540082
 20
1.8440150143
 30
0.0
 10
7.1620394203
 20
1.8395516985
 30
0.0
 10
7.165861105
 20
1.8363927229
 30
0.0
 10
7.1697184051
 20
1.8334106219
 30
0.0
 10
7.1736118373
 20
1.8306194454
 30
0.0
 10
7.1775413619
 20
1.8280335168
 30
0.0
 10
7.1815064926
 20
1.825667485
 30
0.0
 10
7.1855059086
 20
1.8235358882
 30
0.0
 10
7.189537857
 20
1.821653572
 30
0.0
 10
7.1936003079
 20
1.8200359072
 30
0.0
 10
7.1976894288
 20
1.8186949864
 30
0.0
 10
7.2018011704
 20
1.8176424632
 30
0.0
 10
7.2059311282
 20
1.8168907021
 30
0.0
 10
7.2100730942
 20
1.8164448115
 30
0.0
 10
7.2142211283
 20
1.8163092248
 30
0.0
 10
7.2183686947
 20
1.8164883507
 30
0.0
 10
7.2225093268
 20
1.816977249
 30
0.0
 10
7.2266371207
 20
1.8177712286
 30
0.0
 10
7.2307459571
 20
1.8188646695
 30
0.0
 10
7.2348315702
 20
1.820244927
 30
0.0
 10
7.2388899911
 20
1.8219001916
 30
0.0
 10
7.2429175257
 20
1.8238181216
 30
0.0
 10
7.2469122448
 20
1.8259832936
 30
0.0
 10
7.2508724775
 20
1.8283808397
 30
0.0
 10
7.2547970032
 20
1.8309961985
 30
0.0
 10
7.2586853932
 20
1.8338147886
 30
0.0
 10
7.262537661
 20
1.8368223616
 30
0.0
 10
7.2663543814
 20
1.8400049435
 30
0.0
 10
7.2714329291
 20
1.8444973252
 30
0.0
 10
7.2751335255
 20
1.8480439314
 30
0.0
 10
7.2775660102
 20
1.8504764162
 30
0.0
 11
7.1508138873
 21
1.8499625127
 31
0.0
 11
7.158287281
 21
1.8428745564
 31
0.0
 11
7.1620756762
 21
1.8395532053
 31
0.0
 11
7.1658993813
 21
1.8363963553
 31
0.0
 11
7.1697587593
 21
1.8334168866
 31
0.0
 11
7.1736537357
 21
1.830629004
 31
0.0
 11
7.1775841961
 21
1.8280470335
 31
0.0
 11
7.1815497142
 21
1.8256853862
 31
0.0
 11
7.1855485623
 21
1.823558829
 31
0.0
 11
7.189578674
 21
1.8216822211
 31
0.0
 11
7.1936377333
 21
1.820070041
 31
0.0
 11
7.1977220128
 21
1.8187346089
 31
0.0
 11
7.2018272894
 21
1.8176874874
 31
0.0
 11
7.205949139
 21
1.8169393016
 31
0.0
 11
7.2100821151
 21
1.8164958977
 31
0.0
 11
7.2142204457
 21
1.8163616005
 31
0.0
 11
7.2183583646
 21
1.8165391716
 31
0.0
 11
7.2224901278
 21
1.8170253896
 31
0.0
 11
7.2266099972
 21
1.8178155999
 31
0.0
 11
7.2307125956
 21
1.8189035374
 31
0.0
 11
7.2347935897
 21
1.820278276
 31
0.0
 11
7.2388488353
 21
1.8219280502
 31
0.0
 11
7.2428747167
 21
1.8238403265
 31
0.0
 11
7.2468690188
 21
1.8260005363
 31
0.0
 11
7.2508297563
 21
1.8283937777
 31
0.0
 11
7.2547552968
 21
1.831005267
 31
0.0
 11
7.2586452891
 21
1.8338206488
 31
0.0
 11
7.2624996723
 21
1.8368256652
 31
0.0
 11
7.2663184264
 21
1.8400061881
 31
0.0
 11
7.2701019586
 21
1.8433494525
 31
0.0
 11
7.2775660102
 21
1.8504764162
 31
0.0
  0
SPLINE
  5
33E
100
AcDbEntity
  8
0
100
AcDbSpline
 62
6
  6
CONTINUOUS
 70
0
 71
3
 72
29
 73
25
 74
23
 42
0.0000001
 43
0.0000001
 44
0.0000000001
 12
0.2362370576
 22
-0.1181987063
 32
0.0
 13
0.2362370576
 23
0.1181987063
 33
0.0
 40
0.0
 40
0.0
 40
0.0
 40
0.0
 40
0.062490468
 40
0.1249869447
 40
0.1874825453
 40
0.2499775147
 40
0.3124738066
 40
0.3437275781
 40
0.3749816993
 40
0.406235159
 40
0.4374899473
 40
0.4687452776
 40
0.5000000631
 40
0.5312548428
 40
0.5625101657
 40
0.5937649542
 40
0.6250184055
 40
0.6562725113
 40
0.6875262768
 40
0.7500225345
 40
0.8125174775
 40
0.875013056
 40
0.9375095281
 40
1.0
 40
1.0
 40
1.0
 40
1.0
 10
6.8979944593
 20
1.8499625127
 30
0.0
 10
6.9029153141
 20
1.8475004152
 30
0.0
 10
6.9128445435
 20
1.8427469855
 30
0.0
 10
6.9280143794
 20
1.8362231208
 30
0.0
 10
6.9434704278
 20
1.8304032631
 30
0.0
 10
6.959212367
 20
1.8254034286
 30
0.0
 10
6.9725570085
 20
1.822016968
 30
0.0
 10
6.98334766
 20
1.8198368363
 30
0.0
 10
6.9914926706
 20
1.8184778491
 30
0.0
 10
6.9996806573
 20
1.8174066526
 30
0.0
 10
7.0079025461
 20
1.8166354602
 30
0.0
 10
7.0161474929
 20
1.8161692103
 30
0.0
 10
7.0244041894
 20
1.8160122653
 30
0.0
 10
7.0326608856
 20
1.816169206
 30
0.0
 10
7.0409058307
 20
1.8166354667
 30
0.0
 10
7.0491277183
 20
1.8174066556
 30
0.0
 10
7.0573157033
 20
1.8184778494
 30
0.0
 10
7.0654607103
 20
1.8198368427
 30
0.0
 10
7.0762513572
 20
1.8220169721
 30
0.0
 10
7.0895959931
 20
1.8254034313
 30
0.0
 10
7.1053379243
 20
1.8304032664
 30
0.0
 10
7.1207939688
 20
1.8362231213
 30
0.0
 10
7.1359638029
 20
1.8427469853
 30
0.0
 10
7.1458930322
 20
1.8475004151
 30
0.0
 10
7.1508138873
 20
1.8499625127
 30
0.0
 11
6.8979944593
 21
1.8499625127
 31
0.0
 11
6.9128900316
 21
1.8428482633
 31
0.0
 11
6.9280620926
 21
1.8363404532
 31
0.0
 11
6.9435181311
 21
1.8305399137
 31
0.0
 11
6.9592574246
 21
1.8255595002
 31
0.0
 11
6.9752634575
 21
1.8215161941
 31
0.0
 11
6.9833561819
 21
1.8198828846
 31
0.0
 11
6.9914998761
 21
1.8185258076
 31
0.0
 11
6.9996861737
 21
1.817456668
 31
0.0
 11
7.0079063222
 21
1.8166862895
 31
0.0
 11
7.0161494993
 21
1.8162207594
 31
0.0
 11
7.02440419
 21
1.8160645793
 31
0.0
 11
7.0326588792
 21
1.8162207577
 31
0.0
 11
7.0409020541
 21
1.8166862936
 31
0.0
 11
7.0491222026
 21
1.8174566712
 31
0.0
 11
7.0573084982
 21
1.8185258095
 31
0.0
 11
7.0654521878
 21
1.8198828896
 31
0.0
 11
7.0735449105
 21
1.8215161991
 31
0.0
 11
7.0895509347
 21
1.8255595031
 31
0.0
 11
7.105290221
 21
1.8305399162
 31
0.0
 11
7.1207462541
 21
1.8363404534
 31
0.0
 11
7.135918314
 21
1.8428482628
 31
0.0
 11
7.1508138873
 21
1.8499625127
 31
0.0
  0
ENDSEC
  0
SECTION
  2
OBJECTS
  0
DICTIONARY
  5
C
100
AcDbDictionary
280
0
281
1
  3
ACAD_GROUP
350
D
  3
ACAD_MLINESTYLE
350
17
  3
ACAD_LAYOUT
350
1A
  3
ACAD_PLOTSETTINGS
350
19
  3
ACAD_PLOTSTYLENAME
350
E
  0
DICTIONARY
  5
D
102
{ACAD_REACTORS
330
C
102
}
100
AcDbDictionary
280
0
281
1
  0
ACDBDICTIONARYWDFLT
  5
E
102
{ACAD_REACTORS
330
C
102
}
100
AcDbDictionary
281
1
  3
Normal
350
F
100
AcDbDictionaryWithDefault
340
F
  0
DICTIONARY
  5
17
102
{ACAD_REACTORS
330
C
102
}
100
AcDbDictionary
280
0
281
1
  3
Standard
350
18
  0
DICTIONARY
  5
19
102
{ACAD_REACTORS
330
C
102
}
100
AcDbDictionary
281
1
  0
DICTIONARY
  5
1A
102
{ACAD_REACTORS
330
C
102
}
100
AcDbDictionary
281
1
  3
Model
350
33F
  3
Layout1
350
340
  0
ACDBPLACEHOLDER
  5
F
102
{ACAD_REACTORS
330
E
102
}
  0
MLINESTYLE
  5
18
102
{ACAD_REACTORS
330
17
102
}
100
AcDbMlineStyle
  2
STANDARD
 70
0
  3

 62
256
 51
90.0
 52
90.0
 71
2
 49
0.5
 62
256
  6
BYLAYER
 49
-0.5
 62
256
  6
BYLAYER
  0
LAYOUT
  5
33F
102
{ACAD_REACTORS
330
1A
102
}
100
AcDbPlotSettings
  1

  2
none_device
  4
ANSI_A_(11.00_x_8.50_Inches)
  6

 40
0.0
 41
0.0
 42
0.0
 43
0.0
 44
279.4
 45
215.9
 46
0.0
 47
0.0
 48
0.0
 49
0.0
140
0.0
141
0.0
142
1.0
143
1.0
 70
1024
 72
0
 73
0
 74
0
  7

 75
0
147
1.0
148
0.0
149
0.0
100
AcDbLayout
  1
Model
 70
0
 71
0
 10
0.0
 20
0.0
 11
11.0
 21
8.5
 12
0.0
 22
0.0
 32
0.0
 14
0.0
 24
0.0
 34
0.0
 15
0.0
 25
0.0
 35
0.0
146
0.0
 13
0.0
 23
0.0
 33
0.0
 16
1.0
 26
0.0
 36
0.0
 17
0.0
 27
1.0
 37
0.0
 76
0
330
203
345
0
346
0
  0
LAYOUT
  5
340
102
{ACAD_REACTORS
330
1A
102
}
100
AcDbPlotSettings
  1

  2
none_device
  4
ANSI_A_(11.00_x_8.50_Inches)
  6

 40
0.0
 41
0.0
 42
0.0
 43
0.0
 44
279.4
 45
215.9
 46
0.0
 47
0.0
 48
0.0
 49
0.0
140
0.0
141
0.0
142
1.0
143
1.0
 70
0
 72
0
 73
0
 74
0
  7

 75
0
147
1.0
148
0.0
149
0.0
100
AcDbLayout
  1
Layout1
 70
0
 71
1
 10
0.0
 20
0.0
 11
11.0
 21
8.5
 12
0.0
 22
0.0
 32
0.0
 14
0.0
 24
0.0
 34
0.0
 15
0.0
 25
0.0
 35
0.0
146
0.0
 13
0.0
 23
0.0
 33
0.0
 16
1.0
 26
0.0
 36
0.0
 17
0.0
 27
1.0
 37
0.0
 76
0
330
204
345
0
346
0
  0
ENDSEC
  0
EOF
