999
DXF file: 2152_front.dxf
999
Pro/ENGINEER 2018400 by Parametric Technology Corporation
  0
SECTION
  2
HEADER
  9
$ACADVER
  1
AC1027
  9
$DWGCODEPAGE
  3
ANSI_1252
  9
$EXTMAX
 10
11.0
 20
8.5
 30
0.0
  9
$EXTMIN
 10
0.0
 20
0.0
 30
0.0
  9
$LIMMIN
 10
0.0
 20
0.0
  9
$LIMMAX
 10
11.0
 20
8.5
  9
$VIEWCTR
 10
5.5
 20
4.25
  9
$VIEWSIZE
 40
8.5
  9
$CLAYER
  8
0
  9
$LTSCALE
 40
0.605
  9
$CELTYPE
  6
BYLAYER
  9
$DIMSCALE
 40
1.0
  9
$DIMASZ
 40
0.1
  9
$DIMEXO
 40
0.0625
  9
$DIMDLI
 40
0.418
  9
$DIMEXE
 40
0.125
  9
$DIMCEN
 40
0.099
  9
$DIMLFAC
 40
1.0
  9
$DIMBLK
  1
_FILLED
  9
$DIMALT
 70
1
  9
$DIMALTD
 70
1
  9
$DIMALTTD
 70
2
  9
$DIMALTF
 40
25.4
  9
$DIMTXT
 40
0.08
  9
$DIMTOL
 70
1
  9
$DIMLIM
 70
0
  9
$DIMTFAC
 40
1.0
  9
$DIMTP
 40
0.01
  9
$DIMTM
 40
0.01
  9
$DIMGAP
 40
0.09
  9
$DIMDSEP
 70
46
  9
$AUNITS
 70
0
  9
$PDMODE
 70
3
  9
$PDSIZE
 40
0.3125
  9
$HANDSEED
  5
393
  9
$TILEMODE
 70
1
  9
$MEASUREMENT
 70
0
  9
$INSUNITS
 70
1
  0
ENDSEC
  0
SECTION
  2
CLASSES
  0
CLASS
  1
ACDBDICTIONARYWDFLT
  2
AcDbDictionaryWithDefault
  3
AutoCAD 2000
 90
0
 91
1
280
0
281
0
  0
CLASS
  1
ACDBPLACEHOLDER
  2
AcDbPlaceHolder
  3
AutoCAD 2000
 90
0
 91
1
280
0
281
0
  0
CLASS
  1
LAYOUT
  2
AcDbLayout
  3
AutoCAD 2000
 90
0
 91
0
280
0
281
0
  0
ENDSEC
  0
SECTION
  2
TABLES
  0
TABLE
  2
VPORT
  5
8
100
AcDbSymbolTable
 70
2
  0
VPORT
  5
1F4
100
AcDbSymbolTableRecord
100
AcDbViewportTableRecord
  2
*ACTIVE
 70
0
 10
0.0
 20
0.0
 11
1.0
 21
1.0
 12
5.5
 22
4.25
 13
0.0
 23
0.0
 14
1.0
 24
1.0
 15
0.0
 25
0.0
 16
0.0
 26
0.0
 36
1.0
 17
0.0
 27
0.0
 37
0.0
 40
8.5
 41
1.2941176471
 42
50.0
 43
0.0
 44
0.0
 50
0.0
 51
0.0
 71
0
 72
100
 73
1
 74
1
 75
0
 76
0
 77
0
 78
0
  0
ENDTAB
  0
TABLE
  2
LTYPE
  5
5
100
AcDbSymbolTable
 70
6
  0
LTYPE
  5
14
100
AcDbSymbolTableRecord
100
AcDbLinetypeTableRecord
  2
BYBLOCK
 70
0
  3

 72
65
 73
0
 40
0.0
  0
LTYPE
  5
15
100
AcDbSymbolTableRecord
100
AcDbLinetypeTableRecord
  2
BYLAYER
 70
0
  3

 72
65
 73
0
 40
0.0
  0
LTYPE
  5
16
100
AcDbSymbolTableRecord
100
AcDbLinetypeTableRecord
  2
CONTINUOUS
 70
64
  3
Solid line
 72
65
 73
0
 40
0.0
  0
LTYPE
  5
1F5
100
AcDbSymbolTableRecord
100
AcDbLinetypeTableRecord
  2
CENTER
 70
64
  3
____ _ ____ _ ____ _ ____ _ ____ _ ____ _ ____
 72
65
 73
4
 40
0.6
 49
0.375
 74
0
 49
-0.075
 74
0
 49
0.075
 74
0
 49
-0.075
 74
0
  0
LTYPE
  5
1F6
100
AcDbSymbolTableRecord
100
AcDbLinetypeTableRecord
  2
HIDDEN
 70
64
  3
- - - - - - - - - - - - - - - - - - - -
 72
65
 73
2
 40
0.2
 49
0.1
 74
0
 49
-0.1
 74
0
  0
LTYPE
  5
1F7
100
AcDbSymbolTableRecord
100
AcDbLinetypeTableRecord
  2
PHANTOM
 70
64
  3
_____ _ _ _____ _ _ _____ _ _ _____
 72
65
 73
6
 40
0.8
 49
0.45
 74
0
 49
-0.05
 74
0
 49
0.1
 74
0
 49
-0.05
 74
0
 49
0.1
 74
0
 49
-0.05
 74
0
  0
LTYPE
  5
1F8
100
AcDbSymbolTableRecord
100
AcDbLinetypeTableRecord
  2
DOT
 70
64
  3
. . . . . . . . . . . . . . . . . . . .
 72
65
 73
2
 40
0.2
 49
0.1
 74
0
 49
-0.1
 74
0
  0
LTYPE
  5
1F9
100
AcDbSymbolTableRecord
100
AcDbLinetypeTableRecord
  2
DASHED
 70
64
  3
- - - - - - - - - - - - - - - - - - - -
 72
65
 73
2
 40
0.2
 49
0.1
 74
0
 49
-0.1
 74
0
  0
ENDTAB
  0
TABLE
  2
LAYER
  5
2
100
AcDbSymbolTable
 70
36
  0
LAYER
  5
10
100
AcDbSymbolTableRecord
100
AcDbLayerTableRecord
  2
0
 70
0
 62
7
  6
CONTINUOUS
370
-3
390
F
  0
LAYER
  5
1FA
100
AcDbSymbolTableRecord
100
AcDbLayerTableRecord
  2
DEFAULT_1
 70
0
 62
7
  6
CENTER
370
-3
390
F
  0
LAYER
  5
1FB
100
AcDbSymbolTableRecord
100
AcDbLayerTableRecord
  2
DEFAULT_2
 70
0
 62
8
  6
HIDDEN
370
-3
390
F
  0
LAYER
  5
1FC
100
AcDbSymbolTableRecord
100
AcDbLayerTableRecord
  2
DEFAULT_3
 70
0
 62
7
  6
PHANTOM
370
-3
390
F
  0
LAYER
  5
1FD
100
AcDbSymbolTableRecord
100
AcDbLayerTableRecord
  2
DEFAULT_COORDINATE_SYSTEM
 70
0
 62
7
  6
CONTINUOUS
370
-3
390
F
  0
LAYER
  5
1FE
100
AcDbSymbolTableRecord
100
AcDbLayerTableRecord
  2
DEFAULT_DATUM_AXES
 70
0
 62
7
  6
CONTINUOUS
370
-3
390
F
  0
LAYER
  5
1FF
100
AcDbSymbolTableRecord
100
AcDbLayerTableRecord
  2
DEFAULT_DATUM_PLANES
 70
0
 62
7
  6
CONTINUOUS
370
-3
390
F
  0
ENDTAB
  0
TABLE
  2
STYLE
  5
3
100
AcDbSymbolTable
 70
1
  0
STYLE
  5
11
100
AcDbSymbolTableRecord
100
AcDbTextStyleTableRecord
  2
STANDARD
 70
0
 40
0.0
 41
0.8
 50
0.0
 71
0
 42
0.2
  3
txt
  4

  0
STYLE
  5
200
100
AcDbSymbolTableRecord
100
AcDbTextStyleTableRecord
  2
TEXTSTYLE_1
 70
0
 40
0.0
 41
0.8
 50
0.0
 71
0
 42
0.2
  3
gdt
  4

  0
ENDTAB
  0
TABLE
  2
VIEW
  5
6
100
AcDbSymbolTable
 70
0
  0
ENDTAB
  0
TABLE
  2
UCS
  5
7
100
AcDbSymbolTable
 70
0
  0
ENDTAB
  0
TABLE
  2
APPID
  5
9
100
AcDbSymbolTable
 70
1
  0
APPID
  5
201
100
AcDbSymbolTableRecord
100
AcDbRegAppTableRecord
  2
ACAD
 70
0
  0
ENDTAB
  0
TABLE
  2
BLOCK_RECORD
  5
1
100
AcDbSymbolTable
 70
0
  0
BLOCK_RECORD
  5
202
100
AcDbSymbolTableRecord
100
AcDbBlockTableRecord
  2
*Model_Space
  0
BLOCK_RECORD
  5
203
100
AcDbSymbolTableRecord
100
AcDbBlockTableRecord
  2
*Paper_Space
  0
BLOCK_RECORD
  5
204
100
AcDbSymbolTableRecord
100
AcDbBlockTableRecord
  2
_FILLED
  0
ENDTAB
  0
TABLE
  2
DIMSTYLE
  5
A
100
AcDbSymbolTable
 70
1
100
AcDbDimStyleTable
 71
0
  0
DIMSTYLE
105
205
100
AcDbSymbolTableRecord
100
AcDbDimStyleTableRecord
  2
STANDARD
 70
0
  3

  4

 40
1.0
 41
0.1
 42
0.0625
 43
0.38
 44
0.125
 45
0.0
 46
0.0
 47
0.01
 48
0.01
140
0.08
141
0.09
142
0.0
143
25.4
144
1.0
145
0.0
146
1.0
147
0.09
 71
1.0
 72
0.0
 73
1
 74
1
 75
0
 76
0
 77
0
 78
4
 79
1
170
1
171
1
172
0
173
0
174
0
175
0
176
0
177
0
178
0
270
2
179
2
271
2
272
2
273
2
274
2
275
0
280
0
281
0
282
0
283
1
284
4
285
0
286
0
287
3
288
0
340
11
278
46
341
204
342
204
343
204
344
204
  0
ENDTAB
  0
ENDSEC
  0
SECTION
  2
BLOCKS
  0
BLOCK
  5
20
100
AcDbEntity
  8
0
100
AcDbBlockBegin
  2
*Model_Space
 70
0
 10
0.0
 20
0.0
 30
0.0
  3
*Model_Space
  1

  0
ENDBLK
  5
21
100
AcDbEntity
  8
0
100
AcDbBlockEnd
  0
BLOCK
  5
1C
100
AcDbEntity
  8
0
100
AcDbBlockBegin
  2
*Paper_Space
 70
0
 10
0.0
 20
0.0
 30
0.0
  3
*Paper_Space
  1

  0
ENDBLK
  5
1D
100
AcDbEntity
  8
0
100
AcDbBlockEnd
  0
BLOCK
  5
206
100
AcDbEntity
  8
0
100
AcDbBlockBegin
  2
_FILLED
 70
64
 10
0.0
 20
0.0
  3
_FILLED
  1

  0
SOLID
  5
207
100
AcDbEntity
  8
0
  6
BYBLOCK
 62
0
100
AcDbTrace
 10
0.0
 20
0.0
 11
-1.0
 21
0.2
 12
-1.0
 22
-0.2
 13
-1.0
 23
-0.2
  0
ENDBLK
  5
208
100
AcDbEntity
  8
0
  6
BYBLOCK
 62
0
100
AcDbBlockEnd
  0
ENDSEC
  0
SECTION
  2
ENTITIES
  0
MTEXT
  5
209
100
AcDbEntity
  8
0
100
AcDbMText
 62
2
  6
CONTINUOUS
  7
STANDARD
 71
3
 72
1
 10
5.719060559
 20
1.8055652668
 30
0.0
 11
1.0
 21
0.0
 31
0.0
 73
2
 44
0.9
  1
SCALE  1.000
 40
0.08
 41
0.768
  0
LINE
  5
20A
100
AcDbEntity
  8
0
100
AcDbLine
 62
7
  6
CONTINUOUS
 10
0.0
 20
0.0
 11
0.0
 21
8.5
  0
LINE
  5
20B
100
AcDbEntity
  8
0
100
AcDbLine
 62
7
  6
CONTINUOUS
 10
0.0
 20
0.0
 11
11.0
 21
0.0
  0
LINE
  5
20C
100
AcDbEntity
  8
0
100
AcDbLine
 62
7
  6
CONTINUOUS
 10
0.0
 20
8.5
 11
11.0
 21
8.5
  0
LINE
  5
20D
100
AcDbEntity
  8
0
100
AcDbLine
 62
7
  6
CONTINUOUS
 10
11.0
 20
0.0
 11
11.0
 21
8.5
  0
LINE
  5
20E
100
AcDbEntity
  8
0
100
AcDbLine
 62
7
  6
CONTINUOUS
 10
0.9592934783
 20
3.1468332003
 11
0.9592934783
 21
3.0468332003
  0
LINE
  5
20F
100
AcDbEntity
  8
0
100
AcDbLine
 62
7
  6
CONTINUOUS
 10
2.377276691
 20
2.9354552953
 11
2.3701960549
 21
3.0337312555
  0
LINE
  5
210
100
AcDbEntity
  8
0
100
AcDbLine
 62
7
  6
CONTINUOUS
 10
2.1793210465
 20
3.0337312555
 11
2.1861901885
 21
2.9354979475
  0
LINE
  5
211
100
AcDbEntity
  8
0
100
AcDbLine
 62
7
  6
CONTINUOUS
 10
2.3153758461
 20
2.9341312433
 11
2.329373715
 21
3.0337312555
  0
LINE
  5
212
100
AcDbEntity
  8
0
100
AcDbLine
 62
7
  6
CONTINUOUS
 10
2.9274874648
 20
2.9353360128
 11
2.9197968622
 21
3.0337312555
  0
LINE
  5
213
100
AcDbEntity
  8
0
100
AcDbLine
 62
7
  6
CONTINUOUS
 10
2.8618296128
 20
2.9261037292
 11
2.8537590846
 21
3.0337312555
  0
LINE
  5
214
100
AcDbEntity
  8
0
100
AcDbLine
 62
7
  6
CONTINUOUS
 10
2.5064583445
 20
2.9341707453
 11
2.5202379155
 21
3.0337312555
  0
LINE
  5
215
100
AcDbEntity
  8
0
100
AcDbLine
 62
7
  6
CONTINUOUS
 10
3.292867611
 20
2.9260019806
 11
3.2842282318
 21
3.0337312555
  0
LINE
  5
216
100
AcDbEntity
  8
0
100
AcDbLine
 62
7
  6
CONTINUOUS
 10
3.0566596743
 20
2.9342885205
 11
3.0698113527
 21
3.0337312555
  0
LINE
  5
217
100
AcDbEntity
  8
0
100
AcDbLine
 62
7
  6
CONTINUOUS
 10
3.6844643189
 20
2.9186837735
 11
3.6750028567
 21
3.0337312555
  0
LINE
  5
218
100
AcDbEntity
  8
0
100
AcDbLine
 62
7
  6
CONTINUOUS
 10
3.4242804169
 20
2.9416900077
 11
3.4260855598
 21
2.9187534924
  0
LINE
  5
219
100
AcDbEntity
  8
0
100
AcDbLine
 62
7
  6
CONTINUOUS
 10
3.7704574131
 20
2.9351536812
 11
3.7618287494
 21
3.0337312555
  0
LINE
  5
21A
100
AcDbEntity
  8
0
100
AcDbLine
 62
7
  6
CONTINUOUS
 10
3.4221122034
 20
2.9250341597
 11
3.436262099
 21
3.0337312555
  0
LINE
  5
21B
100
AcDbEntity
  8
0
100
AcDbLine
 62
7
  6
CONTINUOUS
 10
3.5554050873
 20
2.9177283799
 11
3.5706771556
 21
3.0337312555
  0
LINE
  5
21C
100
AcDbEntity
  8
0
100
AcDbLine
 62
7
  6
CONTINUOUS
 10
9.8792934783
 20
3.0468332003
 11
9.6292934783
 21
3.0337312555
  0
LINE
  5
21D
100
AcDbEntity
  8
0
100
AcDbLine
 62
7
  6
CONTINUOUS
 10
0.9592934783
 20
3.0468332003
 11
1.2092934783
 21
3.0337312555
  0
LINE
  5
21E
100
AcDbEntity
  8
0
100
AcDbLine
 62
7
  6
CONTINUOUS
 10
4.0804113991
 20
2.9258167104
 11
4.0707292059
 21
3.0337312555
  0
LINE
  5
21F
100
AcDbEntity
  8
0
100
AcDbLine
 62
7
  6
CONTINUOUS
 10
3.8996189617
 20
2.9344698197
 11
3.9118121096
 21
3.0337312555
  0
LINE
  5
220
100
AcDbEntity
  8
0
100
AcDbLine
 62
7
  6
CONTINUOUS
 10
8.6523967337
 20
2.9354974573
 11
8.5232110418
 21
2.9341317209
  0
LINE
  5
221
100
AcDbEntity
  8
0
100
AcDbLine
 62
7
  6
CONTINUOUS
 10
8.5326865188
 20
2.934229488
 11
8.5310763241
 21
2.9342125913
  0
LINE
  5
222
100
AcDbEntity
  8
0
100
AcDbLine
 62
7
  6
CONTINUOUS
 10
8.5282827303
 20
2.9341831581
 11
8.5260806489
 21
2.9341601197
  0
LINE
  5
223
100
AcDbEntity
  8
0
100
AcDbLine
 62
7
  6
CONTINUOUS
 10
8.0324494128
 20
2.9261177135
 11
7.9071260314
 21
2.9249569787
  0
LINE
  5
224
100
AcDbEntity
  8
0
100
AcDbLine
 62
7
  6
CONTINUOUS
 10
7.4125013741
 20
2.9187532043
 11
7.2831818319
 21
2.9177286601
  0
LINE
  5
225
100
AcDbEntity
  8
0
100
AcDbLine
 62
7
  6
CONTINUOUS
 10
7.2851812138
 20
2.9177434811
 11
7.2844638684
 21
2.9177378719
  0
LINE
  5
226
100
AcDbEntity
  8
0
100
AcDbLine
 62
7
  6
CONTINUOUS
 10
6.7925527255
 20
2.9134050593
 11
6.6631682362
 21
2.9125507758
  0
LINE
  5
227
100
AcDbEntity
  8
0
100
AcDbLine
 62
7
  6
CONTINUOUS
 10
6.152996306
 20
2.9099681817
 11
6.0431552639
 21
2.9093888259
  0
LINE
  5
228
100
AcDbEntity
  8
0
100
AcDbLine
 62
7
  6
CONTINUOUS
 10
7.2832622427
 20
2.9177289245
 11
7.2831818324
 21
2.91772866
  0
LINE
  5
229
100
AcDbEntity
  8
0
100
AcDbLine
 62
7
  6
CONTINUOUS
 10
8.5232914262
 20
2.9341318892
 11
8.5232110433
 21
2.9341317205
  0
LINE
  5
22A
100
AcDbEntity
  8
0
100
AcDbLine
 62
7
  6
CONTINUOUS
 10
4.6855944075
 20
2.8921027233
 11
4.775892662
 21
2.8921027233
  0
LINE
  5
22B
100
AcDbEntity
  8
0
100
AcDbLine
 62
7
  6
CONTINUOUS
 10
5.0298752075
 20
2.8921027233
 11
5.1201618034
 21
2.8921027233
  0
LINE
  5
22C
100
AcDbEntity
  8
0
100
AcDbLine
 62
7
  6
CONTINUOUS
 10
5.7184867896
 20
2.892102703
 11
5.8087117206
 21
2.8921027233
  0
LINE
  5
22D
100
AcDbEntity
  8
0
100
AcDbLine
 62
7
  6
CONTINUOUS
 10
6.0626942913
 20
2.8921027233
 11
6.1529925459
 21
2.8921027233
  0
LINE
  5
22E
100
AcDbEntity
  8
0
100
AcDbLine
 62
7
  6
CONTINUOUS
 10
4.1445966674
 20
2.8953498548
 11
4.2347802491
 21
2.8953498506
  0
LINE
  5
22F
100
AcDbEntity
  8
0
100
AcDbLine
 62
7
  6
CONTINUOUS
 10
4.7199227366
 20
2.8953498506
 11
4.8101421041
 21
2.8953498506
  0
LINE
  5
230
100
AcDbEntity
  8
0
100
AcDbLine
 62
7
  6
CONTINUOUS
 10
5.6014141114
 20
2.8953498245
 11
5.6916237421
 21
2.8953498506
  0
LINE
  5
231
100
AcDbEntity
  8
0
100
AcDbLine
 62
7
  6
CONTINUOUS
 10
6.3765678448
 20
2.8953498506
 11
6.4667913002
 21
2.8953498506
  0
LINE
  5
232
100
AcDbEntity
  8
0
100
AcDbLine
 62
7
  6
CONTINUOUS
 10
6.6826969642
 20
2.8953498506
 11
6.7729342143
 21
2.8953498506
  0
LINE
  5
233
100
AcDbEntity
  8
0
100
AcDbLine
 62
7
  6
CONTINUOUS
 10
3.4457114154
 20
2.9006125535
 11
3.535886957
 21
2.9006125535
  0
LINE
  5
234
100
AcDbEntity
  8
0
100
AcDbLine
 62
7
  6
CONTINUOUS
 10
3.7041489187
 20
2.9006125513
 11
3.7942481959
 21
2.9006125535
  0
LINE
  5
235
100
AcDbEntity
  8
0
100
AcDbLine
 62
7
  6
CONTINUOUS
 10
4.4099713102
 20
2.9006125535
 11
4.5001213535
 21
2.9006125535
  0
LINE
  5
236
100
AcDbEntity
  8
0
100
AcDbLine
 62
7
  6
CONTINUOUS
 10
5.3742202045
 20
2.9006125195
 11
5.4643658439
 21
2.9006125535
  0
LINE
  5
237
100
AcDbEntity
  8
0
100
AcDbLine
 62
7
  6
CONTINUOUS
 10
6.3384656362
 20
2.9006125535
 11
6.4286156126
 21
2.9006125535
  0
LINE
  5
238
100
AcDbEntity
  8
0
100
AcDbLine
 62
7
  6
CONTINUOUS
 10
7.0443387156
 20
2.9006125535
 11
7.1344983377
 21
2.9006125535
  0
LINE
  5
239
100
AcDbEntity
  8
0
100
AcDbLine
 62
7
  6
CONTINUOUS
 10
7.3026999978
 20
2.9006125535
 11
7.3928755394
 21
2.9006125535
  0
LINE
  5
23A
100
AcDbEntity
  8
0
100
AcDbLine
 62
7
  6
CONTINUOUS
 10
2.8815248811
 20
2.9078910124
 11
2.9715685771
 21
2.907890999
  0
LINE
  5
23B
100
AcDbEntity
  8
0
100
AcDbLine
 62
7
  6
CONTINUOUS
 10
3.3124958449
 20
2.907890999
 11
3.4025857343
 21
2.907890999
  0
LINE
  5
23C
100
AcDbEntity
  8
0
100
AcDbLine
 62
7
  6
CONTINUOUS
 10
4.100020931
 20
2.907890999
 11
4.1900995493
 21
2.907890999
  0
LINE
  5
23D
100
AcDbEntity
  8
0
100
AcDbLine
 62
7
  6
CONTINUOUS
 10
5.107869389
 20
2.907890999
 11
5.1978814536
 21
2.9078909728
  0
LINE
  5
23E
100
AcDbEntity
  8
0
100
AcDbLine
 62
7
  6
CONTINUOUS
 10
6.1617757417
 20
2.907890999
 11
6.2518501156
 21
2.907890999
  0
LINE
  5
23F
100
AcDbEntity
  8
0
100
AcDbLine
 62
7
  6
CONTINUOUS
 10
7.079508108
 20
2.907890999
 11
7.1695926846
 21
2.907890999
  0
LINE
  5
240
100
AcDbEntity
  8
0
100
AcDbLine
 62
7
  6
CONTINUOUS
 10
7.7023856576
 20
2.907890999
 11
7.7924812445
 21
2.907890999
  0
LINE
  5
241
100
AcDbEntity
  8
0
100
AcDbLine
 62
7
  6
CONTINUOUS
 10
7.9227034099
 20
2.907890999
 11
8.0128164962
 21
2.907890999
  0
LINE
  5
242
100
AcDbEntity
  8
0
100
AcDbLine
 62
7
  6
CONTINUOUS
 10
2.2058298667
 20
2.9171854177
 11
2.2958797732
 21
2.9171854177
  0
LINE
  5
243
100
AcDbEntity
  8
0
100
AcDbLine
 62
7
  6
CONTINUOUS
 10
2.3969193011
 20
2.9171854177
 11
2.486932108
 21
2.9171854177
  0
LINE
  5
244
100
AcDbEntity
  8
0
100
AcDbLine
 62
7
  6
CONTINUOUS
 10
2.9471204025
 20
2.9171854177
 11
3.0371368966
 21
2.9171854177
  0
LINE
  5
245
100
AcDbEntity
  8
0
100
AcDbLine
 62
7
  6
CONTINUOUS
 10
3.7900715993
 20
2.9171854177
 11
3.8800766972
 21
2.9171854177
  0
LINE
  5
246
100
AcDbEntity
  8
0
100
AcDbLine
 62
7
  6
CONTINUOUS
 10
4.824101221
 20
2.9171854177
 11
4.9140985364
 21
2.9171854177
  0
LINE
  5
247
100
AcDbEntity
  8
0
100
AcDbLine
 62
7
  6
CONTINUOUS
 10
5.9244943583
 20
2.9171853902
 11
6.0144857515
 21
2.9171854177
  0
LINE
  5
248
100
AcDbEntity
  8
0
100
AcDbLine
 62
7
  6
CONTINUOUS
 10
6.9585719803
 20
2.917185397
 11
7.0485153133
 21
2.9171854177
  0
LINE
  5
249
100
AcDbEntity
  8
0
100
AcDbLine
 62
7
  6
CONTINUOUS
 10
7.8014500161
 20
2.9171854177
 11
7.8914665972
 21
2.9171854177
  0
LINE
  5
24A
100
AcDbEntity
  8
0
100
AcDbLine
 62
7
  6
CONTINUOUS
 10
8.3516360654
 20
2.9171854177
 11
8.4416677466
 21
2.9171854177
  0
LINE
  5
24B
100
AcDbEntity
  8
0
100
AcDbLine
 62
7
  6
CONTINUOUS
 10
8.5427071844
 20
2.9171854177
 11
8.6327570908
 21
2.9171854177
  0
LINE
  5
24C
100
AcDbEntity
  8
0
100
AcDbLine
 62
7
  6
CONTINUOUS
 10
1.2092934783
 20
3.0337312555
 11
9.6292934783
 21
3.0337312555
  0
LINE
  5
24D
100
AcDbEntity
  8
0
100
AcDbLine
 62
7
  6
CONTINUOUS
 10
9.8792934783
 20
3.0468332003
 11
0.9592934783
 21
3.0468332003
  0
LINE
  5
24E
100
AcDbEntity
  8
0
100
AcDbLine
 62
7
  6
CONTINUOUS
 10
0.9592934783
 20
3.1468332003
 11
9.8792934783
 21
3.1468332003
  0
LINE
  5
24F
100
AcDbEntity
  8
0
100
AcDbLine
 62
7
  6
CONTINUOUS
 10
2.3153758458
 20
2.9341312413
 11
2.3152954039
 21
2.9341316208
  0
LINE
  5
250
100
AcDbEntity
  8
0
100
AcDbLine
 62
7
  6
CONTINUOUS
 10
4.7009248776
 20
2.9098871697
 11
4.6659835628
 21
2.9100721301
  0
LINE
  5
251
100
AcDbEntity
  8
0
100
AcDbLine
 62
7
  6
CONTINUOUS
 10
3.5554050866
 20
2.9177283749
 11
3.4260855593
 21
2.918753493
  0
LINE
  5
252
100
AcDbEntity
  8
0
100
AcDbLine
 62
7
  6
CONTINUOUS
 10
2.3153758458
 20
2.9341312413
 11
2.1861901873
 21
2.9354979449
  0
LINE
  5
253
100
AcDbEntity
  8
0
100
AcDbLine
 62
7
  6
CONTINUOUS
 10
2.1862705021
 20
2.93549672
 11
2.1861901887
 21
2.9354979447
  0
LINE
  5
254
100
AcDbEntity
  8
0
100
AcDbLine
 62
7
  6
CONTINUOUS
 10
4.3903664109
 20
2.9184956916
 11
4.379774871
 21
3.0337312555
  0
LINE
  5
255
100
AcDbEntity
  8
0
100
AcDbLine
 62
7
  6
CONTINUOUS
 10
4.20964617
 20
2.925218432
 11
4.222734067
 21
3.0337312555
  0
LINE
  5
256
100
AcDbEntity
  8
0
100
AcDbLine
 62
7
  6
CONTINUOUS
 10
4.2543341736
 20
2.912575934
 11
4.2695855269
 21
3.0337312555
  0
LINE
  5
257
100
AcDbEntity
  8
0
100
AcDbLine
 62
7
  6
CONTINUOUS
 10
1.0392934783
 20
3.2268332003
 11
9.7992934783
 21
3.2268332003
  0
LINE
  5
258
100
AcDbEntity
  8
0
100
AcDbLine
 62
7
  6
CONTINUOUS
 10
4.8045100846
 20
2.9349302567
 11
4.794724837
 21
3.0337312555
  0
LINE
  5
259
100
AcDbEntity
  8
0
100
AcDbLine
 62
7
  6
CONTINUOUS
 10
4.7003224454
 20
2.9131904115
 11
4.6889789208
 21
3.0337312555
  0
LINE
  5
25A
100
AcDbEntity
  8
0
100
AcDbLine
 62
7
  6
CONTINUOUS
 10
4.6659835628
 20
2.9100721301
 11
4.6551647912
 21
3.0337312555
  0
LINE
  5
25B
100
AcDbEntity
  8
0
100
AcDbLine
 62
7
  6
CONTINUOUS
 10
4.6092934783
 20
4.3208332003
 11
4.6092934783
 21
4.4766116423
  0
LINE
  5
25C
100
AcDbEntity
  8
0
100
AcDbLine
 62
7
  6
CONTINUOUS
 10
4.6092934783
 20
4.7600547583
 11
4.6092934783
 21
4.8758332003
  0
LINE
  5
25D
100
AcDbEntity
  8
0
100
AcDbLine
 62
7
  6
CONTINUOUS
 10
4.8277986558
 20
4.7319850811
 11
4.8277986558
 21
4.5046813195
  0
LINE
  5
25E
100
AcDbEntity
  8
0
100
AcDbLine
 62
7
  6
CONTINUOUS
 10
4.5196723444
 20
2.9179829644
 11
4.5333754918
 21
3.0337312555
  0
LINE
  5
25F
100
AcDbEntity
  8
0
100
AcDbLine
 62
7
  6
CONTINUOUS
 10
9.6581034126
 20
3.4780992019
 11
1.180483544
 21
3.4780992019
  0
LINE
  5
260
100
AcDbEntity
  8
0
100
AcDbLine
 62
7
  6
CONTINUOUS
 10
9.6413244137
 20
3.4998996441
 11
1.1972625429
 21
3.4998996441
  0
LINE
  5
261
100
AcDbEntity
  8
0
100
AcDbLine
 62
7
  6
CONTINUOUS
 10
5.0882851253
 20
2.9255798989
 11
5.0772617531
 21
3.0337312555
  0
LINE
  5
262
100
AcDbEntity
  8
0
100
AcDbLine
 62
7
  6
CONTINUOUS
 10
5.0102795032
 20
2.909900683
 11
4.9983545577
 21
3.0337312555
  0
LINE
  5
263
100
AcDbEntity
  8
0
100
AcDbLine
 62
7
  6
CONTINUOUS
 10
4.8392934783
 20
5.5076544149
 11
4.8392934783
 21
5.7223307578
  0
LINE
  5
264
100
AcDbEntity
  8
0
100
AcDbLine
 62
7
  6
CONTINUOUS
 10
4.8692934783
 20
5.8300170313
 11
4.8692934783
 21
5.7400170313
  0
LINE
  5
265
100
AcDbEntity
  8
0
100
AcDbLine
 62
7
  6
CONTINUOUS
 10
4.8692934783
 20
5.4899470411
 11
4.8692934783
 21
5.4000170313
  0
LINE
  5
266
100
AcDbEntity
  8
0
100
AcDbLine
 62
7
  6
CONTINUOUS
 10
4.8886234961
 20
4.5046813195
 11
4.8886234961
 21
4.7319850811
  0
LINE
  5
267
100
AcDbEntity
  8
0
100
AcDbLine
 62
7
  6
CONTINUOUS
 10
4.9545589783
 20
4.5046813195
 11
4.9545589783
 21
4.7319850811
  0
LINE
  5
268
100
AcDbEntity
  8
0
100
AcDbLine
 62
7
  6
CONTINUOUS
 10
4.9817934783
 20
5.207889181
 11
4.9817934783
 21
5.3800170313
  0
LINE
  5
269
100
AcDbEntity
  8
0
100
AcDbLine
 62
7
  6
CONTINUOUS
 10
5.0249701079
 20
4.5046813195
 11
5.0249701079
 21
4.7319850811
  0
LINE
  5
26A
100
AcDbEntity
  8
0
100
AcDbLine
 62
7
  6
CONTINUOUS
 10
5.0991787871
 20
4.5046813195
 11
5.0991787871
 21
4.7319850811
  0
LINE
  5
26B
100
AcDbEntity
  8
0
100
AcDbLine
 62
7
  6
CONTINUOUS
 10
4.9336646922
 20
2.9346927253
 11
4.944687875
 21
3.0337312555
  0
LINE
  5
26C
100
AcDbEntity
  8
0
100
AcDbLine
 62
7
  6
CONTINUOUS
 10
4.829697484
 20
2.9127631944
 11
4.8302111981
 21
2.9171854177
  0
LINE
  5
26D
100
AcDbEntity
  8
0
100
AcDbLine
 62
7
  6
CONTINUOUS
 10
9.3650062737
 20
3.7872764448
 11
1.4735806828
 21
3.7872764448
  0
LINE
  5
26E
100
AcDbEntity
  8
0
100
AcDbLine
 62
7
  6
CONTINUOUS
 10
9.2892934783
 20
3.8578332003
 11
1.5492934783
 21
3.8578332003
  0
LINE
  5
26F
100
AcDbEntity
  8
0
100
AcDbLine
 62
7
  6
CONTINUOUS
 10
9.2215682287
 20
3.8952504506
 11
1.6170187278
 21
3.8952504506
  0
LINE
  5
270
100
AcDbEntity
  8
0
100
AcDbLine
 62
7
  6
CONTINUOUS
 10
5.5818376004
 20
2.9129025113
 11
5.5686719571
 21
3.0337312555
  0
LINE
  5
271
100
AcDbEntity
  8
0
100
AcDbLine
 62
7
  6
CONTINUOUS
 10
5.3546427378
 20
2.9182391609
 11
5.3424998225
 21
3.0337312555
  0
LINE
  5
272
100
AcDbEntity
  8
0
100
AcDbLine
 62
7
  6
CONTINUOUS
 10
5.1764703457
 20
4.5046813195
 11
5.1764703457
 21
4.7319850811
  0
LINE
  5
273
100
AcDbEntity
  8
0
100
AcDbLine
 62
7
  6
CONTINUOUS
 10
5.2561004239
 20
4.5046813195
 11
5.2561004239
 21
4.7319850811
  0
LINE
  5
274
100
AcDbEntity
  8
0
100
AcDbLine
 62
7
  6
CONTINUOUS
 10
5.3373021404
 20
4.5046813195
 11
5.3373021404
 21
4.7319850811
  0
LINE
  5
275
100
AcDbEntity
  8
0
100
AcDbLine
 62
7
  6
CONTINUOUS
 10
5.4192934783
 20
4.5046813195
 11
5.4192934783
 21
4.7319850811
  0
LINE
  5
276
100
AcDbEntity
  8
0
100
AcDbLine
 62
7
  6
CONTINUOUS
 10
5.2175141092
 20
2.9254548132
 11
5.2292494685
 21
3.0337312555
  0
LINE
  5
277
100
AcDbEntity
  8
0
100
AcDbLine
 62
7
  6
CONTINUOUS
 10
5.7895898285
 20
5.0628133816
 11
5.8017295531
 21
5.0749531062
  0
LINE
  5
278
100
AcDbEntity
  8
0
100
AcDbLine
 62
7
  6
CONTINUOUS
 10
4.5755434783
 20
4.2908332003
 11
6.2630434783
 21
4.2908332003
  0
LINE
  5
279
100
AcDbEntity
  8
0
100
AcDbLine
 62
7
  6
CONTINUOUS
 10
6.2092934783
 20
4.3008332003
 11
4.6292934783
 21
4.3008332003
  0
LINE
  5
27A
100
AcDbEntity
  8
0
100
AcDbLine
 62
7
  6
CONTINUOUS
 10
6.2292934783
 20
4.3208332003
 11
4.6092934783
 21
4.3208332003
  0
LINE
  5
27B
100
AcDbEntity
  8
0
100
AcDbLine
 62
7
  6
CONTINUOUS
 10
5.5012848161
 20
4.5046813195
 11
5.5012848161
 21
4.7319850811
  0
LINE
  5
27C
100
AcDbEntity
  8
0
100
AcDbLine
 62
7
  6
CONTINUOUS
 10
5.5824865326
 20
4.5046813195
 11
5.5824865326
 21
4.7319850811
  0
LINE
  5
27D
100
AcDbEntity
  8
0
100
AcDbLine
 62
7
  6
CONTINUOUS
 10
5.6621166108
 20
4.5046813195
 11
5.6621166108
 21
4.7319850811
  0
LINE
  5
27E
100
AcDbEntity
  8
0
100
AcDbLine
 62
7
  6
CONTINUOUS
 10
5.7394081694
 20
4.5046813195
 11
5.7394081694
 21
4.7319850811
  0
LINE
  5
27F
100
AcDbEntity
  8
0
100
AcDbLine
 62
7
  6
CONTINUOUS
 10
5.4839442193
 20
2.9182391672
 11
5.496087134
 21
3.0337312555
  0
LINE
  5
280
100
AcDbEntity
  8
0
100
AcDbLine
 62
7
  6
CONTINUOUS
 10
4.6092934783
 20
4.4766116423
 11
6.2292934783
 21
4.4766116423
  0
LINE
  5
281
100
AcDbEntity
  8
0
100
AcDbLine
 62
7
  6
CONTINUOUS
 10
5.048997128
 20
5.0628133816
 11
5.0368574034
 21
5.0749531062
  0
LINE
  5
282
100
AcDbEntity
  8
0
100
AcDbLine
 62
7
  6
CONTINUOUS
 10
5.9049222645
 20
2.9346927232
 11
5.8938990815
 21
3.0337312555
  0
LINE
  5
283
100
AcDbEntity
  8
0
100
AcDbLine
 62
7
  6
CONTINUOUS
 10
5.8136168486
 20
4.5046813195
 11
5.8136168486
 21
4.7319850811
  0
LINE
  5
284
100
AcDbEntity
  8
0
100
AcDbLine
 62
7
  6
CONTINUOUS
 10
5.8567934783
 20
5.207889181
 11
5.8567934783
 21
5.3800170313
  0
LINE
  5
285
100
AcDbEntity
  8
0
100
AcDbLine
 62
7
  6
CONTINUOUS
 10
5.8840279782
 20
4.5046813195
 11
5.8840279782
 21
4.7319850811
  0
LINE
  5
286
100
AcDbEntity
  8
0
100
AcDbLine
 62
7
  6
CONTINUOUS
 10
5.9499634605
 20
4.5046813195
 11
5.9499634605
 21
4.7319850811
  0
LINE
  5
287
100
AcDbEntity
  8
0
100
AcDbLine
 62
7
  6
CONTINUOUS
 10
5.9692934783
 20
5.8300170313
 11
5.9692934783
 21
5.7400170313
  0
LINE
  5
288
100
AcDbEntity
  8
0
100
AcDbLine
 62
7
  6
CONTINUOUS
 10
5.9692934783
 20
5.4899470411
 11
5.9692934783
 21
5.4000170313
  0
LINE
  5
289
100
AcDbEntity
  8
0
100
AcDbLine
 62
7
  6
CONTINUOUS
 10
5.9992934783
 20
5.5076544149
 11
5.9992934783
 21
5.7223302513
  0
LINE
  5
28A
100
AcDbEntity
  8
0
100
AcDbLine
 62
7
  6
CONTINUOUS
 10
6.0107883007
 20
4.5046813195
 11
6.0107883007
 21
4.7319850811
  0
LINE
  5
28B
100
AcDbEntity
  8
0
100
AcDbLine
 62
7
  6
CONTINUOUS
 10
5.8283074551
 20
2.9099007016
 11
5.8402323988
 21
3.0337312555
  0
LINE
  5
28C
100
AcDbEntity
  8
0
100
AcDbLine
 62
7
  6
CONTINUOUS
 10
5.7112099169
 20
2.9130508976
 11
5.7234347646
 21
3.0337312555
  0
LINE
  5
28D
100
AcDbEntity
  8
0
100
AcDbLine
 62
7
  6
CONTINUOUS
 10
4.6092934783
 20
4.7600547583
 11
6.2292934783
 21
4.7600547583
  0
LINE
  5
28E
100
AcDbEntity
  8
0
100
AcDbLine
 62
7
  6
CONTINUOUS
 10
4.6092934783
 20
4.8758332003
 11
6.2292934783
 21
4.8758332003
  0
LINE
  5
28F
100
AcDbEntity
  8
0
100
AcDbLine
 62
7
  6
CONTINUOUS
 10
4.6692934783
 20
4.9358332003
 11
6.1692934783
 21
4.9358332003
  0
LINE
  5
290
100
AcDbEntity
  8
0
100
AcDbLine
 62
7
  6
CONTINUOUS
 10
5.7861422174
 20
4.953348135
 11
5.0524447391
 21
4.953348135
  0
LINE
  5
291
100
AcDbEntity
  8
0
100
AcDbLine
 62
7
  6
CONTINUOUS
 10
6.0431552639
 20
2.9093888259
 11
6.0367299827
 21
2.9617185414
  0
LINE
  5
292
100
AcDbEntity
  8
0
100
AcDbLine
 62
7
  6
CONTINUOUS
 10
6.1422168561
 20
2.9253325356
 11
6.1297830591
 21
3.0337312555
  0
LINE
  5
293
100
AcDbEntity
  8
0
100
AcDbLine
 62
7
  6
CONTINUOUS
 10
6.2292934783
 20
4.3208332003
 11
6.2292934783
 21
4.4766116423
  0
LINE
  5
294
100
AcDbEntity
  8
0
100
AcDbLine
 62
7
  6
CONTINUOUS
 10
6.2292934783
 20
4.7600547583
 11
6.2292934783
 21
4.8758332003
  0
LINE
  5
295
100
AcDbEntity
  8
0
100
AcDbLine
 62
7
  6
CONTINUOUS
 10
6.0340768722
 20
2.9349302598
 11
6.0438621195
 21
3.0337312555
  0
LINE
  5
296
100
AcDbEntity
  8
0
100
AcDbLine
 62
7
  6
CONTINUOUS
 10
5.7895898285
 20
5.0628133816
 11
5.048997128
 21
5.0628133816
  0
LINE
  5
297
100
AcDbEntity
  8
0
100
AcDbLine
 62
7
  6
CONTINUOUS
 10
5.0368574034
 20
5.0749531062
 11
5.8017295531
 21
5.0749531062
  0
LINE
  5
298
100
AcDbEntity
  8
0
100
AcDbLine
 62
7
  6
CONTINUOUS
 10
4.9817934783
 20
5.207889181
 11
5.8567934783
 21
5.207889181
  0
LINE
  5
299
100
AcDbEntity
  8
0
100
AcDbLine
 62
7
  6
CONTINUOUS
 10
6.3189146123
 20
2.9179829636
 11
6.3052114647
 21
3.0337312555
  0
LINE
  5
29A
100
AcDbEntity
  8
0
100
AcDbLine
 62
7
  6
CONTINUOUS
 10
6.4864035859
 20
2.9133042632
 11
6.4970306043
 21
3.0337312555
  0
LINE
  5
29B
100
AcDbEntity
  8
0
100
AcDbLine
 62
7
  6
CONTINUOUS
 10
6.4482205467
 20
2.9184957035
 11
6.4588120855
 21
3.0337312555
  0
LINE
  5
29C
100
AcDbEntity
  8
0
100
AcDbLine
 62
7
  6
CONTINUOUS
 10
6.2714478862
 20
2.9257023217
 11
6.2817768395
 21
3.0337312555
  0
LINE
  5
29D
100
AcDbEntity
  8
0
100
AcDbLine
 62
7
  6
CONTINUOUS
 10
5.9492934783
 20
5.3800170313
 11
4.8892934783
 21
5.3800170313
  0
LINE
  5
29E
100
AcDbEntity
  8
0
100
AcDbLine
 62
7
  6
CONTINUOUS
 10
4.8692934783
 20
5.4000170313
 11
5.9692934783
 21
5.4000170313
  0
LINE
  5
29F
100
AcDbEntity
  8
0
100
AcDbLine
 62
7
  6
CONTINUOUS
 10
4.8692934783
 20
5.4899470411
 11
5.9692934783
 21
5.4899470411
  0
LINE
  5
2A0
100
AcDbEntity
  8
0
100
AcDbLine
 62
7
  6
CONTINUOUS
 10
6.6631682363
 20
2.9125507757
 11
6.6477521322
 21
3.0337312555
  0
LINE
  5
2A1
100
AcDbEntity
  8
0
100
AcDbLine
 62
7
  6
CONTINUOUS
 10
6.8025510614
 20
3.0337312555
 11
6.7925527255
 21
2.9134050593
  0
LINE
  5
2A2
100
AcDbEntity
  8
0
100
AcDbLine
 62
7
  6
CONTINUOUS
 10
4.8692934783
 20
5.7400170313
 11
5.9692934783
 21
5.7400170313
  0
LINE
  5
2A3
100
AcDbEntity
  8
0
100
AcDbLine
 62
7
  6
CONTINUOUS
 10
4.8692934783
 20
5.8300170313
 11
5.9692934783
 21
5.8300170313
  0
LINE
  5
2A4
100
AcDbEntity
  8
0
100
AcDbLine
 62
7
  6
CONTINUOUS
 10
5.9492934783
 20
5.8500170313
 11
4.8892934783
 21
5.8500170313
  0
LINE
  5
2A5
100
AcDbEntity
  8
0
100
AcDbLine
 62
7
  6
CONTINUOUS
 10
6.938967995
 20
2.9344698184
 11
6.9267748469
 21
3.0337312555
  0
LINE
  5
2A6
100
AcDbEntity
  8
0
100
AcDbLine
 62
7
  6
CONTINUOUS
 10
7.189212271
 20
2.9259180776
 11
7.1983231524
 21
3.0337312555
  0
LINE
  5
2A7
100
AcDbEntity
  8
0
100
AcDbLine
 62
7
  6
CONTINUOUS
 10
7.0681295438
 20
2.9351536854
 11
7.0767582072
 21
3.0337312555
  0
LINE
  5
2A8
100
AcDbEntity
  8
0
100
AcDbLine
 62
7
  6
CONTINUOUS
 10
7.267909801
 20
3.0337312555
 11
7.2831818323
 21
2.9177286605
  0
LINE
  5
2A9
100
AcDbEntity
  8
0
100
AcDbLine
 62
7
  6
CONTINUOUS
 10
7.4125013745
 20
2.9187532094
 11
7.4215503429
 21
3.0337312555
  0
LINE
  5
2AA
100
AcDbEntity
  8
0
100
AcDbLine
 62
7
  6
CONTINUOUS
 10
7.6828663987
 20
2.9249720614
 11
7.6683562702
 21
3.0337312555
  0
LINE
  5
2AB
100
AcDbEntity
  8
0
100
AcDbLine
 62
7
  6
CONTINUOUS
 10
7.7819272823
 20
2.9342885199
 11
7.7687756038
 21
3.0337312555
  0
LINE
  5
2AC
100
AcDbEntity
  8
0
100
AcDbLine
 62
7
  6
CONTINUOUS
 10
8.0404464803
 20
3.0337312555
 11
8.0324494128
 21
2.9261177135
  0
LINE
  5
2AD
100
AcDbEntity
  8
0
100
AcDbLine
 62
7
  6
CONTINUOUS
 10
7.9110994921
 20
2.935336018
 11
7.9187900943
 21
3.0337312555
  0
LINE
  5
2AE
100
AcDbEntity
  8
0
100
AcDbLine
 62
7
  6
CONTINUOUS
 10
8.3321286121
 20
2.9341707451
 11
8.318349041
 21
3.0337312555
  0
LINE
  5
2AF
100
AcDbEntity
  8
0
100
AcDbLine
 62
7
  6
CONTINUOUS
 10
8.461310266
 20
2.9354553012
 11
8.4683909016
 21
3.0337312555
  0
LINE
  5
2B0
100
AcDbEntity
  8
0
100
AcDbLine
 62
7
  6
CONTINUOUS
 10
8.5092132415
 20
3.0337312555
 11
8.5232110424
 21
2.934131727
  0
LINE
  5
2B1
100
AcDbEntity
  8
0
100
AcDbLine
 62
7
  6
CONTINUOUS
 10
8.6523967339
 20
2.9354974603
 11
8.65926591
 21
3.0337312555
  0
LINE
  5
2B2
100
AcDbEntity
  8
0
100
AcDbLine
 62
7
  6
CONTINUOUS
 10
9.8792934783
 20
3.1468332003
 11
9.8792934783
 21
3.0468332003
  0
ARC
  5
2B3
100
AcDbEntity
  8
0
100
AcDbCircle
 62
7
  6
CONTINUOUS
 10
5.040500041
 20
-10.1456983656
 40
13.0557706366
100
AcDbArc
 50
89.7426239796
 51
89.9906100119
  0
ARC
  5
2B4
100
AcDbEntity
  8
0
100
AcDbCircle
 62
7
  6
CONTINUOUS
 10
2.8628486522
 20
2.3449354251
 40
0.5811824181
100
AcDbArc
 50
89.7984291414
 51
89.9612919139
  0
ARC
  5
2B5
100
AcDbEntity
  8
0
100
AcDbCircle
 62
7
  6
CONTINUOUS
 10
1.1458451377
 20
3.825869352
 40
0.33
100
AcDbArc
 50
278.9637950855
 51
353.2839927645
  0
ARC
  5
2B6
100
AcDbEntity
  8
0
100
AcDbCircle
 62
7
  6
CONTINUOUS
 10
0.9317934783
 20
3.4525404222
 40
0.25
100
AcDbArc
 50
295.4675601425
 51
5.8678931504
  0
ARC
  5
2B7
100
AcDbEntity
  8
0
100
AcDbCircle
 62
7
  6
CONTINUOUS
 10
1.6170187278
 20
3.8152504506
 40
0.08
100
AcDbArc
 50
90.0
 51
147.8400691082
  0
ARC
  5
2B8
100
AcDbEntity
  8
0
100
AcDbCircle
 62
7
  6
CONTINUOUS
 10
1.0392934783
 20
3.1468332003
 40
0.08
100
AcDbArc
 50
90.0
 51
180.0
  0
ARC
  5
2B9
100
AcDbEntity
  8
0
100
AcDbCircle
 62
7
  6
CONTINUOUS
 10
1.5530317242
 20
3.7779205896
 40
0.08
100
AcDbArc
 50
92.678296748
 51
173.2839935609
  0
ARC
  5
2BA
100
AcDbEntity
  8
0
100
AcDbCircle
 62
7
  6
CONTINUOUS
 10
1.2003787492
 20
3.4801439042
 40
0.02
100
AcDbArc
 50
98.963795085
 51
185.8678931506
  0
ARC
  5
2BB
100
AcDbEntity
  8
0
100
AcDbCircle
 62
7
  6
CONTINUOUS
 10
2.971570415
 20
2.927576041
 40
0.0196850268
100
AcDbArc
 50
270.0
 51
328.126710351
  0
ARC
  5
2BC
100
AcDbEntity
  8
0
100
AcDbCircle
 62
7
  6
CONTINUOUS
 10
2.4869521458
 20
2.9368704528
 40
0.0196850265
100
AcDbArc
 50
270.0
 51
352.1200150209
  0
ARC
  5
2BD
100
AcDbEntity
  8
0
100
AcDbCircle
 62
7
  6
CONTINUOUS
 10
3.0371375793
 20
2.9368704362
 40
0.0196850265
100
AcDbArc
 50
270.0
 51
352.4662669891
  0
ARC
  5
2BE
100
AcDbEntity
  8
0
100
AcDbCircle
 62
7
  6
CONTINUOUS
 10
2.8814638038
 20
2.927576036
 40
0.0196850264
100
AcDbArc
 50
184.2882743019
 51
270.0
  0
ARC
  5
2BF
100
AcDbEntity
  8
0
100
AcDbCircle
 62
7
  6
CONTINUOUS
 10
2.2058284434
 20
2.9368704659
 40
0.0196850261
100
AcDbArc
 50
183.9979035147
 51
269.9882437951
  0
ARC
  5
2C0
100
AcDbEntity
  8
0
100
AcDbCircle
 62
7
  6
CONTINUOUS
 10
2.2958811622
 20
2.9368704756
 40
0.0196850261
100
AcDbArc
 50
270.0117807467
 51
352.0016330187
  0
ARC
  5
2C1
100
AcDbEntity
  8
0
100
AcDbCircle
 62
7
  6
CONTINUOUS
 10
2.3969179549
 20
2.9368704471
 40
0.0196850261
100
AcDbArc
 50
184.1208730074
 51
270.0
  0
ARC
  5
2C2
100
AcDbEntity
  8
0
100
AcDbCircle
 62
7
  6
CONTINUOUS
 10
2.9471197198
 20
2.9368704311
 40
0.0196850261
100
AcDbArc
 50
184.4692998471
 51
270.0
  0
ARC
  5
2C3
100
AcDbEntity
  8
0
100
AcDbCircle
 62
7
  6
CONTINUOUS
 10
1.920156178
 20
12.8901888904
 40
9.0
100
AcDbArc
 50
271.8906974057
 51
287.1601178577
  0
ARC
  5
2C4
100
AcDbEntity
  8
0
100
AcDbCircle
 62
7
  6
CONTINUOUS
 10
4.2348004533
 20
2.9150348839
 40
0.019685027
100
AcDbArc
 50
270.0
 51
352.8251753017
  0
ARC
  5
2C5
100
AcDbEntity
  8
0
100
AcDbCircle
 62
7
  6
CONTINUOUS
 10
3.7942493587
 20
2.9202975795
 40
0.0196850269
100
AcDbArc
 50
270.0
 51
350.8996281324
  0
ARC
  5
2C6
100
AcDbEntity
  8
0
100
AcDbCircle
 62
7
  6
CONTINUOUS
 10
4.1900998711
 20
2.9275760058
 40
0.0196850268
100
AcDbArc
 50
270.0
 51
353.122876009
  0
ARC
  5
2C7
100
AcDbEntity
  8
0
100
AcDbCircle
 62
7
  6
CONTINUOUS
 10
3.4025862034
 20
2.9275760205
 40
0.0196850268
100
AcDbArc
 50
270.0
 51
352.5831514687
  0
ARC
  5
2C8
100
AcDbEntity
  8
0
100
AcDbCircle
 62
7
  6
CONTINUOUS
 10
4.1445693532
 20
2.91503488
 40
0.0196850267
100
AcDbArc
 50
201.2884975469
 51
270.0
  0
ARC
  5
2C9
100
AcDbEntity
  8
0
100
AcDbCircle
 62
7
  6
CONTINUOUS
 10
3.7040875004
 20
2.9202975754
 40
0.0196850266
100
AcDbArc
 50
184.7014073725
 51
270.0
  0
ARC
  5
2CA
100
AcDbEntity
  8
0
100
AcDbCircle
 62
7
  6
CONTINUOUS
 10
3.4457106365
 20
2.9202976038
 40
0.0196850266
100
AcDbArc
 50
184.4987938927
 51
269.9933222748
  0
ARC
  5
2CB
100
AcDbEntity
  8
0
100
AcDbCircle
 62
7
  6
CONTINUOUS
 10
3.5358877087
 20
2.9202976124
 40
0.0196850266
100
AcDbArc
 50
270.0066925636
 51
352.5008033564
  0
ARC
  5
2CC
100
AcDbEntity
  8
0
100
AcDbCircle
 62
7
  6
CONTINUOUS
 10
3.8800770153
 20
2.9368704241
 40
0.0196850265
100
AcDbArc
 50
270.0
 51
352.997221942
  0
ARC
  5
2CD
100
AcDbEntity
  8
0
100
AcDbCircle
 62
7
  6
CONTINUOUS
 10
4.1000206092
 20
2.927576002
 40
0.0196850264
100
AcDbArc
 50
185.1270911779
 51
270.0
  0
ARC
  5
2CE
100
AcDbEntity
  8
0
100
AcDbCircle
 62
7
  6
CONTINUOUS
 10
3.3124953759
 20
2.9275760159
 40
0.0196850264
100
AcDbArc
 50
184.5850928072
 51
270.0
  0
ARC
  5
2CF
100
AcDbEntity
  8
0
100
AcDbCircle
 62
7
  6
CONTINUOUS
 10
3.7900712812
 20
2.9368704199
 40
0.0196850261
100
AcDbArc
 50
185.002728187
 51
270.0
  0
ARC
  5
2D0
100
AcDbEntity
  8
0
100
AcDbCircle
 62
7
  6
CONTINUOUS
 10
4.6292934783
 20
4.3208332003
 40
0.02
100
AcDbArc
 50
180.0
 51
270.0
  0
ARC
  5
2D1
100
AcDbEntity
  8
0
100
AcDbCircle
 62
7
  6
CONTINUOUS
 10
4.8101424328
 20
2.9150348595
 40
0.019685027
100
AcDbArc
 50
270.0
 51
353.3739193396
  0
ARC
  5
2D2
100
AcDbEntity
  8
0
100
AcDbCircle
 62
7
  6
CONTINUOUS
 10
5.120162134
 20
2.9117877329
 40
0.0196850269
100
AcDbArc
 50
270.0
 51
348.5795010423
  0
ARC
  5
2D3
100
AcDbEntity
  8
0
100
AcDbCircle
 62
7
  6
CONTINUOUS
 10
4.5001216784
 20
2.9202975592
 40
0.0196850269
100
AcDbArc
 50
270.0
 51
353.2484416955
  0
ARC
  5
2D4
100
AcDbEntity
  8
0
100
AcDbCircle
 62
7
  6
CONTINUOUS
 10
4.775892992
 20
2.9117877714
 40
0.0196850269
100
AcDbArc
 50
270.0030067172
 51
303.3285559032
  0
ARC
  5
2D5
100
AcDbEntity
  8
0
100
AcDbCircle
 62
7
  6
CONTINUOUS
 10
4.6855940994
 20
2.9117877753
 40
0.0196850269
100
AcDbArc
 50
184.9998742379
 51
269.9969866645
  0
ARC
  5
2D6
100
AcDbEntity
  8
0
100
AcDbCircle
 62
7
  6
CONTINUOUS
 10
5.1979431506
 20
2.9275759993
 40
0.0196850268
100
AcDbArc
 50
270.0
 51
353.8142997295
  0
ARC
  5
2D7
100
AcDbEntity
  8
0
100
AcDbCircle
 62
7
  6
CONTINUOUS
 10
5.0298748783
 20
2.9117877151
 40
0.0196850267
100
AcDbArc
 50
185.5006853732
 51
270.0
  0
ARC
  5
2D8
100
AcDbEntity
  8
0
100
AcDbCircle
 62
7
  6
CONTINUOUS
 10
4.7199224101
 20
2.9150348471
 40
0.0196850267
100
AcDbArc
 50
185.3760694998
 51
270.0
  0
ARC
  5
2D9
100
AcDbEntity
  8
0
100
AcDbCircle
 62
7
  6
CONTINUOUS
 10
4.4099709853
 20
2.9202975478
 40
0.0196850266
100
AcDbArc
 50
185.2515382274
 51
270.0
  0
ARC
  5
2DA
100
AcDbEntity
  8
0
100
AcDbCircle
 62
7
  6
CONTINUOUS
 10
5.3742201792
 20
2.9202975461
 40
0.0196850266
100
AcDbArc
 50
186.0020640475
 51
270.0
  0
ARC
  5
2DB
100
AcDbEntity
  8
0
100
AcDbCircle
 62
7
  6
CONTINUOUS
 10
4.9140995173
 20
2.9368704179
 40
0.0196850265
100
AcDbArc
 50
270.0
 51
353.649151855
  0
ARC
  5
2DC
100
AcDbEntity
  8
0
100
AcDbCircle
 62
7
  6
CONTINUOUS
 10
5.1078692366
 20
2.9275759968
 40
0.0196850264
100
AcDbArc
 50
185.8198584297
 51
270.0
  0
ARC
  5
2DD
100
AcDbEntity
  8
0
100
AcDbCircle
 62
7
  6
CONTINUOUS
 10
4.8241002401
 20
2.9368704148
 40
0.0196850261
100
AcDbArc
 50
185.6562719802
 51
270.0
  0
ARC
  5
2DE
100
AcDbEntity
  8
0
100
AcDbCircle
 62
7
  6
CONTINUOUS
 10
5.1697934783
 20
5.207889181
 40
0.188
100
AcDbArc
 50
180.0
 51
225.0
  0
ARC
  5
2DF
100
AcDbEntity
  8
0
100
AcDbCircle
 62
7
  6
CONTINUOUS
 10
4.7312934783
 20
4.6183332003
 40
0.187
100
AcDbArc
 50
217.428005543
 51
229.2767179174
  0
ARC
  5
2E0
100
AcDbEntity
  8
0
100
AcDbCircle
 62
7
  6
CONTINUOUS
 10
4.7312934783
 20
4.6183332003
 40
0.187
100
AcDbArc
 50
130.7232820826
 51
142.571994457
  0
ARC
  5
2E1
100
AcDbEntity
  8
0
100
AcDbCircle
 62
7
  6
CONTINUOUS
 10
4.7225434412
 20
4.6250372999
 40
0.1759769304
100
AcDbArc
 50
142.5739107703
 51
144.6016256939
  0
ARC
  5
2E2
100
AcDbEntity
  8
0
100
AcDbCircle
 62
7
  6
CONTINUOUS
 10
4.7223676293
 20
4.611499423
 40
0.1757585016
100
AcDbArc
 50
215.3971141747
 51
217.4273493615
  0
ARC
  5
2E3
100
AcDbEntity
  8
0
100
AcDbCircle
 62
7
  6
CONTINUOUS
 10
4.9227934783
 20
5.6149820362
 40
0.136
100
AcDbArc
 50
232.1228405771
 51
246.8348763163
  0
ARC
  5
2E4
100
AcDbEntity
  8
0
100
AcDbCircle
 62
7
  6
CONTINUOUS
 10
4.9227934783
 20
5.6149820362
 40
0.136
100
AcDbArc
 50
113.1651236837
 51
127.8771594229
  0
ARC
  5
2E5
100
AcDbEntity
  8
0
100
AcDbCircle
 62
7
  6
CONTINUOUS
 10
4.9924285855
 20
5.0062448391
 40
0.08
100
AcDbArc
 50
318.6078718925
 51
45.0
  0
ARC
  5
2E6
100
AcDbEntity
  8
0
100
AcDbCircle
 62
7
  6
CONTINUOUS
 10
4.6692934783
 20
4.8758332003
 40
0.06
100
AcDbArc
 50
90.0
 51
180.0
  0
ARC
  5
2E7
100
AcDbEntity
  8
0
100
AcDbCircle
 62
7
  6
CONTINUOUS
 10
4.8892934783
 20
5.4000170313
 40
0.02
100
AcDbArc
 50
180.0
 51
270.0
  0
ARC
  5
2E8
100
AcDbEntity
  8
0
100
AcDbCircle
 62
7
  6
CONTINUOUS
 10
4.8892934783
 20
5.8300170313
 40
0.02
100
AcDbArc
 50
90.0
 51
180.0
  0
ARC
  5
2E9
100
AcDbEntity
  8
0
100
AcDbCircle
 62
7
  6
CONTINUOUS
 10
6.4745873222
 20
-5.0288656036
 40
7.9422713558
100
AcDbArc
 50
90.0239264526
 51
90.1987652891
  0
ARC
  5
2EA
100
AcDbEntity
  8
0
100
AcDbCircle
 62
7
  6
CONTINUOUS
 10
6.2092934783
 20
4.3208332003
 40
0.02
100
AcDbArc
 50
270.0
 51
360.0
  0
ARC
  5
2EB
100
AcDbEntity
  8
0
100
AcDbCircle
 62
7
  6
CONTINUOUS
 10
5.6916247085
 20
2.915034855
 40
0.019685027
100
AcDbArc
 50
270.0
 51
354.2156674603
  0
ARC
  5
2EC
100
AcDbEntity
  8
0
100
AcDbCircle
 62
7
  6
CONTINUOUS
 10
5.8087120668
 20
2.9117877348
 40
0.0196850269
100
AcDbArc
 50
270.0
 51
354.4993144082
  0
ARC
  5
2ED
100
AcDbEntity
  8
0
100
AcDbCircle
 62
7
  6
CONTINUOUS
 10
5.464366777
 20
2.9202975524
 40
0.0196850269
100
AcDbArc
 50
270.0
 51
353.997935417
  0
ARC
  5
2EE
100
AcDbEntity
  8
0
100
AcDbCircle
 62
7
  6
CONTINUOUS
 10
6.2518507831
 20
2.9275760022
 40
0.0196850268
100
AcDbArc
 50
270.0
 51
354.5382334679
  0
ARC
  5
2EF
100
AcDbEntity
  8
0
100
AcDbCircle
 62
7
  6
CONTINUOUS
 10
5.7184248325
 20
2.9117877318
 40
0.0196850267
100
AcDbArc
 50
219.7810824949
 51
270.0
  0
ARC
  5
2F0
100
AcDbEntity
  8
0
100
AcDbCircle
 62
7
  6
CONTINUOUS
 10
6.1529928786
 20
2.9117877491
 40
0.0196850267
100
AcDbArc
 50
270.0029883302
 51
348.579454355
  0
ARC
  5
2F1
100
AcDbEntity
  8
0
100
AcDbCircle
 62
7
  6
CONTINUOUS
 10
6.0626939868
 20
2.9117877826
 40
0.0196850267
100
AcDbArc
 50
186.9997497516
 51
269.9969675134
  0
ARC
  5
2F2
100
AcDbEntity
  8
0
100
AcDbCircle
 62
7
  6
CONTINUOUS
 10
6.3765672179
 20
2.9150348756
 40
0.0196850267
100
AcDbArc
 50
227.1171287993
 51
270.0
  0
ARC
  5
2F3
100
AcDbEntity
  8
0
100
AcDbCircle
 62
7
  6
CONTINUOUS
 10
5.6014072095
 20
2.9150348516
 40
0.0196850267
100
AcDbArc
 50
186.2184478727
 51
270.0
  0
ARC
  5
2F4
100
AcDbEntity
  8
0
100
AcDbCircle
 62
7
  6
CONTINUOUS
 10
6.3384652898
 20
2.92029756
 40
0.0196850266
100
AcDbArc
 50
186.7515578934
 51
270.0
  0
ARC
  5
2F5
100
AcDbEntity
  8
0
100
AcDbCircle
 62
7
  6
CONTINUOUS
 10
6.0144867111
 20
2.9368704182
 40
0.0196850265
100
AcDbArc
 50
270.0
 51
354.3437272064
  0
ARC
  5
2F6
100
AcDbEntity
  8
0
100
AcDbCircle
 62
7
  6
CONTINUOUS
 10
6.1617750742
 20
2.9275760011
 40
0.0196850264
100
AcDbArc
 50
186.5433169673
 51
270.0
  0
ARC
  5
2F7
100
AcDbEntity
  8
0
100
AcDbCircle
 62
7
  6
CONTINUOUS
 10
5.9244874434
 20
2.9368704165
 40
0.0196850261
100
AcDbArc
 50
186.3508473253
 51
270.0
  0
ARC
  5
2F8
100
AcDbEntity
  8
0
100
AcDbCircle
 62
7
  6
CONTINUOUS
 10
5.4192934783
 20
4.6300170313
 40
0.489
100
AcDbArc
 50
222.3136685091
 51
223.9179446752
  0
ARC
  5
2F9
100
AcDbEntity
  8
0
100
AcDbCircle
 62
7
  6
CONTINUOUS
 10
5.4192934783
 20
4.6300170313
 40
0.489
100
AcDbArc
 50
138.6078718925
 51
141.2844045003
  0
ARC
  5
2FA
100
AcDbEntity
  8
0
100
AcDbCircle
 62
7
  6
CONTINUOUS
 10
5.4192934783
 20
4.6300170313
 40
0.489
100
AcDbArc
 50
316.0820553248
 51
317.6863314909
  0
ARC
  5
2FB
100
AcDbEntity
  8
0
100
AcDbCircle
 62
7
  6
CONTINUOUS
 10
5.4192934783
 20
4.6300170313
 40
0.489
100
AcDbArc
 50
38.7155954997
 51
41.3921281075
  0
ARC
  5
2FC
100
AcDbEntity
  8
0
100
AcDbCircle
 62
7
  6
CONTINUOUS
 10
5.6687934783
 20
5.207889181
 40
0.188
100
AcDbArc
 50
315.0
 51
360.0
  0
ARC
  5
2FD
100
AcDbEntity
  8
0
100
AcDbCircle
 62
7
  6
CONTINUOUS
 10
6.1072934783
 20
4.6183332003
 40
0.187
100
AcDbArc
 50
310.7232820826
 51
322.571994457
  0
ARC
  5
2FE
100
AcDbEntity
  8
0
100
AcDbCircle
 62
7
  6
CONTINUOUS
 10
6.1072934783
 20
4.6183332003
 40
0.187
100
AcDbArc
 50
37.428005543
 51
49.2767179174
  0
ARC
  5
2FF
100
AcDbEntity
  8
0
100
AcDbCircle
 62
7
  6
CONTINUOUS
 10
6.1160435153
 20
4.6116291007
 40
0.1759769304
100
AcDbArc
 50
322.5739107703
 51
324.601625706
  0
ARC
  5
300
100
AcDbEntity
  8
0
100
AcDbCircle
 62
7
  6
CONTINUOUS
 10
6.1162193272
 20
4.6251669776
 40
0.1757585016
100
AcDbArc
 50
35.3971141619
 51
37.4273493615
  0
ARC
  5
301
100
AcDbEntity
  8
0
100
AcDbCircle
 62
7
  6
CONTINUOUS
 10
5.9157934783
 20
5.6149820362
 40
0.136
100
AcDbArc
 50
293.1651236837
 51
307.8771594229
  0
ARC
  5
302
100
AcDbEntity
  8
0
100
AcDbCircle
 62
7
  6
CONTINUOUS
 10
5.9157934783
 20
5.6149820362
 40
0.136
100
AcDbArc
 50
52.1228405771
 51
66.8348763163
  0
ARC
  5
303
100
AcDbEntity
  8
0
100
AcDbCircle
 62
7
  6
CONTINUOUS
 10
5.846158371
 20
5.0062448391
 40
0.08
100
AcDbArc
 50
135.0
 51
221.3921281075
  0
ARC
  5
304
100
AcDbEntity
  8
0
100
AcDbCircle
 62
7
  6
CONTINUOUS
 10
6.1692934783
 20
4.8758332003
 40
0.06
100
AcDbArc
 50
0.0
 51
90.0
  0
ARC
  5
305
100
AcDbEntity
  8
0
100
AcDbCircle
 62
7
  6
CONTINUOUS
 10
5.9492934783
 20
5.4000170313
 40
0.02
100
AcDbArc
 50
270.0
 51
360.0
  0
ARC
  5
306
100
AcDbEntity
  8
0
100
AcDbCircle
 62
7
  6
CONTINUOUS
 10
5.9492934783
 20
5.8300170313
 40
0.02
100
AcDbArc
 50
0.0
 51
90.0
  0
ARC
  5
307
100
AcDbEntity
  8
0
100
AcDbCircle
 62
7
  6
CONTINUOUS
 10
6.4667919267
 20
2.9150348728
 40
0.019685027
100
AcDbArc
 50
270.0
 51
354.956993737
  0
ARC
  5
308
100
AcDbEntity
  8
0
100
AcDbCircle
 62
7
  6
CONTINUOUS
 10
6.428615959
 20
2.9202975607
 40
0.0196850269
100
AcDbArc
 50
270.0
 51
354.7484613805
  0
ARC
  5
309
100
AcDbEntity
  8
0
100
AcDbCircle
 62
7
  6
CONTINUOUS
 10
7.1344994348
 20
2.9202975821
 40
0.0196850269
100
AcDbArc
 50
270.0
 51
320.9126096119
  0
ARC
  5
30A
100
AcDbEntity
  8
0
100
AcDbCircle
 62
7
  6
CONTINUOUS
 10
7.3026992221
 20
2.9202976082
 40
0.0196850269
100
AcDbArc
 50
187.4983680706
 51
269.9933175629
  0
ARC
  5
30B
100
AcDbEntity
  8
0
100
AcDbCircle
 62
7
  6
CONTINUOUS
 10
7.3928762942
 20
2.9202976112
 40
0.0196850269
100
AcDbArc
 50
270.0066901424
 51
355.5003621334
  0
ARC
  5
30C
100
AcDbEntity
  8
0
100
AcDbCircle
 62
7
  6
CONTINUOUS
 10
7.1695925642
 20
2.927576014
 40
0.0196850268
100
AcDbArc
 50
270.0
 51
355.1694821437
  0
ARC
  5
30D
100
AcDbEntity
  8
0
100
AcDbCircle
 62
7
  6
CONTINUOUS
 10
6.7729347532
 20
2.9150348805
 40
0.0196850267
100
AcDbArc
 50
270.0046283382
 51
355.2508902608
  0
ARC
  5
30E
100
AcDbEntity
  8
0
100
AcDbCircle
 62
7
  6
CONTINUOUS
 10
6.682696455
 20
2.91503491
 40
0.0196850267
100
AcDbArc
 50
187.2495216698
 51
269.995330153
  0
ARC
  5
30F
100
AcDbEntity
  8
0
100
AcDbCircle
 62
7
  6
CONTINUOUS
 10
7.0443376185
 20
2.9202975858
 40
0.0196850266
100
AcDbArc
 50
189.1004463981
 51
270.0
  0
ARC
  5
310
100
AcDbEntity
  8
0
100
AcDbCircle
 62
7
  6
CONTINUOUS
 10
7.0485156611
 20
2.9368704252
 40
0.0196850265
100
AcDbArc
 50
270.0
 51
354.9972711896
  0
ARC
  5
311
100
AcDbEntity
  8
0
100
AcDbCircle
 62
7
  6
CONTINUOUS
 10
7.0795082284
 20
2.9275760141
 40
0.0196850264
100
AcDbArc
 50
198.0095946295
 51
270.0
  0
ARC
  5
312
100
AcDbEntity
  8
0
100
AcDbCircle
 62
7
  6
CONTINUOUS
 10
6.9585099545
 20
2.9368704247
 40
0.0196850261
100
AcDbArc
 50
187.0027774188
 51
270.0
  0
ARC
  5
313
100
AcDbEntity
  8
0
100
AcDbCircle
 62
7
  6
CONTINUOUS
 10
9.6927418188
 20
3.825869352
 40
0.33
100
AcDbArc
 50
186.7160072355
 51
261.0362049145
  0
ARC
  5
314
100
AcDbEntity
  8
0
100
AcDbCircle
 62
7
  6
CONTINUOUS
 10
9.9067934783
 20
3.4525404222
 40
0.25
100
AcDbArc
 50
174.1321068496
 51
244.5324398575
  0
ARC
  5
315
100
AcDbEntity
  8
0
100
AcDbCircle
 62
7
  6
CONTINUOUS
 10
9.2215682287
 20
3.8152504506
 40
0.08
100
AcDbArc
 50
32.1599308918
 51
90.0
  0
ARC
  5
316
100
AcDbEntity
  8
0
100
AcDbCircle
 62
7
  6
CONTINUOUS
 10
9.7992934783
 20
3.1468332003
 40
0.08
100
AcDbArc
 50
0.0
 51
90.0
  0
ARC
  5
317
100
AcDbEntity
  8
0
100
AcDbCircle
 62
7
  6
CONTINUOUS
 10
9.2855552323
 20
3.7779205896
 40
0.08
100
AcDbArc
 50
6.7160064391
 51
87.321703252
  0
ARC
  5
318
100
AcDbEntity
  8
0
100
AcDbCircle
 62
7
  6
CONTINUOUS
 10
9.6382082073
 20
3.4801439042
 40
0.02
100
AcDbArc
 50
354.1321068494
 51
81.036204915
  0
ARC
  5
319
100
AcDbEntity
  8
0
100
AcDbCircle
 62
7
  6
CONTINUOUS
 10
7.7924826028
 20
2.9275760327
 40
0.0196850268
100
AcDbArc
 50
270.0
 51
328.1267385384
  0
ARC
  5
31A
100
AcDbEntity
  8
0
100
AcDbCircle
 62
7
  6
CONTINUOUS
 10
8.5427057625
 20
2.9368704717
 40
0.0196850265
100
AcDbArc
 50
187.9969465492
 51
269.9882374645
  0
ARC
  5
31B
100
AcDbEntity
  8
0
100
AcDbCircle
 62
7
  6
CONTINUOUS
 10
8.6327584814
 20
2.9368704739
 40
0.0196850265
100
AcDbArc
 50
270.0117775891
 51
356.0006578407
  0
ARC
  5
31C
100
AcDbEntity
  8
0
100
AcDbCircle
 62
7
  6
CONTINUOUS
 10
7.8914672153
 20
2.9368704379
 40
0.0196850265
100
AcDbArc
 50
270.0
 51
355.5306998134
  0
ARC
  5
31D
100
AcDbEntity
  8
0
100
AcDbCircle
 62
7
  6
CONTINUOUS
 10
8.4416689756
 20
2.9368704548
 40
0.0196850265
100
AcDbArc
 50
270.0
 51
355.8791268993
  0
ARC
  5
31E
100
AcDbEntity
  8
0
100
AcDbCircle
 62
7
  6
CONTINUOUS
 10
7.7023842994
 20
2.9275760337
 40
0.0196850264
100
AcDbArc
 50
187.5992864892
 51
270.0
  0
ARC
  5
31F
100
AcDbEntity
  8
0
100
AcDbCircle
 62
7
  6
CONTINUOUS
 10
8.0128175758
 20
2.9275760472
 40
0.0196850264
100
AcDbArc
 50
270.0090326275
 51
355.75163645
  0
ARC
  5
320
100
AcDbEntity
  8
0
100
AcDbCircle
 62
7
  6
CONTINUOUS
 10
7.9227023606
 20
2.9275760563
 40
0.0196850264
100
AcDbArc
 50
197.5444222472
 51
269.9909485564
  0
ARC
  5
321
100
AcDbEntity
  8
0
100
AcDbCircle
 62
7
  6
CONTINUOUS
 10
7.801449398
 20
2.9368704385
 40
0.0196850261
100
AcDbArc
 50
187.5337326551
 51
270.0
  0
ARC
  5
322
100
AcDbEntity
  8
0
100
AcDbCircle
 62
7
  6
CONTINUOUS
 10
8.3516348364
 20
2.9368704561
 40
0.0196850261
100
AcDbArc
 50
187.8799848757
 51
270.0
  0
ARC
  5
323
100
AcDbEntity
  8
0
100
AcDbCircle
 62
7
  6
CONTINUOUS
 10
8.9184307785
 20
12.8901888904
 40
9.0
100
AcDbArc
 50
252.8398821423
 51
268.1093025943
  0
SPLINE
  5
324
100
AcDbEntity
  8
0
100
AcDbSpline
 62
7
  6
CONTINUOUS
 70
0
 71
3
 72
23
 73
19
 74
0
 42
0.0000001
 43
0.0000001
 44
0.0000000001
 40
0.0
 40
0.0
 40
0.0
 40
0.0
 40
0.0504989386
 40
0.1051165467
 40
0.1636797386
 40
0.2259001642
 40
0.29132609
 40
0.3593468827
 40
0.4291990242
 40
0.5
 40
0.5708009758
 40
0.6406531173
 40
0.70867391
 40
0.7740998358
 40
0.8363202614
 40
0.8948834533
 40
0.9495010614
 40
1.0
 40
1.0
 40
1.0
 40
1.0
 10
6.0659167225
 20
4.5046813195
 30
0.0
 10
6.0663209707
 20
4.5084918098
 30
0.0
 10
6.0670921004
 20
4.5164311417
 30
0.0
 10
6.0681012472
 20
4.5288105665
 30
0.0
 10
6.0689928358
 20
4.5420905953
 30
0.0
 10
6.0697510499
 20
4.5562002623
 30
0.0
 10
6.0703604069
 20
4.5710354076
 30
0.0
 10
6.0708070576
 20
4.5864556774
 30
0.0
 10
6.0710798766
 20
4.6022879164
 30
0.0
 10
6.071171652
 20
4.6183332003
 30
0.0
 10
6.0710798766
 20
4.6343784842
 30
0.0
 10
6.0708070576
 20
4.6502107232
 30
0.0
 10
6.0703604069
 20
4.665630993
 30
0.0
 10
6.0697510499
 20
4.6804661383
 30
0.0
 10
6.0689928358
 20
4.6945758053
 30
0.0
 10
6.0681012472
 20
4.7078558341
 30
0.0
 10
6.0670921004
 20
4.7202352588
 30
0.0
 10
6.0663209707
 20
4.7281745908
 30
0.0
 10
6.0659167225
 20
4.7319850811
 30
0.0
  0
SPLINE
  5
325
100
AcDbEntity
  8
0
100
AcDbSpline
 62
7
  6
CONTINUOUS
 70
0
 71
3
 72
23
 73
19
 74
0
 42
0.0000001
 43
0.0000001
 44
0.0000000001
 40
0.0
 40
0.0
 40
0.0
 40
0.0
 40
0.0509775749
 40
0.1058920733
 40
0.1645907951
 40
0.2268070994
 40
0.2921127666
 40
0.3599230812
 40
0.429502876
 40
0.5
 40
0.570497124
 40
0.6400769188
 40
0.7078872334
 40
0.7731929006
 40
0.8354092048
 40
0.8941079267
 40
0.9490224251
 40
1.0
 40
1.0
 40
1.0
 40
1.0
 10
6.114817809
 20
4.5046813195
 30
0.0
 10
6.1156204583
 20
4.5084825566
 30
0.0
 10
6.1171530885
 20
4.5164074569
 30
0.0
 10
6.1191629172
 20
4.5287906972
 30
0.0
 10
6.1209384919
 20
4.542074385
 30
0.0
 10
6.1224483538
 20
4.5561874653
 30
0.0
 10
6.1236617407
 20
4.5710259037
 30
0.0
 10
6.1245511107
 20
4.5864493784
 30
0.0
 10
6.1250943379
 20
4.6022847772
 30
0.0
 10
6.1252770761
 20
4.6183332003
 30
0.0
 10
6.1250943379
 20
4.6343816234
 30
0.0
 10
6.1245511107
 20
4.6502170222
 30
0.0
 10
6.1236617407
 20
4.6656404969
 30
0.0
 10
6.1224483538
 20
4.6804789353
 30
0.0
 10
6.1209384919
 20
4.6945920156
 30
0.0
 10
6.1191629172
 20
4.7078757034
 30
0.0
 10
6.1171530885
 20
4.7202589437
 30
0.0
 10
6.1156204583
 20
4.728183844
 30
0.0
 10
6.114817809
 20
4.7319850811
 30
0.0
  0
SPLINE
  5
326
100
AcDbEntity
  8
0
100
AcDbSpline
 62
7
  6
CONTINUOUS
 70
0
 71
3
 72
23
 73
19
 74
0
 42
0.0000001
 43
0.0000001
 44
0.0000000001
 40
0.0
 40
0.0
 40
0.0
 40
0.0
 40
0.0517303628
 40
0.1071150953
 40
0.1660306565
 40
0.2282428712
 40
0.2933597381
 40
0.3608372281
 40
0.4299851924
 40
0.5
 40
0.5700148076
 40
0.6391627719
 40
0.7066402619
 40
0.7717571288
 40
0.8339693435
 40
0.8928849047
 40
0.9482696372
 40
1.0
 40
1.0
 40
1.0
 40
1.0
 10
6.1570206159
 20
4.5046813195
 30
0.0
 10
6.1582105595
 20
4.5084686841
 30
0.0
 10
6.1604859064
 20
4.5163711737
 30
0.0
 10
6.163479182
 20
4.5287597317
 30
0.0
 10
6.1661233695
 20
4.5420487649
 30
0.0
 10
6.168371672
 20
4.5561670277
 30
0.0
 10
6.170178407
 20
4.571010607
 30
0.0
 10
6.171502629
 20
4.5864391864
 30
0.0
 10
6.1723114451
 20
4.602279682
 30
0.0
 10
6.1725835225
 20
4.6183332003
 30
0.0
 10
6.1723114451
 20
4.6343867186
 30
0.0
 10
6.171502629
 20
4.6502272142
 30
0.0
 10
6.170178407
 20
4.6656557936
 30
0.0
 10
6.168371672
 20
4.6804993729
 30
0.0
 10
6.1661233695
 20
4.6946176357
 30
0.0
 10
6.163479182
 20
4.7079066689
 30
0.0
 10
6.1604859064
 20
4.7202952269
 30
0.0
 10
6.1582105595
 20
4.7281977165
 30
0.0
 10
6.1570206159
 20
4.7319850811
 30
0.0
  0
SPLINE
  5
327
100
AcDbEntity
  8
0
100
AcDbSpline
 62
7
  6
CONTINUOUS
 70
0
 71
3
 72
23
 73
19
 74
0
 42
0.0000001
 43
0.0000001
 44
0.0000000001
 40
0.0
 40
0.0
 40
0.0
 40
0.0
 40
0.0526988892
 40
0.1086944171
 40
0.1678955563
 40
0.2301068793
 40
0.2949815381
 40
0.362027653
 40
0.430613744
 40
0.5
 40
0.569386256
 40
0.637972347
 40
0.7050184619
 40
0.7698931207
 40
0.8321044437
 40
0.8913055829
 40
0.9473011108
 40
1.0
 40
1.0
 40
1.0
 40
1.0
 10
6.1921187072
 20
4.5046813195
 30
0.0
 10
6.1936804921
 20
4.5084519709
 30
0.0
 10
6.1966714746
 20
4.5163261934
 30
0.0
 10
6.2006217678
 20
4.5287204222
 30
0.0
 10
6.2041111822
 20
4.5420155991
 30
0.0
 10
6.2070779688
 20
4.556140176
 30
0.0
 10
6.2094619771
 20
4.5709902848
 30
0.0
 10
6.211209245
 20
4.5864255423
 30
0.0
 10
6.2122764301
 20
4.6022728304
 30
0.0
 10
6.2126354164
 20
4.6183332003
 30
0.0
 10
6.2122764301
 20
4.6343935702
 30
0.0
 10
6.211209245
 20
4.6502408583
 30
0.0
 10
6.2094619771
 20
4.6656761158
 30
0.0
 10
6.2070779688
 20
4.6805262246
 30
0.0
 10
6.2041111822
 20
4.6946508014
 30
0.0
 10
6.2006217678
 20
4.7079459784
 30
0.0
 10
6.1966714746
 20
4.7203402072
 30
0.0
 10
6.1936804921
 20
4.7282144297
 30
0.0
 10
6.1921187072
 20
4.7319850811
 30
0.0
  0
SPLINE
  5
328
100
AcDbEntity
  8
0
100
AcDbSpline
 62
7
  6
CONTINUOUS
 70
0
 71
3
 72
23
 73
19
 74
0
 42
0.0000001
 43
0.0000001
 44
0.0000000001
 40
0.0
 40
0.0
 40
0.0
 40
0.0
 40
0.0538159714
 40
0.1105238713
 40
0.1700635623
 40
0.2322800843
 40
0.296876524
 40
0.3634207638
 40
0.431349996
 40
0.5
 40
0.568650004
 40
0.6365792362
 40
0.703123476
 40
0.7677199157
 40
0.8299364377
 40
0.8894761287
 40
0.9461840286
 40
1.0
 40
1.0
 40
1.0
 40
1.0
 10
6.2197740691
 20
4.5046813195
 30
0.0
 10
6.2216888056
 20
4.5084341355
 30
0.0
 10
6.2253611105
 20
4.5162766168
 30
0.0
 10
6.230232504
 20
4.5286758563
 30
0.0
 10
6.2345355687
 20
4.5419771009
 30
0.0
 10
6.2381940542
 20
4.5561084313
 30
0.0
 10
6.2411338492
 20
4.5709659232
 30
0.0
 10
6.2432884295
 20
4.5864090278
 30
0.0
 10
6.2446043793
 20
4.60226449
 30
0.0
 10
6.2450470445
 20
4.6183332003
 30
0.0
 10
6.2446043793
 20
4.6344019106
 30
0.0
 10
6.2432884295
 20
4.6502573728
 30
0.0
 10
6.2411338492
 20
4.6657004773
 30
0.0
 10
6.2381940542
 20
4.6805579693
 30
0.0
 10
6.2345355687
 20
4.6946892997
 30
0.0
 10
6.230232504
 20
4.7079905443
 30
0.0
 10
6.2253611105
 20
4.7203897838
 30
0.0
 10
6.2216888056
 20
4.7282322651
 30
0.0
 10
6.2197740691
 20
4.7319850811
 30
0.0
  0
SPLINE
  5
329
100
AcDbEntity
  8
0
100
AcDbSpline
 62
7
  6
CONTINUOUS
 70
0
 71
3
 72
23
 73
19
 74
0
 42
0.0000001
 43
0.0000001
 44
0.0000000001
 40
0.0
 40
0.0
 40
0.0
 40
0.0
 40
0.0550143286
 40
0.1124955444
 40
0.1724092747
 40
0.2346389549
 40
0.2989385195
 40
0.3649393387
 40
0.432153407
 40
0.5
 40
0.567846593
 40
0.6350606613
 40
0.7010614805
 40
0.7653610451
 40
0.8275907253
 40
0.8875044556
 40
0.9449856714
 40
1.0
 40
1.0
 40
1.0
 40
1.0
 10
6.2397203653
 20
4.5046813195
 30
0.0
 10
6.2419664229
 20
4.5084165443
 30
0.0
 10
6.2462795733
 20
4.51622607
 30
0.0
 10
6.2520266701
 20
4.5286290083
 30
0.0
 10
6.2571036156
 20
4.5419355629
 30
0.0
 10
6.2614202005
 20
4.5560734623
 30
0.0
 10
6.2648889156
 20
4.5709386551
 30
0.0
 10
6.2674311859
 20
4.5863903342
 30
0.0
 10
6.2689839429
 20
4.6022549856
 30
0.0
 10
6.2695062692
 20
4.6183332003
 30
0.0
 10
6.2689839429
 20
4.634411415
 30
0.0
 10
6.2674311859
 20
4.6502760664
 30
0.0
 10
6.2648889156
 20
4.6657277455
 30
0.0
 10
6.2614202005
 20
4.6805929383
 30
0.0
 10
6.2571036156
 20
4.6947308377
 30
0.0
 10
6.2520266701
 20
4.7080373923
 30
0.0
 10
6.2462795733
 20
4.7204403306
 30
0.0
 10
6.2419664229
 20
4.7282498563
 30
0.0
 10
6.2397203653
 20
4.7319850811
 30
0.0
  0
SPLINE
  5
32A
100
AcDbEntity
  8
0
100
AcDbSpline
 62
7
  6
CONTINUOUS
 70
0
 71
3
 72
23
 73
19
 74
0
 42
0.0000001
 43
0.0000001
 44
0.0000000001
 40
0.0
 40
0.0
 40
0.0
 40
0.0
 40
0.0562327697
 40
0.1145096225
 40
0.1748151024
 40
0.237066393
 40
0.3010660571
 40
0.3665091646
 40
0.4329848865
 40
0.5
 40
0.5670151135
 40
0.6334908354
 40
0.6989339429
 40
0.762933607
 40
0.8251848976
 40
0.8854903775
 40
0.9437672303
 40
1.0
 40
1.0
 40
1.0
 40
1.0
 10
6.2517655021
 20
4.5046813195
 30
0.0
 10
6.2543189485
 20
4.5084001211
 30
0.0
 10
6.2592272252
 20
4.5161773513
 30
0.0
 10
6.2657954948
 20
4.5285824349
 30
0.0
 10
6.2715985818
 20
4.5418931371
 30
0.0
 10
6.2765330021
 20
4.5560369481
 30
0.0
 10
6.2804985007
 20
4.5709096849
 30
0.0
 10
6.2834050306
 20
4.5863702267
 30
0.0
 10
6.2851803349
 20
4.6022446862
 30
0.0
 10
6.285777534
 20
4.6183332003
 30
0.0
 10
6.2851803349
 20
4.6344217144
 30
0.0
 10
6.2834050306
 20
4.6502961739
 30
0.0
 10
6.2804985007
 20
4.6657567157
 30
0.0
 10
6.2765330021
 20
4.6806294525
 30
0.0
 10
6.2715985818
 20
4.6947732635
 30
0.0
 10
6.2657954948
 20
4.7080839657
 30
0.0
 10
6.2592272252
 20
4.7204890493
 30
0.0
 10
6.2543189485
 20
4.7282662795
 30
0.0
 10
6.2517655021
 20
4.7319850811
 30
0.0
  0
SPLINE
  5
32B
100
AcDbEntity
  8
0
100
AcDbSpline
 62
7
  6
CONTINUOUS
 70
0
 71
3
 72
23
 73
19
 74
0
 42
0.0000001
 43
0.0000001
 44
0.0000000001
 40
0.0
 40
0.0
 40
0.0
 40
0.0
 40
0.0574195296
 40
0.1164801095
 40
0.1771781617
 40
0.2394586625
 40
0.3031683841
 40
0.3680634162
 40
0.4338090938
 40
0.5
 40
0.5661909062
 40
0.6319365838
 40
0.6968316159
 40
0.7605413375
 40
0.8228218383
 40
0.8835198905
 40
0.9425804704
 40
1.0
 40
1.0
 40
1.0
 40
1.0
 10
6.2557934783
 20
4.5046813195
 30
0.0
 10
6.2586283271
 20
4.5083853942
 30
0.0
 10
6.2640814884
 20
4.516132371
 30
0.0
 10
6.2714078818
 20
4.5285381336
 30
0.0
 10
6.2778818379
 20
4.5418516895
 30
0.0
 10
6.2833874643
 20
4.5560004678
 30
0.0
 10
6.2878125433
 20
4.5708802192
 30
0.0
 10
6.2910562274
 20
4.5863495083
 30
0.0
 10
6.2930375939
 20
4.60223399
 30
0.0
 10
6.2937041326
 20
4.6183332003
 30
0.0
 10
6.2930375939
 20
4.6344324106
 30
0.0
 10
6.2910562274
 20
4.6503168923
 30
0.0
 10
6.2878125433
 20
4.6657861814
 30
0.0
 10
6.2833874643
 20
4.6806659328
 30
0.0
 10
6.2778818379
 20
4.6948147111
 30
0.0
 10
6.2714078818
 20
4.708128267
 30
0.0
 10
6.2640814884
 20
4.7205340296
 30
0.0
 10
6.2586283271
 20
4.7282810064
 30
0.0
 10
6.2557934783
 20
4.7319850811
 30
0.0
  0
SPLINE
  5
32C
100
AcDbEntity
  8
0
100
AcDbSpline
 62
7
  6
CONTINUOUS
 70
0
 71
3
 72
23
 73
19
 74
0
 42
0.0000001
 43
0.0000001
 44
0.0000000001
 40
0.0
 40
0.0
 40
0.0
 40
0.0
 40
0.0574195296
 40
0.1164801095
 40
0.1771781617
 40
0.2394586625
 40
0.3031683841
 40
0.3680634162
 40
0.4338090938
 40
0.5
 40
0.5661909062
 40
0.6319365838
 40
0.6968316159
 40
0.7605413375
 40
0.8228218383
 40
0.8835198905
 40
0.9425804704
 40
1.0
 40
1.0
 40
1.0
 40
1.0
 10
4.5827934783
 20
4.7319850811
 30
0.0
 10
4.5799586294
 20
4.7282810064
 30
0.0
 10
4.5745054682
 20
4.7205340296
 30
0.0
 10
4.5671790747
 20
4.708128267
 30
0.0
 10
4.5607051186
 20
4.6948147111
 30
0.0
 10
4.5551994922
 20
4.6806659328
 30
0.0
 10
4.5507744132
 20
4.6657861814
 30
0.0
 10
4.5475307292
 20
4.6503168923
 30
0.0
 10
4.5455493627
 20
4.6344324106
 30
0.0
 10
4.5448828239
 20
4.6183332003
 30
0.0
 10
4.5455493627
 20
4.60223399
 30
0.0
 10
4.5475307292
 20
4.5863495083
 30
0.0
 10
4.5507744132
 20
4.5708802192
 30
0.0
 10
4.5551994922
 20
4.5560004678
 30
0.0
 10
4.5607051186
 20
4.5418516895
 30
0.0
 10
4.5671790747
 20
4.5285381336
 30
0.0
 10
4.5745054682
 20
4.516132371
 30
0.0
 10
4.5799586294
 20
4.5083853942
 30
0.0
 10
4.5827934783
 20
4.5046813195
 30
0.0
  0
SPLINE
  5
32D
100
AcDbEntity
  8
0
100
AcDbSpline
 62
7
  6
CONTINUOUS
 70
0
 71
3
 72
23
 73
19
 74
0
 42
0.0000001
 43
0.0000001
 44
0.0000000001
 40
0.0
 40
0.0
 40
0.0
 40
0.0
 40
0.0562327697
 40
0.1145096225
 40
0.1748151024
 40
0.2370663931
 40
0.3010660571
 40
0.3665091646
 40
0.4329848865
 40
0.5
 40
0.5670151135
 40
0.6334908354
 40
0.6989339429
 40
0.7629336069
 40
0.8251848976
 40
0.8854903775
 40
0.9437672303
 40
1.0
 40
1.0
 40
1.0
 40
1.0
 10
4.5868214544
 20
4.7319850811
 30
0.0
 10
4.584268008
 20
4.7282662795
 30
0.0
 10
4.5793597313
 20
4.7204890493
 30
0.0
 10
4.5727914617
 20
4.7080839657
 30
0.0
 10
4.5669883747
 20
4.6947732635
 30
0.0
 10
4.5620539544
 20
4.6806294525
 30
0.0
 10
4.5580884558
 20
4.6657567157
 30
0.0
 10
4.5551819259
 20
4.6502961739
 30
0.0
 10
4.5534066216
 20
4.6344217144
 30
0.0
 10
4.5528094225
 20
4.6183332003
 30
0.0
 10
4.5534066216
 20
4.6022446862
 30
0.0
 10
4.5551819259
 20
4.5863702267
 30
0.0
 10
4.5580884558
 20
4.5709096849
 30
0.0
 10
4.5620539544
 20
4.5560369481
 30
0.0
 10
4.5669883747
 20
4.5418931371
 30
0.0
 10
4.5727914617
 20
4.5285824349
 30
0.0
 10
4.5793597313
 20
4.5161773513
 30
0.0
 10
4.584268008
 20
4.5084001211
 30
0.0
 10
4.5868214544
 20
4.5046813195
 30
0.0
  0
SPLINE
  5
32E
100
AcDbEntity
  8
0
100
AcDbSpline
 62
7
  6
CONTINUOUS
 70
0
 71
3
 72
23
 73
19
 74
0
 42
0.0000001
 43
0.0000001
 44
0.0000000001
 40
0.0
 40
0.0
 40
0.0
 40
0.0
 40
0.0550143286
 40
0.1124955444
 40
0.1724092747
 40
0.2346389549
 40
0.2989385195
 40
0.3649393387
 40
0.432153407
 40
0.5
 40
0.567846593
 40
0.6350606613
 40
0.7010614805
 40
0.7653610451
 40
0.8275907253
 40
0.8875044556
 40
0.9449856714
 40
1.0
 40
1.0
 40
1.0
 40
1.0
 10
4.5988665912
 20
4.7319850811
 30
0.0
 10
4.5966205336
 20
4.7282498563
 30
0.0
 10
4.5923073833
 20
4.7204403306
 30
0.0
 10
4.5865602865
 20
4.7080373923
 30
0.0
 10
4.5814833409
 20
4.6947308377
 30
0.0
 10
4.577166756
 20
4.6805929383
 30
0.0
 10
4.573698041
 20
4.6657277454
 30
0.0
 10
4.5711557706
 20
4.6502760664
 30
0.0
 10
4.5696030136
 20
4.634411415
 30
0.0
 10
4.5690806874
 20
4.6183332003
 30
0.0
 10
4.5696030136
 20
4.6022549856
 30
0.0
 10
4.5711557706
 20
4.5863903342
 30
0.0
 10
4.573698041
 20
4.5709386551
 30
0.0
 10
4.577166756
 20
4.5560734623
 30
0.0
 10
4.5814833409
 20
4.5419355629
 30
0.0
 10
4.5865602865
 20
4.5286290083
 30
0.0
 10
4.5923073833
 20
4.51622607
 30
0.0
 10
4.5966205336
 20
4.5084165443
 30
0.0
 10
4.5988665912
 20
4.5046813195
 30
0.0
  0
SPLINE
  5
32F
100
AcDbEntity
  8
0
100
AcDbSpline
 62
7
  6
CONTINUOUS
 70
0
 71
3
 72
23
 73
19
 74
0
 42
0.0000001
 43
0.0000001
 44
0.0000000001
 40
0.0
 40
0.0
 40
0.0
 40
0.0
 40
0.0538159714
 40
0.1105238713
 40
0.1700635623
 40
0.2322800843
 40
0.296876524
 40
0.3634207638
 40
0.431349996
 40
0.5
 40
0.568650004
 40
0.6365792362
 40
0.703123476
 40
0.7677199157
 40
0.8299364377
 40
0.8894761287
 40
0.9461840286
 40
1.0
 40
1.0
 40
1.0
 40
1.0
 10
4.6188128874
 20
4.7319850811
 30
0.0
 10
4.6168981509
 20
4.7282322651
 30
0.0
 10
4.613225846
 20
4.7203897838
 30
0.0
 10
4.6083544525
 20
4.7079905443
 30
0.0
 10
4.6040513878
 20
4.6946892997
 30
0.0
 10
4.6003929023
 20
4.6805579693
 30
0.0
 10
4.5974531073
 20
4.6657004773
 30
0.0
 10
4.5952985271
 20
4.6502573728
 30
0.0
 10
4.5939825772
 20
4.6344019106
 30
0.0
 10
4.593539912
 20
4.6183332003
 30
0.0
 10
4.5939825772
 20
4.60226449
 30
0.0
 10
4.5952985271
 20
4.5864090278
 30
0.0
 10
4.5974531073
 20
4.5709659233
 30
0.0
 10
4.6003929023
 20
4.5561084313
 30
0.0
 10
4.6040513878
 20
4.5419771009
 30
0.0
 10
4.6083544525
 20
4.5286758563
 30
0.0
 10
4.613225846
 20
4.5162766168
 30
0.0
 10
4.6168981509
 20
4.5084341355
 30
0.0
 10
4.6188128874
 20
4.5046813195
 30
0.0
  0
SPLINE
  5
330
100
AcDbEntity
  8
0
100
AcDbSpline
 62
7
  6
CONTINUOUS
 70
0
 71
3
 72
23
 73
19
 74
0
 42
0.0000001
 43
0.0000001
 44
0.0000000001
 40
0.0
 40
0.0
 40
0.0
 40
0.0
 40
0.0526988892
 40
0.1086944171
 40
0.1678955563
 40
0.2301068794
 40
0.2949815381
 40
0.362027653
 40
0.430613744
 40
0.5
 40
0.569386256
 40
0.637972347
 40
0.7050184619
 40
0.7698931206
 40
0.8321044437
 40
0.8913055829
 40
0.9473011108
 40
1.0
 40
1.0
 40
1.0
 40
1.0
 10
4.6464682493
 20
4.7319850811
 30
0.0
 10
4.6449064645
 20
4.7282144297
 30
0.0
 10
4.6419154819
 20
4.7203402072
 30
0.0
 10
4.6379651887
 20
4.7079459784
 30
0.0
 10
4.6344757743
 20
4.6946508014
 30
0.0
 10
4.6315089877
 20
4.6805262246
 30
0.0
 10
4.6291249794
 20
4.6656761158
 30
0.0
 10
4.6273777115
 20
4.6502408583
 30
0.0
 10
4.6263105264
 20
4.6343935702
 30
0.0
 10
4.6259515401
 20
4.6183332003
 30
0.0
 10
4.6263105264
 20
4.6022728304
 30
0.0
 10
4.6273777115
 20
4.5864255423
 30
0.0
 10
4.6291249794
 20
4.5709902848
 30
0.0
 10
4.6315089877
 20
4.556140176
 30
0.0
 10
4.6344757743
 20
4.5420155991
 30
0.0
 10
4.6379651887
 20
4.5287204222
 30
0.0
 10
4.6419154819
 20
4.5163261934
 30
0.0
 10
4.6449064645
 20
4.5084519709
 30
0.0
 10
4.6464682493
 20
4.5046813195
 30
0.0
  0
SPLINE
  5
331
100
AcDbEntity
  8
0
100
AcDbSpline
 62
7
  6
CONTINUOUS
 70
0
 71
3
 72
23
 73
19
 74
0
 42
0.0000001
 43
0.0000001
 44
0.0000000001
 40
0.0
 40
0.0
 40
0.0
 40
0.0
 40
0.0517303628
 40
0.1071150953
 40
0.1660306565
 40
0.2282428712
 40
0.2933597381
 40
0.3608372281
 40
0.4299851924
 40
0.5
 40
0.5700148076
 40
0.6391627719
 40
0.7066402619
 40
0.7717571288
 40
0.8339693435
 40
0.8928849047
 40
0.9482696372
 40
1.0
 40
1.0
 40
1.0
 40
1.0
 10
4.6815663406
 20
4.7319850811
 30
0.0
 10
4.680376397
 20
4.7281977165
 30
0.0
 10
4.6781010501
 20
4.7202952269
 30
0.0
 10
4.6751077746
 20
4.7079066689
 30
0.0
 10
4.672463587
 20
4.6946176357
 30
0.0
 10
4.6702152845
 20
4.6804993729
 30
0.0
 10
4.6684085495
 20
4.6656557936
 30
0.0
 10
4.6670843276
 20
4.6502272142
 30
0.0
 10
4.6662755114
 20
4.6343867186
 30
0.0
 10
4.666003434
 20
4.6183332003
 30
0.0
 10
4.6662755114
 20
4.602279682
 30
0.0
 10
4.6670843276
 20
4.5864391864
 30
0.0
 10
4.6684085495
 20
4.571010607
 30
0.0
 10
4.6702152845
 20
4.5561670277
 30
0.0
 10
4.672463587
 20
4.5420487649
 30
0.0
 10
4.6751077746
 20
4.5287597317
 30
0.0
 10
4.6781010501
 20
4.5163711737
 30
0.0
 10
4.680376397
 20
4.5084686841
 30
0.0
 10
4.6815663406
 20
4.5046813195
 30
0.0
  0
SPLINE
  5
332
100
AcDbEntity
  8
0
100
AcDbSpline
 62
7
  6
CONTINUOUS
 70
0
 71
3
 72
23
 73
19
 74
0
 42
0.0000001
 43
0.0000001
 44
0.0000000001
 40
0.0
 40
0.0
 40
0.0
 40
0.0
 40
0.0509775749
 40
0.1058920733
 40
0.1645907952
 40
0.2268070994
 40
0.2921127666
 40
0.3599230812
 40
0.429502876
 40
0.5
 40
0.570497124
 40
0.6400769188
 40
0.7078872334
 40
0.7731929006
 40
0.8354092048
 40
0.8941079267
 40
0.9490224251
 40
1.0
 40
1.0
 40
1.0
 40
1.0
 10
4.7237691476
 20
4.7319850811
 30
0.0
 10
4.7229664982
 20
4.728183844
 30
0.0
 10
4.7214338681
 20
4.7202589437
 30
0.0
 10
4.7194240394
 20
4.7078757034
 30
0.0
 10
4.7176484646
 20
4.6945920156
 30
0.0
 10
4.7161386028
 20
4.6804789353
 30
0.0
 10
4.7149252158
 20
4.6656404969
 30
0.0
 10
4.7140358458
 20
4.6502170222
 30
0.0
 10
4.7134926186
 20
4.6343816234
 30
0.0
 10
4.7133098804
 20
4.6183332003
 30
0.0
 10
4.7134926186
 20
4.6022847772
 30
0.0
 10
4.7140358458
 20
4.5864493784
 30
0.0
 10
4.7149252158
 20
4.5710259037
 30
0.0
 10
4.7161386028
 20
4.5561874653
 30
0.0
 10
4.7176484646
 20
4.542074385
 30
0.0
 10
4.7194240394
 20
4.5287906972
 30
0.0
 10
4.7214338681
 20
4.5164074569
 30
0.0
 10
4.7229664982
 20
4.5084825566
 30
0.0
 10
4.7237691476
 20
4.5046813195
 30
0.0
  0
SPLINE
  5
333
100
AcDbEntity
  8
0
100
AcDbSpline
 62
7
  6
CONTINUOUS
 70
0
 71
3
 72
23
 73
19
 74
0
 42
0.0000001
 43
0.0000001
 44
0.0000000001
 40
0.0
 40
0.0
 40
0.0
 40
0.0
 40
0.0504989386
 40
0.1051165467
 40
0.1636797386
 40
0.2259001642
 40
0.29132609
 40
0.3593468827
 40
0.4291990242
 40
0.5
 40
0.5708009758
 40
0.6406531173
 40
0.70867391
 40
0.7740998358
 40
0.8363202614
 40
0.8948834533
 40
0.9495010614
 40
1.0
 40
1.0
 40
1.0
 40
1.0
 10
4.772670234
 20
4.7319850811
 30
0.0
 10
4.7722659859
 20
4.7281745908
 30
0.0
 10
4.7714948561
 20
4.7202352588
 30
0.0
 10
4.7704857093
 20
4.7078558341
 30
0.0
 10
4.7695941207
 20
4.6945758053
 30
0.0
 10
4.7688359066
 20
4.6804661383
 30
0.0
 10
4.7682265497
 20
4.665630993
 30
0.0
 10
4.767779899
 20
4.6502107232
 30
0.0
 10
4.7675070799
 20
4.6343784842
 30
0.0
 10
4.7674153045
 20
4.6183332003
 30
0.0
 10
4.7675070799
 20
4.6022879164
 30
0.0
 10
4.767779899
 20
4.5864556774
 30
0.0
 10
4.7682265497
 20
4.5710354076
 30
0.0
 10
4.7688359066
 20
4.5562002623
 30
0.0
 10
4.7695941207
 20
4.5420905953
 30
0.0
 10
4.7704857093
 20
4.5288105665
 30
0.0
 10
4.7714948561
 20
4.5164311417
 30
0.0
 10
4.7722659859
 20
4.5084918098
 30
0.0
 10
4.772670234
 20
4.5046813195
 30
0.0
  0
SPLINE
  5
334
100
AcDbEntity
  8
0
100
AcDbSpline
 62
7
  6
CONTINUOUS
 70
0
 71
3
 72
37
 73
33
 74
0
 42
0.0000001
 43
0.0000001
 44
0.0000000001
 40
0.0
 40
0.0
 40
0.0
 40
0.0
 40
0.0001275025
 40
0.0002338104
 40
0.0003748753
 40
0.0007671028
 40
0.0013102407
 40
0.0028549753
 40
0.0050140049
 40
0.0077876029
 40
0.0111749644
 40
0.0151748688
 40
0.0197853639
 40
0.0250028291
 40
0.0308233014
 40
0.0442572276
 40
0.0600538738
 40
0.0781689121
 40
0.0985514866
 40
0.1211488757
 40
0.145897206
 40
0.1727281632
 40
0.2015708795
 40
0.2323439656
 40
0.2993413678
 40
0.3729863718
 40
0.452473308
 40
0.5369291847
 40
0.6254291701
 40
0.7170011563
 40
0.8106344191
 40
1.0
 40
1.0
 40
1.0
 40
1.0
 10
5.2175140766
 20
2.9254548482
 30
0.0
 10
5.217514401
 20
2.9254578647
 30
0.0
 10
5.217509834
 20
2.9254629365
 30
0.0
 10
5.2175022511
 20
2.9254669891
 30
0.0
 10
5.2174880133
 20
2.925472864
 30
0.0
 10
5.2174632873
 20
2.9254793981
 30
0.0
 10
5.2174053486
 20
2.9254909545
 30
0.0
 10
5.217305107
 20
2.9255040957
 30
0.0
 10
5.2171517204
 20
2.9255193021
 30
0.0
 10
5.2169543192
 20
2.9255345515
 30
0.0
 10
5.2167130278
 20
2.9255499697
 30
0.0
 10
5.216427952
 20
2.9255654114
 30
0.0
 10
5.2160992759
 20
2.9255808706
 30
0.0
 10
5.2157272364
 20
2.9255963173
 30
0.0
 10
5.2151453215
 20
2.9256179182
 30
0.0
 10
5.2143116833
 20
2.9256442655
 30
0.0
 10
5.2131854816
 20
2.9256743594
 30
0.0
 10
5.2118938759
 20
2.9257041116
 30
0.0
 10
5.2104403988
 20
2.9257334288
 30
0.0
 10
5.2088290422
 20
2.925762198
 30
0.0
 10
5.2070642125
 20
2.9257903389
 30
0.0
 10
5.2051507461
 20
2.9258177657
 30
0.0
 10
5.203093895
 20
2.9258443925
 30
0.0
 10
5.2000813079
 20
2.9258797422
 30
0.0
 10
5.1960026371
 20
2.9259209116
 30
0.0
 10
5.1907647846
 20
2.9259647998
 30
0.0
 10
5.185111455
 20
2.9260039343
 30
0.0
 10
5.1791046079
 20
2.926037851
 30
0.0
 10
5.1728101623
 20
2.9260661957
 30
0.0
 10
5.1662973133
 20
2.9260886907
 30
0.0
 10
5.1573843289
 20
2.9261100651
 30
0.0
 10
5.1506502972
 20
2.9261176459
 30
0.0
 10
5.1461442945
 20
2.9261177102
 30
0.0
  0
SPLINE
  5
335
100
AcDbEntity
  8
0
100
AcDbSpline
 62
7
  6
CONTINUOUS
 70
0
 71
3
 72
41
 73
37
 74
0
 42
0.0000001
 43
0.0000001
 44
0.0000000001
 40
0.0
 40
0.0
 40
0.0
 40
0.0
 40
0.0782329182
 40
0.160841473
 40
0.2463959856
 40
0.3334411912
 40
0.4204817605
 40
0.5060287393
 40
0.588616941
 40
0.6668326002
 40
0.7038782759
 40
0.7393368351
 40
0.773054745
 40
0.8048889429
 40
0.8347024838
 40
0.8623674788
 40
0.8877666755
 40
0.9107892643
 40
0.9313393549
 40
0.9493261632
 40
0.9573347141
 40
0.9646753148
 40
0.9713394434
 40
0.977319453
 40
0.9826098553
 40
0.9872055116
 40
0.9911013254
 40
0.9942924001
 40
0.9956226701
 40
0.9967758792
 40
0.9977519259
 40
0.9985507878
 40
0.999172612
 40
0.9996179853
 40
0.9998890786
 40
1.0
 40
1.0
 40
1.0
 40
1.0
 10
6.4158973152
 20
2.9187534925
 30
0.0
 10
6.4133679495
 20
2.9187534605
 30
0.0
 10
6.4081677486
 20
2.9187495987
 30
0.0
 10
6.4002014759
 20
2.9187363401
 30
0.0
 10
6.3919503081
 20
2.918714711
 30
0.0
 10
6.3835558724
 20
2.9186850067
 30
0.0
 10
6.3751617097
 20
2.9186478901
 30
0.0
 10
6.3669116824
 20
2.9186039098
 30
0.0
 10
6.3589470152
 20
2.9185538636
 30
0.0
 10
6.3525504684
 20
2.9185070218
 30
0.0
 10
6.3476776751
 20
2.9184669216
 30
0.0
 10
6.3442435186
 20
2.9184364391
 30
0.0
 10
6.3409778702
 20
2.9184051312
 30
0.0
 10
6.3378947481
 20
2.918373138
 30
0.0
 10
6.3350073414
 20
2.9183405987
 30
0.0
 10
6.3323280052
 20
2.9183076552
 30
0.0
 10
6.32986825
 20
2.9182744617
 30
0.0
 10
6.3276385528
 20
2.918241163
 30
0.0
 10
6.3256485359
 20
2.9182079241
 30
0.0
 10
6.3241439327
 20
2.9181794184
 30
0.0
 10
6.3230663842
 20
2.9181564756
 30
0.0
 10
6.3223548572
 20
2.918140044
 30
0.0
 10
6.3217089315
 20
2.9181237357
 30
0.0
 10
6.3211293104
 20
2.91810757
 30
0.0
 10
6.3206165898
 20
2.9180915742
 30
0.0
 10
6.3201712816
 20
2.9180757827
 30
0.0
 10
6.3197938932
 20
2.9180602254
 30
0.0
 10
6.3195220705
 20
2.9180468283
 30
0.0
 10
6.3193389421
 20
2.918035956
 30
0.0
 10
6.3192273105
 20
2.9180283585
 30
0.0
 10
6.3191330415
 20
2.9180209132
 30
0.0
 10
6.3190556049
 20
2.9180134033
 30
0.0
 10
6.3189964547
 20
2.9180065117
 30
0.0
 10
6.3189520078
 20
2.9179987971
 30
0.0
 10
6.3189291249
 20
2.9179937061
 30
0.0
 10
6.318914229
 20
2.917986599
 30
0.0
 10
6.3189146044
 20
2.9179830324
 30
0.0
  0
SPLINE
  5
336
100
AcDbEntity
  8
0
100
AcDbSpline
 62
7
  6
CONTINUOUS
 70
0
 71
3
 72
42
 73
38
 74
0
 42
0.0000001
 43
0.0000001
 44
0.0000000001
 40
0.0
 40
0.0
 40
0.0
 40
0.0
 40
0.0001189062
 40
0.000234808
 40
0.0003929653
 40
0.0008394495
 40
0.0014617411
 40
0.0022607155
 40
0.003236652
 40
0.0043895992
 40
0.0057194981
 40
0.0089096006
 40
0.0128042547
 40
0.017398635
 40
0.0226876836
 40
0.0286662852
 40
0.0353289725
 40
0.0426681214
 40
0.0506752172
 40
0.0686591225
 40
0.0892063815
 40
0.1122262523
 40
0.1376228762
 40
0.1652854921
 40
0.1950968665
 40
0.2269291577
 40
0.260645437
 40
0.296102678
 40
0.3331473639
 40
0.4113620943
 40
0.4939507993
 40
0.5794996418
 40
0.6665432358
 40
0.7535922558
 40
0.8391510612
 40
0.9217635442
 40
1.0
 40
1.0
 40
1.0
 40
1.0
 10
4.2096461825
 20
2.9252185406
 30
0.0
 10
4.2096465852
 20
2.9252223619
 30
0.0
 10
4.2096379899
 20
2.9252277235
 30
0.0
 10
4.2096270296
 20
2.925231844
 30
0.0
 10
4.2096041228
 20
2.9252383863
 30
0.0
 10
4.2095654573
 20
2.9252455612
 30
0.0
 10
4.2095055329
 20
2.9252541159
 30
0.0
 10
4.2094285977
 20
2.9252626797
 30
0.0
 10
4.2093343637
 20
2.9252714382
 30
0.0
 10
4.2092229478
 20
2.9252802776
 30
0.0
 10
4.2090400603
 20
2.9252929725
 30
0.0
 10
4.2087685825
 20
2.9253085964
 30
0.0
 10
4.2083916026
 20
2.9253267494
 30
0.0
 10
4.2079467405
 20
2.9253451721
 30
0.0
 10
4.2074344948
 20
2.9253638345
 30
0.0
 10
4.206855379
 20
2.9253826947
 30
0.0
 10
4.2062099877
 20
2.9254017215
 30
0.0
 10
4.2054990234
 20
2.9254208922
 30
0.0
 10
4.2044222864
 20
2.9254476598
 30
0.0
 10
4.2029187603
 20
2.9254809178
 30
0.0
 10
4.2009301056
 20
2.9255196983
 30
0.0
 10
4.1987018684
 20
2.9255585492
 30
0.0
 10
4.1962436642
 20
2.925597278
 30
0.0
 10
4.1935659625
 20
2.9256357157
 30
0.0
 10
4.1906802653
 20
2.9256736829
 30
0.0
 10
4.1875989194
 20
2.9257110138
 30
0.0
 10
4.1843351049
 20
2.9257475462
 30
0.0
 10
4.1809028309
 20
2.9257831167
 30
0.0
 10
4.176032623
 20
2.9258299124
 30
0.0
 10
4.1696393618
 20
2.9258845787
 30
0.0
 10
4.1616786621
 20
2.9259429896
 30
0.0
 10
4.1534326018
 20
2.9259943275
 30
0.0
 10
4.145042358
 20
2.9260376553
 30
0.0
 10
4.1366517521
 20
2.9260723433
 30
0.0
 10
4.1284043048
 20
2.9260975963
 30
0.0
 10
4.1204416139
 20
2.9261130774
 30
0.0
 10
4.1152437555
 20
2.9261176689
 30
0.0
 10
4.1127155322
 20
2.9261177103
 30
0.0
  0
LINE
  5
337
100
AcDbEntity
  8
0
100
AcDbLine
 62
7
  6
CONTINUOUS
 10
2.9425926866
 20
2.9354979475
 11
2.9274875378
 21
2.9353359826
  0
SPLINE
  5
338
100
AcDbEntity
  8
0
100
AcDbSpline
 62
7
  6
CONTINUOUS
 70
0
 71
3
 72
32
 73
28
 74
0
 42
0.0000001
 43
0.0000001
 44
0.0000000001
 40
0.0
 40
0.0
 40
0.0
 40
0.0
 40
0.0003338667
 40
0.0011485375
 40
0.0024862013
 40
0.0043533757
 40
0.0067518301
 40
0.0096820151
 40
0.0131438723
 40
0.0171371056
 40
0.0267157857
 40
0.0384095083
 40
0.0522036406
 40
0.06808296
 40
0.0860321178
 40
0.1060346816
 40
0.1280676588
 40
0.1521054438
 40
0.2060928496
 40
0.2677737967
 40
0.3368773444
 40
0.4131165317
 40
0.4961538175
 40
0.5856312262
 40
0.6811753404
 40
0.7823991975
 40
1.0
 40
1.0
 40
1.0
 40
1.0
 10
6.4482205441
 20
2.918495675
 30
0.0
 10
6.4482208739
 20
2.9184992579
 30
0.0
 10
6.4482059015
 20
2.9185062288
 30
0.0
 10
6.4481829297
 20
2.9185111723
 30
0.0
 10
6.4481383804
 20
2.9185185307
 30
0.0
 10
6.4480791219
 20
2.9185249693
 30
0.0
 10
6.4480015711
 20
2.9185318728
 30
0.0
 10
6.4479071823
 20
2.9185385816
 30
0.0
 10
6.447795425
 20
2.918545304
 30
0.0
 10
6.4476121119
 20
2.9185547391
 30
0.0
 10
6.4473400459
 20
2.9185659995
 30
0.0
 10
6.4469623516
 20
2.9185785866
 30
0.0
 10
6.4465167106
 20
2.9185908702
 30
0.0
 10
6.4460036287
 20
2.9186028246
 30
0.0
 10
6.4454236158
 20
2.9186144194
 30
0.0
 10
6.4447772679
 20
2.9186256322
 30
0.0
 10
6.4440652889
 20
2.9186364489
 30
0.0
 10
6.4429870756
 20
2.9186508857
 30
0.0
 10
6.4414815767
 20
2.9186675079
 30
0.0
 10
6.439490398
 20
2.9186850211
 30
0.0
 10
6.437259394
 20
2.9187007018
 30
0.0
 10
6.4347982202
 20
2.9187144703
 30
0.0
 10
6.4321174682
 20
2.9187262378
 30
0.0
 10
6.4292286609
 20
2.9187358922
 30
0.0
 10
6.4261438532
 20
2.9187434466
 30
0.0
 10
6.4216782795
 20
2.9187510792
 30
0.0
 10
6.4182423611
 20
2.9187534618
 30
0.0
 10
6.4158973152
 20
2.9187534918
 30
0.0
  0
SPLINE
  5
339
100
AcDbEntity
  8
0
100
AcDbSpline
 62
7
  6
CONTINUOUS
 70
0
 71
3
 72
45
 73
41
 74
0
 42
0.0000001
 43
0.0000001
 44
0.0000000001
 40
0.0
 40
0.0
 40
0.0
 40
0.0
 40
0.0000376628
 40
0.0001198882
 40
0.0002532186
 40
0.0004388498
 40
0.0009683302
 40
0.0017095557
 40
0.0026627576
 40
0.0038279376
 40
0.0052049411
 40
0.0067931662
 40
0.0085918385
 40
0.010600171
 40
0.0152426286
 40
0.0207141305
 40
0.0270070834
 40
0.0341107313
 40
0.0420137683
 40
0.0507048562
 40
0.0601710095
 40
0.0703965772
 40
0.0813656627
 40
0.1054683837
 40
0.1323288921
 40
0.1617832849
 40
0.193648126
 40
0.2277287635
 40
0.2638133641
 40
0.3016810845
 40
0.341097082
 40
0.3818195888
 40
0.4661712791
 40
0.5526591373
 40
0.6391530018
 40
0.7235219959
 40
0.8036867085
 40
0.8776714847
 40
0.9436507915
 40
1.0
 40
1.0
 40
1.0
 40
1.0
 10
3.4221121695
 20
2.9250341921
 30
0.0
 10
3.4221123376
 20
2.9250356502
 30
0.0
 10
3.4221076628
 20
2.9250392197
 30
0.0
 10
3.4220988481
 20
2.9250416739
 30
0.0
 10
3.4220832564
 20
2.9250453888
 30
0.0
 10
3.4220507902
 20
2.925050449
 30
0.0
 10
3.4219942159
 20
2.9250568439
 30
0.0
 10
3.4219079198
 20
2.9250640648
 30
0.0
 10
3.4217966965
 20
2.9250716152
 30
0.0
 10
3.4216607031
 20
2.9250793669
 30
0.0
 10
3.4214999234
 20
2.9250873264
 30
0.0
 10
3.4213144421
 20
2.9250954697
 30
0.0
 10
3.4211043411
 20
2.9251037919
 30
0.0
 10
3.4207752605
 20
2.925115698
 30
0.0
 10
3.4203030641
 20
2.9251307562
 30
0.0
 10
3.4196638996
 20
2.9251487243
 30
0.0
 10
3.4189287988
 20
2.9251672967
 30
0.0
 10
3.4180989219
 20
2.9251864424
 30
0.0
 10
3.417175573
 20
2.9252061209
 30
0.0
 10
3.4161601425
 20
2.925226296
 30
0.0
 10
3.4150541896
 20
2.9252469318
 30
0.0
 10
3.413859451
 20
2.9252679971
 30
0.0
 10
3.4120943524
 20
2.9252975474
 30
0.0
 10
3.4096809945
 20
2.9253350669
 30
0.0
 10
3.4065472511
 20
2.9253799885
 30
0.0
 10
3.403110983
 20
2.9254258033
 30
0.0
 10
3.399393314
 20
2.9254722304
 30
0.0
 10
3.3954172351
 20
2.9255189673
 30
0.0
 10
3.3912071948
 20
2.9255657297
 30
0.0
 10
3.3867892078
 20
2.9256122187
 30
0.0
 10
3.3821904555
 20
2.9256581536
 30
0.0
 10
3.3757801723
 20
2.9257189871
 30
0.0
 10
3.3675354156
 20
2.9257913859
 30
0.0
 10
3.3575068376
 20
2.9258707995
 30
0.0
 10
3.3474775217
 20
2.9259417599
 30
0.0
 10
3.3376945716
 20
2.9260025687
 30
0.0
 10
3.3283990708
 20
2.9260516335
 30
0.0
 10
3.3198202065
 20
2.9260881405
 30
0.0
 10
3.3121694445
 20
2.9261103149
 30
0.0
 10
3.3074020145
 20
2.9261176576
 30
0.0
 10
3.3052059527
 20
2.9261177105
 30
0.0
  0
SPLINE
  5
33A
100
AcDbEntity
  8
0
100
AcDbSpline
 62
7
  6
CONTINUOUS
 70
0
 71
3
 72
42
 73
38
 74
0
 42
0.0000001
 43
0.0000001
 44
0.0000000001
 40
0.0
 40
0.0
 40
0.0
 40
0.0
 40
0.0000366072
 40
0.0001076918
 40
0.0003767712
 40
0.0008213912
 40
0.001443004
 40
0.0022419508
 40
0.0032182664
 40
0.0043718684
 40
0.0057026192
 40
0.0072103524
 40
0.0088948448
 40
0.0127919446
 40
0.0173889691
 40
0.0226807883
 40
0.0286622432
 40
0.0353278274
 40
0.0426698768
 40
0.050679862
 40
0.0686694788
 40
0.0892222488
 40
0.1122473514
 40
0.1376488693
 40
0.1653159557
 40
0.19513134
 40
0.2269670996
 40
0.2606862742
 40
0.2961457759
 40
0.3331920603
 40
0.4114078949
 40
0.4939948841
 40
0.5795393597
 40
0.666576345
 40
0.7536172298
 40
0.8391670334
 40
1.0
 40
1.0
 40
1.0
 40
1.0
 10
4.8296974885
 20
2.9127632342
 30
0.0
 10
4.8296976125
 20
2.9127644118
 30
0.0
 10
4.8296947625
 20
2.9127674629
 30
0.0
 10
4.8296836456
 20
2.9127714747
 30
0.0
 10
4.82965839
 20
2.9127769557
 30
0.0
 10
4.8296157785
 20
2.9127825422
 30
0.0
 10
4.8295556488
 20
2.9127886513
 30
0.0
 10
4.8294783931
 20
2.912794766
 30
0.0
 10
4.8293838438
 20
2.9128010224
 30
0.0
 10
4.8292720826
 20
2.9128073354
 30
0.0
 10
4.8291431054
 20
2.9128137166
 30
0.0
 10
4.8289969414
 20
2.9128201519
 30
0.0
 10
4.8287678015
 20
2.9128292475
 30
0.0
 10
4.8284387433
 20
2.912840527
 30
0.0
 10
4.8279930004
 20
2.9128536921
 30
0.0
 10
4.8274798134
 20
2.9128670208
 30
0.0
 10
4.826899698
 20
2.912880493
 30
0.0
 10
4.82625325
 20
2.9128940835
 30
0.0
 10
4.8255411737
 20
2.9129077768
 30
0.0
 10
4.8244628349
 20
2.9129268959
 30
0.0
 10
4.8229571835
 20
2.9129506507
 30
0.0
 10
4.8209658415
 20
2.9129783496
 30
0.0
 10
4.8187347254
 20
2.913006098
 30
0.0
 10
4.8162734645
 20
2.9130337582
 30
0.0
 10
4.8135925424
 20
2.9130612095
 30
0.0
 10
4.8107034775
 20
2.9130883235
 30
0.0
 10
4.8076186328
 20
2.9131149817
 30
0.0
 10
4.8043512058
 20
2.9131410679
 30
0.0
 10
4.8009152229
 20
2.9131664657
 30
0.0
 10
4.7960399196
 20
2.9131998755
 30
0.0
 10
4.7896401793
 20
2.9132388996
 30
0.0
 10
4.7816716501
 20
2.9132805895
 30
0.0
 10
4.7734177539
 20
2.9133172232
 30
0.0
 10
4.7650197625
 20
2.9133481299
 30
0.0
 10
4.7566215782
 20
2.913372888
 30
0.0
 10
4.7458362924
 20
2.9133962752
 30
0.0
 10
4.7378665069
 20
2.9134050066
 30
0.0
 10
4.732664016
 20
2.9134050595
 30
0.0
  0
LINE
  5
33B
100
AcDbEntity
  8
0
100
AcDbLine
 62
7
  6
CONTINUOUS
 10
5.8283074543
 20
2.909900693
 11
5.7959454987
 21
2.9100722562
  0
SPLINE
  5
33C
100
AcDbEntity
  8
0
100
AcDbSpline
 62
7
  6
CONTINUOUS
 70
0
 71
3
 72
41
 73
37
 74
0
 42
0.0000001
 43
0.0000001
 44
0.0000000001
 40
0.0
 40
0.0
 40
0.0
 40
0.0
 40
0.0001276548
 40
0.0002455245
 40
0.000404966
 40
0.0008529278
 40
0.001475954
 40
0.0022752502
 40
0.003251248
 40
0.0057336888
 40
0.0089230234
 40
0.0128166764
 40
0.0174099047
 40
0.0226976966
 40
0.0286749653
 40
0.0353362669
 40
0.0426739998
 40
0.0506796595
 40
0.0686606571
 40
0.0892050256
 40
0.1122220735
 40
0.1376159814
 40
0.1652760401
 40
0.195085046
 40
0.2269152069
 40
0.2606296218
 40
0.2960853041
 40
0.3331287613
 40
0.411342112
 40
0.4939309384
 40
0.5794813528
 40
0.6665277848
 40
0.7535805137
 40
0.8391435738
 40
0.9217599892
 40
1.0
 40
1.0
 40
1.0
 40
1.0
 10
3.8996189806
 20
2.9344699814
 30
0.0
 10
3.8996194129
 20
2.9344740818
 30
0.0
 10
3.8996113211
 20
2.9344803643
 30
0.0
 10
3.8996000235
 20
2.9344851721
 30
0.0
 10
3.8995773616
 20
2.9344926377
 30
0.0
 10
3.8995387072
 20
2.9345008578
 30
0.0
 10
3.8994789606
 20
2.9345106314
 30
0.0
 10
3.8994021546
 20
2.9345204257
 30
0.0
 10
3.8992653776
 20
2.9345349592
 30
0.0
 10
3.8990513741
 20
2.9345525466
 30
0.0
 10
3.8987430847
 20
2.9345729171
 30
0.0
 10
3.8983665224
 20
2.9345936387
 30
0.0
 10
3.897922113
 20
2.9346147014
 30
0.0
 10
3.8974103518
 20
2.9346360269
 30
0.0
 10
3.8968317522
 20
2.9346575821
 30
0.0
 10
3.8961869076
 20
2.9346793267
 30
0.0
 10
3.89547652
 20
2.9347012361
 30
0.0
 10
3.8944006171
 20
2.9347318279
 30
0.0
 10
3.8928981992
 20
2.9347698376
 30
0.0
 10
3.890910947
 20
2.934814159
 30
0.0
 10
3.8886842156
 20
2.9348585616
 30
0.0
 10
3.8862276128
 20
2.9349028254
 30
0.0
 10
3.8835516002
 20
2.9349467575
 30
0.0
 10
3.8806676706
 20
2.934990153
 30
0.0
 10
3.8775881619
 20
2.9350328226
 30
0.0
 10
3.8743262444
 20
2.9350745808
 30
0.0
 10
3.8708959175
 20
2.9351152411
 30
0.0
 10
3.8660283826
 20
2.9351687352
 30
0.0
 10
3.8596385145
 20
2.9352312311
 30
0.0
 10
3.8516819064
 20
2.9352980137
 30
0.0
 10
3.8434399295
 20
2.9353567181
 30
0.0
 10
3.8350537114
 20
2.9354062639
 30
0.0
 10
3.8266670325
 20
2.9354459469
 30
0.0
 10
3.818423394
 20
2.9354748268
 30
0.0
 10
3.8104643654
 20
2.9354925297
 30
0.0
 10
3.8052689006
 20
2.9354978951
 30
0.0
 10
3.8027418443
 20
2.9354979466
 30
0.0
  0
LINE
  5
33D
100
AcDbEntity
  8
0
100
AcDbLine
 62
7
  6
CONTINUOUS
 10
2.3811701888
 20
2.9354979475
 11
2.3772768133
 21
2.9354553695
  0
LINE
  5
33E
100
AcDbEntity
  8
0
100
AcDbLine
 62
7
  6
CONTINUOUS
 10
2.9309918256
 20
2.9256008696
 11
2.8648932914
 21
2.9261142466
  0
SPLINE
  5
33F
100
AcDbEntity
  8
0
100
AcDbSpline
 62
7
  6
CONTINUOUS
 70
0
 71
3
 72
37
 73
33
 74
0
 42
0.0000001
 43
0.0000001
 44
0.0000000001
 40
0.0
 40
0.0
 40
0.0
 40
0.0
 40
0.0001384098
 40
0.0002493152
 40
0.0003950006
 40
0.0007974034
 40
0.0013527823
 40
0.0029300964
 40
0.0051344435
 40
0.0079668633
 40
0.0114255821
 40
0.0155081768
 40
0.0202119892
 40
0.0255342376
 40
0.0314718394
 40
0.0451735016
 40
0.0612742045
 40
0.0797292742
 40
0.1004829627
 40
0.1234724197
 40
0.1486322883
 40
0.175885503
 40
0.2051513319
 40
0.2363446805
 40
0.3041314836
 40
0.3784414778
 40
0.4583910301
 40
0.5430274938
 40
0.6313453782
 40
0.7222934484
 40
0.8147808407
 40
1.0
 40
1.0
 40
1.0
 40
1.0
 10
4.9336646363
 20
2.9346928095
 30
0.0
 10
4.9336649918
 20
2.9346962892
 30
0.0
 10
4.9336602589
 20
2.9347022156
 30
0.0
 10
4.9336518967
 20
2.9347071266
 30
0.0
 10
4.9336365554
 20
2.9347140303
 30
0.0
 10
4.9336097782
 20
2.9347217895
 30
0.0
 10
4.933547127
 20
2.9347354441
 30
0.0
 10
4.9334385639
 20
2.9347510427
 30
0.0
 10
4.9332723918
 20
2.9347690846
 30
0.0
 10
4.9330584454
 20
2.9347872177
 30
0.0
 10
4.9327969271
 20
2.934805579
 30
0.0
 10
4.9324880186
 20
2.9348240022
 30
0.0
 10
4.9321319492
 20
2.9348424784
 30
0.0
 10
4.9317289462
 20
2.9348609674
 30
0.0
 10
4.9310986622
 20
2.9348868551
 30
0.0
 10
4.9301960086
 20
2.9349185005
 30
0.0
 10
4.9289770091
 20
2.9349547618
 30
0.0
 10
4.9275797177
 20
2.9349906934
 30
0.0
 10
4.9260082774
 20
2.9350261804
 30
0.0
 10
4.924267347
 20
2.935061094
 30
0.0
 10
4.9223621216
 20
2.9350953077
 30
0.0
 10
4.9202982467
 20
2.9351287204
 30
0.0
 10
4.9180818651
 20
2.9351612251
 30
0.0
 10
4.9148411905
 20
2.9352044154
 30
0.0
 10
4.9104621843
 20
2.9352548599
 30
0.0
 10
4.9048510082
 20
2.9353088057
 30
0.0
 10
4.8988139503
 20
2.9353570311
 30
0.0
 10
4.8924228377
 20
2.9353989212
 30
0.0
 10
4.8857537319
 20
2.9354339647
 30
0.0
 10
4.878886186
 20
2.9354618712
 30
0.0
 10
4.8695697863
 20
2.9354882646
 30
0.0
 10
4.8625517381
 20
2.9354978625
 30
0.0
 10
4.8578709817
 20
2.9354979466
 30
0.0
  0
LINE
  5
340
100
AcDbEntity
  8
0
100
AcDbLine
 62
7
  6
CONTINUOUS
 10
4.7326640159
 20
2.9134050616
 11
4.700322447
 21
2.9131903951
  0
SPLINE
  5
341
100
AcDbEntity
  8
0
100
AcDbSpline
 62
7
  6
CONTINUOUS
 70
0
 71
3
 72
35
 73
31
 74
0
 42
0.0000001
 43
0.0000001
 44
0.0000000001
 40
0.0
 40
0.0
 40
0.0
 40
0.0
 40
0.000378483
 40
0.00075086
 40
0.001259959
 40
0.0019090321
 40
0.0026995402
 40
0.0047069899
 40
0.0072844119
 40
0.0104317878
 40
0.0141483871
 40
0.0184331476
 40
0.0287018854
 40
0.0412208109
 40
0.055964055
 40
0.0729049049
 40
0.0920142412
 40
0.1132534108
 40
0.1365812028
 40
0.1619559892
 40
0.1893293434
 40
0.21864695
 40
0.282893888
 40
0.3542071942
 40
0.4320462057
 40
0.5158165996
 40
0.6048831742
 40
0.698555856
 40
0.7961337054
 40
1.0
 40
1.0
 40
1.0
 40
1.0
 10
6.0340768007
 20
2.9349302248
 30
0.0
 10
6.0340774773
 20
2.934936925
 30
0.0
 10
6.0340620432
 20
2.9349460861
 30
0.0
 10
6.0340426746
 20
2.9349530754
 30
0.0
 10
6.0340157048
 20
2.934960441
 30
0.0
 10
6.0339820074
 20
2.9349674465
 30
0.0
 10
6.0339214318
 20
2.9349778727
 30
0.0
 10
6.0338266397
 20
2.9349902135
 30
0.0
 10
6.0336897419
 20
2.9350042844
 30
0.0
 10
6.0335223445
 20
2.9350183216
 30
0.0
 10
6.033324466
 20
2.9350323458
 30
0.0
 10
6.0329999923
 20
2.935052167
 30
0.0
 10
6.0325188726
 20
2.9350759837
 30
0.0
 10
6.0318516287
 20
2.9351028509
 30
0.0
 10
6.0310655726
 20
2.9351292859
 30
0.0
 10
6.0301621845
 20
2.9351552151
 30
0.0
 10
6.029143159
 20
2.9351805459
 30
0.0
 10
6.0280104465
 20
2.9352052249
 30
0.0
 10
6.0267662164
 20
2.9352291934
 30
0.0
 10
6.0254128101
 20
2.9352523925
 30
0.0
 10
6.0239528012
 20
2.9352747761
 30
0.0
 10
6.0218011799
 20
2.9353043859
 30
0.0
 10
6.0188677363
 20
2.9353385607
 30
0.0
 10
6.0150709337
 20
2.9353745807
 30
0.0
 10
6.0109267058
 20
2.9354064137
 30
0.0
 10
6.00646656
 20
2.9354338481
 30
0.0
 10
6.0017246596
 20
2.9354566711
 30
0.0
 10
5.9967370628
 20
2.935474514
 30
0.0
 10
5.9897068471
 20
2.9354918237
 30
0.0
 10
5.9843433092
 20
2.9354978814
 30
0.0
 10
5.9807159561
 20
2.9354979465
 30
0.0
  0
SPLINE
  5
342
100
AcDbEntity
  8
0
100
AcDbSpline
 62
7
  6
CONTINUOUS
 70
0
 71
3
 72
39
 73
35
 74
0
 42
0.0000001
 43
0.0000001
 44
0.0000000001
 40
0.0
 40
0.0
 40
0.0
 40
0.0
 40
0.0922505702
 40
0.1851895251
 40
0.2776632423
 40
0.3686002426
 40
0.4569104802
 40
0.5415433905
 40
0.6214939384
 40
0.695809604
 40
0.7636066232
 40
0.7948066556
 40
0.824080138
 40
0.8513418568
 40
0.8765110127
 40
0.8995103938
 40
0.9202744962
 40
0.9387403398
 40
0.9548519148
 40
0.9620107492
 40
0.9685642962
 40
0.9745070785
 40
0.9798342822
 40
0.9845427179
 40
0.9886294674
 40
0.9920916604
 40
0.9949265178
 40
0.9971315916
 40
0.9979977499
 40
0.9987065093
 40
0.9992582377
 40
0.9996538065
 40
0.9998958864
 40
1.0
 40
1.0
 40
1.0
 40
1.0
 10
5.6577572005
 20
2.9134050617
 30
0.0
 10
5.6554224013
 20
2.9134050453
 30
0.0
 10
5.6507353804
 20
2.9134029813
 30
0.0
 10
5.6437079166
 20
2.913395186
 30
0.0
 10
5.6367137048
 20
2.9133827487
 30
0.0
 10
5.6298366536
 20
2.9133653918
 30
0.0
 10
5.6231580617
 20
2.9133435357
 30
0.0
 10
5.616757547
 20
2.9133174051
 30
0.0
 10
5.6107112466
 20
2.913287315
 30
0.0
 10
5.6050910772
 20
2.9132536447
 30
0.0
 10
5.6007047618
 20
2.9132221526
 30
0.0
 10
5.5974584336
 20
2.9131951844
 30
0.0
 10
5.595238007
 20
2.9131748857
 30
0.0
 10
5.5931702303
 20
2.9131540179
 30
0.0
 10
5.591261261
 20
2.9131326479
 30
0.0
 10
5.5895167585
 20
2.9131108381
 30
0.0
 10
5.5879419318
 20
2.9130886706
 30
0.0
 10
5.5865414545
 20
2.9130662168
 30
0.0
 10
5.5854853179
 20
2.9130466492
 30
0.0
 10
5.5847306622
 20
2.9130306859
 30
0.0
 10
5.5842333366
 20
2.9130191601
 30
0.0
 10
5.5837823822
 20
2.9130076158
 30
0.0
 10
5.5833781439
 20
2.9129960631
 30
0.0
 10
5.5830209002
 20
2.912984519
 30
0.0
 10
5.5827108896
 20
2.9129730023
 30
0.0
 10
5.5824483215
 20
2.9129615416
 30
0.0
 10
5.5822334586
 20
2.9129501764
 30
0.0
 10
5.5820842508
 20
2.9129401954
 30
0.0
 10
5.5819890117
 20
2.9129319585
 30
0.0
 10
5.5819353264
 20
2.9129261944
 30
0.0
 10
5.5818941772
 20
2.9129209007
 30
0.0
 10
5.5818636322
 20
2.9129148622
 30
0.0
 10
5.5818471908
 20
2.9129109367
 30
0.0
 10
5.5818373988
 20
2.9129051539
 30
0.0
 10
5.5818376642
 20
2.9129025322
 30
0.0
  0
LINE
  5
343
100
AcDbEntity
  8
0
100
AcDbLine
 62
7
  6
CONTINUOUS
 10
3.7838084016
 20
2.9182177131
 11
3.6931248634
 21
2.9187534927
  0
SPLINE
  5
344
100
AcDbEntity
  8
0
100
AcDbSpline
 62
7
  6
CONTINUOUS
 70
0
 71
3
 72
32
 73
28
 74
0
 42
0.0000001
 43
0.0000001
 44
0.0000000001
 40
0.0
 40
0.0
 40
0.0
 40
0.0
 40
0.0003846804
 40
0.0007393899
 40
0.0012188601
 40
0.0025651322
 40
0.0044367208
 40
0.0068372563
 40
0.00976805
 40
0.0172214996
 40
0.0267964309
 40
0.038485151
 40
0.0522735297
 40
0.0681466525
 40
0.0860893795
 40
0.1060854421
 40
0.1281119804
 40
0.1521434727
 40
0.2061189823
 40
0.2677893855
 40
0.3368841335
 40
0.413116536
 40
0.4961489572
 40
0.5856231578
 40
0.6811662398
 40
0.782392359
 40
1.0
 40
1.0
 40
1.0
 40
1.0
 10
7.0681295379
 20
2.9351536183
 30
0.0
 10
7.0681298996
 20
2.9351577438
 30
0.0
 10
7.068121705
 20
2.9351639244
 30
0.0
 10
7.0681103177
 20
2.9351686332
 30
0.0
 10
7.0680875303
 20
2.9351758638
 30
0.0
 10
7.0680487299
 20
2.9351836929
 30
0.0
 10
7.0679888069
 20
2.9351928479
 30
0.0
 10
7.0679118214
 20
2.9352018464
 30
0.0
 10
7.0677747828
 20
2.9352149551
 30
0.0
 10
7.0675604478
 20
2.9352303073
 30
0.0
 10
7.0672517544
 20
2.9352474498
 30
0.0
 10
7.0668747639
 20
2.9352642227
 30
0.0
 10
7.0664298997
 20
2.9352806202
 30
0.0
 10
7.0659176542
 20
2.9352965695
 30
0.0
 10
7.0653385378
 20
2.9353120428
 30
0.0
 10
7.0646931429
 20
2.9353270065
 30
0.0
 10
7.0639821717
 20
2.9353414427
 30
0.0
 10
7.0629054146
 20
2.9353607115
 30
0.0
 10
7.061401853
 20
2.9353828986
 30
0.0
 10
7.0594131303
 20
2.9354062762
 30
0.0
 10
7.0571847584
 20
2.9354272133
 30
0.0
 10
7.0547263809
 20
2.935445607
 30
0.0
 10
7.0520485824
 20
2.935461328
 30
0.0
 10
7.0491628741
 20
2.9354742065
 30
0.0
 10
7.0460812863
 20
2.9354842824
 30
0.0
 10
7.041620251
 20
2.9354945553
 30
0.0
 10
7.0381877892
 20
2.9354978986
 30
0.0
 10
7.0358450959
 20
2.9354979465
 30
0.0
  0
LINE
  5
345
100
AcDbEntity
  8
0
100
AcDbLine
 62
7
  6
CONTINUOUS
 10
7.9110994192
 20
2.9353359876
 11
7.8959942583
 21
2.9354979464
  0
SPLINE
  5
346
100
AcDbEntity
  8
0
100
AcDbSpline
 62
7
  6
CONTINUOUS
 70
0
 71
3
 72
49
 73
45
 74
0
 42
0.0000001
 43
0.0000001
 44
0.0000000001
 40
0.0
 40
0.0
 40
0.0
 40
0.0
 40
0.0172132509
 40
0.0379868297
 40
0.0895467141
 40
0.1531120088
 40
0.2267473679
 40
0.3082129282
 40
0.3950314302
 40
0.4845639828
 40
0.5740902448
 40
0.6179991556
 40
0.6608910419
 40
0.7024403957
 40
0.7423303369
 40
0.780257952
 40
0.8159345806
 40
0.8490880525
 40
0.8794672624
 40
0.9068390665
 40
0.9193321312
 40
0.9309967386
 40
0.9418108857
 40
0.9517549003
 40
0.9608091824
 40
0.9689556321
 40
0.9761799778
 40
0.9824685545
 40
0.9852576736
 40
0.9878080954
 40
0.9901188583
 40
0.9921890243
 40
0.9940176584
 40
0.9956038305
 40
0.9969466195
 40
0.9980451506
 40
0.9985026767
 40
0.9988990424
 40
0.9992342604
 40
0.9995083598
 40
0.9997214062
 40
0.9998735591
 40
0.9999653208
 40
1.0
 40
1.0
 40
1.0
 40
1.0
 10
8.4574167631
 20
2.9354979497
 30
0.0
 10
8.456697835
 20
2.9354979125
 30
0.0
 10
8.4551112789
 20
2.9354950661
 30
0.0
 10
8.4513712944
 20
2.9354824981
 30
0.0
 10
8.445695417
 20
2.9354543507
 30
0.0
 10
8.4378118148
 20
2.9354031389
 30
0.0
 10
8.4286792627
 20
2.9353348254
 30
0.0
 10
8.4185756113
 20
2.9352508818
 30
0.0
 10
8.4078080858
 20
2.9351539691
 30
0.0
 10
8.396703977
 20
2.9350469389
 30
0.0
 10
8.387392003
 20
2.9349514202
 30
0.0
 10
8.3800279573
 20
2.9348723105
 30
0.0
 10
8.3746676177
 20
2.9348129218
 30
0.0
 10
8.3694751447
 20
2.9347535507
 30
0.0
 10
8.3644900178
 20
2.9346946456
 30
0.0
 10
8.3597501777
 20
2.9346366593
 30
0.0
 10
8.3552916976
 20
2.9345800358
 30
0.0
 10
8.3511484871
 20
2.934525211
 30
0.0
 10
8.3473521372
 20
2.9344726132
 30
0.0
 10
8.3444186375
 20
2.9344297736
 30
0.0
 10
8.3422667118
 20
2.9343967819
 30
0.0
 10
8.3408062638
 20
2.9343735987
 30
0.0
 10
8.3394522795
 20
2.9343512604
 30
0.0
 10
8.3382073185
 20
2.9343298133
 30
0.0
 10
8.3370737773
 20
2.9343093012
 30
0.0
 10
8.336053827
 20
2.9342897663
 30
0.0
 10
8.3351493916
 20
2.9342712506
 30
0.0
 10
8.3344686876
 20
2.9342561667
 30
0.0
 10
8.3339831671
 20
2.9342445371
 30
0.0
 10
8.3336637472
 20
2.9342364439
 30
0.0
 10
8.3333743579
 20
2.9342286321
 30
0.0
 10
8.3331151183
 20
2.9342211076
 30
0.0
 10
8.3328861473
 20
2.9342138768
 30
0.0
 10
8.3326875611
 20
2.9342069501
 30
0.0
 10
8.332519481
 20
2.9342003352
 30
0.0
 10
8.3323985259
 20
2.934194818
 30
0.0
 10
8.3323171071
 20
2.9341904625
 30
0.0
 10
8.3322675088
 20
2.934187476
 30
0.0
 10
8.3322256727
 20
2.9341845894
 30
0.0
 10
8.3321912512
 20
2.9341817582
 30
0.0
 10
8.3321651653
 20
2.9341791362
 30
0.0
 10
8.3321451558
 20
2.9341764279
 30
0.0
 10
8.3321356799
 20
2.9341744182
 30
0.0
 10
8.3321285494
 20
2.9341721865
 30
0.0
 10
8.3321287377
 20
2.9341707503
 30
0.0
  0
LINE
  5
347
100
AcDbEntity
  8
0
100
AcDbLine
 62
7
  6
CONTINUOUS
 10
4.2543340606
 20
2.9125759372
 11
4.2033640779
 21
2.9130346055
  0
LINE
  5
348
100
AcDbEntity
  8
0
100
AcDbLine
 62
7
  6
CONTINUOUS
 10
8.4613101435
 20
2.9354553749
 11
8.4574167629
 21
2.9354979464
  0
LINE
  5
349
100
AcDbEntity
  8
0
100
AcDbLine
 62
7
  6
CONTINUOUS
 10
5.7959454987
 20
2.9100722567
 11
5.7105758462
 21
2.9097597522
  0
SPLINE
  5
34A
100
AcDbEntity
  8
0
100
AcDbSpline
 62
7
  6
CONTINUOUS
 70
0
 71
3
 72
49
 73
45
 74
0
 42
0.0000001
 43
0.0000001
 44
0.0000000001
 40
0.0
 40
0.0
 40
0.0
 40
0.0
 40
0.0000346796
 40
0.0001264418
 40
0.0002785951
 40
0.0004916418
 40
0.0007657415
 40
0.0011009596
 40
0.0014973252
 40
0.0019548511
 40
0.003053381
 40
0.0043961696
 40
0.0059823421
 40
0.007810977
 40
0.0098811441
 40
0.0121919078
 40
0.0147423298
 40
0.0175314486
 40
0.0238200267
 40
0.031044375
 40
0.039190826
 40
0.0482451087
 40
0.0581891261
 40
0.0690032759
 40
0.0806678843
 40
0.0931609517
 40
0.1205327614
 40
0.150911977
 40
0.1840654537
 40
0.2197420889
 40
0.2576697088
 40
0.2975596565
 40
0.3391090155
 40
0.3820009072
 40
0.425909823
 40
0.5154360935
 40
0.6049686512
 40
0.6917871542
 40
0.7732527121
 40
0.846888064
 40
0.9104533467
 40
0.9620132144
 40
0.9827867688
 40
1.0
 40
1.0
 40
1.0
 40
1.0
 10
2.5064582189
 20
2.9341707506
 30
0.0
 10
2.5064584071
 20
2.9341721868
 30
0.0
 10
2.5064512766
 20
2.9341744185
 30
0.0
 10
2.5064418006
 20
2.9341764282
 30
0.0
 10
2.506421791
 20
2.9341791364
 30
0.0
 10
2.5063957051
 20
2.9341817585
 30
0.0
 10
2.5063612836
 20
2.9341845897
 30
0.0
 10
2.5063194475
 20
2.9341874763
 30
0.0
 10
2.5062698492
 20
2.9341904628
 30
0.0
 10
2.5061884304
 20
2.9341948182
 30
0.0
 10
2.5060674754
 20
2.9342003355
 30
0.0
 10
2.5058993954
 20
2.9342069504
 30
0.0
 10
2.5057008091
 20
2.9342138771
 30
0.0
 10
2.505471838
 20
2.9342211079
 30
0.0
 10
2.5052125983
 20
2.9342286324
 30
0.0
 10
2.5049232089
 20
2.9342364442
 30
0.0
 10
2.5046037889
 20
2.9342445375
 30
0.0
 10
2.5041182684
 20
2.9342561671
 30
0.0
 10
2.5034375642
 20
2.934271251
 30
0.0
 10
2.5025331285
 20
2.9342897668
 30
0.0
 10
2.5015131781
 20
2.9343093018
 30
0.0
 10
2.5003796366
 20
2.934329814
 30
0.0
 10
2.4991346753
 20
2.9343512611
 30
0.0
 10
2.4977806907
 20
2.9343735994
 30
0.0
 10
2.4963202424
 20
2.9343967828
 30
0.0
 10
2.4941683162
 20
2.9344297745
 30
0.0
 10
2.4912348159
 20
2.9344726143
 30
0.0
 10
2.4874384652
 20
2.9345252122
 30
0.0
 10
2.4832952538
 20
2.9345800373
 30
0.0
 10
2.4788367728
 20
2.934636661
 30
0.0
 10
2.4740969318
 20
2.9346946476
 30
0.0
 10
2.4691118041
 20
2.9347535528
 30
0.0
 10
2.4639193302
 20
2.9348129242
 30
0.0
 10
2.4585589897
 20
2.9348723133
 30
0.0
 10
2.4511949429
 20
2.9349514233
 30
0.0
 10
2.4418829678
 20
2.9350469425
 30
0.0
 10
2.4307788581
 20
2.9351539732
 30
0.0
 10
2.420011332
 20
2.9352508867
 30
0.0
 10
2.4099076806
 20
2.9353348301
 30
0.0
 10
2.4007751291
 20
2.9354031461
 30
0.0
 10
2.3928915281
 20
2.9354543528
 30
0.0
 10
2.3872156527
 20
2.9354825104
 30
0.0
 10
2.3834756706
 20
2.9354950682
 30
0.0
 10
2.3818891163
 20
2.9354979076
 30
0.0
 10
2.381170189
 20
2.9354979447
 30
0.0
  0
SPLINE
  5
34B
100
AcDbEntity
  8
0
100
AcDbSpline
 62
7
  6
CONTINUOUS
 70
0
 71
3
 72
44
 73
40
 74
0
 42
0.0000001
 43
0.0000001
 44
0.0000000001
 40
0.0
 40
0.0
 40
0.0
 40
0.0
 40
0.0604353891
 40
0.1295679138
 40
0.2057868592
 40
0.2873144249
 40
0.3722504376
 40
0.4586155923
 40
0.5443982052
 40
0.6276008813
 40
0.667625852
 40
0.7062869416
 40
0.743358639
 40
0.7786252159
 40
0.8118809934
 40
0.8429323601
 40
0.8715983147
 40
0.8977117582
 40
0.9211206476
 40
0.9317678357
 40
0.9416882214
 40
0.9508682795
 40
0.9592950245
 40
0.9669554793
 40
0.9738378226
 40
0.9799330884
 40
0.9852327633
 40
0.9897283804
 40
0.9916723355
 40
0.9934129877
 40
0.9949498849
 40
0.9962825952
 40
0.9974107214
 40
0.9983339324
 40
0.9990520386
 40
0.9995652484
 40
0.9998754475
 40
0.9999573921
 40
1.0
 40
1.0
 40
1.0
 40
1.0
 10
7.8959942585
 20
2.9354979497
 30
0.0
 10
7.8936960595
 20
2.9354978865
 30
0.0
 10
7.888768934
 20
2.9354899735
 30
0.0
 10
7.8809434356
 20
2.9354660727
 30
0.0
 10
7.8723159096
 20
2.9354265729
 30
0.0
 10
7.8630874829
 20
2.9353733779
 30
0.0
 10
7.8534732958
 20
2.9353073339
 30
0.0
 10
7.8436973792
 20
2.9352300757
 30
0.0
 10
7.8339874587
 20
2.9351433609
 30
0.0
 10
7.8260397431
 20
2.9350639334
 30
0.0
 10
7.8198839039
 20
2.9349969715
 30
0.0
 10
7.8154822315
 20
2.9349463504
 30
0.0
 10
7.8112615299
 20
2.9348949758
 30
0.0
 10
7.8072463998
 20
2.9348431503
 30
0.0
 10
7.8034602292
 20
2.9347911774
 30
0.0
 10
7.7999250857
 20
2.9347393665
 30
0.0
 10
7.7966615704
 20
2.9346880276
 30
0.0
 10
7.7936887044
 20
2.934637469
 30
0.0
 10
7.7914010082
 20
2.9345950167
 30
0.0
 10
7.7897290358
 20
2.9345614387
 30
0.0
 10
7.7885980661
 20
2.9345374322
 30
0.0
 10
7.787551545
 20
2.9345138391
 30
0.0
 10
7.7865909759
 20
2.9344906963
 30
0.0
 10
7.7857177978
 20
2.9344680422
 30
0.0
 10
7.7849332978
 20
2.934445912
 30
0.0
 10
7.7842385939
 20
2.9344243535
 30
0.0
 10
7.7836346794
 20
2.9344034069
 30
0.0
 10
7.7831886124
 20
2.9343857682
 30
0.0
 10
7.7828778546
 20
2.9343717576
 30
0.0
 10
7.7826795372
 20
2.9343619397
 30
0.0
 10
7.7825044833
 20
2.934352301
 30
0.0
 10
7.7823527573
 20
2.9343428622
 30
0.0
 10
7.7822243844
 20
2.9343336089
 30
0.0
 10
7.7821194934
 20
2.9343246586
 30
0.0
 10
7.7820379063
 20
2.9343158297
 30
0.0
 10
7.7819801057
 20
2.9343078241
 30
0.0
 10
7.7819459643
 20
2.9343000926
 30
0.0
 10
7.7819309029
 20
2.9342944489
 30
0.0
 10
7.7819271512
 20
2.9342902051
 30
0.0
 10
7.7819273451
 20
2.9342885965
 30
0.0
  0
LINE
  5
34C
100
AcDbEntity
  8
0
100
AcDbLine
 62
7
  6
CONTINUOUS
 10
5.0426397018
 20
2.9100722556
 11
5.010279504
 21
2.9099006745
  0
SPLINE
  5
34D
100
AcDbEntity
  8
0
100
AcDbSpline
 62
7
  6
CONTINUOUS
 70
0
 71
3
 72
44
 73
40
 74
0
 42
0.0000001
 43
0.0000001
 44
0.0000000001
 40
0.0
 40
0.0
 40
0.0
 40
0.0
 40
0.0000426073
 40
0.0001245507
 40
0.0004347467
 40
0.0009479526
 40
0.0016660557
 40
0.0025892641
 40
0.0037173882
 40
0.0050500968
 40
0.0065869923
 40
0.0083276425
 40
0.010271595
 40
0.0147672069
 40
0.020066879
 40
0.0261621428
 40
0.0330444831
 40
0.0407049344
 40
0.0491316782
 40
0.0583117358
 40
0.0682321197
 40
0.078879306
 40
0.1022881964
 40
0.1284016394
 40
0.1570675976
 40
0.1881189665
 40
0.2213747498
 40
0.256641331
 40
0.2937130357
 40
0.3323741316
 40
0.3723991107
 40
0.4556018021
 40
0.5413844295
 40
0.6277495978
 40
0.7126856223
 40
0.7942131944
 40
0.8704321445
 40
0.9395646564
 40
1.0
 40
1.0
 40
1.0
 40
1.0
 10
3.0566596113
 20
2.9342885968
 30
0.0
 10
3.0566598053
 20
2.9342902054
 30
0.0
 10
3.0566560538
 20
2.9342944493
 30
0.0
 10
3.0566409925
 20
2.934300093
 30
0.0
 10
3.0566068515
 20
2.9343078246
 30
0.0
 10
3.0565490512
 20
2.9343158302
 30
0.0
 10
3.0564674645
 20
2.934324659
 30
0.0
 10
3.0563625738
 20
2.9343336094
 30
0.0
 10
3.0562342011
 20
2.9343428627
 30
0.0
 10
3.0560824754
 20
2.9343523015
 30
0.0
 10
3.0559074216
 20
2.9343619403
 30
0.0
 10
3.0557091044
 20
2.9343717582
 30
0.0
 10
3.055398347
 20
2.9343857689
 30
0.0
 10
3.0549522803
 20
2.9344034076
 30
0.0
 10
3.0543483662
 20
2.9344243543
 30
0.0
 10
3.0536536625
 20
2.9344459128
 30
0.0
 10
3.0528691628
 20
2.9344680432
 30
0.0
 10
3.0519959848
 20
2.9344906974
 30
0.0
 10
3.0510354159
 20
2.9345138402
 30
0.0
 10
3.0499888948
 20
2.9345374334
 30
0.0
 10
3.0488579251
 20
2.93456144
 30
0.0
 10
3.0471859526
 20
2.9345950181
 30
0.0
 10
3.0448982563
 20
2.9346374705
 30
0.0
 10
3.0419253898
 20
2.9346880293
 30
0.0
 10
3.038661874
 20
2.9347393685
 30
0.0
 10
3.0351267298
 20
2.9347911797
 30
0.0
 10
3.0313405583
 20
2.9348431527
 30
0.0
 10
3.0273254272
 20
2.9348949785
 30
0.0
 10
3.0231047244
 20
2.9349463534
 30
0.0
 10
3.0187030507
 20
2.9349969747
 30
0.0
 10
3.0125472098
 20
2.935063937
 30
0.0
 10
3.004599492
 20
2.935143365
 30
0.0
 10
2.9948895689
 20
2.9352300802
 30
0.0
 10
2.9851136497
 20
2.935307339
 30
0.0
 10
2.9754994605
 20
2.9353733831
 30
0.0
 10
2.966271032
 20
2.9354265794
 30
0.0
 10
2.9576435052
 20
2.9354660761
 30
0.0
 10
2.9498180081
 20
2.9354899869
 30
0.0
 10
2.9448908842
 20
2.9354978814
 30
0.0
 10
2.9425926868
 20
2.9354979446
 30
0.0
  0
LINE
  5
34E
100
AcDbEntity
  8
0
100
AcDbLine
 62
7
  6
CONTINUOUS
 10
7.1892121918
 20
2.925918042
 11
7.1678360359
 21
2.92611771
  0
SPLINE
  5
34F
100
AcDbEntity
  8
0
100
AcDbSpline
 62
7
  6
CONTINUOUS
 70
0
 71
3
 72
41
 73
37
 74
0
 42
0.0000001
 43
0.0000001
 44
0.0000000001
 40
0.0
 40
0.0
 40
0.0
 40
0.0
 40
0.078240048
 40
0.1608564836
 40
0.2464195235
 40
0.3334722374
 40
0.4205186518
 40
0.5060690472
 40
0.588657856
 40
0.666871191
 40
0.7039146413
 40
0.7393703169
 40
0.7730847275
 40
0.804914883
 40
0.8347238876
 40
0.8623839436
 40
0.8877778529
 40
0.9107949019
 40
0.9313392734
 40
0.9493202771
 40
0.9573259389
 40
0.9646636749
 40
0.971324982
 40
0.9773022558
 40
0.9825900518
 40
0.9871832844
 40
0.9910769434
 40
0.9942662859
 40
0.9967487331
 40
0.9977247338
 40
0.998524033
 40
0.9991470623
 40
0.9995950276
 40
0.9997544709
 40
0.9998723425
 40
1.0
 40
1.0
 40
1.0
 40
1.0
 10
7.035845096
 20
2.9354979496
 30
0.0
 10
7.033318039
 20
2.9354978981
 30
0.0
 10
7.0281225732
 20
2.9354925207
 30
0.0
 10
7.0201635448
 20
2.9354748201
 30
0.0
 10
7.0119199081
 20
2.9354459419
 30
0.0
 10
7.0035332324
 20
2.9354062579
 30
0.0
 10
6.9951470174
 20
2.935356713
 30
0.0
 10
6.9869050437
 20
2.9352980087
 30
0.0
 10
6.9789484386
 20
2.9352312265
 30
0.0
 10
6.972558573
 20
2.935168731
 30
0.0
 10
6.9676910398
 20
2.9351152372
 30
0.0
 10
6.9642607141
 20
2.9350745771
 30
0.0
 10
6.9609987976
 20
2.9350328192
 30
0.0
 10
6.9579192899
 20
2.9349901498
 30
0.0
 10
6.9550353611
 20
2.9349467546
 30
0.0
 10
6.952359349
 20
2.9349028227
 30
0.0
 10
6.9499027466
 20
2.9348585591
 30
0.0
 10
6.9476760154
 20
2.9348141567
 30
0.0
 10
6.9456887632
 20
2.9347698356
 30
0.0
 10
6.9441863453
 20
2.934731826
 30
0.0
 10
6.9431104422
 20
2.9347012343
 30
0.0
 10
6.9424000543
 20
2.934679325
 30
0.0
 10
6.9417552094
 20
2.9346575805
 30
0.0
 10
6.9411766094
 20
2.9346360254
 30
0.0
 10
6.9406648479
 20
2.9346147
 30
0.0
 10
6.9402204381
 20
2.9345936374
 30
0.0
 10
6.9398438752
 20
2.9345729159
 30
0.0
 10
6.9395355852
 20
2.9345525455
 30
0.0
 10
6.9393215812
 20
2.9345349581
 30
0.0
 10
6.9391848038
 20
2.9345204246
 30
0.0
 10
6.9391079975
 20
2.9345106304
 30
0.0
 10
6.9390482506
 20
2.9345008568
 30
0.0
 10
6.939009596
 20
2.9344926368
 30
0.0
 10
6.9389869338
 20
2.9344851712
 30
0.0
 10
6.938975636
 20
2.9344803633
 30
0.0
 10
6.9389675439
 20
2.934474081
 30
0.0
 10
6.938967976
 20
2.9344699806
 30
0.0
  0
LINE
  5
350
100
AcDbEntity
  8
0
100
AcDbLine
 62
7
  6
CONTINUOUS
 10
3.6931248634
 20
2.9187534924
 11
3.6844643874
 21
2.9186837681
  0
LINE
  5
351
100
AcDbEntity
  8
0
100
AcDbLine
 62
7
  6
CONTINUOUS
 10
6.4864035149
 20
2.9133042556
 11
6.4712706666
 21
2.9134050599
  0
SPLINE
  5
352
100
AcDbEntity
  8
0
100
AcDbSpline
 62
7
  6
CONTINUOUS
 70
0
 71
3
 72
37
 73
33
 74
0
 42
0.0000001
 43
0.0000001
 44
0.0000000001
 40
0.0
 40
0.0
 40
0.0
 40
0.0
 40
0.1852192138
 40
0.2777065791
 40
0.3686546212
 40
0.4569724836
 40
0.5416089256
 40
0.6215584578
 40
0.6958684347
 40
0.7636552269
 40
0.7948485719
 40
0.8241144
 40
0.8513676119
 40
0.8765274825
 40
0.8995169418
 40
0.9202706325
 40
0.9387257102
 40
0.9548264197
 40
0.96852809
 40
0.974465699
 40
0.9797879542
 40
0.9844917722
 40
0.9885743724
 40
0.9920330977
 40
0.9948655258
 40
0.9970698828
 40
0.9986472053
 40
0.999202588
 40
0.9996049944
 40
0.9997506816
 40
0.9998615885
 40
1.0
 40
1.0
 40
1.0
 40
1.0
 10
5.9807159562
 20
2.9354979496
 30
0.0
 10
5.9760351996
 20
2.9354978656
 30
0.0
 10
5.9690171524
 20
2.9354882527
 30
0.0
 10
5.9597007551
 20
2.9354618668
 30
0.0
 10
5.952833213
 20
2.9354339588
 30
0.0
 10
5.9461641106
 20
2.9353989156
 30
0.0
 10
5.9397730014
 20
2.935357026
 30
0.0
 10
5.9337359465
 20
2.9353088007
 30
0.0
 10
5.928124773
 20
2.9352548553
 30
0.0
 10
5.9237457687
 20
2.9352044111
 30
0.0
 10
5.9205050953
 20
2.935161221
 30
0.0
 10
5.9182887145
 20
2.9351287165
 30
0.0
 10
5.9162248402
 20
2.935095304
 30
0.0
 10
5.9143196152
 20
2.9350610905
 30
0.0
 10
5.9125786851
 20
2.9350261771
 30
0.0
 10
5.9110072449
 20
2.9349906903
 30
0.0
 10
5.9096099534
 20
2.9349547589
 30
0.0
 10
5.9083909536
 20
2.9349184978
 30
0.0
 10
5.9074882996
 20
2.9348868525
 30
0.0
 10
5.9068580153
 20
2.934860965
 30
0.0
 10
5.9064550118
 20
2.9348424761
 30
0.0
 10
5.9060989421
 20
2.934824
 30
0.0
 10
5.9057900332
 20
2.9348055769
 30
0.0
 10
5.9055285145
 20
2.9347872156
 30
0.0
 10
5.9053145675
 20
2.9347690827
 30
0.0
 10
5.9051483948
 20
2.9347510408
 30
0.0
 10
5.9050398311
 20
2.9347354423
 30
0.0
 10
5.9049771795
 20
2.9347217878
 30
0.0
 10
5.9049504021
 20
2.9347140286
 30
0.0
 10
5.9049350606
 20
2.934707125
 30
0.0
 10
5.9049266982
 20
2.934702214
 30
0.0
 10
5.9049219651
 20
2.9346962877
 30
0.0
 10
5.9049223205
 20
2.9346928079
 30
0.0
  0
LINE
  5
353
100
AcDbEntity
  8
0
100
AcDbLine
 62
7
  6
CONTINUOUS
 10
2.8632412893
 20
2.9261177135
 11
2.8618295408
 21
2.9261036858
  0
SPLINE
  5
354
100
AcDbEntity
  8
0
100
AcDbSpline
 62
7
  6
CONTINUOUS
 70
0
 71
3
 72
41
 73
37
 74
0
 42
0.0000001
 43
0.0000001
 44
0.0000000001
 40
0.0
 40
0.0
 40
0.0
 40
0.0
 40
0.0001109193
 40
0.0003820097
 40
0.0008273802
 40
0.0014492021
 40
0.0022480617
 40
0.0032241063
 40
0.0043773132
 40
0.0057075807
 40
0.0088986498
 40
0.01279446
 40
0.0173901143
 40
0.022680515
 40
0.0286605225
 40
0.0353246488
 40
0.0426652497
 40
0.0506738017
 40
0.0686606113
 40
0.0892107068
 40
0.1122333026
 40
0.1376325067
 40
0.165297513
 40
0.1951110641
 40
0.226945276
 40
0.2606631986
 40
0.2961217723
 40
0.3331674624
 40
0.4113831497
 40
0.493971376
 40
0.5795183759
 40
0.6665589546
 40
0.7536041616
 40
0.8391586712
 40
0.921767161
 40
1.0
 40
1.0
 40
1.0
 40
1.0
 10
4.5196723522
 20
2.9179830329
 30
0.0
 10
4.5196727278
 20
2.9179865994
 30
0.0
 10
4.5196578321
 20
2.917993707
 30
0.0
 10
4.5196349495
 20
2.9179987979
 30
0.0
 10
4.5195905028
 20
2.9180065128
 30
0.0
 10
4.5195313529
 20
2.9180134045
 30
0.0
 10
4.5194539164
 20
2.9180209146
 30
0.0
 10
4.5193596477
 20
2.91802836
 30
0.0
 10
4.5192480162
 20
2.9180359577
 30
0.0
 10
4.519064888
 20
2.9180468302
 30
0.0
 10
4.5187930655
 20
2.9180602277
 30
0.0
 10
4.5184156771
 20
2.9180757853
 30
0.0
 10
4.5179703688
 20
2.9180915771
 30
0.0
 10
4.5174576481
 20
2.9181075733
 30
0.0
 10
4.5168780267
 20
2.9181237393
 30
0.0
 10
4.5162321006
 20
2.918140048
 30
0.0
 10
4.5155205732
 20
2.91815648
 30
0.0
 10
4.5144430238
 20
2.9181794233
 30
0.0
 10
4.5129384192
 20
2.9182079297
 30
0.0
 10
4.5109484004
 20
2.9182411692
 30
0.0
 10
4.5087187009
 20
2.9182744688
 30
0.0
 10
4.506258943
 20
2.918307663
 30
0.0
 10
4.5035796038
 20
2.9183406072
 30
0.0
 10
4.5006921938
 20
2.9183731472
 30
0.0
 10
4.4976090681
 20
2.9184051412
 30
0.0
 10
4.494343416
 20
2.9184364497
 30
0.0
 10
4.4909092555
 20
2.9184669329
 30
0.0
 10
4.4860364567
 20
2.9185070341
 30
0.0
 10
4.4796399028
 20
2.9185538768
 30
0.0
 10
4.4716752272
 20
2.9186039242
 30
0.0
 10
4.4634251919
 20
2.9186479051
 30
0.0
 10
4.4550310218
 20
2.9186850233
 30
0.0
 10
4.4466365794
 20
2.9187147264
 30
0.0
 10
4.4383854076
 20
2.918736358
 30
0.0
 10
4.4304191336
 20
2.9187496199
 30
0.0
 10
4.4252189333
 20
2.9187534603
 30
0.0
 10
4.4226895683
 20
2.9187534924
 30
0.0
  0
SPLINE
  5
355
100
AcDbEntity
  8
0
100
AcDbSpline
 62
7
  6
CONTINUOUS
 70
0
 71
3
 72
35
 73
31
 74
0
 42
0.0000001
 43
0.0000001
 44
0.0000000001
 40
0.0
 40
0.0
 40
0.0
 40
0.0
 40
0.2038663944
 40
0.3014442565
 40
0.3951169196
 40
0.48418348
 40
0.5679538659
 40
0.6457928683
 40
0.7171061609
 40
0.7813530906
 40
0.8106706905
 40
0.8380440391
 40
0.863418824
 40
0.8867466112
 40
0.907985775
 40
0.9270951097
 40
0.9440359577
 40
0.9587791966
 40
0.9712981189
 40
0.981566858
 40
0.9858516173
 40
0.9895682147
 40
0.9927155885
 40
0.9952930091
 40
0.9973004587
 40
0.9980909676
 40
0.9987400417
 40
0.9992491412
 40
0.9996215182
 40
1.0
 40
1.0
 40
1.0
 40
1.0
 10
4.8578709816
 20
2.9354979496
 30
0.0
 10
4.8542436281
 20
2.9354978845
 30
0.0
 10
4.8488800901
 20
2.9354918136
 30
0.0
 10
4.8418498753
 20
2.9354745073
 30
0.0
 10
4.8368622806
 20
2.9354566661
 30
0.0
 10
4.8321203827
 20
2.9354338423
 30
0.0
 10
4.827660239
 20
2.9354064079
 30
0.0
 10
4.8235160131
 20
2.9353745754
 30
0.0
 10
4.8197192125
 20
2.9353385555
 30
0.0
 10
4.8167857704
 20
2.9353043809
 30
0.0
 10
4.8146341502
 20
2.9352747713
 30
0.0
 10
4.8131741421
 20
2.9352523878
 30
0.0
 10
4.8118207365
 20
2.9352291888
 30
0.0
 10
4.8105765071
 20
2.9352052205
 30
0.0
 10
4.8094437952
 20
2.9351805416
 30
0.0
 10
4.8084247702
 20
2.9351552109
 30
0.0
 10
4.8075213826
 20
2.9351292819
 30
0.0
 10
4.8067353269
 20
2.935102847
 30
0.0
 10
4.8060680834
 20
2.93507598
 30
0.0
 10
4.8055869639
 20
2.9350521634
 30
0.0
 10
4.8052624903
 20
2.9350323423
 30
0.0
 10
4.805064612
 20
2.9350183182
 30
0.0
 10
4.8048972148
 20
2.9350042811
 30
0.0
 10
4.8047603171
 20
2.9349902103
 30
0.0
 10
4.804665525
 20
2.9349778695
 30
0.0
 10
4.8046049494
 20
2.9349674433
 30
0.0
 10
4.804571252
 20
2.9349604379
 30
0.0
 10
4.8045442821
 20
2.9349530723
 30
0.0
 10
4.8045249135
 20
2.9349460831
 30
0.0
 10
4.8045094795
 20
2.9349369221
 30
0.0
 10
4.804510156
 20
2.9349302219
 30
0.0
  0
LINE
  5
356
100
AcDbEntity
  8
0
100
AcDbLine
 62
7
  6
CONTINUOUS
 10
3.3052059525
 20
2.9261177135
 11
3.2928676519
 21
2.9260019686
  0
SPLINE
  5
357
100
AcDbEntity
  8
0
100
AcDbSpline
 62
7
  6
CONTINUOUS
 70
0
 71
3
 72
33
 73
29
 74
0
 42
0.0000001
 43
0.0000001
 44
0.0000000001
 40
0.0
 40
0.0
 40
0.0
 40
0.0
 40
0.2176054426
 40
0.3188309714
 40
0.4143750901
 40
0.5038513654
 40
0.5868866232
 40
0.6631227837
 40
0.7322222466
 40
0.7938981717
 40
0.8478797958
 40
0.8719144751
 40
0.8939442462
 40
0.9139435454
 40
0.9318894357
 40
0.9477655588
 40
0.9615566659
 40
0.9732476807
 40
0.9828242039
 40
0.9868166949
 40
0.9902781356
 40
0.9932083615
 40
0.9956075317
 40
0.9974764975
 40
0.9988178974
 40
0.9992932901
 40
0.9996418745
 40
1.0
 40
1.0
 40
1.0
 40
1.0
 10
4.1127155321
 20
2.9261177135
 30
0.0
 10
4.1103716384
 20
2.9261176751
 30
0.0
 10
4.1069374132
 20
2.9261148117
 30
0.0
 10
4.102474063
 20
2.9261058599
 30
0.0
 10
4.0993908341
 20
2.9260970464
 30
0.0
 10
4.0965035473
 20
2.9260857819
 30
0.0
 10
4.0938242454
 20
2.9260720393
 30
0.0
 10
4.0913644455
 20
2.9260559599
 30
0.0
 10
4.0891347357
 20
2.9260376529
 30
0.0
 10
4.0871447657
 20
2.9260172096
 30
0.0
 10
4.085640221
 20
2.9259978066
 30
0.0
 10
4.0845627257
 20
2.9259809552
 30
0.0
 10
4.0838512446
 20
2.9259683298
 30
0.0
 10
4.083205368
 20
2.9259552424
 30
0.0
 10
4.0826257993
 20
2.9259417098
 30
0.0
 10
4.0821131323
 20
2.9259277574
 30
0.0
 10
4.0816678784
 20
2.9259134223
 30
0.0
 10
4.0812905335
 20
2.9258987299
 30
0.0
 10
4.0810187612
 20
2.9258855948
 30
0.0
 10
4.080835647
 20
2.9258745738
 30
0.0
 10
4.080724075
 20
2.9258667524
 30
0.0
 10
4.0806296904
 20
2.9258588533
 30
0.0
 10
4.0805526102
 20
2.9258509881
 30
0.0
 10
4.0804925455
 20
2.9258429774
 30
0.0
 10
4.0804537637
 20
2.9258361455
 30
0.0
 10
4.0804307598
 20
2.925829812
 30
0.0
 10
4.0804197281
 20
2.9258257752
 30
0.0
 10
4.0804110579
 20
2.9258205075
 30
0.0
 10
4.0804114031
 20
2.9258166655
 30
0.0
  0
SPLINE
  5
358
100
AcDbEntity
  8
0
100
AcDbSpline
 62
7
  6
CONTINUOUS
 70
0
 71
3
 72
23
 73
19
 74
0
 42
0.0000001
 43
0.0000001
 44
0.0000000001
 40
0.0
 40
0.0
 40
0.0
 40
0.0
 40
0.0574195297
 40
0.1164801098
 40
0.1771781621
 40
0.2394586629
 40
0.3031683845
 40
0.3680634165
 40
0.433809094
 40
0.5
 40
0.566190906
 40
0.6319365835
 40
0.6968316155
 40
0.7605413371
 40
0.8228218379
 40
0.8835198902
 40
0.9425804703
 40
1.0
 40
1.0
 40
1.0
 40
1.0
 10
5.4192934783
 20
4.7319850811
 30
0.0
 10
5.4221283271
 20
4.7282810064
 30
0.0
 10
5.4275814884
 20
4.7205340296
 30
0.0
 10
5.4349078819
 20
4.708128267
 30
0.0
 10
5.4413818379
 20
4.694814711
 30
0.0
 10
5.4468874643
 20
4.6806659327
 30
0.0
 10
5.4513125434
 20
4.6657861813
 30
0.0
 10
5.4545562274
 20
4.6503168922
 30
0.0
 10
5.4565375939
 20
4.6344324106
 30
0.0
 10
5.4572041326
 20
4.6183332003
 30
0.0
 10
5.4565375939
 20
4.60223399
 30
0.0
 10
5.4545562274
 20
4.5863495084
 30
0.0
 10
5.4513125434
 20
4.5708802193
 30
0.0
 10
5.4468874643
 20
4.5560004679
 30
0.0
 10
5.4413818379
 20
4.5418516896
 30
0.0
 10
5.4349078819
 20
4.5285381336
 30
0.0
 10
5.4275814884
 20
4.516132371
 30
0.0
 10
5.4221283271
 20
4.5083853942
 30
0.0
 10
5.4192934783
 20
4.5046813195
 30
0.0
  0
SPLINE
  5
359
100
AcDbEntity
  8
0
100
AcDbSpline
 62
7
  6
CONTINUOUS
 70
0
 71
3
 72
25
 73
21
 74
0
 42
0.0000001
 43
0.0000001
 44
0.0000000001
 40
0.0
 40
0.0
 40
0.0
 40
0.0
 40
0.0585314295
 40
0.1183332726
 40
0.1794076449
 40
0.2417211048
 40
0.2733172893
 40
0.3051744809
 40
0.3695489472
 40
0.4345976683
 40
0.5
 40
0.5654023317
 40
0.6304510528
 40
0.6948255191
 40
0.7266827107
 40
0.7582788952
 40
0.8205923551
 40
0.8816667274
 40
0.9414685705
 40
1.0
 40
1.0
 40
1.0
 40
1.0
 10
5.5012848161
 20
4.7319850811
 30
0.0
 10
5.5043731735
 20
4.7282938008
 30
0.0
 10
5.5103169924
 20
4.7205741526
 30
0.0
 10
5.5183307628
 20
4.7081687764
 30
0.0
 10
5.525413243
 20
4.6948540013
 30
0.0
 10
5.5304112262
 20
4.6831120777
 30
0.0
 10
5.5338294206
 20
4.6733488538
 30
0.0
 10
5.536861327
 20
4.6632816576
 30
0.0
 10
5.5398306901
 20
4.650337042
 30
0.0
 10
5.5419993632
 20
4.6344431861
 30
0.0
 10
5.5427290491
 20
4.6183332003
 30
0.0
 10
5.5419993632
 20
4.6022232145
 30
0.0
 10
5.5398306901
 20
4.5863293586
 30
0.0
 10
5.536861327
 20
4.573384743
 30
0.0
 10
5.5338294206
 20
4.5633175468
 30
0.0
 10
5.5304112262
 20
4.5535543229
 30
0.0
 10
5.525413243
 20
4.5418123993
 30
0.0
 10
5.5183307628
 20
4.5284976242
 30
0.0
 10
5.5103169924
 20
4.516092248
 30
0.0
 10
5.5043731735
 20
4.5083725998
 30
0.0
 10
5.5012848161
 20
4.5046813195
 30
0.0
  0
SPLINE
  5
35A
100
AcDbEntity
  8
0
100
AcDbSpline
 62
7
  6
CONTINUOUS
 70
0
 71
3
 72
23
 73
19
 74
0
 42
0.0000001
 43
0.0000001
 44
0.0000000001
 40
0.0
 40
0.0
 40
0.0
 40
0.0
 40
0.0562327697
 40
0.1145096225
 40
0.1748151024
 40
0.237066393
 40
0.3010660571
 40
0.3665091646
 40
0.4329848865
 40
0.5
 40
0.5670151135
 40
0.6334908354
 40
0.6989339429
 40
0.762933607
 40
0.8251848976
 40
0.8854903775
 40
0.9437672303
 40
1.0
 40
1.0
 40
1.0
 40
1.0
 10
5.5012848161
 20
4.5046813195
 30
0.0
 10
5.4987313697
 20
4.5084001211
 30
0.0
 10
5.4938230931
 20
4.5161773513
 30
0.0
 10
5.4872548235
 20
4.5285824349
 30
0.0
 10
5.4814517364
 20
4.5418931371
 30
0.0
 10
5.4765173162
 20
4.5560369481
 30
0.0
 10
5.4725518176
 20
4.5709096849
 30
0.0
 10
5.4696452877
 20
4.5863702267
 30
0.0
 10
5.4678699833
 20
4.6022446862
 30
0.0
 10
5.4672727843
 20
4.6183332003
 30
0.0
 10
5.4678699833
 20
4.6344217144
 30
0.0
 10
5.4696452877
 20
4.6502961739
 30
0.0
 10
5.4725518176
 20
4.6657567157
 30
0.0
 10
5.4765173162
 20
4.6806294525
 30
0.0
 10
5.4814517364
 20
4.6947732635
 30
0.0
 10
5.4872548235
 20
4.7080839657
 30
0.0
 10
5.4938230931
 20
4.7204890493
 30
0.0
 10
5.4987313697
 20
4.7282662795
 30
0.0
 10
5.5012848161
 20
4.7319850811
 30
0.0
  0
SPLINE
  5
35B
100
AcDbEntity
  8
0
100
AcDbSpline
 62
7
  6
CONTINUOUS
 70
0
 71
3
 72
23
 73
19
 74
0
 42
0.0000001
 43
0.0000001
 44
0.0000000001
 40
0.0
 40
0.0
 40
0.0
 40
0.0
 40
0.0595423993
 40
0.1200256427
 40
0.1814527612
 40
0.2438061585
 40
0.3070034109
 40
0.3709065924
 40
0.4353194022
 40
0.5
 40
0.5646805978
 40
0.6290934076
 40
0.6929965891
 40
0.7561938415
 40
0.8185472388
 40
0.8799743573
 40
0.9404576007
 40
1.0
 40
1.0
 40
1.0
 40
1.0
 10
5.5824865326
 20
4.7319850811
 30
0.0
 10
5.5857987165
 20
4.7283046145
 30
0.0
 10
5.5921754491
 20
4.7206087764
 30
0.0
 10
5.6007988651
 20
4.7082048156
 30
0.0
 10
5.6084217399
 20
4.69488897
 30
0.0
 10
5.614906725
 20
4.680733386
 30
0.0
 10
5.6201206799
 20
4.6658420939
 30
0.0
 10
5.6239436809
 20
4.6503569695
 30
0.0
 10
5.6262793846
 20
4.6344533478
 30
0.0
 10
5.627065206
 20
4.6183332003
 30
0.0
 10
5.6262793846
 20
4.6022130528
 30
0.0
 10
5.6239436809
 20
4.5863094311
 30
0.0
 10
5.6201206799
 20
4.5708243067
 30
0.0
 10
5.614906725
 20
4.5559330146
 30
0.0
 10
5.6084217399
 20
4.5417774306
 30
0.0
 10
5.6007988651
 20
4.528461585
 30
0.0
 10
5.5921754491
 20
4.5160576242
 30
0.0
 10
5.5857987165
 20
4.5083617861
 30
0.0
 10
5.5824865326
 20
4.5046813195
 30
0.0
  0
SPLINE
  5
35C
100
AcDbEntity
  8
0
100
AcDbSpline
 62
7
  6
CONTINUOUS
 70
0
 71
3
 72
23
 73
19
 74
0
 42
0.0000001
 43
0.0000001
 44
0.0000000001
 40
0.0
 40
0.0
 40
0.0
 40
0.0
 40
0.0550143286
 40
0.1124955444
 40
0.1724092747
 40
0.2346389549
 40
0.2989385195
 40
0.3649393387
 40
0.432153407
 40
0.5
 40
0.567846593
 40
0.6350606613
 40
0.7010614805
 40
0.7653610451
 40
0.8275907253
 40
0.8875044556
 40
0.9449856714
 40
1.0
 40
1.0
 40
1.0
 40
1.0
 10
5.5824865326
 20
4.5046813195
 30
0.0
 10
5.5802404751
 20
4.5084165443
 30
0.0
 10
5.5759273247
 20
4.51622607
 30
0.0
 10
5.5701802279
 20
4.5286290083
 30
0.0
 10
5.5651032823
 20
4.5419355629
 30
0.0
 10
5.5607866974
 20
4.5560734623
 30
0.0
 10
5.5573179824
 20
4.5709386551
 30
0.0
 10
5.554775712
 20
4.5863903342
 30
0.0
 10
5.553222955
 20
4.6022549856
 30
0.0
 10
5.5527006288
 20
4.6183332003
 30
0.0
 10
5.553222955
 20
4.634411415
 30
0.0
 10
5.554775712
 20
4.6502760664
 30
0.0
 10
5.5573179824
 20
4.6657277455
 30
0.0
 10
5.5607866974
 20
4.6805929383
 30
0.0
 10
5.5651032823
 20
4.6947308377
 30
0.0
 10
5.5701802279
 20
4.7080373923
 30
0.0
 10
5.5759273247
 20
4.7204403306
 30
0.0
 10
5.5802404751
 20
4.7282498563
 30
0.0
 10
5.5824865326
 20
4.7319850811
 30
0.0
  0
SPLINE
  5
35D
100
AcDbEntity
  8
0
100
AcDbSpline
 62
7
  6
CONTINUOUS
 70
0
 71
3
 72
23
 73
19
 74
0
 42
0.0000001
 43
0.0000001
 44
0.0000000001
 40
0.0
 40
0.0
 40
0.0
 40
0.0
 40
0.0604239023
 40
0.1215054213
 40
0.1832452989
 40
0.2456369398
 40
0.3086240319
 40
0.3721112284
 40
0.4359603535
 40
0.5
 40
0.5640396465
 40
0.6278887716
 40
0.6913759681
 40
0.7543630602
 40
0.8167547011
 40
0.8784945787
 40
0.9395760977
 40
1.0
 40
1.0
 40
1.0
 40
1.0
 10
5.6621166108
 20
4.7319850811
 30
0.0
 10
5.6656212857
 20
4.7283135031
 30
0.0
 10
5.6723700133
 20
4.7206377862
 30
0.0
 10
5.6815194834
 20
4.7082355621
 30
0.0
 10
5.6896087591
 20
4.6949197843
 30
0.0
 10
5.6964917645
 20
4.6807622003
 30
0.0
 10
5.7020267282
 20
4.6658665652
 30
0.0
 10
5.7060857467
 20
4.6503748341
 30
0.0
 10
5.7085659464
 20
4.6344627876
 30
0.0
 10
5.7094004358
 20
4.6183332003
 30
0.0
 10
5.7085659464
 20
4.602203613
 30
0.0
 10
5.7060857467
 20
4.5862915665
 30
0.0
 10
5.7020267282
 20
4.5707998354
 30
0.0
 10
5.6964917645
 20
4.5559042003
 30
0.0
 10
5.6896087591
 20
4.5417466163
 30
0.0
 10
5.6815194834
 20
4.5284308385
 30
0.0
 10
5.6723700133
 20
4.5160286144
 30
0.0
 10
5.6656212857
 20
4.5083528975
 30
0.0
 10
5.6621166108
 20
4.5046813195
 30
0.0
  0
SPLINE
  5
35E
100
AcDbEntity
  8
0
100
AcDbSpline
 62
7
  6
CONTINUOUS
 70
0
 71
3
 72
23
 73
19
 74
0
 42
0.0000001
 43
0.0000001
 44
0.0000000001
 40
0.0
 40
0.0
 40
0.0
 40
0.0
 40
0.0538159714
 40
0.1105238713
 40
0.1700635623
 40
0.2322800843
 40
0.296876524
 40
0.3634207638
 40
0.431349996
 40
0.5
 40
0.568650004
 40
0.6365792362
 40
0.703123476
 40
0.7677199157
 40
0.8299364377
 40
0.8894761287
 40
0.9461840286
 40
1.0
 40
1.0
 40
1.0
 40
1.0
 10
5.6621166108
 20
4.5046813195
 30
0.0
 10
5.6602018743
 20
4.5084341355
 30
0.0
 10
5.6565295694
 20
4.5162766168
 30
0.0
 10
5.6516581759
 20
4.5286758563
 30
0.0
 10
5.6473551112
 20
4.5419771009
 30
0.0
 10
5.6436966257
 20
4.5561084313
 30
0.0
 10
5.6407568307
 20
4.5709659232
 30
0.0
 10
5.6386022504
 20
4.5864090278
 30
0.0
 10
5.6372863006
 20
4.60226449
 30
0.0
 10
5.6368436354
 20
4.6183332003
 30
0.0
 10
5.6372863006
 20
4.6344019106
 30
0.0
 10
5.6386022504
 20
4.6502573728
 30
0.0
 10
5.6407568307
 20
4.6657004773
 30
0.0
 10
5.6436966257
 20
4.6805579693
 30
0.0
 10
5.6473551112
 20
4.6946892997
 30
0.0
 10
5.6516581759
 20
4.7079905443
 30
0.0
 10
5.6565295694
 20
4.7203897838
 30
0.0
 10
5.6602018743
 20
4.7282322651
 30
0.0
 10
5.6621166108
 20
4.7319850811
 30
0.0
  0
SPLINE
  5
35F
100
AcDbEntity
  8
0
100
AcDbSpline
 62
7
  6
CONTINUOUS
 70
0
 71
3
 72
23
 73
19
 74
0
 42
0.0000001
 43
0.0000001
 44
0.0000000001
 40
0.0
 40
0.0
 40
0.0
 40
0.0
 40
0.0611614807
 40
0.1227468766
 40
0.1847529282
 40
0.2471802404
 40
0.309992803
 40
0.3731301523
 40
0.4365029914
 40
0.5
 40
0.5634970086
 40
0.6268698477
 40
0.690007197
 40
0.7528197596
 40
0.8152470718
 40
0.8772531234
 40
0.9388385193
 40
1.0
 40
1.0
 40
1.0
 40
1.0
 10
5.7394081694
 20
4.7319850811
 30
0.0
 10
5.743072517
 20
4.7283205691
 30
0.0
 10
5.7501295732
 20
4.720661194
 30
0.0
 10
5.7597163999
 20
4.7082608129
 30
0.0
 10
5.7681936046
 20
4.6949455318
 30
0.0
 10
5.7754078707
 20
4.680786662
 30
0.0
 10
5.7812102031
 20
4.6658876251
 30
0.0
 10
5.7854659532
 20
4.6503903704
 30
0.0
 10
5.7880666744
 20
4.6344710517
 30
0.0
 10
5.7889417718
 20
4.6183332003
 30
0.0
 10
5.7880666744
 20
4.6021953489
 30
0.0
 10
5.7854659532
 20
4.5862760302
 30
0.0
 10
5.7812102031
 20
4.5707787755
 30
0.0
 10
5.7754078707
 20
4.5558797386
 30
0.0
 10
5.7681936046
 20
4.5417208688
 30
0.0
 10
5.7597163999
 20
4.5284055877
 30
0.0
 10
5.7501295732
 20
4.5160052066
 30
0.0
 10
5.743072517
 20
4.5083458315
 30
0.0
 10
5.7394081694
 20
4.5046813195
 30
0.0
  0
SPLINE
  5
360
100
AcDbEntity
  8
0
100
AcDbSpline
 62
7
  6
CONTINUOUS
 70
0
 71
3
 72
23
 73
19
 74
0
 42
0.0000001
 43
0.0000001
 44
0.0000000001
 40
0.0
 40
0.0
 40
0.0
 40
0.0
 40
0.0526988892
 40
0.1086944171
 40
0.1678955563
 40
0.2301068793
 40
0.2949815381
 40
0.362027653
 40
0.430613744
 40
0.5
 40
0.569386256
 40
0.637972347
 40
0.7050184619
 40
0.7698931207
 40
0.8321044437
 40
0.8913055829
 40
0.9473011108
 40
1.0
 40
1.0
 40
1.0
 40
1.0
 10
5.7394081694
 20
4.5046813195
 30
0.0
 10
5.7378463846
 20
4.5084519709
 30
0.0
 10
5.734855402
 20
4.5163261934
 30
0.0
 10
5.7309051088
 20
4.5287204222
 30
0.0
 10
5.7274156944
 20
4.5420155991
 30
0.0
 10
5.7244489079
 20
4.556140176
 30
0.0
 10
5.7220648995
 20
4.5709902848
 30
0.0
 10
5.7203176316
 20
4.5864255423
 30
0.0
 10
5.7192504465
 20
4.6022728304
 30
0.0
 10
5.7188914602
 20
4.6183332003
 30
0.0
 10
5.7192504465
 20
4.6343935702
 30
0.0
 10
5.7203176316
 20
4.6502408583
 30
0.0
 10
5.7220648995
 20
4.6656761158
 30
0.0
 10
5.7244489079
 20
4.6805262246
 30
0.0
 10
5.7274156944
 20
4.6946508014
 30
0.0
 10
5.7309051088
 20
4.7079459784
 30
0.0
 10
5.734855402
 20
4.7203402072
 30
0.0
 10
5.7378463846
 20
4.7282144297
 30
0.0
 10
5.7394081694
 20
4.7319850811
 30
0.0
  0
SPLINE
  5
361
100
AcDbEntity
  8
0
100
AcDbSpline
 62
7
  6
CONTINUOUS
 70
0
 71
3
 72
23
 73
19
 74
0
 42
0.0000001
 43
0.0000001
 44
0.0000000001
 40
0.0
 40
0.0
 40
0.0
 40
0.0
 40
0.0617440709
 40
0.1237295374
 40
0.1859487016
 40
0.248406583
 40
0.3110821882
 40
0.3739420891
 40
0.4369357293
 40
0.5
 40
0.5630642707
 40
0.6260579109
 40
0.6889178118
 40
0.751593417
 40
0.8140512984
 40
0.8762704626
 40
0.9382559291
 40
1.0
 40
1.0
 40
1.0
 40
1.0
 10
5.8136168486
 20
4.7319850811
 30
0.0
 10
5.8174067767
 20
4.728325925
 30
0.0
 10
5.8247061635
 20
4.7206791435
 30
0.0
 10
5.8346374904
 20
4.7082804494
 30
0.0
 10
5.8434203605
 20
4.6949658362
 30
0.0
 10
5.8508957729
 20
4.6808062055
 30
0.0
 10
5.85690902
 20
4.6659046428
 30
0.0
 10
5.8613200704
 20
4.6504030363
 30
0.0
 10
5.8640159882
 20
4.634477827
 30
0.0
 10
5.8649231717
 20
4.6183332003
 30
0.0
 10
5.8640159882
 20
4.6021885736
 30
0.0
 10
5.8613200704
 20
4.5862633643
 30
0.0
 10
5.85690902
 20
4.5707617578
 30
0.0
 10
5.8508957729
 20
4.5558601951
 30
0.0
 10
5.8434203605
 20
4.5417005644
 30
0.0
 10
5.8346374904
 20
4.5283859512
 30
0.0
 10
5.8247061635
 20
4.5159872571
 30
0.0
 10
5.8174067767
 20
4.5083404756
 30
0.0
 10
5.8136168486
 20
4.5046813195
 30
0.0
  0
SPLINE
  5
362
100
AcDbEntity
  8
0
100
AcDbSpline
 62
7
  6
CONTINUOUS
 70
0
 71
3
 72
23
 73
19
 74
0
 42
0.0000001
 43
0.0000001
 44
0.0000000001
 40
0.0
 40
0.0
 40
0.0
 40
0.0
 40
0.0517303628
 40
0.1071150953
 40
0.1660306565
 40
0.2282428712
 40
0.2933597382
 40
0.3608372283
 40
0.4299851925
 40
0.5
 40
0.5700148075
 40
0.6391627717
 40
0.7066402618
 40
0.7717571288
 40
0.8339693435
 40
0.8928849047
 40
0.9482696372
 40
1.0
 40
1.0
 40
1.0
 40
1.0
 10
5.8136168486
 20
4.5046813195
 30
0.0
 10
5.812426905
 20
4.5084686841
 30
0.0
 10
5.8101515581
 20
4.5163711737
 30
0.0
 10
5.8071582825
 20
4.5287597317
 30
0.0
 10
5.804514095
 20
4.5420487649
 30
0.0
 10
5.8022657925
 20
4.5561670277
 30
0.0
 10
5.8004590575
 20
4.5710106071
 30
0.0
 10
5.7991348355
 20
4.5864391864
 30
0.0
 10
5.7983260194
 20
4.602279682
 30
0.0
 10
5.798053942
 20
4.6183332003
 30
0.0
 10
5.7983260194
 20
4.6343867186
 30
0.0
 10
5.7991348355
 20
4.6502272142
 30
0.0
 10
5.8004590575
 20
4.6656557935
 30
0.0
 10
5.8022657925
 20
4.6804993729
 30
0.0
 10
5.804514095
 20
4.6946176357
 30
0.0
 10
5.8071582825
 20
4.7079066689
 30
0.0
 10
5.8101515581
 20
4.7202952269
 30
0.0
 10
5.812426905
 20
4.7281977165
 30
0.0
 10
5.8136168486
 20
4.7319850811
 30
0.0
  0
SPLINE
  5
363
100
AcDbEntity
  8
0
100
AcDbSpline
 62
7
  6
CONTINUOUS
 70
0
 71
3
 72
23
 73
19
 74
0
 42
0.0000001
 43
0.0000001
 44
0.0000000001
 40
0.0
 40
0.0
 40
0.0
 40
0.0
 40
0.062164467
 40
0.1244397434
 40
0.1868142563
 40
0.249295521
 40
0.3118728124
 40
0.3745319101
 40
0.437250274
 40
0.5
 40
0.562749726
 40
0.6254680899
 40
0.6881271876
 40
0.750704479
 40
0.8131857437
 40
0.8755602566
 40
0.937835533
 40
1.0
 40
1.0
 40
1.0
 40
1.0
 10
5.8840279782
 20
4.7319850811
 30
0.0
 10
5.8879083659
 20
4.7283296718
 30
0.0
 10
5.8953822176
 20
4.7206918076
 30
0.0
 10
5.9055619432
 20
4.7082944494
 30
0.0
 10
5.9145652599
 20
4.6949804657
 30
0.0
 10
5.9222290832
 20
4.6808204276
 30
0.0
 10
5.928394578
 20
4.6659171359
 30
0.0
 10
5.9329177946
 20
4.6504123989
 30
0.0
 10
5.9356825027
 20
4.6344828575
 30
0.0
 10
5.936612879
 20
4.6183332003
 30
0.0
 10
5.9356825027
 20
4.6021835431
 30
0.0
 10
5.9329177946
 20
4.5862540017
 30
0.0
 10
5.928394578
 20
4.5707492647
 30
0.0
 10
5.9222290832
 20
4.555845973
 30
0.0
 10
5.9145652599
 20
4.5416859349
 30
0.0
 10
5.9055619432
 20
4.5283719512
 30
0.0
 10
5.8953822176
 20
4.5159745929
 30
0.0
 10
5.8879083659
 20
4.5083367288
 30
0.0
 10
5.8840279782
 20
4.5046813195
 30
0.0
  0
SPLINE
  5
364
100
AcDbEntity
  8
0
100
AcDbSpline
 62
7
  6
CONTINUOUS
 70
0
 71
3
 72
23
 73
19
 74
0
 42
0.0000001
 43
0.0000001
 44
0.0000000001
 40
0.0
 40
0.0
 40
0.0
 40
0.0
 40
0.0509775749
 40
0.1058920733
 40
0.1645907951
 40
0.2268070994
 40
0.2921127666
 40
0.3599230812
 40
0.429502876
 40
0.5
 40
0.570497124
 40
0.6400769188
 40
0.7078872334
 40
0.7731929006
 40
0.8354092048
 40
0.8941079267
 40
0.9490224251
 40
1.0
 40
1.0
 40
1.0
 40
1.0
 10
5.8840279782
 20
4.5046813195
 30
0.0
 10
5.8832253288
 20
4.5084825566
 30
0.0
 10
5.8816926987
 20
4.5164074569
 30
0.0
 10
5.87968287
 20
4.5287906972
 30
0.0
 10
5.8779072952
 20
4.542074385
 30
0.0
 10
5.8763974334
 20
4.5561874653
 30
0.0
 10
5.8751840465
 20
4.5710259037
 30
0.0
 10
5.8742946765
 20
4.5864493784
 30
0.0
 10
5.8737514492
 20
4.6022847772
 30
0.0
 10
5.8735687111
 20
4.6183332003
 30
0.0
 10
5.8737514492
 20
4.6343816234
 30
0.0
 10
5.8742946765
 20
4.6502170222
 30
0.0
 10
5.8751840465
 20
4.6656404969
 30
0.0
 10
5.8763974334
 20
4.6804789353
 30
0.0
 10
5.8779072952
 20
4.6945920156
 30
0.0
 10
5.87968287
 20
4.7078757034
 30
0.0
 10
5.8816926987
 20
4.7202589437
 30
0.0
 10
5.8832253288
 20
4.728183844
 30
0.0
 10
5.8840279782
 20
4.7319850811
 30
0.0
  0
SPLINE
  5
365
100
AcDbEntity
  8
0
100
AcDbSpline
 62
7
  6
CONTINUOUS
 70
0
 71
3
 72
23
 73
19
 74
0
 42
0.0000001
 43
0.0000001
 44
0.0000000001
 40
0.0
 40
0.0
 40
0.0
 40
0.0
 40
0.0624182625
 40
0.1248689484
 40
0.1873378801
 40
0.2498338024
 40
0.3123519563
 40
0.3748895899
 40
0.4374410983
 40
0.5
 40
0.5625589017
 40
0.6251104101
 40
0.6876480437
 40
0.7501661976
 40
0.8126621199
 40
0.8751310516
 40
0.9375817375
 40
1.0
 40
1.0
 40
1.0
 40
1.0
 10
5.9499634605
 20
4.7319850811
 30
0.0
 10
5.9538984317
 20
4.7283318875
 30
0.0
 10
5.9614775176
 20
4.7206993383
 30
0.0
 10
5.9718072149
 20
4.7083028323
 30
0.0
 10
5.9809436459
 20
4.6949892873
 30
0.0
 10
5.9887212676
 20
4.6808290614
 30
0.0
 10
5.994978751
 20
4.6659247654
 30
0.0
 10
5.9995697657
 20
4.6504181436
 30
0.0
 10
6.0023760685
 20
4.6344859535
 30
0.0
 10
6.0033204714
 20
4.6183332003
 30
0.0
 10
6.0023760685
 20
4.6021804471
 30
0.0
 10
5.9995697657
 20
4.586248257
 30
0.0
 10
5.994978751
 20
4.5707416352
 30
0.0
 10
5.9887212676
 20
4.5558373392
 30
0.0
 10
5.9809436459
 20
4.5416771133
 30
0.0
 10
5.9718072149
 20
4.5283635683
 30
0.0
 10
5.9614775176
 20
4.5159670623
 30
0.0
 10
5.9538984317
 20
4.5083345131
 30
0.0
 10
5.9499634605
 20
4.5046813195
 30
0.0
  0
SPLINE
  5
366
100
AcDbEntity
  8
0
100
AcDbSpline
 62
7
  6
CONTINUOUS
 70
0
 71
3
 72
23
 73
19
 74
0
 42
0.0000001
 43
0.0000001
 44
0.0000000001
 40
0.0
 40
0.0
 40
0.0
 40
0.0
 40
0.0504989386
 40
0.1051165467
 40
0.1636797386
 40
0.2259001642
 40
0.29132609
 40
0.3593468827
 40
0.4291990242
 40
0.5
 40
0.5708009758
 40
0.6406531173
 40
0.70867391
 40
0.7740998358
 40
0.8363202614
 40
0.8948834533
 40
0.9495010614
 40
1.0
 40
1.0
 40
1.0
 40
1.0
 10
5.9499634605
 20
4.5046813195
 30
0.0
 10
5.9495592123
 20
4.5084918098
 30
0.0
 10
5.9487880826
 20
4.5164311417
 30
0.0
 10
5.9477789357
 20
4.5288105665
 30
0.0
 10
5.9468873472
 20
4.5420905953
 30
0.0
 10
5.9461291331
 20
4.5562002623
 30
0.0
 10
5.9455197761
 20
4.5710354076
 30
0.0
 10
5.9450731254
 20
4.5864556774
 30
0.0
 10
5.9448003063
 20
4.6022879164
 30
0.0
 10
5.9447085309
 20
4.6183332003
 30
0.0
 10
5.9448003063
 20
4.6343784842
 30
0.0
 10
5.9450731254
 20
4.6502107232
 30
0.0
 10
5.9455197761
 20
4.665630993
 30
0.0
 10
5.9461291331
 20
4.6804661383
 30
0.0
 10
5.9468873472
 20
4.6945758053
 30
0.0
 10
5.9477789357
 20
4.7078558341
 30
0.0
 10
5.9487880826
 20
4.7202352588
 30
0.0
 10
5.9495592123
 20
4.7281745908
 30
0.0
 10
5.9499634605
 20
4.7319850811
 30
0.0
  0
SPLINE
  5
367
100
AcDbEntity
  8
0
100
AcDbSpline
 62
7
  6
CONTINUOUS
 70
0
 71
3
 72
23
 73
19
 74
0
 42
0.0000001
 43
0.0000001
 44
0.0000000001
 40
0.0
 40
0.0
 40
0.0
 40
0.0
 40
0.0625031062
 40
0.1250125063
 40
0.1875131084
 40
0.250014022
 40
0.312512443
 40
0.3750094317
 40
0.4375050479
 40
0.5
 40
0.5624949521
 40
0.6249905683
 40
0.687487557
 40
0.749985978
 40
0.8124868916
 40
0.8749874937
 40
0.9374968938
 40
1.0
 40
1.0
 40
1.0
 40
1.0
 10
6.0107883007
 20
4.7319850811
 30
0.0
 10
6.0147415181
 20
4.7283326206
 30
0.0
 10
6.0223557753
 20
4.7207018368
 30
0.0
 10
6.0327356188
 20
4.7083056231
 30
0.0
 10
6.0419165624
 20
4.6949922346
 30
0.0
 10
6.0497322422
 20
4.6808319557
 30
0.0
 10
6.0560204953
 20
4.6659273307
 30
0.0
 10
6.0606341928
 20
4.6504200798
 30
0.0
 10
6.0634544143
 20
4.6344869986
 30
0.0
 10
6.0644035114
 20
4.6183332003
 30
0.0
 10
6.0634544143
 20
4.602179402
 30
0.0
 10
6.0606341928
 20
4.5862463208
 30
0.0
 10
6.0560204953
 20
4.5707390699
 30
0.0
 10
6.0497322422
 20
4.5558344449
 30
0.0
 10
6.0419165624
 20
4.541674166
 30
0.0
 10
6.0327356188
 20
4.5283607775
 30
0.0
 10
6.0223557753
 20
4.5159645638
 30
0.0
 10
6.0147415181
 20
4.50833378
 30
0.0
 10
6.0107883007
 20
4.5046813195
 30
0.0
  0
SPLINE
  5
368
100
AcDbEntity
  8
0
100
AcDbSpline
 62
7
  6
CONTINUOUS
 70
0
 71
3
 72
23
 73
19
 74
0
 42
0.0000001
 43
0.0000001
 44
0.0000000001
 40
0.0
 40
0.0
 40
0.0
 40
0.0
 40
0.0624182625
 40
0.1248689484
 40
0.1873378801
 40
0.2498338024
 40
0.3123519563
 40
0.3748895899
 40
0.4374410983
 40
0.5
 40
0.5625589017
 40
0.6251104101
 40
0.6876480437
 40
0.7501661976
 40
0.8126621199
 40
0.8751310516
 40
0.9375817375
 40
1.0
 40
1.0
 40
1.0
 40
1.0
 10
6.0659167225
 20
4.7319850811
 30
0.0
 10
6.0698516937
 20
4.7283318875
 30
0.0
 10
6.0774307796
 20
4.7206993383
 30
0.0
 10
6.0877604769
 20
4.7083028323
 30
0.0
 10
6.096896908
 20
4.6949892873
 30
0.0
 10
6.1046745296
 20
4.6808290614
 30
0.0
 10
6.110932013
 20
4.6659247654
 30
0.0
 10
6.1155230278
 20
4.6504181436
 30
0.0
 10
6.1183293306
 20
4.6344859535
 30
0.0
 10
6.1192737334
 20
4.6183332003
 30
0.0
 10
6.1183293306
 20
4.6021804471
 30
0.0
 10
6.1155230278
 20
4.586248257
 30
0.0
 10
6.110932013
 20
4.5707416352
 30
0.0
 10
6.1046745296
 20
4.5558373392
 30
0.0
 10
6.096896908
 20
4.5416771133
 30
0.0
 10
6.0877604769
 20
4.5283635683
 30
0.0
 10
6.0774307796
 20
4.5159670623
 30
0.0
 10
6.0698516937
 20
4.5083345131
 30
0.0
 10
6.0659167225
 20
4.5046813195
 30
0.0
  0
SPLINE
  5
369
100
AcDbEntity
  8
0
100
AcDbSpline
 62
7
  6
CONTINUOUS
 70
0
 71
3
 72
23
 73
19
 74
0
 42
0.0000001
 43
0.0000001
 44
0.0000000001
 40
0.0
 40
0.0
 40
0.0
 40
0.0
 40
0.062164467
 40
0.1244397434
 40
0.1868142563
 40
0.249295521
 40
0.3118728124
 40
0.3745319101
 40
0.437250274
 40
0.5
 40
0.562749726
 40
0.6254680899
 40
0.6881271876
 40
0.750704479
 40
0.8131857437
 40
0.8755602566
 40
0.937835533
 40
1.0
 40
1.0
 40
1.0
 40
1.0
 10
6.114817809
 20
4.7319850811
 30
0.0
 10
6.1186981966
 20
4.7283296718
 30
0.0
 10
6.1261720484
 20
4.7206918076
 30
0.0
 10
6.136351774
 20
4.7082944494
 30
0.0
 10
6.1453550907
 20
4.6949804657
 30
0.0
 10
6.1530189139
 20
4.6808204276
 30
0.0
 10
6.1591844088
 20
4.6659171359
 30
0.0
 10
6.1637076254
 20
4.6504123989
 30
0.0
 10
6.1664723335
 20
4.6344828575
 30
0.0
 10
6.1674027097
 20
4.6183332003
 30
0.0
 10
6.1664723335
 20
4.6021835431
 30
0.0
 10
6.1637076254
 20
4.5862540017
 30
0.0
 10
6.1591844088
 20
4.5707492647
 30
0.0
 10
6.1530189139
 20
4.555845973
 30
0.0
 10
6.1453550907
 20
4.5416859349
 30
0.0
 10
6.136351774
 20
4.5283719512
 30
0.0
 10
6.1261720484
 20
4.5159745929
 30
0.0
 10
6.1186981966
 20
4.5083367288
 30
0.0
 10
6.114817809
 20
4.5046813195
 30
0.0
  0
SPLINE
  5
36A
100
AcDbEntity
  8
0
100
AcDbSpline
 62
7
  6
CONTINUOUS
 70
0
 71
3
 72
32
 73
28
 74
0
 42
0.0000001
 43
0.0000001
 44
0.0000000001
 40
0.0
 40
0.0
 40
0.0
 40
0.0
 40
0.2176077125
 40
0.3188338868
 40
0.4143769673
 40
0.503851146
 40
0.5868835418
 40
0.663115934
 40
0.7322106699
 40
0.7938810612
 40
0.8478565625
 40
0.8718880467
 40
0.893914579
 40
0.9139106412
 40
0.9318533663
 40
0.9477264835
 40
0.9615148567
 40
0.973203575
 40
0.9827785091
 40
0.9902319567
 40
0.9931627484
 40
0.9955632817
 40
0.9974348685
 40
0.9987811396
 40
0.9992606096
 40
0.9996153192
 40
1.0
 40
1.0
 40
1.0
 40
1.0
 10
3.8027418442
 20
2.9354979496
 30
0.0
 10
3.8003991514
 20
2.9354979018
 30
0.0
 10
3.7969666899
 20
2.9354945503
 30
0.0
 10
3.7925056557
 20
2.9354842739
 30
0.0
 10
3.7894240692
 20
2.9354741996
 30
0.0
 10
3.7865383629
 20
2.9354613227
 30
0.0
 10
3.7838605664
 20
2.9354456017
 30
0.0
 10
3.7814021907
 20
2.9354272075
 30
0.0
 10
3.7791738203
 20
2.9354062705
 30
0.0
 10
3.777185099
 20
2.9353828931
 30
0.0
 10
3.7756815386
 20
2.9353607062
 30
0.0
 10
3.7746047823
 20
2.9353414375
 30
0.0
 10
3.7738938116
 20
2.9353270014
 30
0.0
 10
3.7732484171
 20
2.9353120378
 30
0.0
 10
3.7726693011
 20
2.9352965645
 30
0.0
 10
3.772157056
 20
2.9352806154
 30
0.0
 10
3.7717121921
 20
2.935264218
 30
0.0
 10
3.7713352019
 20
2.9352474451
 30
0.0
 10
3.7710265086
 20
2.9352303028
 30
0.0
 10
3.7708121737
 20
2.9352149506
 30
0.0
 10
3.7706751353
 20
2.935201842
 30
0.0
 10
3.77059815
 20
2.9351928436
 30
0.0
 10
3.770538227
 20
2.9351836886
 30
0.0
 10
3.7704994267
 20
2.9351758595
 30
0.0
 10
3.7704766393
 20
2.935168629
 30
0.0
 10
3.770465252
 20
2.9351639203
 30
0.0
 10
3.7704570574
 20
2.9351577398
 30
0.0
 10
3.770457419
 20
2.9351536142
 30
0.0
  0
SPLINE
  5
36B
100
AcDbEntity
  8
0
100
AcDbSpline
 62
7
  6
CONTINUOUS
 70
0
 71
3
 72
23
 73
19
 74
0
 42
0.0000001
 43
0.0000001
 44
0.0000000001
 40
0.0
 40
0.0
 40
0.0
 40
0.0
 40
0.0617440709
 40
0.1237295374
 40
0.1859487016
 40
0.2484065831
 40
0.3110821883
 40
0.3739420893
 40
0.4369357294
 40
0.5
 40
0.5630642706
 40
0.6260579107
 40
0.6889178117
 40
0.751593417
 40
0.8140512984
 40
0.8762704626
 40
0.9382559291
 40
1.0
 40
1.0
 40
1.0
 40
1.0
 10
6.1570206159
 20
4.7319850811
 30
0.0
 10
6.160810544
 20
4.728325925
 30
0.0
 10
6.1681099307
 20
4.7206791435
 30
0.0
 10
6.1780412577
 20
4.7082804494
 30
0.0
 10
6.1868241278
 20
4.6949658362
 30
0.0
 10
6.1942995401
 20
4.6808062055
 30
0.0
 10
6.2003127872
 20
4.6659046428
 30
0.0
 10
6.2047238376
 20
4.6504030363
 30
0.0
 10
6.2074197554
 20
4.634477827
 30
0.0
 10
6.208326939
 20
4.6183332003
 30
0.0
 10
6.2074197554
 20
4.6021885736
 30
0.0
 10
6.2047238376
 20
4.5862633643
 30
0.0
 10
6.2003127872
 20
4.5707617578
 30
0.0
 10
6.1942995401
 20
4.5558601951
 30
0.0
 10
6.1868241278
 20
4.5417005644
 30
0.0
 10
6.1780412577
 20
4.5283859512
 30
0.0
 10
6.1681099307
 20
4.5159872571
 30
0.0
 10
6.160810544
 20
4.5083404756
 30
0.0
 10
6.1570206159
 20
4.5046813195
 30
0.0
  0
SPLINE
  5
36C
100
AcDbEntity
  8
0
100
AcDbSpline
 62
7
  6
CONTINUOUS
 70
0
 71
3
 72
23
 73
19
 74
0
 42
0.0000001
 43
0.0000001
 44
0.0000000001
 40
0.0
 40
0.0
 40
0.0
 40
0.0
 40
0.0611614807
 40
0.1227468766
 40
0.1847529282
 40
0.2471802404
 40
0.309992803
 40
0.3731301523
 40
0.4365029914
 40
0.5
 40
0.5634970086
 40
0.6268698477
 40
0.690007197
 40
0.7528197596
 40
0.8152470718
 40
0.8772531234
 40
0.9388385193
 40
1.0
 40
1.0
 40
1.0
 40
1.0
 10
6.1921187072
 20
4.7319850811
 30
0.0
 10
6.1957830548
 20
4.7283205691
 30
0.0
 10
6.2028401109
 20
4.720661194
 30
0.0
 10
6.2124269377
 20
4.7082608129
 30
0.0
 10
6.2209041424
 20
4.6949455318
 30
0.0
 10
6.2281184085
 20
4.680786662
 30
0.0
 10
6.2339207409
 20
4.6658876251
 30
0.0
 10
6.238176491
 20
4.6503903704
 30
0.0
 10
6.2407772122
 20
4.6344710517
 30
0.0
 10
6.2416523096
 20
4.6183332003
 30
0.0
 10
6.2407772122
 20
4.6021953489
 30
0.0
 10
6.238176491
 20
4.5862760302
 30
0.0
 10
6.2339207409
 20
4.5707787755
 30
0.0
 10
6.2281184085
 20
4.5558797386
 30
0.0
 10
6.2209041424
 20
4.5417208688
 30
0.0
 10
6.2124269377
 20
4.5284055877
 30
0.0
 10
6.2028401109
 20
4.5160052066
 30
0.0
 10
6.1957830548
 20
4.5083458315
 30
0.0
 10
6.1921187072
 20
4.5046813195
 30
0.0
  0
SPLINE
  5
36D
100
AcDbEntity
  8
0
100
AcDbSpline
 62
7
  6
CONTINUOUS
 70
0
 71
3
 72
23
 73
19
 74
0
 42
0.0000001
 43
0.0000001
 44
0.0000000001
 40
0.0
 40
0.0
 40
0.0
 40
0.0
 40
0.0604239023
 40
0.1215054213
 40
0.1832452989
 40
0.2456369398
 40
0.3086240319
 40
0.3721112284
 40
0.4359603535
 40
0.5
 40
0.5640396465
 40
0.6278887716
 40
0.6913759681
 40
0.7543630602
 40
0.8167547011
 40
0.8784945787
 40
0.9395760977
 40
1.0
 40
1.0
 40
1.0
 40
1.0
 10
6.2197740691
 20
4.7319850811
 30
0.0
 10
6.223278744
 20
4.7283135031
 30
0.0
 10
6.2300274716
 20
4.7206377862
 30
0.0
 10
6.2391769417
 20
4.7082355621
 30
0.0
 10
6.2472662174
 20
4.6949197843
 30
0.0
 10
6.2541492228
 20
4.6807622003
 30
0.0
 10
6.2596841865
 20
4.6658665652
 30
0.0
 10
6.2637432051
 20
4.6503748341
 30
0.0
 10
6.2662234047
 20
4.6344627876
 30
0.0
 10
6.2670578941
 20
4.6183332003
 30
0.0
 10
6.2662234047
 20
4.602203613
 30
0.0
 10
6.2637432051
 20
4.5862915665
 30
0.0
 10
6.2596841865
 20
4.5707998354
 30
0.0
 10
6.2541492228
 20
4.5559042003
 30
0.0
 10
6.2472662174
 20
4.5417466163
 30
0.0
 10
6.2391769417
 20
4.5284308385
 30
0.0
 10
6.2300274716
 20
4.5160286144
 30
0.0
 10
6.223278744
 20
4.5083528975
 30
0.0
 10
6.2197740691
 20
4.5046813195
 30
0.0
  0
SPLINE
  5
36E
100
AcDbEntity
  8
0
100
AcDbSpline
 62
7
  6
CONTINUOUS
 70
0
 71
3
 72
23
 73
19
 74
0
 42
0.0000001
 43
0.0000001
 44
0.0000000001
 40
0.0
 40
0.0
 40
0.0
 40
0.0
 40
0.0595423993
 40
0.1200256427
 40
0.1814527612
 40
0.2438061585
 40
0.3070034109
 40
0.3709065924
 40
0.4353194022
 40
0.5
 40
0.5646805978
 40
0.6290934076
 40
0.6929965891
 40
0.7561938415
 40
0.8185472388
 40
0.8799743573
 40
0.9404576007
 40
1.0
 40
1.0
 40
1.0
 40
1.0
 10
6.2397203653
 20
4.7319850811
 30
0.0
 10
6.2430325491
 20
4.7283046145
 30
0.0
 10
6.2494092817
 20
4.7206087764
 30
0.0
 10
6.2580326978
 20
4.7082048156
 30
0.0
 10
6.2656555726
 20
4.69488897
 30
0.0
 10
6.2721405577
 20
4.680733386
 30
0.0
 10
6.2773545126
 20
4.6658420939
 30
0.0
 10
6.2811775136
 20
4.6503569695
 30
0.0
 10
6.2835132173
 20
4.6344533478
 30
0.0
 10
6.2842990387
 20
4.6183332003
 30
0.0
 10
6.2835132173
 20
4.6022130528
 30
0.0
 10
6.2811775136
 20
4.5863094311
 30
0.0
 10
6.2773545126
 20
4.5708243067
 30
0.0
 10
6.2721405577
 20
4.5559330146
 30
0.0
 10
6.2656555726
 20
4.5417774306
 30
0.0
 10
6.2580326978
 20
4.528461585
 30
0.0
 10
6.2494092817
 20
4.5160576242
 30
0.0
 10
6.2430325491
 20
4.5083617861
 30
0.0
 10
6.2397203653
 20
4.5046813195
 30
0.0
  0
SPLINE
  5
36F
100
AcDbEntity
  8
0
100
AcDbSpline
 62
7
  6
CONTINUOUS
 70
0
 71
3
 72
25
 73
21
 74
0
 42
0.0000001
 43
0.0000001
 44
0.0000000001
 40
0.0
 40
0.0
 40
0.0
 40
0.0
 40
0.0585314295
 40
0.1183332726
 40
0.1794076449
 40
0.2417211048
 40
0.2733172893
 40
0.3051744809
 40
0.3695489472
 40
0.4345976683
 40
0.5
 40
0.5654023317
 40
0.6304510528
 40
0.6948255191
 40
0.7266827107
 40
0.7582788952
 40
0.8205923551
 40
0.8816667274
 40
0.9414685705
 40
1.0
 40
1.0
 40
1.0
 40
1.0
 10
6.2517655021
 20
4.7319850811
 30
0.0
 10
6.2548538595
 20
4.7282938008
 30
0.0
 10
6.2607976784
 20
4.7205741526
 30
0.0
 10
6.2688114488
 20
4.7081687764
 30
0.0
 10
6.275893929
 20
4.6948540013
 30
0.0
 10
6.2808919121
 20
4.6831120777
 30
0.0
 10
6.2843101065
 20
4.6733488538
 30
0.0
 10
6.287342013
 20
4.6632816576
 30
0.0
 10
6.2903113761
 20
4.650337042
 30
0.0
 10
6.2924800491
 20
4.6344431861
 30
0.0
 10
6.2932097351
 20
4.6183332003
 30
0.0
 10
6.2924800491
 20
4.6022232145
 30
0.0
 10
6.2903113761
 20
4.5863293586
 30
0.0
 10
6.287342013
 20
4.573384743
 30
0.0
 10
6.2843101065
 20
4.5633175468
 30
0.0
 10
6.2808919121
 20
4.5535543229
 30
0.0
 10
6.275893929
 20
4.5418123993
 30
0.0
 10
6.2688114488
 20
4.5284976242
 30
0.0
 10
6.2607976784
 20
4.516092248
 30
0.0
 10
6.2548538595
 20
4.5083725998
 30
0.0
 10
6.2517655021
 20
4.5046813195
 30
0.0
  0
SPLINE
  5
370
100
AcDbEntity
  8
0
100
AcDbSpline
 62
7
  6
CONTINUOUS
 70
0
 71
3
 72
36
 73
32
 74
0
 42
0.0000001
 43
0.0000001
 44
0.0000000001
 40
0.0
 40
0.0
 40
0.0
 40
0.0
 40
0.1011620057
 40
0.2005402126
 40
0.2972217026
 40
0.3904234847
 40
0.4793705531
 40
0.563305384
 40
0.6415259388
 40
0.7133768953
 40
0.7782522082
 40
0.8079034226
 40
0.8356112261
 40
0.861317155
 40
0.8849698914
 40
0.9065185853
 40
0.9259161777
 40
0.9431251234
 40
0.9581094174
 40
0.9708350247
 40
0.9763432155
 40
0.98127834
 40
0.9856379629
 40
0.9894197223
 40
0.99262139
 40
0.9952416188
 40
0.9972807828
 40
0.9987407174
 40
0.999628051
 40
0.999867139
 40
1.0
 40
1.0
 40
1.0
 40
1.0
 10
5.1461442945
 20
2.9261177135
 30
0.0
 10
5.1441927456
 20
2.9261176857
 30
0.0
 10
5.1403240594
 20
2.9261156267
 30
0.0
 10
5.1345902647
 20
2.9261076266
 30
0.0
 10
5.1290100409
 20
2.9260953132
 30
0.0
 10
5.1236310614
 20
2.9260781002
 30
0.0
 10
5.118498001
 20
2.9260561681
 30
0.0
 10
5.1136539728
 20
2.926029845
 30
0.0
 10
5.1091397825
 20
2.9259993231
 30
0.0
 10
5.1049933154
 20
2.9259648625
 30
0.0
 10
5.1017838367
 20
2.9259322449
 30
0.0
 10
5.0994259428
 20
2.9259040491
 30
0.0
 10
5.0978236511
 20
2.9258827469
 30
0.0
 10
5.0963370998
 20
2.9258606982
 30
0.0
 10
5.0949693912
 20
2.925837958
 30
0.0
 10
5.0937234088
 20
2.9258145805
 30
0.0
 10
5.0926017719
 20
2.9257906172
 30
0.0
 10
5.0916068151
 20
2.9257661446
 30
0.0
 10
5.0907406266
 20
2.9257412293
 30
0.0
 10
5.0901001768
 20
2.9257192581
 30
0.0
 10
5.0896535837
 20
2.9257011314
 30
0.0
 10
5.089368311
 20
2.925688123
 30
0.0
 10
5.0891163829
 20
2.9256750515
 30
0.0
 10
5.0888979557
 20
2.9256619446
 30
0.0
 10
5.0887131341
 20
2.9256488008
 30
0.0
 10
5.0885620835
 20
2.9256357475
 30
0.0
 10
5.0884446253
 20
2.9256226548
 30
0.0
 10
5.088361162
 20
2.9256102662
 30
0.0
 10
5.0883120546
 20
2.9255984737
 30
0.0
 10
5.0882900008
 20
2.9255890938
 30
0.0
 10
5.0882849073
 20
2.9255824351
 30
0.0
 10
5.0882851598
 20
2.9255798845
 30
0.0
  0
SPLINE
  5
371
100
AcDbEntity
  8
0
100
AcDbSpline
 62
7
  6
CONTINUOUS
 70
0
 71
3
 72
37
 73
33
 74
0
 42
0.0000001
 43
0.0000001
 44
0.0000000001
 40
0.0
 40
0.0
 40
0.0
 40
0.0
 40
0.0001170554
 40
0.0003536165
 40
0.0007325059
 40
0.0012583289
 40
0.0027561871
 40
0.0048523575
 40
0.007546725
 40
0.0108378221
 40
0.0147238389
 40
0.0192028066
 40
0.0242726726
 40
0.0299311329
 40
0.042998383
 40
0.0583706586
 40
0.0760131628
 40
0.0958845405
 40
0.1179342169
 40
0.1421108057
 40
0.1683573405
 40
0.1966079326
 40
0.226795834
 40
0.2926898864
 40
0.3654032301
 40
0.4442342768
 40
0.528425413
 40
0.61716573
 40
0.7095944919
 40
0.8048204236
 40
0.9019566213
 40
1.0
 40
1.0
 40
1.0
 40
1.0
 10
5.4839441347
 20
2.9182391671
 30
0.0
 10
5.4839443983
 20
2.9182416764
 30
0.0
 10
5.4839376789
 20
2.9182480808
 30
0.0
 10
5.4839233438
 20
2.9182527076
 30
0.0
 10
5.4838991975
 20
2.9182591906
 30
0.0
 10
5.4838483629
 20
2.9182680598
 30
0.0
 10
5.4837600406
 20
2.9182789183
 30
0.0
 10
5.4836250984
 20
2.9182909362
 30
0.0
 10
5.4834513001
 20
2.9183031715
 30
0.0
 10
5.4832388897
 20
2.9183154344
 30
0.0
 10
5.4829879477
 20
2.9183277185
 30
0.0
 10
5.4826986309
 20
2.9183399821
 30
0.0
 10
5.482371078
 20
2.9183522123
 30
0.0
 10
5.4818584686
 20
2.918369279
 30
0.0
 10
5.4811238053
 20
2.9183900244
 30
0.0
 10
5.480130827
 20
2.9184136403
 30
0.0
 10
5.4789911485
 20
2.9184369027
 30
0.0
 10
5.4777075111
 20
2.9184597433
 30
0.0
 10
5.4762830097
 20
2.9184820962
 30
0.0
 10
5.4747210744
 20
2.918503894
 30
0.0
 10
5.4730254642
 20
2.918525076
 30
0.0
 10
5.4712002687
 20
2.9185455938
 30
0.0
 10
5.4685205288
 20
2.9185727867
 30
0.0
 10
5.464882431
 20
2.9186043411
 30
0.0
 10
5.460195857
 20
2.9186378225
 30
0.0
 10
5.4551148733
 20
2.9186675744
 30
0.0
 10
5.4496884165
 20
2.918693283
 30
0.0
 10
5.4439688525
 20
2.9187147349
 30
0.0
 10
5.4380114271
 20
2.9187316635
 30
0.0
 10
5.431873024
 20
2.9187437562
 30
0.0
 10
5.4256135959
 20
2.9187514745
 30
0.0
 10
5.4214066736
 20
2.9187534688
 30
0.0
 10
5.4192934358
 20
2.9187534921
 30
0.0
  0
SPLINE
  5
372
100
AcDbEntity
  8
0
100
AcDbSpline
 62
7
  6
CONTINUOUS
 70
0
 71
3
 72
39
 73
35
 74
0
 42
0.0000001
 43
0.0000001
 44
0.0000000001
 40
0.0
 40
0.0
 40
0.0
 40
0.0
 40
0.1762082079
 40
0.2661690411
 40
0.3557169073
 40
0.4436009075
 40
0.5286025266
 40
0.6095425453
 40
0.6852983299
 40
0.7548194459
 40
0.7869360998
 40
0.8171413232
 40
0.8453281188
 40
0.8714000978
 40
0.8952672639
 40
0.9168448223
 40
0.9360609293
 40
0.9528466476
 40
0.9603097569
 40
0.9671449576
 40
0.9733462607
 40
0.9789076978
 40
0.9838240504
 40
0.9880919707
 40
0.9917084738
 40
0.9946707239
 40
0.9969762071
 40
0.9978822087
 40
0.998623974
 40
0.9992021569
 40
0.9996182282
 40
0.9997667012
 40
0.9998770146
 40
1.0
 40
1.0
 40
1.0
 40
1.0
 10
6.2268030293
 20
2.9261177135
 30
0.0
 10
6.2218338384
 20
2.9261176395
 30
0.0
 10
6.2143276897
 20
2.9261078403
 30
0.0
 10
6.2042962669
 20
2.9260810517
 30
0.0
 10
6.1967556631
 20
2.9260527038
 30
0.0
 10
6.1893549446
 20
2.9260172311
 30
0.0
 10
6.182197013
 20
2.92597493
 30
0.0
 10
6.1753811523
 20
2.9259264565
 30
0.0
 10
6.169001908
 20
2.9258724958
 30
0.0
 10
6.1639995376
 20
2.9258223918
 30
0.0
 10
6.1602817202
 20
2.9257797166
 30
0.0
 10
6.1577295148
 20
2.9257476809
 30
0.0
 10
6.155347798
 20
2.9257148747
 30
0.0
 10
6.1531448467
 20
2.9256814197
 30
0.0
 10
6.1511283123
 20
2.9256474434
 30
0.0
 10
6.1493051555
 20
2.9256130678
 30
0.0
 10
6.1476817454
 20
2.9255784368
 30
0.0
 10
6.1464563688
 20
2.925548434
 30
0.0
 10
6.1455801159
 20
2.9255240723
 30
0.0
 10
6.1450022783
 20
2.9255065339
 30
0.0
 10
6.1444780951
 20
2.9254890251
 30
0.0
 10
6.1440080562
 20
2.9254715647
 30
0.0
 10
6.1435925789
 20
2.9254541767
 30
0.0
 10
6.1432319999
 20
2.9254368874
 30
0.0
 10
6.1429265915
 20
2.9254197589
 30
0.0
 10
6.1426766169
 20
2.9254028002
 30
0.0
 10
6.1425031259
 20
2.9253880549
 30
0.0
 10
6.1423922994
 20
2.9253757821
 30
0.0
 10
6.1423300984
 20
2.925367476
 30
0.0
 10
6.1422817604
 20
2.9253591576
 30
0.0
 10
6.1422504572
 20
2.9253521173
 30
0.0
 10
6.142232201
 20
2.925345722
 30
0.0
 10
6.142222913
 20
2.9253415257
 30
0.0
 10
6.1422165699
 20
2.9253360768
 30
0.0
 10
6.1422169231
 20
2.9253326265
 30
0.0
  0
SPLINE
  5
373
100
AcDbEntity
  8
0
100
AcDbSpline
 62
7
  6
CONTINUOUS
 70
0
 71
3
 72
23
 73
19
 74
0
 42
0.0000001
 43
0.0000001
 44
0.0000000001
 40
0.0
 40
0.0
 40
0.0
 40
0.0
 40
0.0574195297
 40
0.1164801098
 40
0.1771781621
 40
0.2394586629
 40
0.3031683845
 40
0.3680634165
 40
0.433809094
 40
0.5
 40
0.566190906
 40
0.6319365835
 40
0.6968316155
 40
0.7605413371
 40
0.8228218379
 40
0.8835198902
 40
0.9425804703
 40
1.0
 40
1.0
 40
1.0
 40
1.0
 10
5.4192934783
 20
4.5046813195
 30
0.0
 10
5.4164586294
 20
4.5083853942
 30
0.0
 10
5.4110054682
 20
4.516132371
 30
0.0
 10
5.4036790747
 20
4.5285381336
 30
0.0
 10
5.3972051186
 20
4.5418516896
 30
0.0
 10
5.3916994922
 20
4.5560004679
 30
0.0
 10
5.3872744132
 20
4.5708802193
 30
0.0
 10
5.3840307292
 20
4.5863495084
 30
0.0
 10
5.3820493627
 20
4.60223399
 30
0.0
 10
5.3813828239
 20
4.6183332003
 30
0.0
 10
5.3820493627
 20
4.6344324106
 30
0.0
 10
5.3840307292
 20
4.6503168922
 30
0.0
 10
5.3872744132
 20
4.6657861813
 30
0.0
 10
5.3916994922
 20
4.6806659327
 30
0.0
 10
5.3972051186
 20
4.694814711
 30
0.0
 10
5.4036790747
 20
4.708128267
 30
0.0
 10
5.4110054682
 20
4.7205340296
 30
0.0
 10
5.4164586294
 20
4.7282810064
 30
0.0
 10
5.4192934783
 20
4.7319850811
 30
0.0
  0
SPLINE
  5
374
100
AcDbEntity
  8
0
100
AcDbSpline
 62
7
  6
CONTINUOUS
 70
0
 71
3
 72
37
 73
33
 74
0
 42
0.0000001
 43
0.0000001
 44
0.0000000001
 40
0.0
 40
0.0
 40
0.0
 40
0.0
 40
0.0980434314
 40
0.1951797004
 40
0.290405649
 40
0.3828343913
 40
0.4715746925
 40
0.5557658148
 40
0.6345968407
 40
0.7073101633
 40
0.7732041943
 40
0.8033920883
 40
0.8316426702
 40
0.8578891968
 40
0.8820657808
 40
0.9041154498
 40
0.9239868224
 40
0.9416293258
 40
0.9570015981
 40
0.970068847
 40
0.9757273093
 40
0.9807971772
 40
0.9852761458
 40
0.9891621632
 40
0.9924532614
 40
0.9951476313
 40
0.9972438059
 40
0.9987416684
 40
0.999267493
 40
0.9996463835
 40
0.9998829454
 40
1.0
 40
1.0
 40
1.0
 40
1.0
 10
5.4192934358
 20
2.9187534925
 30
0.0
 10
5.4171801996
 20
2.9187534692
 30
0.0
 10
5.4129732803
 20
2.9187514633
 30
0.0
 10
5.4067138575
 20
2.9187437339
 30
0.0
 10
5.4005754611
 20
2.9187316476
 30
0.0
 10
5.394618044
 20
2.918714719
 30
0.0
 10
5.3888984887
 20
2.9186932664
 30
0.0
 10
5.3834720402
 20
2.9186675588
 30
0.0
 10
5.3783910645
 20
2.9186378075
 30
0.0
 10
5.373704498
 20
2.9186043268
 30
0.0
 10
5.3700664062
 20
2.9185727731
 30
0.0
 10
5.3673866708
 20
2.9185455808
 30
0.0
 10
5.3655614782
 20
2.9185250635
 30
0.0
 10
5.3638658708
 20
2.9185038819
 30
0.0
 10
5.362303938
 20
2.9184820846
 30
0.0
 10
5.3608794388
 20
2.9184597322
 30
0.0
 10
5.3595958034
 20
2.9184368921
 30
0.0
 10
5.3584561266
 20
2.9184136302
 30
0.0
 10
5.3574631497
 20
2.9183900149
 30
0.0
 10
5.3567284875
 20
2.91836927
 30
0.0
 10
5.3562158787
 20
2.9183522037
 30
0.0
 10
5.3558883261
 20
2.9183399737
 30
0.0
 10
5.3555990096
 20
2.9183277104
 30
0.0
 10
5.3553480679
 20
2.9183154266
 30
0.0
 10
5.3551356577
 20
2.9183031639
 30
0.0
 10
5.3549618594
 20
2.9182909289
 30
0.0
 10
5.3548269171
 20
2.9182789113
 30
0.0
 10
5.3547385947
 20
2.9182680531
 30
0.0
 10
5.35468776
 20
2.9182591841
 30
0.0
 10
5.3546636136
 20
2.9182527012
 30
0.0
 10
5.3546492785
 20
2.9182480745
 30
0.0
 10
5.3546425589
 20
2.9182416702
 30
0.0
 10
5.3546428225
 20
2.918239161
 30
0.0
  0
SPLINE
  5
375
100
AcDbEntity
  8
0
100
AcDbSpline
 62
7
  6
CONTINUOUS
 70
0
 71
3
 72
37
 73
33
 74
0
 42
0.0000001
 43
0.0000001
 44
0.0000000001
 40
0.0
 40
0.0
 40
0.0
 40
0.0
 40
0.0001064648
 40
0.0003305469
 40
0.0006919501
 40
0.0011945107
 40
0.0026275849
 40
0.0046333374
 40
0.0072115376
 40
0.0103612223
 40
0.0140811508
 40
0.0183699535
 40
0.0232261926
 40
0.0286482135
 40
0.0411776503
 40
0.0559318476
 40
0.0728837526
 40
0.0920039604
 40
0.113253592
 40
0.1365913079
 40
0.1619753617
 40
0.189357175
 40
0.2186823612
 40
0.2829415784
 40
0.3542629252
 40
0.4321055707
 40
0.5158751157
 40
0.6049365106
 40
0.6986002707
 40
0.7961657955
 40
0.8969161317
 40
1.0
 40
1.0
 40
1.0
 40
1.0
 10
5.7112098482
 20
2.9130508889
 30
0.0
 10
5.7112100453
 20
2.9130527759
 30
0.0
 10
5.7112044657
 20
2.9130574728
 30
0.0
 10
5.7111933329
 20
2.9130607285
 30
0.0
 10
5.7111741201
 20
2.9130654746
 30
0.0
 10
5.7111338927
 20
2.9130718726
 30
0.0
 10
5.711063914
 20
2.9130797341
 30
0.0
 10
5.7109571098
 20
2.9130883775
 30
0.0
 10
5.7108195411
 20
2.9130971619
 30
0.0
 10
5.7106514173
 20
2.9131059322
 30
0.0
 10
5.7104527611
 20
2.9131146913
 30
0.0
 10
5.7102236722
 20
2.913123408
 30
0.0
 10
5.7099642294
 20
2.9131320748
 30
0.0
 10
5.7095579727
 20
2.9131441358
 30
0.0
 10
5.7089753348
 20
2.9131587275
 30
0.0
 10
5.7081872255
 20
2.9131752465
 30
0.0
 10
5.7072816397
 20
2.9131914375
 30
0.0
 10
5.706260283
 20
2.9132072569
 30
0.0
 10
5.7051251128
 20
2.9132226669
 30
0.0
 10
5.7038783057
 20
2.9132376321
 30
0.0
 10
5.7025222103
 20
2.9132521154
 30
0.0
 10
5.701059407
 20
2.9132660883
 30
0.0
 10
5.6989038574
 20
2.9132845697
 30
0.0
 10
5.6959652986
 20
2.9133058961
 30
0.0
 10
5.6921621439
 20
2.9133283692
 30
0.0
 10
5.6880112947
 20
2.913348228
 30
0.0
 10
5.6835443017
 20
2.9133653329
 30
0.0
 10
5.6787953637
 20
2.9133795462
 30
0.0
 10
5.6738005712
 20
2.9133906801
 30
0.0
 10
5.6685974747
 20
2.9133986852
 30
0.0
 10
5.6632265074
 20
2.913403793
 30
0.0
 10
5.659594164
 20
2.9134050425
 30
0.0
 10
5.6577572005
 20
2.9134050594
 30
0.0
  0
SPLINE
  5
376
100
AcDbEntity
  8
0
100
AcDbSpline
 62
7
  6
CONTINUOUS
 70
0
 71
3
 72
32
 73
28
 74
0
 42
0.0000001
 43
0.0000001
 44
0.0000000001
 40
0.0
 40
0.0
 40
0.0
 40
0.0
 40
0.2176008893
 40
0.3188247999
 40
0.4143689326
 40
0.5038463325
 40
0.5868835879
 40
0.6631227544
 40
0.7322262861
 40
0.7939072203
 40
0.8478946137
 40
0.8719323878
 40
0.8939653559
 40
0.9139679159
 40
0.9319170692
 40
0.9477963812
 40
0.9615905066
 40
0.9732842261
 40
0.9828629074
 40
0.9868561397
 40
0.990317995
 40
0.9932481777
 40
0.9956466297
 40
0.997513802
 40
0.9988514644
 40
0.9996661345
 40
1.0
 40
1.0
 40
1.0
 40
1.0
 10
4.4226895683
 20
2.9187534924
 30
0.0
 10
4.4203445268
 20
2.9187534625
 30
0.0
 10
4.4169086149
 20
2.9187510651
 30
0.0
 10
4.4124430497
 20
2.918743426
 30
0.0
 10
4.4093582485
 20
2.9187358741
 30
0.0
 10
4.406469448
 20
2.918726222
 30
0.0
 10
4.4037887028
 20
2.9187144544
 30
0.0
 10
4.4013275354
 20
2.9187006854
 30
0.0
 10
4.3990965371
 20
2.9186850049
 30
0.0
 10
4.3971053634
 20
2.9186674924
 30
0.0
 10
4.3955998683
 20
2.9186508705
 30
0.0
 10
4.3945216579
 20
2.918636434
 30
0.0
 10
4.3938096808
 20
2.9186256175
 30
0.0
 10
4.3931633345
 20
2.9186144049
 30
0.0
 10
4.3925833232
 20
2.9186028105
 30
0.0
 10
4.3920702426
 20
2.9185908563
 30
0.0
 10
4.3916246028
 20
2.918578573
 30
0.0
 10
4.3912469095
 20
2.9185659862
 30
0.0
 10
4.3909748441
 20
2.918554726
 30
0.0
 10
4.3907915315
 20
2.9185452911
 30
0.0
 10
4.3906797745
 20
2.9185385689
 30
0.0
 10
4.3905853859
 20
2.9185318602
 30
0.0
 10
4.3905078354
 20
2.9185249569
 30
0.0
 10
4.3904485771
 20
2.9185185184
 30
0.0
 10
4.3904040279
 20
2.9185111602
 30
0.0
 10
4.3903810562
 20
2.9185062167
 30
0.0
 10
4.3903660837
 20
2.9184992462
 30
0.0
 10
4.3903664135
 20
2.9184956633
 30
0.0
  0
SPLINE
  5
377
100
AcDbEntity
  8
0
100
AcDbSpline
 62
7
  6
CONTINUOUS
 70
0
 71
3
 72
36
 73
32
 74
0
 42
0.0000001
 43
0.0000001
 44
0.0000000001
 40
0.0
 40
0.0
 40
0.0
 40
0.0
 40
0.000137596
 40
0.0003707518
 40
0.0007295336
 40
0.0012215078
 40
0.0026144704
 40
0.0045591474
 40
0.007057313
 40
0.0101088167
 40
0.0137128988
 40
0.017868516
 40
0.0278294567
 40
0.0399807104
 40
0.0543034063
 40
0.0707734825
 40
0.0893666333
 40
0.1100572488
 40
0.1328117708
 40
0.157593457
 40
0.1843655326
 40
0.2130890716
 40
0.2762021732
 40
0.3465441867
 40
0.4236809107
 40
0.5071405092
 40
0.5964000865
 40
0.690906363
 40
0.790094841
 40
0.8933704382
 40
1.0
 40
1.0
 40
1.0
 40
1.0
 10
6.2714478039
 20
2.925702284
 30
0.0
 10
6.2714480018
 20
2.9257043227
 30
0.0
 10
6.2714445456
 20
2.9257096327
 30
0.0
 10
6.2714348224
 20
2.9257143734
 30
0.0
 10
6.2714195871
 20
2.9257198799
 30
0.0
 10
6.2713871277
 20
2.9257278248
 30
0.0
 10
6.2713308416
 20
2.9257372154
 30
0.0
 10
6.2712446051
 20
2.9257477169
 30
0.0
 10
6.2711335326
 20
2.9257582729
 30
0.0
 10
6.2709976769
 20
2.9257688206
 30
0.0
 10
6.270837082
 20
2.9257793222
 30
0.0
 10
6.2705737086
 20
2.9257941411
 30
0.0
 10
6.2701830819
 20
2.9258118887
 30
0.0
 10
6.2696410794
 20
2.9258318305
 30
0.0
 10
6.2690021146
 20
2.9258513744
 30
0.0
 10
6.2682672076
 20
2.9258704801
 30
0.0
 10
6.267437469
 20
2.9258890878
 30
0.0
 10
6.2665141494
 20
2.9259071539
 30
0.0
 10
6.2654986821
 20
2.9259246463
 30
0.0
 10
6.2643926652
 20
2.9259415336
 30
0.0
 10
6.263197776
 20
2.9259577857
 30
0.0
 10
6.2614323092
 20
2.9259792436
 30
0.0
 10
6.2590182589
 20
2.9260039197
 30
0.0
 10
6.2558835165
 20
2.926029786
 30
0.0
 10
6.2524458674
 20
2.9260525824
 30
0.0
 10
6.2487265898
 20
2.9260721792
 30
0.0
 10
6.2447487325
 20
2.9260884
 30
0.0
 10
6.2405367227
 20
2.9261010199
 30
0.0
 10
6.2361160628
 20
2.9261101975
 30
0.0
 10
6.2315149314
 20
2.926116211
 30
0.0
 10
6.2283903055
 20
2.9261176864
 30
0.0
 10
6.2268030293
 20
2.9261177101
 30
0.0
  0
SPLINE
  5
378
100
AcDbEntity
  8
0
100
AcDbSpline
 62
7
  6
CONTINUOUS
 70
0
 71
3
 72
18
 73
14
 74
0
 42
0.0000001
 43
0.0000001
 44
0.0000000001
 40
0.0
 40
0.0
 40
0.0
 40
0.0
 40
0.0589317366
 40
0.123096085
 40
0.2632867126
 40
0.4124500664
 40
0.5619384465
 40
0.7030915894
 40
0.8277343412
 40
0.8815601172
 40
0.9286512263
 40
0.9683234865
 40
1.0
 40
1.0
 40
1.0
 40
1.0
 10
7.1678360361
 20
2.9261177136
 30
0.0
 10
7.1658046148
 20
2.9261176749
 30
0.0
 10
7.1615614004
 20
2.9261135956
 30
0.0
 10
7.152485727
 20
2.9260951706
 30
0.0
 10
7.1402997557
 20
2.9260510369
 30
0.0
 10
7.1251727388
 20
2.9259702993
 30
0.0
 10
7.1100126929
 20
2.9258649227
 30
0.0
 10
7.0956980613
 20
2.9257410242
 30
0.0
 10
7.0846810732
 20
2.9256237933
 30
0.0
 10
7.0769064998
 20
2.9255240594
 30
0.0
 10
7.0720608002
 20
2.9254531953
 30
0.0
 10
7.067978677
 20
2.9253836891
 30
0.0
 10
7.0655197333
 20
2.9253334353
 30
0.0
 10
7.0644281274
 20
2.9253075317
 30
0.0
  0
SPLINE
  5
379
100
AcDbEntity
  8
0
100
AcDbSpline
 62
7
  6
CONTINUOUS
 70
0
 71
3
 72
25
 73
21
 74
0
 42
0.0000001
 43
0.0000001
 44
0.0000000001
 40
0.0
 40
0.0
 40
0.0
 40
0.0
 40
0.0585314295
 40
0.1183332726
 40
0.1794076449
 40
0.2417211048
 40
0.2733172893
 40
0.3051744809
 40
0.3695489472
 40
0.4345976683
 40
0.5
 40
0.5654023317
 40
0.6304510528
 40
0.6948255191
 40
0.7266827107
 40
0.7582788952
 40
0.8205923551
 40
0.8816667274
 40
0.9414685705
 40
1.0
 40
1.0
 40
1.0
 40
1.0
 10
4.5868214544
 20
4.5046813195
 30
0.0
 10
4.583733097
 20
4.5083725998
 30
0.0
 10
4.5777892781
 20
4.516092248
 30
0.0
 10
4.5697755077
 20
4.5284976242
 30
0.0
 10
4.5626930275
 20
4.5418123993
 30
0.0
 10
4.5576950444
 20
4.5535543229
 30
0.0
 10
4.55427685
 20
4.5633175468
 30
0.0
 10
4.5512449436
 20
4.573384743
 30
0.0
 10
4.5482755804
 20
4.5863293586
 30
0.0
 10
4.5461069074
 20
4.6022232145
 30
0.0
 10
4.5453772214
 20
4.6183332003
 30
0.0
 10
4.5461069074
 20
4.6344431861
 30
0.0
 10
4.5482755804
 20
4.650337042
 30
0.0
 10
4.5512449436
 20
4.6632816576
 30
0.0
 10
4.55427685
 20
4.6733488538
 30
0.0
 10
4.5576950444
 20
4.6831120777
 30
0.0
 10
4.5626930275
 20
4.6948540013
 30
0.0
 10
4.5697755077
 20
4.7081687764
 30
0.0
 10
4.5777892781
 20
4.7205741526
 30
0.0
 10
4.583733097
 20
4.7282938008
 30
0.0
 10
4.5868214544
 20
4.7319850811
 30
0.0
  0
SPLINE
  5
37A
100
AcDbEntity
  8
0
100
AcDbSpline
 62
7
  6
CONTINUOUS
 70
0
 71
3
 72
23
 73
19
 74
0
 42
0.0000001
 43
0.0000001
 44
0.0000000001
 40
0.0
 40
0.0
 40
0.0
 40
0.0
 40
0.0595423993
 40
0.1200256427
 40
0.1814527612
 40
0.2438061585
 40
0.3070034109
 40
0.3709065924
 40
0.4353194022
 40
0.5
 40
0.5646805978
 40
0.6290934076
 40
0.6929965891
 40
0.7561938415
 40
0.8185472388
 40
0.8799743573
 40
0.9404576007
 40
1.0
 40
1.0
 40
1.0
 40
1.0
 10
4.5988665912
 20
4.5046813195
 30
0.0
 10
4.5955544074
 20
4.5083617861
 30
0.0
 10
4.5891776748
 20
4.5160576242
 30
0.0
 10
4.5805542587
 20
4.528461585
 30
0.0
 10
4.5729313839
 20
4.5417774306
 30
0.0
 10
4.5664463988
 20
4.5559330146
 30
0.0
 10
4.5612324439
 20
4.5708243067
 30
0.0
 10
4.5574094429
 20
4.5863094311
 30
0.0
 10
4.5550737393
 20
4.6022130528
 30
0.0
 10
4.5542879179
 20
4.6183332003
 30
0.0
 10
4.5550737393
 20
4.6344533478
 30
0.0
 10
4.5574094429
 20
4.6503569695
 30
0.0
 10
4.5612324439
 20
4.6658420939
 30
0.0
 10
4.5664463988
 20
4.680733386
 30
0.0
 10
4.5729313839
 20
4.69488897
 30
0.0
 10
4.5805542587
 20
4.7082048156
 30
0.0
 10
4.5891776748
 20
4.7206087764
 30
0.0
 10
4.5955544074
 20
4.7283046145
 30
0.0
 10
4.5988665912
 20
4.7319850811
 30
0.0
  0
SPLINE
  5
37B
100
AcDbEntity
  8
0
100
AcDbSpline
 62
7
  6
CONTINUOUS
 70
0
 71
3
 72
23
 73
19
 74
0
 42
0.0000001
 43
0.0000001
 44
0.0000000001
 40
0.0
 40
0.0
 40
0.0
 40
0.0
 40
0.0604239023
 40
0.1215054213
 40
0.1832452989
 40
0.2456369398
 40
0.3086240319
 40
0.3721112284
 40
0.4359603535
 40
0.5
 40
0.5640396465
 40
0.6278887716
 40
0.6913759681
 40
0.7543630602
 40
0.8167547011
 40
0.8784945787
 40
0.9395760977
 40
1.0
 40
1.0
 40
1.0
 40
1.0
 10
4.6188128874
 20
4.5046813195
 30
0.0
 10
4.6153082125
 20
4.5083528975
 30
0.0
 10
4.6085594849
 20
4.5160286144
 30
0.0
 10
4.5994100148
 20
4.5284308385
 30
0.0
 10
4.5913207391
 20
4.5417466163
 30
0.0
 10
4.5844377337
 20
4.5559042003
 30
0.0
 10
4.57890277
 20
4.5707998354
 30
0.0
 10
4.5748437515
 20
4.5862915665
 30
0.0
 10
4.5723635518
 20
4.602203613
 30
0.0
 10
4.5715290624
 20
4.6183332003
 30
0.0
 10
4.5723635518
 20
4.6344627876
 30
0.0
 10
4.5748437515
 20
4.6503748341
 30
0.0
 10
4.57890277
 20
4.6658665652
 30
0.0
 10
4.5844377337
 20
4.6807622003
 30
0.0
 10
4.5913207391
 20
4.6949197843
 30
0.0
 10
4.5994100148
 20
4.7082355621
 30
0.0
 10
4.6085594849
 20
4.7206377862
 30
0.0
 10
4.6153082125
 20
4.7283135031
 30
0.0
 10
4.6188128874
 20
4.7319850811
 30
0.0
  0
SPLINE
  5
37C
100
AcDbEntity
  8
0
100
AcDbSpline
 62
7
  6
CONTINUOUS
 70
0
 71
3
 72
23
 73
19
 74
0
 42
0.0000001
 43
0.0000001
 44
0.0000000001
 40
0.0
 40
0.0
 40
0.0
 40
0.0
 40
0.0611614807
 40
0.1227468766
 40
0.1847529282
 40
0.2471802404
 40
0.309992803
 40
0.3731301523
 40
0.4365029914
 40
0.5
 40
0.5634970086
 40
0.6268698477
 40
0.690007197
 40
0.7528197596
 40
0.8152470718
 40
0.8772531234
 40
0.9388385193
 40
1.0
 40
1.0
 40
1.0
 40
1.0
 10
4.6464682493
 20
4.5046813195
 30
0.0
 10
4.6428039017
 20
4.5083458315
 30
0.0
 10
4.6357468456
 20
4.5160052066
 30
0.0
 10
4.6261600188
 20
4.5284055877
 30
0.0
 10
4.6176828141
 20
4.5417208688
 30
0.0
 10
4.610468548
 20
4.5558797386
 30
0.0
 10
4.6046662156
 20
4.5707787755
 30
0.0
 10
4.6004104655
 20
4.5862760302
 30
0.0
 10
4.5978097443
 20
4.6021953489
 30
0.0
 10
4.5969346469
 20
4.6183332003
 30
0.0
 10
4.5978097443
 20
4.6344710517
 30
0.0
 10
4.6004104655
 20
4.6503903704
 30
0.0
 10
4.6046662156
 20
4.6658876251
 30
0.0
 10
4.610468548
 20
4.680786662
 30
0.0
 10
4.6176828141
 20
4.6949455318
 30
0.0
 10
4.6261600188
 20
4.7082608129
 30
0.0
 10
4.6357468456
 20
4.720661194
 30
0.0
 10
4.6428039017
 20
4.7283205691
 30
0.0
 10
4.6464682493
 20
4.7319850811
 30
0.0
  0
SPLINE
  5
37D
100
AcDbEntity
  8
0
100
AcDbSpline
 62
7
  6
CONTINUOUS
 70
0
 71
3
 72
23
 73
19
 74
0
 42
0.0000001
 43
0.0000001
 44
0.0000000001
 40
0.0
 40
0.0
 40
0.0
 40
0.0
 40
0.0617440709
 40
0.1237295374
 40
0.1859487016
 40
0.248406583
 40
0.3110821883
 40
0.3739420893
 40
0.4369357294
 40
0.5
 40
0.5630642706
 40
0.6260579107
 40
0.6889178117
 40
0.751593417
 40
0.8140512984
 40
0.8762704626
 40
0.9382559291
 40
1.0
 40
1.0
 40
1.0
 40
1.0
 10
4.6815663406
 20
4.5046813195
 30
0.0
 10
4.6777764125
 20
4.5083404756
 30
0.0
 10
4.6704770258
 20
4.5159872571
 30
0.0
 10
4.6605456988
 20
4.5283859512
 30
0.0
 10
4.6517628287
 20
4.5417005644
 30
0.0
 10
4.6442874164
 20
4.5558601951
 30
0.0
 10
4.6382741693
 20
4.5707617578
 30
0.0
 10
4.6338631189
 20
4.5862633643
 30
0.0
 10
4.6311672011
 20
4.6021885736
 30
0.0
 10
4.6302600175
 20
4.6183332003
 30
0.0
 10
4.6311672011
 20
4.634477827
 30
0.0
 10
4.6338631189
 20
4.6504030363
 30
0.0
 10
4.6382741693
 20
4.6659046428
 30
0.0
 10
4.6442874164
 20
4.6808062055
 30
0.0
 10
4.6517628287
 20
4.6949658362
 30
0.0
 10
4.6605456988
 20
4.7082804494
 30
0.0
 10
4.6704770258
 20
4.7206791435
 30
0.0
 10
4.6777764125
 20
4.728325925
 30
0.0
 10
4.6815663406
 20
4.7319850811
 30
0.0
  0
SPLINE
  5
37E
100
AcDbEntity
  8
0
100
AcDbSpline
 62
7
  6
CONTINUOUS
 70
0
 71
3
 72
23
 73
19
 74
0
 42
0.0000001
 43
0.0000001
 44
0.0000000001
 40
0.0
 40
0.0
 40
0.0
 40
0.0
 40
0.062164467
 40
0.1244397434
 40
0.1868142563
 40
0.249295521
 40
0.3118728124
 40
0.37453191
 40
0.437250274
 40
0.5
 40
0.562749726
 40
0.62546809
 40
0.6881271876
 40
0.750704479
 40
0.8131857437
 40
0.8755602566
 40
0.937835533
 40
1.0
 40
1.0
 40
1.0
 40
1.0
 10
4.7237691476
 20
4.5046813195
 30
0.0
 10
4.7198887599
 20
4.5083367288
 30
0.0
 10
4.7124149081
 20
4.5159745929
 30
0.0
 10
4.7022351825
 20
4.5283719512
 30
0.0
 10
4.6932318658
 20
4.5416859349
 30
0.0
 10
4.6855680426
 20
4.555845973
 30
0.0
 10
4.6794025477
 20
4.5707492647
 30
0.0
 10
4.6748793311
 20
4.5862540017
 30
0.0
 10
4.672114623
 20
4.6021835431
 30
0.0
 10
4.6711842468
 20
4.6183332003
 30
0.0
 10
4.672114623
 20
4.6344828575
 30
0.0
 10
4.6748793311
 20
4.6504123989
 30
0.0
 10
4.6794025477
 20
4.6659171359
 30
0.0
 10
4.6855680426
 20
4.6808204276
 30
0.0
 10
4.6932318658
 20
4.6949804657
 30
0.0
 10
4.7022351825
 20
4.7082944494
 30
0.0
 10
4.7124149081
 20
4.7206918076
 30
0.0
 10
4.7198887599
 20
4.7283296718
 30
0.0
 10
4.7237691476
 20
4.7319850811
 30
0.0
  0
SPLINE
  5
37F
100
AcDbEntity
  8
0
100
AcDbSpline
 62
7
  6
CONTINUOUS
 70
0
 71
3
 72
23
 73
19
 74
0
 42
0.0000001
 43
0.0000001
 44
0.0000000001
 40
0.0
 40
0.0
 40
0.0
 40
0.0
 40
0.0624182625
 40
0.1248689484
 40
0.1873378801
 40
0.2498338024
 40
0.3123519563
 40
0.3748895899
 40
0.4374410983
 40
0.5
 40
0.5625589017
 40
0.6251104101
 40
0.6876480437
 40
0.7501661976
 40
0.8126621199
 40
0.8751310516
 40
0.9375817375
 40
1.0
 40
1.0
 40
1.0
 40
1.0
 10
4.772670234
 20
4.5046813195
 30
0.0
 10
4.7687352628
 20
4.5083345131
 30
0.0
 10
4.7611561769
 20
4.5159670623
 30
0.0
 10
4.7508264796
 20
4.5283635683
 30
0.0
 10
4.7416900486
 20
4.5416771133
 30
0.0
 10
4.7339124269
 20
4.5558373392
 30
0.0
 10
4.7276549435
 20
4.5707416352
 30
0.0
 10
4.7230639288
 20
4.586248257
 30
0.0
 10
4.720257626
 20
4.6021804471
 30
0.0
 10
4.7193132231
 20
4.6183332003
 30
0.0
 10
4.720257626
 20
4.6344859535
 30
0.0
 10
4.7230639288
 20
4.6504181436
 30
0.0
 10
4.7276549435
 20
4.6659247654
 30
0.0
 10
4.7339124269
 20
4.6808290614
 30
0.0
 10
4.7416900486
 20
4.6949892873
 30
0.0
 10
4.7508264796
 20
4.7083028323
 30
0.0
 10
4.7611561769
 20
4.7206993383
 30
0.0
 10
4.7687352628
 20
4.7283318875
 30
0.0
 10
4.772670234
 20
4.7319850811
 30
0.0
  0
SPLINE
  5
380
100
AcDbEntity
  8
0
100
AcDbSpline
 62
7
  6
CONTINUOUS
 70
0
 71
3
 72
23
 73
19
 74
0
 42
0.0000001
 43
0.0000001
 44
0.0000000001
 40
0.0
 40
0.0
 40
0.0
 40
0.0
 40
0.0625031062
 40
0.1250125063
 40
0.1875131084
 40
0.250014022
 40
0.312512443
 40
0.3750094317
 40
0.4375050479
 40
0.5
 40
0.5624949521
 40
0.6249905683
 40
0.687487557
 40
0.749985978
 40
0.8124868916
 40
0.8749874937
 40
0.9374968938
 40
1.0
 40
1.0
 40
1.0
 40
1.0
 10
4.8277986558
 20
4.5046813195
 30
0.0
 10
4.8238454384
 20
4.50833378
 30
0.0
 10
4.8162311812
 20
4.5159645638
 30
0.0
 10
4.8058513378
 20
4.5283607775
 30
0.0
 10
4.7966703942
 20
4.541674166
 30
0.0
 10
4.7888547143
 20
4.5558344449
 30
0.0
 10
4.7825664612
 20
4.5707390699
 30
0.0
 10
4.7779527637
 20
4.5862463208
 30
0.0
 10
4.7751325422
 20
4.602179402
 30
0.0
 10
4.7741834451
 20
4.6183332003
 30
0.0
 10
4.7751325422
 20
4.6344869986
 30
0.0
 10
4.7779527637
 20
4.6504200798
 30
0.0
 10
4.7825664612
 20
4.6659273307
 30
0.0
 10
4.7888547143
 20
4.6808319557
 30
0.0
 10
4.7966703942
 20
4.6949922346
 30
0.0
 10
4.8058513378
 20
4.7083056231
 30
0.0
 10
4.8162311812
 20
4.7207018368
 30
0.0
 10
4.8238454384
 20
4.7283326206
 30
0.0
 10
4.8277986558
 20
4.7319850811
 30
0.0
  0
SPLINE
  5
381
100
AcDbEntity
  8
0
100
AcDbSpline
 62
7
  6
CONTINUOUS
 70
0
 71
3
 72
23
 73
19
 74
0
 42
0.0000001
 43
0.0000001
 44
0.0000000001
 40
0.0
 40
0.0
 40
0.0
 40
0.0
 40
0.0504989386
 40
0.1051165467
 40
0.1636797386
 40
0.2259001642
 40
0.29132609
 40
0.3593468827
 40
0.4291990242
 40
0.5
 40
0.5708009758
 40
0.6406531173
 40
0.70867391
 40
0.7740998358
 40
0.8363202614
 40
0.8948834533
 40
0.9495010614
 40
1.0
 40
1.0
 40
1.0
 40
1.0
 10
4.8886234961
 20
4.7319850811
 30
0.0
 10
4.8890277442
 20
4.7281745908
 30
0.0
 10
4.8897988739
 20
4.7202352588
 30
0.0
 10
4.8908080208
 20
4.7078558341
 30
0.0
 10
4.8916996094
 20
4.6945758053
 30
0.0
 10
4.8924578235
 20
4.6804661383
 30
0.0
 10
4.8930671804
 20
4.665630993
 30
0.0
 10
4.8935138311
 20
4.6502107232
 30
0.0
 10
4.8937866502
 20
4.6343784842
 30
0.0
 10
4.8938784256
 20
4.6183332003
 30
0.0
 10
4.8937866502
 20
4.6022879164
 30
0.0
 10
4.8935138311
 20
4.5864556774
 30
0.0
 10
4.8930671804
 20
4.5710354076
 30
0.0
 10
4.8924578235
 20
4.5562002623
 30
0.0
 10
4.8916996094
 20
4.5420905953
 30
0.0
 10
4.8908080208
 20
4.5288105665
 30
0.0
 10
4.8897988739
 20
4.5164311417
 30
0.0
 10
4.8890277442
 20
4.5084918098
 30
0.0
 10
4.8886234961
 20
4.5046813195
 30
0.0
  0
SPLINE
  5
382
100
AcDbEntity
  8
0
100
AcDbSpline
 62
7
  6
CONTINUOUS
 70
0
 71
3
 72
23
 73
19
 74
0
 42
0.0000001
 43
0.0000001
 44
0.0000000001
 40
0.0
 40
0.0
 40
0.0
 40
0.0
 40
0.0624182625
 40
0.1248689484
 40
0.1873378801
 40
0.2498338024
 40
0.3123519563
 40
0.3748895899
 40
0.4374410983
 40
0.5
 40
0.5625589017
 40
0.6251104101
 40
0.6876480437
 40
0.7501661976
 40
0.8126621199
 40
0.8751310516
 40
0.9375817375
 40
1.0
 40
1.0
 40
1.0
 40
1.0
 10
4.8886234961
 20
4.5046813195
 30
0.0
 10
4.8846885249
 20
4.5083345131
 30
0.0
 10
4.8771094389
 20
4.5159670623
 30
0.0
 10
4.8667797416
 20
4.5283635683
 30
0.0
 10
4.8576433106
 20
4.5416771133
 30
0.0
 10
4.849865689
 20
4.5558373392
 30
0.0
 10
4.8436082056
 20
4.5707416352
 30
0.0
 10
4.8390171908
 20
4.586248257
 30
0.0
 10
4.836210888
 20
4.6021804471
 30
0.0
 10
4.8352664851
 20
4.6183332003
 30
0.0
 10
4.836210888
 20
4.6344859535
 30
0.0
 10
4.8390171908
 20
4.6504181436
 30
0.0
 10
4.8436082056
 20
4.6659247654
 30
0.0
 10
4.849865689
 20
4.6808290614
 30
0.0
 10
4.8576433106
 20
4.6949892873
 30
0.0
 10
4.8667797416
 20
4.7083028323
 30
0.0
 10
4.8771094389
 20
4.7206993383
 30
0.0
 10
4.8846885249
 20
4.7283318875
 30
0.0
 10
4.8886234961
 20
4.7319850811
 30
0.0
  0
SPLINE
  5
383
100
AcDbEntity
  8
0
100
AcDbSpline
 62
7
  6
CONTINUOUS
 70
0
 71
3
 72
23
 73
19
 74
0
 42
0.0000001
 43
0.0000001
 44
0.0000000001
 40
0.0
 40
0.0
 40
0.0
 40
0.0
 40
0.0509775749
 40
0.1058920733
 40
0.1645907952
 40
0.2268070994
 40
0.2921127666
 40
0.3599230812
 40
0.429502876
 40
0.5
 40
0.570497124
 40
0.6400769188
 40
0.7078872334
 40
0.7731929006
 40
0.8354092048
 40
0.8941079267
 40
0.9490224251
 40
1.0
 40
1.0
 40
1.0
 40
1.0
 10
4.9545589783
 20
4.7319850811
 30
0.0
 10
4.9553616277
 20
4.728183844
 30
0.0
 10
4.9568942579
 20
4.7202589437
 30
0.0
 10
4.9589040866
 20
4.7078757034
 30
0.0
 10
4.9606796613
 20
4.6945920156
 30
0.0
 10
4.9621895232
 20
4.6804789353
 30
0.0
 10
4.9634029101
 20
4.6656404969
 30
0.0
 10
4.9642922801
 20
4.6502170222
 30
0.0
 10
4.9648355073
 20
4.6343816234
 30
0.0
 10
4.9650182455
 20
4.6183332003
 30
0.0
 10
4.9648355073
 20
4.6022847772
 30
0.0
 10
4.9642922801
 20
4.5864493784
 30
0.0
 10
4.9634029101
 20
4.5710259037
 30
0.0
 10
4.9621895232
 20
4.5561874653
 30
0.0
 10
4.9606796613
 20
4.542074385
 30
0.0
 10
4.9589040866
 20
4.5287906972
 30
0.0
 10
4.9568942579
 20
4.5164074569
 30
0.0
 10
4.9553616277
 20
4.5084825566
 30
0.0
 10
4.9545589783
 20
4.5046813195
 30
0.0
  0
SPLINE
  5
384
100
AcDbEntity
  8
0
100
AcDbSpline
 62
7
  6
CONTINUOUS
 70
0
 71
3
 72
23
 73
19
 74
0
 42
0.0000001
 43
0.0000001
 44
0.0000000001
 40
0.0
 40
0.0
 40
0.0
 40
0.0
 40
0.062164467
 40
0.1244397434
 40
0.1868142563
 40
0.249295521
 40
0.3118728124
 40
0.37453191
 40
0.437250274
 40
0.5
 40
0.562749726
 40
0.62546809
 40
0.6881271876
 40
0.750704479
 40
0.8131857437
 40
0.8755602566
 40
0.937835533
 40
1.0
 40
1.0
 40
1.0
 40
1.0
 10
4.9545589783
 20
4.5046813195
 30
0.0
 10
4.9506785906
 20
4.5083367288
 30
0.0
 10
4.9432047389
 20
4.5159745929
 30
0.0
 10
4.9330250133
 20
4.5283719512
 30
0.0
 10
4.9240216966
 20
4.5416859349
 30
0.0
 10
4.9163578734
 20
4.555845973
 30
0.0
 10
4.9101923785
 20
4.5707492647
 30
0.0
 10
4.9056691619
 20
4.5862540017
 30
0.0
 10
4.9029044538
 20
4.6021835431
 30
0.0
 10
4.9019740775
 20
4.6183332003
 30
0.0
 10
4.9029044538
 20
4.6344828575
 30
0.0
 10
4.9056691619
 20
4.6504123989
 30
0.0
 10
4.9101923785
 20
4.6659171359
 30
0.0
 10
4.9163578734
 20
4.6808204276
 30
0.0
 10
4.9240216966
 20
4.6949804657
 30
0.0
 10
4.9330250133
 20
4.7082944494
 30
0.0
 10
4.9432047389
 20
4.7206918076
 30
0.0
 10
4.9506785906
 20
4.7283296718
 30
0.0
 10
4.9545589783
 20
4.7319850811
 30
0.0
  0
SPLINE
  5
385
100
AcDbEntity
  8
0
100
AcDbSpline
 62
7
  6
CONTINUOUS
 70
0
 71
3
 72
23
 73
19
 74
0
 42
0.0000001
 43
0.0000001
 44
0.0000000001
 40
0.0
 40
0.0
 40
0.0
 40
0.0
 40
0.0517303628
 40
0.1071150953
 40
0.1660306565
 40
0.2282428712
 40
0.2933597382
 40
0.3608372283
 40
0.4299851925
 40
0.5
 40
0.5700148075
 40
0.6391627717
 40
0.7066402618
 40
0.7717571288
 40
0.8339693435
 40
0.8928849047
 40
0.9482696372
 40
1.0
 40
1.0
 40
1.0
 40
1.0
 10
5.0249701079
 20
4.7319850811
 30
0.0
 10
5.0261600516
 20
4.7281977165
 30
0.0
 10
5.0284353984
 20
4.7202952269
 30
0.0
 10
5.031428674
 20
4.7079066689
 30
0.0
 10
5.0340728616
 20
4.6946176357
 30
0.0
 10
5.036321164
 20
4.6804993729
 30
0.0
 10
5.0381278991
 20
4.6656557935
 30
0.0
 10
5.039452121
 20
4.6502272142
 30
0.0
 10
5.0402609371
 20
4.6343867186
 30
0.0
 10
5.0405330145
 20
4.6183332003
 30
0.0
 10
5.0402609371
 20
4.602279682
 30
0.0
 10
5.039452121
 20
4.5864391864
 30
0.0
 10
5.0381278991
 20
4.5710106071
 30
0.0
 10
5.036321164
 20
4.5561670277
 30
0.0
 10
5.0340728616
 20
4.5420487649
 30
0.0
 10
5.031428674
 20
4.5287597317
 30
0.0
 10
5.0284353984
 20
4.5163711737
 30
0.0
 10
5.0261600516
 20
4.5084686841
 30
0.0
 10
5.0249701079
 20
4.5046813195
 30
0.0
  0
SPLINE
  5
386
100
AcDbEntity
  8
0
100
AcDbSpline
 62
7
  6
CONTINUOUS
 70
0
 71
3
 72
23
 73
19
 74
0
 42
0.0000001
 43
0.0000001
 44
0.0000000001
 40
0.0
 40
0.0
 40
0.0
 40
0.0
 40
0.0617440709
 40
0.1237295374
 40
0.1859487016
 40
0.248406583
 40
0.3110821882
 40
0.3739420891
 40
0.4369357293
 40
0.5
 40
0.5630642707
 40
0.6260579109
 40
0.6889178118
 40
0.751593417
 40
0.8140512984
 40
0.8762704626
 40
0.9382559291
 40
1.0
 40
1.0
 40
1.0
 40
1.0
 10
5.0249701079
 20
4.5046813195
 30
0.0
 10
5.0211801798
 20
4.5083404756
 30
0.0
 10
5.0138807931
 20
4.5159872571
 30
0.0
 10
5.0039494661
 20
4.5283859512
 30
0.0
 10
4.995166596
 20
4.5417005644
 30
0.0
 10
4.9876911837
 20
4.5558601951
 30
0.0
 10
4.9816779366
 20
4.5707617577
 30
0.0
 10
4.9772668862
 20
4.5862633643
 30
0.0
 10
4.9745709683
 20
4.6021885736
 30
0.0
 10
4.9736637848
 20
4.6183332003
 30
0.0
 10
4.9745709683
 20
4.634477827
 30
0.0
 10
4.9772668862
 20
4.6504030363
 30
0.0
 10
4.9816779366
 20
4.6659046429
 30
0.0
 10
4.9876911837
 20
4.6808062055
 30
0.0
 10
4.995166596
 20
4.6949658362
 30
0.0
 10
5.0039494661
 20
4.7082804494
 30
0.0
 10
5.0138807931
 20
4.7206791435
 30
0.0
 10
5.0211801798
 20
4.728325925
 30
0.0
 10
5.0249701079
 20
4.7319850811
 30
0.0
  0
SPLINE
  5
387
100
AcDbEntity
  8
0
100
AcDbSpline
 62
7
  6
CONTINUOUS
 70
0
 71
3
 72
23
 73
19
 74
0
 42
0.0000001
 43
0.0000001
 44
0.0000000001
 40
0.0
 40
0.0
 40
0.0
 40
0.0
 40
0.0526988892
 40
0.1086944171
 40
0.1678955563
 40
0.2301068794
 40
0.2949815381
 40
0.362027653
 40
0.430613744
 40
0.5
 40
0.569386256
 40
0.637972347
 40
0.7050184619
 40
0.7698931206
 40
0.8321044437
 40
0.8913055829
 40
0.9473011108
 40
1.0
 40
1.0
 40
1.0
 40
1.0
 10
5.0991787871
 20
4.7319850811
 30
0.0
 10
5.1007405719
 20
4.7282144297
 30
0.0
 10
5.1037315545
 20
4.7203402072
 30
0.0
 10
5.1076818477
 20
4.7079459784
 30
0.0
 10
5.1111712621
 20
4.6946508014
 30
0.0
 10
5.1141380487
 20
4.6805262246
 30
0.0
 10
5.116522057
 20
4.6656761158
 30
0.0
 10
5.1182693249
 20
4.6502408583
 30
0.0
 10
5.11933651
 20
4.6343935702
 30
0.0
 10
5.1196954963
 20
4.6183332003
 30
0.0
 10
5.11933651
 20
4.6022728304
 30
0.0
 10
5.1182693249
 20
4.5864255423
 30
0.0
 10
5.116522057
 20
4.5709902848
 30
0.0
 10
5.1141380487
 20
4.556140176
 30
0.0
 10
5.1111712621
 20
4.5420155991
 30
0.0
 10
5.1076818477
 20
4.5287204222
 30
0.0
 10
5.1037315545
 20
4.5163261934
 30
0.0
 10
5.1007405719
 20
4.5084519709
 30
0.0
 10
5.0991787871
 20
4.5046813195
 30
0.0
  0
SPLINE
  5
388
100
AcDbEntity
  8
0
100
AcDbSpline
 62
7
  6
CONTINUOUS
 70
0
 71
3
 72
23
 73
19
 74
0
 42
0.0000001
 43
0.0000001
 44
0.0000000001
 40
0.0
 40
0.0
 40
0.0
 40
0.0
 40
0.0611614807
 40
0.1227468766
 40
0.1847529282
 40
0.2471802404
 40
0.309992803
 40
0.3731301523
 40
0.4365029914
 40
0.5
 40
0.5634970086
 40
0.6268698477
 40
0.690007197
 40
0.7528197596
 40
0.8152470718
 40
0.8772531234
 40
0.9388385193
 40
1.0
 40
1.0
 40
1.0
 40
1.0
 10
5.0991787871
 20
4.5046813195
 30
0.0
 10
5.0955144395
 20
4.5083458315
 30
0.0
 10
5.0884573834
 20
4.5160052066
 30
0.0
 10
5.0788705566
 20
4.5284055877
 30
0.0
 10
5.0703933519
 20
4.5417208688
 30
0.0
 10
5.0631790858
 20
4.5558797386
 30
0.0
 10
5.0573767534
 20
4.5707787755
 30
0.0
 10
5.0531210033
 20
4.5862760302
 30
0.0
 10
5.0505202821
 20
4.6021953489
 30
0.0
 10
5.0496451847
 20
4.6183332003
 30
0.0
 10
5.0505202821
 20
4.6344710517
 30
0.0
 10
5.0531210033
 20
4.6503903704
 30
0.0
 10
5.0573767534
 20
4.6658876251
 30
0.0
 10
5.0631790858
 20
4.680786662
 30
0.0
 10
5.0703933519
 20
4.6949455318
 30
0.0
 10
5.0788705566
 20
4.7082608129
 30
0.0
 10
5.0884573834
 20
4.720661194
 30
0.0
 10
5.0955144395
 20
4.7283205691
 30
0.0
 10
5.0991787871
 20
4.7319850811
 30
0.0
  0
SPLINE
  5
389
100
AcDbEntity
  8
0
100
AcDbSpline
 62
7
  6
CONTINUOUS
 70
0
 71
3
 72
23
 73
19
 74
0
 42
0.0000001
 43
0.0000001
 44
0.0000000001
 40
0.0
 40
0.0
 40
0.0
 40
0.0
 40
0.0538159714
 40
0.1105238713
 40
0.1700635623
 40
0.2322800843
 40
0.296876524
 40
0.3634207638
 40
0.431349996
 40
0.5
 40
0.568650004
 40
0.6365792362
 40
0.703123476
 40
0.7677199157
 40
0.8299364377
 40
0.8894761287
 40
0.9461840286
 40
1.0
 40
1.0
 40
1.0
 40
1.0
 10
5.1764703457
 20
4.7319850811
 30
0.0
 10
5.1783850822
 20
4.7282322651
 30
0.0
 10
5.1820573872
 20
4.7203897838
 30
0.0
 10
5.1869287806
 20
4.7079905443
 30
0.0
 10
5.1912318453
 20
4.6946892997
 30
0.0
 10
5.1948903308
 20
4.6805579693
 30
0.0
 10
5.1978301258
 20
4.6657004773
 30
0.0
 10
5.1999847061
 20
4.6502573728
 30
0.0
 10
5.2013006559
 20
4.6344019106
 30
0.0
 10
5.2017433212
 20
4.6183332003
 30
0.0
 10
5.2013006559
 20
4.60226449
 30
0.0
 10
5.1999847061
 20
4.5864090278
 30
0.0
 10
5.1978301258
 20
4.5709659233
 30
0.0
 10
5.1948903308
 20
4.5561084313
 30
0.0
 10
5.1912318453
 20
4.5419771009
 30
0.0
 10
5.1869287806
 20
4.5286758563
 30
0.0
 10
5.1820573872
 20
4.5162766168
 30
0.0
 10
5.1783850822
 20
4.5084341355
 30
0.0
 10
5.1764703457
 20
4.5046813195
 30
0.0
  0
SPLINE
  5
38A
100
AcDbEntity
  8
0
100
AcDbSpline
 62
7
  6
CONTINUOUS
 70
0
 71
3
 72
23
 73
19
 74
0
 42
0.0000001
 43
0.0000001
 44
0.0000000001
 40
0.0
 40
0.0
 40
0.0
 40
0.0
 40
0.0604239023
 40
0.1215054213
 40
0.1832452989
 40
0.2456369398
 40
0.3086240319
 40
0.3721112284
 40
0.4359603535
 40
0.5
 40
0.5640396465
 40
0.6278887716
 40
0.6913759681
 40
0.7543630602
 40
0.8167547011
 40
0.8784945787
 40
0.9395760977
 40
1.0
 40
1.0
 40
1.0
 40
1.0
 10
5.1764703457
 20
4.5046813195
 30
0.0
 10
5.1729656708
 20
4.5083528975
 30
0.0
 10
5.1662169433
 20
4.5160286144
 30
0.0
 10
5.1570674731
 20
4.5284308385
 30
0.0
 10
5.1489781975
 20
4.5417466163
 30
0.0
 10
5.142095192
 20
4.5559042003
 30
0.0
 10
5.1365602283
 20
4.5707998354
 30
0.0
 10
5.1325012098
 20
4.5862915665
 30
0.0
 10
5.1300210101
 20
4.602203613
 30
0.0
 10
5.1291865208
 20
4.6183332003
 30
0.0
 10
5.1300210101
 20
4.6344627876
 30
0.0
 10
5.1325012098
 20
4.6503748341
 30
0.0
 10
5.1365602283
 20
4.6658665652
 30
0.0
 10
5.142095192
 20
4.6807622003
 30
0.0
 10
5.1489781975
 20
4.6949197843
 30
0.0
 10
5.1570674731
 20
4.7082355621
 30
0.0
 10
5.1662169433
 20
4.7206377862
 30
0.0
 10
5.1729656708
 20
4.7283135031
 30
0.0
 10
5.1764703457
 20
4.7319850811
 30
0.0
  0
SPLINE
  5
38B
100
AcDbEntity
  8
0
100
AcDbSpline
 62
7
  6
CONTINUOUS
 70
0
 71
3
 72
23
 73
19
 74
0
 42
0.0000001
 43
0.0000001
 44
0.0000000001
 40
0.0
 40
0.0
 40
0.0
 40
0.0
 40
0.0550143286
 40
0.1124955444
 40
0.1724092747
 40
0.2346389549
 40
0.2989385195
 40
0.3649393387
 40
0.432153407
 40
0.5
 40
0.567846593
 40
0.6350606613
 40
0.7010614805
 40
0.7653610451
 40
0.8275907253
 40
0.8875044556
 40
0.9449856714
 40
1.0
 40
1.0
 40
1.0
 40
1.0
 10
5.2561004239
 20
4.7319850811
 30
0.0
 10
5.2583464815
 20
4.7282498563
 30
0.0
 10
5.2626596318
 20
4.7204403306
 30
0.0
 10
5.2684067286
 20
4.7080373923
 30
0.0
 10
5.2734836742
 20
4.6947308377
 30
0.0
 10
5.2778002591
 20
4.6805929383
 30
0.0
 10
5.2812689741
 20
4.6657277454
 30
0.0
 10
5.2838112445
 20
4.6502760664
 30
0.0
 10
5.2853640015
 20
4.634411415
 30
0.0
 10
5.2858863277
 20
4.6183332003
 30
0.0
 10
5.2853640015
 20
4.6022549856
 30
0.0
 10
5.2838112445
 20
4.5863903342
 30
0.0
 10
5.2812689741
 20
4.5709386551
 30
0.0
 10
5.2778002591
 20
4.5560734623
 30
0.0
 10
5.2734836742
 20
4.5419355629
 30
0.0
 10
5.2684067286
 20
4.5286290083
 30
0.0
 10
5.2626596318
 20
4.51622607
 30
0.0
 10
5.2583464815
 20
4.5084165443
 30
0.0
 10
5.2561004239
 20
4.5046813195
 30
0.0
  0
SPLINE
  5
38C
100
AcDbEntity
  8
0
100
AcDbSpline
 62
7
  6
CONTINUOUS
 70
0
 71
3
 72
23
 73
19
 74
0
 42
0.0000001
 43
0.0000001
 44
0.0000000001
 40
0.0
 40
0.0
 40
0.0
 40
0.0
 40
0.0595423993
 40
0.1200256427
 40
0.1814527612
 40
0.2438061585
 40
0.3070034109
 40
0.3709065924
 40
0.4353194022
 40
0.5
 40
0.5646805978
 40
0.6290934076
 40
0.6929965891
 40
0.7561938415
 40
0.8185472388
 40
0.8799743573
 40
0.9404576007
 40
1.0
 40
1.0
 40
1.0
 40
1.0
 10
5.2561004239
 20
4.5046813195
 30
0.0
 10
5.2527882401
 20
4.5083617861
 30
0.0
 10
5.2464115075
 20
4.5160576242
 30
0.0
 10
5.2377880914
 20
4.528461585
 30
0.0
 10
5.2301652166
 20
4.5417774306
 30
0.0
 10
5.2236802315
 20
4.5559330146
 30
0.0
 10
5.2184662766
 20
4.5708243067
 30
0.0
 10
5.2146432756
 20
4.5863094311
 30
0.0
 10
5.2123075719
 20
4.6022130528
 30
0.0
 10
5.2115217505
 20
4.6183332003
 30
0.0
 10
5.2123075719
 20
4.6344533478
 30
0.0
 10
5.2146432756
 20
4.6503569695
 30
0.0
 10
5.2184662766
 20
4.6658420939
 30
0.0
 10
5.2236802315
 20
4.680733386
 30
0.0
 10
5.2301652166
 20
4.69488897
 30
0.0
 10
5.2377880914
 20
4.7082048156
 30
0.0
 10
5.2464115075
 20
4.7206087764
 30
0.0
 10
5.2527882401
 20
4.7283046145
 30
0.0
 10
5.2561004239
 20
4.7319850811
 30
0.0
  0
SPLINE
  5
38D
100
AcDbEntity
  8
0
100
AcDbSpline
 62
7
  6
CONTINUOUS
 70
0
 71
3
 72
23
 73
19
 74
0
 42
0.0000001
 43
0.0000001
 44
0.0000000001
 40
0.0
 40
0.0
 40
0.0
 40
0.0
 40
0.0562327697
 40
0.1145096225
 40
0.1748151024
 40
0.2370663931
 40
0.3010660571
 40
0.3665091646
 40
0.4329848865
 40
0.5
 40
0.5670151135
 40
0.6334908354
 40
0.6989339429
 40
0.7629336069
 40
0.8251848976
 40
0.8854903775
 40
0.9437672303
 40
1.0
 40
1.0
 40
1.0
 40
1.0
 10
5.3373021404
 20
4.7319850811
 30
0.0
 10
5.3398555868
 20
4.7282662795
 30
0.0
 10
5.3447638634
 20
4.7204890493
 30
0.0
 10
5.3513321331
 20
4.7080839657
 30
0.0
 10
5.3571352201
 20
4.6947732635
 30
0.0
 10
5.3620696404
 20
4.6806294525
 30
0.0
 10
5.366035139
 20
4.6657567157
 30
0.0
 10
5.3689416688
 20
4.6502961739
 30
0.0
 10
5.3707169732
 20
4.6344217144
 30
0.0
 10
5.3713141723
 20
4.6183332003
 30
0.0
 10
5.3707169732
 20
4.6022446862
 30
0.0
 10
5.3689416688
 20
4.5863702267
 30
0.0
 10
5.366035139
 20
4.5709096849
 30
0.0
 10
5.3620696404
 20
4.5560369481
 30
0.0
 10
5.3571352201
 20
4.5418931371
 30
0.0
 10
5.3513321331
 20
4.5285824349
 30
0.0
 10
5.3447638634
 20
4.5161773513
 30
0.0
 10
5.3398555868
 20
4.5084001211
 30
0.0
 10
5.3373021404
 20
4.5046813195
 30
0.0
  0
SPLINE
  5
38E
100
AcDbEntity
  8
0
100
AcDbSpline
 62
7
  6
CONTINUOUS
 70
0
 71
3
 72
25
 73
21
 74
0
 42
0.0000001
 43
0.0000001
 44
0.0000000001
 40
0.0
 40
0.0
 40
0.0
 40
0.0
 40
0.0585314295
 40
0.1183332726
 40
0.1794076449
 40
0.2417211048
 40
0.2733172893
 40
0.3051744809
 40
0.3695489472
 40
0.4345976683
 40
0.5
 40
0.5654023317
 40
0.6304510528
 40
0.6948255191
 40
0.7266827107
 40
0.7582788952
 40
0.8205923551
 40
0.8816667274
 40
0.9414685705
 40
1.0
 40
1.0
 40
1.0
 40
1.0
 10
5.3373021404
 20
4.5046813195
 30
0.0
 10
5.334213783
 20
4.5083725998
 30
0.0
 10
5.3282699641
 20
4.516092248
 30
0.0
 10
5.3202561937
 20
4.5284976242
 30
0.0
 10
5.3131737135
 20
4.5418123993
 30
0.0
 10
5.3081757303
 20
4.5535543229
 30
0.0
 10
5.304757536
 20
4.5633175468
 30
0.0
 10
5.3017256295
 20
4.573384743
 30
0.0
 10
5.2987562664
 20
4.5863293586
 30
0.0
 10
5.2965875934
 20
4.6022232145
 30
0.0
 10
5.2958579074
 20
4.6183332003
 30
0.0
 10
5.2965875934
 20
4.6344431861
 30
0.0
 10
5.2987562664
 20
4.650337042
 30
0.0
 10
5.3017256295
 20
4.6632816576
 30
0.0
 10
5.304757536
 20
4.6733488538
 30
0.0
 10
5.3081757303
 20
4.6831120777
 30
0.0
 10
5.3131737135
 20
4.6948540013
 30
0.0
 10
5.3202561937
 20
4.7081687764
 30
0.0
 10
5.3282699641
 20
4.7205741526
 30
0.0
 10
5.334213783
 20
4.7282938008
 30
0.0
 10
5.3373021404
 20
4.7319850811
 30
0.0
  0
SPLINE
  5
38F
100
AcDbEntity
  8
0
100
AcDbSpline
 62
7
  6
CONTINUOUS
 70
0
 71
3
 72
46
 73
42
 74
0
 42
0.0000001
 43
0.0000001
 44
0.0000000001
 40
0.0
 40
0.0
 40
0.0
 40
0.0
 40
0.0737302375
 40
0.1529592368
 40
0.2362026642
 40
0.3219015978
 40
0.4084515001
 40
0.4942322703
 40
0.5776384394
 40
0.657109102
 40
0.694899941
 40
0.7311570299
 40
0.7657096303
 40
0.7983963405
 40
0.8290640261
 40
0.8575683178
 40
0.8837768657
 40
0.9075649045
 40
0.928823275
 40
0.9384709755
 40
0.947449514
 40
0.9557488876
 40
0.9633590949
 40
0.9702702848
 40
0.9764746078
 40
0.9819656484
 40
0.986737029
 40
0.9907823947
 40
0.992531087
 40
0.9940965945
 40
0.9954785914
 40
0.9966767589
 40
0.9976907901
 40
0.9985203999
 40
0.9991653515
 40
0.9994185423
 40
0.9996255513
 40
0.9997864427
 40
0.9999014383
 40
0.9999712436
 40
1.0
 40
1.0
 40
1.0
 40
1.0
 10
7.7850336936
 20
2.9260337171
 30
0.0
 10
7.7825225954
 20
2.9260191819
 30
0.0
 10
7.7773131345
 20
2.925986953
 30
0.0
 10
7.7692686165
 20
2.9259319963
 30
0.0
 10
7.7608165067
 20
2.9258694262
 30
0.0
 10
7.7521151004
 20
2.9258003916
 30
0.0
 10
7.7433273155
 20
2.9257261816
 30
0.0
 10
7.7346176546
 20
2.92564818
 30
0.0
 10
7.7261491337
 20
2.9255678451
 30
0.0
 10
7.7193150417
 20
2.9254991116
 30
0.0
 10
7.7140867217
 20
2.9254439545
 30
0.0
 10
7.7103881717
 20
2.9254036405
 30
0.0
 10
7.7068634652
 20
2.9253638728
 30
0.0
 10
7.7035291294
 20
2.9253248395
 30
0.0
 10
7.7004007936
 20
2.9252867268
 30
0.0
 10
7.6974930975
 20
2.9252497142
 30
0.0
 10
7.6948197149
 20
2.925213985
 30
0.0
 10
7.6923931208
 20
2.9251797059
 30
0.0
 10
7.6905305329
 20
2.9251516656
 30
0.0
 10
7.6891722967
 20
2.9251299639
 30
0.0
 10
7.6882553784
 20
2.9251146806
 30
0.0
 10
7.6874078558
 20
2.9250998775
 30
0.0
 10
7.6866307464
 20
2.9250855737
 30
0.0
 10
7.6859249942
 20
2.9250717876
 30
0.0
 10
7.6852914215
 20
2.9250585378
 30
0.0
 10
7.6847307323
 20
2.9250458466
 30
0.0
 10
7.6842435809
 20
2.9250337326
 30
0.0
 10
7.6838838765
 20
2.9250237184
 30
0.0
 10
7.6836333427
 20
2.9250158933
 30
0.0
 10
7.6834734893
 20
2.9250104675
 30
0.0
 10
7.6833323915
 20
2.9250051998
 30
0.0
 10
7.683210086
 20
2.925000095
 30
0.0
 10
7.6831065993
 20
2.9249951617
 30
0.0
 10
7.6830219845
 20
2.9249904137
 30
0.0
 10
7.6829632512
 20
2.9249863655
 30
0.0
 10
7.6829257883
 20
2.9249831138
 30
0.0
 10
7.6829046734
 20
2.9249808729
 30
0.0
 10
7.6828885544
 20
2.9249788552
 30
0.0
 10
7.6828765157
 20
2.9249765689
 30
0.0
 10
7.6828702613
 20
2.9249751561
 30
0.0
 10
7.6828663194
 20
2.9249730298
 30
0.0
 10
7.6828664592
 20
2.9249720604
 30
0.0
  0
LINE
  5
390
100
AcDbEntity
  8
0
100
AcDbLine
 62
7
  6
CONTINUOUS
 10
7.062156818
 20
2.9182843757
 11
7.0547785226
 21
2.9182177075
  0
ENDSEC
  0
SECTION
  2
OBJECTS
  0
DICTIONARY
  5
C
100
AcDbDictionary
280
0
281
1
  3
ACAD_GROUP
350
D
  3
ACAD_MLINESTYLE
350
17
  3
ACAD_LAYOUT
350
1A
  3
ACAD_PLOTSETTINGS
350
19
  3
ACAD_PLOTSTYLENAME
350
E
  0
DICTIONARY
  5
D
102
{ACAD_REACTORS
330
C
102
}
100
AcDbDictionary
280
0
281
1
  0
ACDBDICTIONARYWDFLT
  5
E
102
{ACAD_REACTORS
330
C
102
}
100
AcDbDictionary
281
1
  3
Normal
350
F
100
AcDbDictionaryWithDefault
340
F
  0
DICTIONARY
  5
17
102
{ACAD_REACTORS
330
C
102
}
100
AcDbDictionary
280
0
281
1
  3
Standard
350
18
  0
DICTIONARY
  5
19
102
{ACAD_REACTORS
330
C
102
}
100
AcDbDictionary
281
1
  0
DICTIONARY
  5
1A
102
{ACAD_REACTORS
330
C
102
}
100
AcDbDictionary
281
1
  3
Model
350
391
  3
Layout1
350
392
  0
ACDBPLACEHOLDER
  5
F
102
{ACAD_REACTORS
330
E
102
}
  0
MLINESTYLE
  5
18
102
{ACAD_REACTORS
330
17
102
}
100
AcDbMlineStyle
  2
STANDARD
 70
0
  3

 62
256
 51
90.0
 52
90.0
 71
2
 49
0.5
 62
256
  6
BYLAYER
 49
-0.5
 62
256
  6
BYLAYER
  0
LAYOUT
  5
391
102
{ACAD_REACTORS
330
1A
102
}
100
AcDbPlotSettings
  1

  2
none_device
  4
ANSI_A_(11.00_x_8.50_Inches)
  6

 40
0.0
 41
0.0
 42
0.0
 43
0.0
 44
279.4
 45
215.9
 46
0.0
 47
0.0
 48
0.0
 49
0.0
140
0.0
141
0.0
142
1.0
143
1.0
 70
1024
 72
0
 73
0
 74
0
  7

 75
0
147
1.0
148
0.0
149
0.0
100
AcDbLayout
  1
Model
 70
0
 71
0
 10
0.0
 20
0.0
 11
11.0
 21
8.5
 12
0.0
 22
0.0
 32
0.0
 14
0.0
 24
0.0
 34
0.0
 15
0.0
 25
0.0
 35
0.0
146
0.0
 13
0.0
 23
0.0
 33
0.0
 16
1.0
 26
0.0
 36
0.0
 17
0.0
 27
1.0
 37
0.0
 76
0
330
202
345
0
346
0
  0
LAYOUT
  5
392
102
{ACAD_REACTORS
330
1A
102
}
100
AcDbPlotSettings
  1

  2
none_device
  4
ANSI_A_(11.00_x_8.50_Inches)
  6

 40
0.0
 41
0.0
 42
0.0
 43
0.0
 44
279.4
 45
215.9
 46
0.0
 47
0.0
 48
0.0
 49
0.0
140
0.0
141
0.0
142
1.0
143
1.0
 70
0
 72
0
 73
0
 74
0
  7

 75
0
147
1.0
148
0.0
149
0.0
100
AcDbLayout
  1
Layout1
 70
0
 71
1
 10
0.0
 20
0.0
 11
11.0
 21
8.5
 12
0.0
 22
0.0
 32
0.0
 14
0.0
 24
0.0
 34
0.0
 15
0.0
 25
0.0
 35
0.0
146
0.0
 13
0.0
 23
0.0
 33
0.0
 16
1.0
 26
0.0
 36
0.0
 17
0.0
 27
1.0
 37
0.0
 76
0
330
203
345
0
346
0
  0
ENDSEC
  0
EOF
