999
DXF file: 2152_top.dxf
999
Pro/ENGINEER 2018400 by Parametric Technology Corporation
  0
SECTION
  2
HEADER
  9
$ACADVER
  1
AC1027
  9
$DWGCODEPAGE
  3
ANSI_1252
  9
$EXTMAX
 10
11.0
 20
8.5
 30
0.0
  9
$EXTMIN
 10
0.0
 20
0.0
 30
0.0
  9
$LIMMIN
 10
0.0
 20
0.0
  9
$LIMMAX
 10
11.0
 20
8.5
  9
$VIEWCTR
 10
5.5
 20
4.25
  9
$VIEWSIZE
 40
8.5
  9
$CLAYER
  8
0
  9
$LTSCALE
 40
0.605
  9
$CELTYPE
  6
BYLAYER
  9
$DIMSCALE
 40
1.0
  9
$DIMASZ
 40
0.1
  9
$DIMEXO
 40
0.0625
  9
$DIMDLI
 40
0.418
  9
$DIMEXE
 40
0.125
  9
$DIMCEN
 40
0.099
  9
$DIMLFAC
 40
1.0
  9
$DIMBLK
  1
_FILLED
  9
$DIMALT
 70
1
  9
$DIMALTD
 70
1
  9
$DIMALTTD
 70
2
  9
$DIMALTF
 40
25.4
  9
$DIMTXT
 40
0.08
  9
$DIMTOL
 70
1
  9
$DIMLIM
 70
0
  9
$DIMTFAC
 40
1.0
  9
$DIMTP
 40
0.01
  9
$DIMTM
 40
0.01
  9
$DIMGAP
 40
0.09
  9
$DIMDSEP
 70
46
  9
$AUNITS
 70
0
  9
$PDMODE
 70
3
  9
$PDSIZE
 40
0.3125
  9
$HANDSEED
  5
31F
  9
$TILEMODE
 70
1
  9
$MEASUREMENT
 70
0
  9
$INSUNITS
 70
1
  0
ENDSEC
  0
SECTION
  2
CLASSES
  0
CLASS
  1
ACDBDICTIONARYWDFLT
  2
AcDbDictionaryWithDefault
  3
AutoCAD 2000
 90
0
 91
1
280
0
281
0
  0
CLASS
  1
ACDBPLACEHOLDER
  2
AcDbPlaceHolder
  3
AutoCAD 2000
 90
0
 91
1
280
0
281
0
  0
CLASS
  1
LAYOUT
  2
AcDbLayout
  3
AutoCAD 2000
 90
0
 91
0
280
0
281
0
  0
ENDSEC
  0
SECTION
  2
TABLES
  0
TABLE
  2
VPORT
  5
8
100
AcDbSymbolTable
 70
2
  0
VPORT
  5
1F4
100
AcDbSymbolTableRecord
100
AcDbViewportTableRecord
  2
*ACTIVE
 70
0
 10
0.0
 20
0.0
 11
1.0
 21
1.0
 12
5.5
 22
4.25
 13
0.0
 23
0.0
 14
1.0
 24
1.0
 15
0.0
 25
0.0
 16
0.0
 26
0.0
 36
1.0
 17
0.0
 27
0.0
 37
0.0
 40
8.5
 41
1.2941176471
 42
50.0
 43
0.0
 44
0.0
 50
0.0
 51
0.0
 71
0
 72
100
 73
1
 74
1
 75
0
 76
0
 77
0
 78
0
  0
ENDTAB
  0
TABLE
  2
LTYPE
  5
5
100
AcDbSymbolTable
 70
6
  0
LTYPE
  5
14
100
AcDbSymbolTableRecord
100
AcDbLinetypeTableRecord
  2
BYBLOCK
 70
0
  3

 72
65
 73
0
 40
0.0
  0
LTYPE
  5
15
100
AcDbSymbolTableRecord
100
AcDbLinetypeTableRecord
  2
BYLAYER
 70
0
  3

 72
65
 73
0
 40
0.0
  0
LTYPE
  5
16
100
AcDbSymbolTableRecord
100
AcDbLinetypeTableRecord
  2
CONTINUOUS
 70
64
  3
Solid line
 72
65
 73
0
 40
0.0
  0
LTYPE
  5
1F5
100
AcDbSymbolTableRecord
100
AcDbLinetypeTableRecord
  2
CENTER
 70
64
  3
____ _ ____ _ ____ _ ____ _ ____ _ ____ _ ____
 72
65
 73
4
 40
0.6
 49
0.375
 74
0
 49
-0.075
 74
0
 49
0.075
 74
0
 49
-0.075
 74
0
  0
LTYPE
  5
1F6
100
AcDbSymbolTableRecord
100
AcDbLinetypeTableRecord
  2
HIDDEN
 70
64
  3
- - - - - - - - - - - - - - - - - - - -
 72
65
 73
2
 40
0.2
 49
0.1
 74
0
 49
-0.1
 74
0
  0
LTYPE
  5
1F7
100
AcDbSymbolTableRecord
100
AcDbLinetypeTableRecord
  2
PHANTOM
 70
64
  3
_____ _ _ _____ _ _ _____ _ _ _____
 72
65
 73
6
 40
0.8
 49
0.45
 74
0
 49
-0.05
 74
0
 49
0.1
 74
0
 49
-0.05
 74
0
 49
0.1
 74
0
 49
-0.05
 74
0
  0
LTYPE
  5
1F8
100
AcDbSymbolTableRecord
100
AcDbLinetypeTableRecord
  2
DOT
 70
64
  3
. . . . . . . . . . . . . . . . . . . .
 72
65
 73
2
 40
0.2
 49
0.1
 74
0
 49
-0.1
 74
0
  0
LTYPE
  5
1F9
100
AcDbSymbolTableRecord
100
AcDbLinetypeTableRecord
  2
DASHED
 70
64
  3
- - - - - - - - - - - - - - - - - - - -
 72
65
 73
2
 40
0.2
 49
0.1
 74
0
 49
-0.1
 74
0
  0
ENDTAB
  0
TABLE
  2
LAYER
  5
2
100
AcDbSymbolTable
 70
36
  0
LAYER
  5
10
100
AcDbSymbolTableRecord
100
AcDbLayerTableRecord
  2
0
 70
0
 62
7
  6
CONTINUOUS
370
-3
390
F
  0
LAYER
  5
1FA
100
AcDbSymbolTableRecord
100
AcDbLayerTableRecord
  2
DEFAULT_1
 70
0
 62
7
  6
CENTER
370
-3
390
F
  0
LAYER
  5
1FB
100
AcDbSymbolTableRecord
100
AcDbLayerTableRecord
  2
DEFAULT_2
 70
0
 62
8
  6
HIDDEN
370
-3
390
F
  0
LAYER
  5
1FC
100
AcDbSymbolTableRecord
100
AcDbLayerTableRecord
  2
DEFAULT_3
 70
0
 62
7
  6
PHANTOM
370
-3
390
F
  0
LAYER
  5
1FD
100
AcDbSymbolTableRecord
100
AcDbLayerTableRecord
  2
DEFAULT_COORDINATE_SYSTEM
 70
0
 62
7
  6
CONTINUOUS
370
-3
390
F
  0
LAYER
  5
1FE
100
AcDbSymbolTableRecord
100
AcDbLayerTableRecord
  2
DEFAULT_DATUM_AXES
 70
0
 62
7
  6
CONTINUOUS
370
-3
390
F
  0
LAYER
  5
1FF
100
AcDbSymbolTableRecord
100
AcDbLayerTableRecord
  2
DEFAULT_DATUM_PLANES
 70
0
 62
7
  6
CONTINUOUS
370
-3
390
F
  0
ENDTAB
  0
TABLE
  2
STYLE
  5
3
100
AcDbSymbolTable
 70
1
  0
STYLE
  5
11
100
AcDbSymbolTableRecord
100
AcDbTextStyleTableRecord
  2
STANDARD
 70
0
 40
0.0
 41
0.8
 50
0.0
 71
0
 42
0.2
  3
txt
  4

  0
STYLE
  5
200
100
AcDbSymbolTableRecord
100
AcDbTextStyleTableRecord
  2
TEXTSTYLE_1
 70
0
 40
0.0
 41
0.8
 50
0.0
 71
0
 42
0.2
  3
gdt
  4

  0
ENDTAB
  0
TABLE
  2
VIEW
  5
6
100
AcDbSymbolTable
 70
0
  0
ENDTAB
  0
TABLE
  2
UCS
  5
7
100
AcDbSymbolTable
 70
0
  0
ENDTAB
  0
TABLE
  2
APPID
  5
9
100
AcDbSymbolTable
 70
1
  0
APPID
  5
201
100
AcDbSymbolTableRecord
100
AcDbRegAppTableRecord
  2
ACAD
 70
0
  0
ENDTAB
  0
TABLE
  2
BLOCK_RECORD
  5
1
100
AcDbSymbolTable
 70
0
  0
BLOCK_RECORD
  5
202
100
AcDbSymbolTableRecord
100
AcDbBlockTableRecord
  2
*Model_Space
  0
BLOCK_RECORD
  5
203
100
AcDbSymbolTableRecord
100
AcDbBlockTableRecord
  2
*Paper_Space
  0
BLOCK_RECORD
  5
204
100
AcDbSymbolTableRecord
100
AcDbBlockTableRecord
  2
_FILLED
  0
ENDTAB
  0
TABLE
  2
DIMSTYLE
  5
A
100
AcDbSymbolTable
 70
1
100
AcDbDimStyleTable
 71
0
  0
DIMSTYLE
105
205
100
AcDbSymbolTableRecord
100
AcDbDimStyleTableRecord
  2
STANDARD
 70
0
  3

  4

 40
1.0
 41
0.1
 42
0.0625
 43
0.38
 44
0.125
 45
0.0
 46
0.0
 47
0.01
 48
0.01
140
0.08
141
0.09
142
0.0
143
25.4
144
1.0
145
0.0
146
1.0
147
0.09
 71
1.0
 72
0.0
 73
1
 74
1
 75
0
 76
0
 77
0
 78
4
 79
1
170
1
171
1
172
0
173
0
174
0
175
0
176
0
177
0
178
0
270
2
179
2
271
2
272
2
273
2
274
2
275
0
280
0
281
0
282
0
283
1
284
4
285
0
286
0
287
3
288
0
340
11
278
46
341
204
342
204
343
204
344
204
  0
ENDTAB
  0
ENDSEC
  0
SECTION
  2
BLOCKS
  0
BLOCK
  5
20
100
AcDbEntity
  8
0
100
AcDbBlockBegin
  2
*Model_Space
 70
0
 10
0.0
 20
0.0
 30
0.0
  3
*Model_Space
  1

  0
ENDBLK
  5
21
100
AcDbEntity
  8
0
100
AcDbBlockEnd
  0
BLOCK
  5
1C
100
AcDbEntity
  8
0
100
AcDbBlockBegin
  2
*Paper_Space
 70
0
 10
0.0
 20
0.0
 30
0.0
  3
*Paper_Space
  1

  0
ENDBLK
  5
1D
100
AcDbEntity
  8
0
100
AcDbBlockEnd
  0
BLOCK
  5
206
100
AcDbEntity
  8
0
100
AcDbBlockBegin
  2
_FILLED
 70
64
 10
0.0
 20
0.0
  3
_FILLED
  1

  0
SOLID
  5
207
100
AcDbEntity
  8
0
  6
BYBLOCK
 62
0
100
AcDbTrace
 10
0.0
 20
0.0
 11
-1.0
 21
0.2
 12
-1.0
 22
-0.2
 13
-1.0
 23
-0.2
  0
ENDBLK
  5
208
100
AcDbEntity
  8
0
  6
BYBLOCK
 62
0
100
AcDbBlockEnd
  0
ENDSEC
  0
SECTION
  2
ENTITIES
  0
MTEXT
  5
209
100
AcDbEntity
  8
0
100
AcDbMText
 62
2
  6
CONTINUOUS
  7
STANDARD
 71
3
 72
1
 10
5.6441187888
 20
0.5368119177
 30
0.0
 11
1.0
 21
0.0
 31
0.0
 73
2
 44
0.9
  1
SCALE  .750
 40
0.08
 41
0.704
  0
LINE
  5
20A
100
AcDbEntity
  8
0
100
AcDbLine
 62
7
  6
CONTINUOUS
 10
0.0
 20
0.0
 11
0.0
 21
8.5
  0
LINE
  5
20B
100
AcDbEntity
  8
0
100
AcDbLine
 62
7
  6
CONTINUOUS
 10
0.0
 20
0.0
 11
11.0
 21
0.0
  0
LINE
  5
20C
100
AcDbEntity
  8
0
100
AcDbLine
 62
7
  6
CONTINUOUS
 10
0.0
 20
8.5
 11
11.0
 21
8.5
  0
LINE
  5
20D
100
AcDbEntity
  8
0
100
AcDbLine
 62
7
  6
CONTINUOUS
 10
11.0
 20
0.0
 11
11.0
 21
8.5
  0
LINE
  5
20E
100
AcDbEntity
  8
0
100
AcDbLine
 62
7
  6
CONTINUOUS
 10
4.7695801379
 20
4.4634537099
 11
4.7707360348
 21
4.4712461341
  0
LINE
  5
20F
100
AcDbEntity
  8
0
100
AcDbLine
 62
7
  6
CONTINUOUS
 10
4.7817648737
 20
4.5266918516
 11
4.7836789958
 21
4.5343334554
  0
LINE
  5
210
100
AcDbEntity
  8
0
100
AcDbLine
 62
7
  6
CONTINUOUS
 10
4.8543942463
 20
4.7050551721
 11
4.8584441875
 21
4.7118120908
  0
LINE
  5
211
100
AcDbEntity
  8
0
100
AcDbLine
 62
7
  6
CONTINUOUS
 10
4.8898516635
 20
4.7588167003
 11
4.8945443969
 21
4.7651441189
  0
LINE
  5
212
100
AcDbEntity
  8
0
100
AcDbLine
 62
7
  6
CONTINUOUS
 10
5.025209142
 20
4.895808864
 11
5.0315365605
 21
4.9005015974
  0
LINE
  5
213
100
AcDbEntity
  8
0
100
AcDbLine
 62
7
  6
CONTINUOUS
 10
5.0785411701
 20
4.9319090734
 11
5.0852980887
 21
4.9359590146
  0
LINE
  5
214
100
AcDbEntity
  8
0
100
AcDbLine
 62
7
  6
CONTINUOUS
 10
5.5825671511
 20
3.7354453002
 11
5.5749255472
 21
3.7335311781
  0
LINE
  5
215
100
AcDbEntity
  8
0
100
AcDbLine
 62
7
  6
CONTINUOUS
 10
5.5194798298
 20
3.7225023391
 11
5.5116874056
 21
3.7213464422
  0
LINE
  5
216
100
AcDbEntity
  8
0
100
AcDbLine
 62
7
  6
CONTINUOUS
 10
5.326899551
 20
3.7213464422
 11
5.3191071267
 21
3.7225023391
  0
LINE
  5
217
100
AcDbEntity
  8
0
100
AcDbLine
 62
7
  6
CONTINUOUS
 10
5.2636614093
 20
3.7335311781
 11
5.2560198055
 21
3.7354453002
  0
LINE
  5
218
100
AcDbEntity
  8
0
100
AcDbLine
 62
7
  6
CONTINUOUS
 10
5.0852980887
 20
3.8061605506
 11
5.0785411701
 21
3.8102104918
  0
LINE
  5
219
100
AcDbEntity
  8
0
100
AcDbLine
 62
7
  6
CONTINUOUS
 10
5.0315365605
 20
3.8416179678
 11
5.025209142
 21
3.8463107012
  0
LINE
  5
21A
100
AcDbEntity
  8
0
100
AcDbLine
 62
7
  6
CONTINUOUS
 10
4.8945443969
 20
3.9769754463
 11
4.8898516635
 21
3.9833028649
  0
LINE
  5
21B
100
AcDbEntity
  8
0
100
AcDbLine
 62
7
  6
CONTINUOUS
 10
4.8584441875
 20
4.0303074745
 11
4.8543942463
 21
4.0370643931
  0
LINE
  5
21C
100
AcDbEntity
  8
0
100
AcDbLine
 62
7
  6
CONTINUOUS
 10
4.7836789958
 20
4.2077861098
 11
4.7817648737
 21
4.2154277137
  0
LINE
  5
21D
100
AcDbEntity
  8
0
100
AcDbLine
 62
7
  6
CONTINUOUS
 10
4.7707360348
 20
4.2708734311
 11
4.7695801379
 21
4.2786658553
  0
LINE
  5
21E
100
AcDbEntity
  8
0
100
AcDbLine
 62
7
  6
CONTINUOUS
 10
4.9304078947
 20
4.8088439174
 11
4.9343260451
 21
4.7690622693
  0
LINE
  5
21F
100
AcDbEntity
  8
0
100
AcDbLine
 62
7
  6
CONTINUOUS
 10
5.0212909916
 20
3.8860923494
 11
5.025209142
 21
3.8463107012
  0
LINE
  5
220
100
AcDbEntity
  8
0
100
AcDbLine
 62
7
  6
CONTINUOUS
 10
4.9756723614
 20
4.854655034
 11
4.9756723614
 21
4.8146808995
  0
LINE
  5
221
100
AcDbEntity
  8
0
100
AcDbLine
 62
7
  6
CONTINUOUS
 10
4.9756723614
 20
3.9274386658
 11
4.9756723614
 21
3.8874645312
  0
LINE
  5
222
100
AcDbEntity
  8
0
100
AcDbLine
 62
7
  6
CONTINUOUS
 10
4.9842934783
 20
4.1818321533
 11
4.9842934783
 21
4.5602862069
  0
LINE
  5
223
100
AcDbEntity
  8
0
100
AcDbLine
 62
7
  6
CONTINUOUS
 10
5.025209142
 20
4.895808864
 11
5.0212909916
 21
4.8560272158
  0
LINE
  5
224
100
AcDbEntity
  8
0
100
AcDbLine
 62
7
  6
CONTINUOUS
 10
4.9343260451
 20
3.973057296
 11
4.9304078947
 21
3.9332756478
  0
LINE
  5
225
100
AcDbEntity
  8
0
100
AcDbLine
 62
7
  6
CONTINUOUS
 10
5.0785411701
 20
4.9319090734
 11
5.0707426033
 21
4.8927030306
  0
LINE
  5
226
100
AcDbEntity
  8
0
100
AcDbLine
 62
7
  6
CONTINUOUS
 10
4.8976502302
 20
4.0225089077
 11
4.8898516635
 21
3.9833028649
  0
LINE
  5
227
100
AcDbEntity
  8
0
100
AcDbLine
 62
7
  6
CONTINUOUS
 10
5.1351548292
 20
4.9626079976
 11
5.1235509505
 21
4.9243551358
  0
LINE
  5
228
100
AcDbEntity
  8
0
100
AcDbLine
 62
7
  6
CONTINUOUS
 10
4.865998125
 20
4.0753172548
 11
4.8543942463
 21
4.0370643931
  0
LINE
  5
229
100
AcDbEntity
  8
0
100
AcDbLine
 62
7
  6
CONTINUOUS
 10
5.1945048989
 20
4.9876099891
 11
5.1792074599
 21
4.9506787043
  0
LINE
  5
22A
100
AcDbEntity
  8
0
100
AcDbLine
 62
7
  6
CONTINUOUS
 10
4.8396745566
 20
4.1309737642
 11
4.8243771175
 21
4.0940424795
  0
LINE
  5
22B
100
AcDbEntity
  8
0
100
AcDbLine
 62
7
  6
CONTINUOUS
 10
5.2560198055
 20
5.006674265
 11
5.2371761289
 21
4.9714202257
  0
LINE
  5
22C
100
AcDbEntity
  8
0
100
AcDbLine
 62
7
  6
CONTINUOUS
 10
4.8189330351
 20
4.1889424332
 11
4.8000893585
 21
4.1536883939
  0
LINE
  5
22D
100
AcDbEntity
  8
0
100
AcDbLine
 62
7
  6
CONTINUOUS
 10
5.3191071267
 20
5.0196172261
 11
5.2968986875
 21
4.9863799479
  0
LINE
  5
22E
100
AcDbEntity
  8
0
100
AcDbLine
 62
7
  6
CONTINUOUS
 10
4.803973313
 20
4.2486649918
 11
4.7817648737
 21
4.2154277137
  0
LINE
  5
22F
100
AcDbEntity
  8
0
100
AcDbLine
 62
7
  6
CONTINUOUS
 10
5.3831592974
 20
5.0263142244
 11
5.3577999748
 21
4.9954138005
  0
LINE
  5
230
100
AcDbEntity
  8
0
100
AcDbLine
 62
7
  6
CONTINUOUS
 10
4.7949394604
 20
4.3095662792
 11
4.7695801379
 21
4.2786658553
  0
LINE
  5
231
100
AcDbEntity
  8
0
100
AcDbLine
 62
7
  6
CONTINUOUS
 10
5.4475594599
 20
5.0267007642
 11
5.4192934783
 21
4.9984347826
  0
LINE
  5
232
100
AcDbEntity
  8
0
100
AcDbLine
 62
7
  6
CONTINUOUS
 10
4.7919184783
 20
4.3710597826
 11
4.7636524966
 21
4.342793801
  0
LINE
  5
233
100
AcDbEntity
  8
0
100
AcDbLine
 62
7
  6
CONTINUOUS
 10
5.5116874056
 20
5.020773123
 11
5.4807869817
 21
4.9954138005
  0
LINE
  5
234
100
AcDbEntity
  8
0
100
AcDbLine
 62
7
  6
CONTINUOUS
 10
4.7949394604
 20
4.432553286
 11
4.7640390365
 21
4.4071939635
  0
LINE
  5
235
100
AcDbEntity
  8
0
100
AcDbLine
 62
7
  6
CONTINUOUS
 10
5.5749255472
 20
5.0085883872
 11
5.541688269
 21
4.9863799479
  0
LINE
  5
236
100
AcDbEntity
  8
0
100
AcDbLine
 62
7
  6
CONTINUOUS
 10
4.803973313
 20
4.4934545734
 11
4.7707360348
 21
4.4712461341
  0
LINE
  5
237
100
AcDbEntity
  8
0
100
AcDbLine
 62
7
  6
CONTINUOUS
 10
5.6366648669
 20
4.9902639023
 11
5.6014108277
 21
4.9714202257
  0
LINE
  5
238
100
AcDbEntity
  8
0
100
AcDbLine
 62
7
  6
CONTINUOUS
 10
4.8189330351
 20
4.553177132
 11
4.7836789958
 21
4.5343334554
  0
LINE
  5
239
100
AcDbEntity
  8
0
100
AcDbLine
 62
7
  6
CONTINUOUS
 10
5.6963107814
 20
4.9659761433
 11
5.6593794966
 21
4.9506787043
  0
LINE
  5
23A
100
AcDbEntity
  8
0
100
AcDbLine
 62
7
  6
CONTINUOUS
 10
4.8396745566
 20
4.611145801
 11
4.8027432718
 21
4.595848362
  0
LINE
  5
23B
100
AcDbEntity
  8
0
100
AcDbLine
 62
7
  6
CONTINUOUS
 10
5.7532888678
 20
4.9359590146
 11
5.715036006
 21
4.9243551358
  0
LINE
  5
23C
100
AcDbEntity
  8
0
100
AcDbLine
 62
7
  6
CONTINUOUS
 10
4.865998125
 20
4.6668023104
 11
4.8277452633
 21
4.6551984316
  0
LINE
  5
23D
100
AcDbEntity
  8
0
100
AcDbLine
 62
7
  6
CONTINUOUS
 10
5.0315365605
 20
3.8416179678
 11
5.0707426033
 21
3.8494165346
  0
LINE
  5
23E
100
AcDbEntity
  8
0
100
AcDbLine
 62
7
  6
CONTINUOUS
 10
5.9409367263
 20
4.0225089077
 11
5.9801427691
 21
4.0303074745
  0
LINE
  5
23F
100
AcDbEntity
  8
0
100
AcDbLine
 62
7
  6
CONTINUOUS
 10
4.9815093434
 20
3.8821741991
 11
5.0212909916
 21
3.8860923494
  0
LINE
  5
240
100
AcDbEntity
  8
0
100
AcDbLine
 62
7
  6
CONTINUOUS
 10
5.9042609114
 20
3.973057296
 11
5.9440425596
 21
3.9769754463
  0
LINE
  5
241
100
AcDbEntity
  8
0
100
AcDbLine
 62
7
  6
CONTINUOUS
 10
4.9356982268
 20
3.9274386658
 11
4.9756723614
 21
3.9274386658
  0
LINE
  5
242
100
AcDbEntity
  8
0
100
AcDbLine
 62
7
  6
CONTINUOUS
 10
5.8629145951
 20
3.9274386658
 11
5.9028887297
 21
3.9274386658
  0
LINE
  5
243
100
AcDbEntity
  8
0
100
AcDbLine
 62
7
  6
CONTINUOUS
 10
4.8945443969
 20
3.9769754463
 11
4.9343260451
 21
3.973057296
  0
LINE
  5
244
100
AcDbEntity
  8
0
100
AcDbLine
 62
7
  6
CONTINUOUS
 10
5.8172959649
 20
3.8860923494
 11
5.8570776131
 21
3.8821741991
  0
LINE
  5
245
100
AcDbEntity
  8
0
100
AcDbLine
 62
7
  6
CONTINUOUS
 10
4.8584441875
 20
4.0303074745
 11
4.8976502302
 21
4.0225089077
  0
LINE
  5
246
100
AcDbEntity
  8
0
100
AcDbLine
 62
7
  6
CONTINUOUS
 10
5.7678443532
 20
3.8494165346
 11
5.807050396
 21
3.8416179678
  0
LINE
  5
247
100
AcDbEntity
  8
0
100
AcDbLine
 62
7
  6
CONTINUOUS
 10
4.8277452633
 20
4.0869211336
 11
4.865998125
 21
4.0753172548
  0
LINE
  5
248
100
AcDbEntity
  8
0
100
AcDbLine
 62
7
  6
CONTINUOUS
 10
5.715036006
 20
3.8177644294
 11
5.7532888678
 21
3.8061605506
  0
LINE
  5
249
100
AcDbEntity
  8
0
100
AcDbLine
 62
7
  6
CONTINUOUS
 10
4.8027432718
 20
4.1462712032
 11
4.8396745566
 21
4.1309737642
  0
LINE
  5
24A
100
AcDbEntity
  8
0
100
AcDbLine
 62
7
  6
CONTINUOUS
 10
5.6593794966
 20
3.7914408609
 11
5.6963107814
 21
3.7761434219
  0
LINE
  5
24B
100
AcDbEntity
  8
0
100
AcDbLine
 62
7
  6
CONTINUOUS
 10
4.7836789958
 20
4.2077861098
 11
4.8189330351
 21
4.1889424332
  0
LINE
  5
24C
100
AcDbEntity
  8
0
100
AcDbLine
 62
7
  6
CONTINUOUS
 10
5.6014108277
 20
3.7706993395
 11
5.6366648669
 21
3.7518556629
  0
LINE
  5
24D
100
AcDbEntity
  8
0
100
AcDbLine
 62
7
  6
CONTINUOUS
 10
4.7707360348
 20
4.2708734311
 11
4.803973313
 21
4.2486649918
  0
LINE
  5
24E
100
AcDbEntity
  8
0
100
AcDbLine
 62
7
  6
CONTINUOUS
 10
5.541688269
 20
3.7557396173
 11
5.5749255472
 21
3.7335311781
  0
LINE
  5
24F
100
AcDbEntity
  8
0
100
AcDbLine
 62
7
  6
CONTINUOUS
 10
4.7640390365
 20
4.3349256017
 11
4.7949394604
 21
4.3095662792
  0
LINE
  5
250
100
AcDbEntity
  8
0
100
AcDbLine
 62
7
  6
CONTINUOUS
 10
5.4807869817
 20
3.7467057647
 11
5.5116874056
 21
3.7213464422
  0
LINE
  5
251
100
AcDbEntity
  8
0
100
AcDbLine
 62
7
  6
CONTINUOUS
 10
4.7636524966
 20
4.3993257642
 11
4.7919184783
 21
4.3710597826
  0
LINE
  5
252
100
AcDbEntity
  8
0
100
AcDbLine
 62
7
  6
CONTINUOUS
 10
5.4192934783
 20
3.7436847826
 11
5.4475594599
 21
3.715418801
  0
LINE
  5
253
100
AcDbEntity
  8
0
100
AcDbLine
 62
7
  6
CONTINUOUS
 10
4.7695801379
 20
4.4634537099
 11
4.7949394604
 21
4.432553286
  0
LINE
  5
254
100
AcDbEntity
  8
0
100
AcDbLine
 62
7
  6
CONTINUOUS
 10
5.3577999748
 20
3.7467057647
 11
5.3831592974
 21
3.7158053408
  0
LINE
  5
255
100
AcDbEntity
  8
0
100
AcDbLine
 62
7
  6
CONTINUOUS
 10
4.7817648737
 20
4.5266918516
 11
4.803973313
 21
4.4934545734
  0
LINE
  5
256
100
AcDbEntity
  8
0
100
AcDbLine
 62
7
  6
CONTINUOUS
 10
5.2968986875
 20
3.7557396173
 11
5.3191071267
 21
3.7225023391
  0
LINE
  5
257
100
AcDbEntity
  8
0
100
AcDbLine
 62
7
  6
CONTINUOUS
 10
4.8000893585
 20
4.5884311713
 11
4.8189330351
 21
4.553177132
  0
LINE
  5
258
100
AcDbEntity
  8
0
100
AcDbLine
 62
7
  6
CONTINUOUS
 10
5.2371761289
 20
3.7706993395
 11
5.2560198055
 21
3.7354453002
  0
LINE
  5
259
100
AcDbEntity
  8
0
100
AcDbLine
 62
7
  6
CONTINUOUS
 10
4.8243771175
 20
4.6480770857
 11
4.8396745566
 21
4.611145801
  0
LINE
  5
25A
100
AcDbEntity
  8
0
100
AcDbLine
 62
7
  6
CONTINUOUS
 10
5.1792074599
 20
3.7914408609
 11
5.1945048989
 21
3.7545095761
  0
LINE
  5
25B
100
AcDbEntity
  8
0
100
AcDbLine
 62
7
  6
CONTINUOUS
 10
4.8543942463
 20
4.7050551721
 11
4.865998125
 21
4.6668023104
  0
LINE
  5
25C
100
AcDbEntity
  8
0
100
AcDbLine
 62
7
  6
CONTINUOUS
 10
5.1235509505
 20
3.8177644294
 11
5.1351548292
 21
3.7795115676
  0
LINE
  5
25D
100
AcDbEntity
  8
0
100
AcDbLine
 62
7
  6
CONTINUOUS
 10
4.8898516635
 20
4.7588167003
 11
4.8976502302
 21
4.7196106575
  0
LINE
  5
25E
100
AcDbEntity
  8
0
100
AcDbLine
 62
7
  6
CONTINUOUS
 10
5.0707426033
 20
3.8494165346
 11
5.0785411701
 21
3.8102104918
  0
LINE
  5
25F
100
AcDbEntity
  8
0
100
AcDbLine
 62
7
  6
CONTINUOUS
 10
5.9081790618
 20
3.9332756478
 11
5.9042609114
 21
3.973057296
  0
LINE
  5
260
100
AcDbEntity
  8
0
100
AcDbLine
 62
7
  6
CONTINUOUS
 10
5.8172959649
 20
4.8560272158
 11
5.8133778146
 21
4.895808864
  0
LINE
  5
261
100
AcDbEntity
  8
0
100
AcDbLine
 62
7
  6
CONTINUOUS
 10
5.8542934783
 20
4.1818333583
 11
5.8542934783
 21
4.5602874119
  0
LINE
  5
262
100
AcDbEntity
  8
0
100
AcDbLine
 62
7
  6
CONTINUOUS
 10
5.8629145951
 20
3.8874645312
 11
5.8629145951
 21
3.9274386658
  0
LINE
  5
263
100
AcDbEntity
  8
0
100
AcDbLine
 62
7
  6
CONTINUOUS
 10
5.8629145951
 20
4.8146808995
 11
5.8629145951
 21
4.854655034
  0
LINE
  5
264
100
AcDbEntity
  8
0
100
AcDbLine
 62
7
  6
CONTINUOUS
 10
5.8133778146
 20
3.8463107012
 11
5.8172959649
 21
3.8860923494
  0
LINE
  5
265
100
AcDbEntity
  8
0
100
AcDbLine
 62
7
  6
CONTINUOUS
 10
5.9042609114
 20
4.7690622693
 11
5.9081790618
 21
4.8088439174
  0
LINE
  5
266
100
AcDbEntity
  8
0
100
AcDbLine
 62
7
  6
CONTINUOUS
 10
6.0690068187
 20
4.2786658553
 11
6.0678509217
 21
4.2708734311
  0
LINE
  5
267
100
AcDbEntity
  8
0
100
AcDbLine
 62
7
  6
CONTINUOUS
 10
5.7600457864
 20
3.8102104918
 11
5.7678443532
 21
3.8494165346
  0
LINE
  5
268
100
AcDbEntity
  8
0
100
AcDbLine
 62
7
  6
CONTINUOUS
 10
5.9409367263
 20
4.7196106575
 11
5.9487352931
 21
4.7588167003
  0
LINE
  5
269
100
AcDbEntity
  8
0
100
AcDbLine
 62
7
  6
CONTINUOUS
 10
6.0568220828
 20
4.2154277137
 11
6.0549079607
 21
4.2077861098
  0
LINE
  5
26A
100
AcDbEntity
  8
0
100
AcDbLine
 62
7
  6
CONTINUOUS
 10
5.7034321273
 20
3.7795115676
 11
5.715036006
 21
3.8177644294
  0
LINE
  5
26B
100
AcDbEntity
  8
0
100
AcDbLine
 62
7
  6
CONTINUOUS
 10
5.9725888315
 20
4.6668023104
 11
5.9841927102
 21
4.7050551721
  0
LINE
  5
26C
100
AcDbEntity
  8
0
100
AcDbLine
 62
7
  6
CONTINUOUS
 10
5.6440820576
 20
3.7545095761
 11
5.6593794966
 21
3.7914408609
  0
LINE
  5
26D
100
AcDbEntity
  8
0
100
AcDbLine
 62
7
  6
CONTINUOUS
 10
5.9989124
 20
4.611145801
 11
6.014209839
 21
4.6480770857
  0
LINE
  5
26E
100
AcDbEntity
  8
0
100
AcDbLine
 62
7
  6
CONTINUOUS
 10
5.5825671511
 20
3.7354453002
 11
5.6014108277
 21
3.7706993395
  0
LINE
  5
26F
100
AcDbEntity
  8
0
100
AcDbLine
 62
7
  6
CONTINUOUS
 10
6.0196539214
 20
4.553177132
 11
6.038497598
 21
4.5884311713
  0
LINE
  5
270
100
AcDbEntity
  8
0
100
AcDbLine
 62
7
  6
CONTINUOUS
 10
5.9841927102
 20
4.0370643931
 11
5.9801427691
 21
4.0303074745
  0
LINE
  5
271
100
AcDbEntity
  8
0
100
AcDbLine
 62
7
  6
CONTINUOUS
 10
5.5194798298
 20
3.7225023391
 11
5.541688269
 21
3.7557396173
  0
LINE
  5
272
100
AcDbEntity
  8
0
100
AcDbLine
 62
7
  6
CONTINUOUS
 10
6.0346136436
 20
4.4934545734
 11
6.0568220828
 21
4.5266918516
  0
LINE
  5
273
100
AcDbEntity
  8
0
100
AcDbLine
 62
7
  6
CONTINUOUS
 10
5.9487352931
 20
3.9833028649
 11
5.9440425596
 21
3.9769754463
  0
LINE
  5
274
100
AcDbEntity
  8
0
100
AcDbLine
 62
7
  6
CONTINUOUS
 10
5.4554276592
 20
3.7158053408
 11
5.4807869817
 21
3.7467057647
  0
LINE
  5
275
100
AcDbEntity
  8
0
100
AcDbLine
 62
7
  6
CONTINUOUS
 10
6.0436474962
 20
4.432553286
 11
6.0690068187
 21
4.4634537099
  0
LINE
  5
276
100
AcDbEntity
  8
0
100
AcDbLine
 62
7
  6
CONTINUOUS
 10
5.3910274966
 20
3.715418801
 11
5.4192934783
 21
3.7436847826
  0
LINE
  5
277
100
AcDbEntity
  8
0
100
AcDbLine
 62
7
  6
CONTINUOUS
 10
6.0466684783
 20
4.3710597826
 11
6.0749344599
 21
4.3993257642
  0
LINE
  5
278
100
AcDbEntity
  8
0
100
AcDbLine
 62
7
  6
CONTINUOUS
 10
5.326899551
 20
3.7213464422
 11
5.3577999748
 21
3.7467057647
  0
LINE
  5
279
100
AcDbEntity
  8
0
100
AcDbLine
 62
7
  6
CONTINUOUS
 10
6.0436474962
 20
4.3095662792
 11
6.07454792
 21
4.3349256017
  0
LINE
  5
27A
100
AcDbEntity
  8
0
100
AcDbLine
 62
7
  6
CONTINUOUS
 10
5.8133778146
 20
3.8463107012
 11
5.807050396
 21
3.8416179678
  0
LINE
  5
27B
100
AcDbEntity
  8
0
100
AcDbLine
 62
7
  6
CONTINUOUS
 10
5.2636614093
 20
3.7335311781
 11
5.2968986875
 21
3.7557396173
  0
LINE
  5
27C
100
AcDbEntity
  8
0
100
AcDbLine
 62
7
  6
CONTINUOUS
 10
6.0346136436
 20
4.2486649918
 11
6.0678509217
 21
4.2708734311
  0
LINE
  5
27D
100
AcDbEntity
  8
0
100
AcDbLine
 62
7
  6
CONTINUOUS
 10
5.7600457864
 20
3.8102104918
 11
5.7532888678
 21
3.8061605506
  0
LINE
  5
27E
100
AcDbEntity
  8
0
100
AcDbLine
 62
7
  6
CONTINUOUS
 10
5.2019220896
 20
3.7518556629
 11
5.2371761289
 21
3.7706993395
  0
LINE
  5
27F
100
AcDbEntity
  8
0
100
AcDbLine
 62
7
  6
CONTINUOUS
 10
6.0196539214
 20
4.1889424332
 11
6.0549079607
 21
4.2077861098
  0
LINE
  5
280
100
AcDbEntity
  8
0
100
AcDbLine
 62
7
  6
CONTINUOUS
 10
5.1422761751
 20
3.7761434219
 11
5.1792074599
 21
3.7914408609
  0
LINE
  5
281
100
AcDbEntity
  8
0
100
AcDbLine
 62
7
  6
CONTINUOUS
 10
5.9989124
 20
4.1309737642
 11
6.0358436847
 21
4.1462712032
  0
LINE
  5
282
100
AcDbEntity
  8
0
100
AcDbLine
 62
7
  6
CONTINUOUS
 10
5.0852980887
 20
3.8061605506
 11
5.1235509505
 21
3.8177644294
  0
LINE
  5
283
100
AcDbEntity
  8
0
100
AcDbLine
 62
7
  6
CONTINUOUS
 10
5.9725888315
 20
4.0753172548
 11
6.0108416932
 21
4.0869211336
  0
LINE
  5
284
100
AcDbEntity
  8
0
100
AcDbLine
 62
7
  6
CONTINUOUS
 10
5.2560198055
 20
5.006674265
 11
5.2636614093
 21
5.0085883872
  0
LINE
  5
285
100
AcDbEntity
  8
0
100
AcDbLine
 62
7
  6
CONTINUOUS
 10
5.807050396
 20
4.9005015974
 11
5.7678443532
 21
4.8927030306
  0
LINE
  5
286
100
AcDbEntity
  8
0
100
AcDbLine
 62
7
  6
CONTINUOUS
 10
4.8976502302
 20
4.7196106575
 11
4.8584441875
 21
4.7118120908
  0
LINE
  5
287
100
AcDbEntity
  8
0
100
AcDbLine
 62
7
  6
CONTINUOUS
 10
5.3191071267
 20
5.0196172261
 11
5.326899551
 21
5.020773123
  0
LINE
  5
288
100
AcDbEntity
  8
0
100
AcDbLine
 62
7
  6
CONTINUOUS
 10
5.8570776131
 20
4.8599453661
 11
5.8172959649
 21
4.8560272158
  0
LINE
  5
289
100
AcDbEntity
  8
0
100
AcDbLine
 62
7
  6
CONTINUOUS
 10
4.9343260451
 20
4.7690622693
 11
4.8945443969
 21
4.7651441189
  0
LINE
  5
28A
100
AcDbEntity
  8
0
100
AcDbLine
 62
7
  6
CONTINUOUS
 10
5.9028887297
 20
4.8146808995
 11
5.8629145951
 21
4.8146808995
  0
LINE
  5
28B
100
AcDbEntity
  8
0
100
AcDbLine
 62
7
  6
CONTINUOUS
 10
4.9756723614
 20
4.8146808995
 11
4.9356982268
 21
4.8146808995
  0
LINE
  5
28C
100
AcDbEntity
  8
0
100
AcDbLine
 62
7
  6
CONTINUOUS
 10
5.9440425596
 20
4.7651441189
 11
5.9042609114
 21
4.7690622693
  0
LINE
  5
28D
100
AcDbEntity
  8
0
100
AcDbLine
 62
7
  6
CONTINUOUS
 10
5.0212909916
 20
4.8560272158
 11
4.9815093434
 21
4.8599453661
  0
LINE
  5
28E
100
AcDbEntity
  8
0
100
AcDbLine
 62
7
  6
CONTINUOUS
 10
5.5116874056
 20
5.020773123
 11
5.5194798298
 21
5.0196172261
  0
LINE
  5
28F
100
AcDbEntity
  8
0
100
AcDbLine
 62
7
  6
CONTINUOUS
 10
5.9801427691
 20
4.7118120908
 11
5.9409367263
 21
4.7196106575
  0
LINE
  5
290
100
AcDbEntity
  8
0
100
AcDbLine
 62
7
  6
CONTINUOUS
 10
5.0707426033
 20
4.8927030306
 11
5.0315365605
 21
4.9005015974
  0
LINE
  5
291
100
AcDbEntity
  8
0
100
AcDbLine
 62
7
  6
CONTINUOUS
 10
5.5749255472
 20
5.0085883872
 11
5.5825671511
 21
5.006674265
  0
LINE
  5
292
100
AcDbEntity
  8
0
100
AcDbLine
 62
7
  6
CONTINUOUS
 10
6.0108416932
 20
4.6551984316
 11
5.9725888315
 21
4.6668023104
  0
LINE
  5
293
100
AcDbEntity
  8
0
100
AcDbLine
 62
7
  6
CONTINUOUS
 10
5.1235509505
 20
4.9243551358
 11
5.0852980887
 21
4.9359590146
  0
LINE
  5
294
100
AcDbEntity
  8
0
100
AcDbLine
 62
7
  6
CONTINUOUS
 10
6.0358436847
 20
4.595848362
 11
5.9989124
 21
4.611145801
  0
LINE
  5
295
100
AcDbEntity
  8
0
100
AcDbLine
 62
7
  6
CONTINUOUS
 10
5.1792074599
 20
4.9506787043
 11
5.1422761751
 21
4.9659761433
  0
LINE
  5
296
100
AcDbEntity
  8
0
100
AcDbLine
 62
7
  6
CONTINUOUS
 10
6.0549079607
 20
4.5343334554
 11
6.0196539214
 21
4.553177132
  0
LINE
  5
297
100
AcDbEntity
  8
0
100
AcDbLine
 62
7
  6
CONTINUOUS
 10
5.2371761289
 20
4.9714202257
 11
5.2019220896
 21
4.9902639023
  0
LINE
  5
298
100
AcDbEntity
  8
0
100
AcDbLine
 62
7
  6
CONTINUOUS
 10
5.7532888678
 20
4.9359590146
 11
5.7600457864
 21
4.9319090734
  0
LINE
  5
299
100
AcDbEntity
  8
0
100
AcDbLine
 62
7
  6
CONTINUOUS
 10
6.0678509217
 20
4.4712461341
 11
6.0346136436
 21
4.4934545734
  0
LINE
  5
29A
100
AcDbEntity
  8
0
100
AcDbLine
 62
7
  6
CONTINUOUS
 10
5.2968986875
 20
4.9863799479
 11
5.2636614093
 21
5.0085883872
  0
LINE
  5
29B
100
AcDbEntity
  8
0
100
AcDbLine
 62
7
  6
CONTINUOUS
 10
5.807050396
 20
4.9005015974
 11
5.8133778146
 21
4.895808864
  0
LINE
  5
29C
100
AcDbEntity
  8
0
100
AcDbLine
 62
7
  6
CONTINUOUS
 10
6.07454792
 20
4.4071939635
 11
6.0436474962
 21
4.432553286
  0
LINE
  5
29D
100
AcDbEntity
  8
0
100
AcDbLine
 62
7
  6
CONTINUOUS
 10
5.3577999748
 20
4.9954138005
 11
5.326899551
 21
5.020773123
  0
LINE
  5
29E
100
AcDbEntity
  8
0
100
AcDbLine
 62
7
  6
CONTINUOUS
 10
6.0749344599
 20
4.342793801
 11
6.0466684783
 21
4.3710597826
  0
LINE
  5
29F
100
AcDbEntity
  8
0
100
AcDbLine
 62
7
  6
CONTINUOUS
 10
5.4192934783
 20
4.9984347826
 11
5.3910274966
 21
5.0267007642
  0
LINE
  5
2A0
100
AcDbEntity
  8
0
100
AcDbLine
 62
7
  6
CONTINUOUS
 10
6.0690068187
 20
4.2786658553
 11
6.0436474962
 21
4.3095662792
  0
LINE
  5
2A1
100
AcDbEntity
  8
0
100
AcDbLine
 62
7
  6
CONTINUOUS
 10
5.4807869817
 20
4.9954138005
 11
5.4554276592
 21
5.0263142244
  0
LINE
  5
2A2
100
AcDbEntity
  8
0
100
AcDbLine
 62
7
  6
CONTINUOUS
 10
5.9440425596
 20
4.7651441189
 11
5.9487352931
 21
4.7588167003
  0
LINE
  5
2A3
100
AcDbEntity
  8
0
100
AcDbLine
 62
7
  6
CONTINUOUS
 10
6.0568220828
 20
4.2154277137
 11
6.0346136436
 21
4.2486649918
  0
LINE
  5
2A4
100
AcDbEntity
  8
0
100
AcDbLine
 62
7
  6
CONTINUOUS
 10
5.541688269
 20
4.9863799479
 11
5.5194798298
 21
5.0196172261
  0
LINE
  5
2A5
100
AcDbEntity
  8
0
100
AcDbLine
 62
7
  6
CONTINUOUS
 10
5.9801427691
 20
4.7118120908
 11
5.9841927102
 21
4.7050551721
  0
LINE
  5
2A6
100
AcDbEntity
  8
0
100
AcDbLine
 62
7
  6
CONTINUOUS
 10
6.038497598
 20
4.1536883939
 11
6.0196539214
 21
4.1889424332
  0
LINE
  5
2A7
100
AcDbEntity
  8
0
100
AcDbLine
 62
7
  6
CONTINUOUS
 10
5.6014108277
 20
4.9714202257
 11
5.5825671511
 21
5.006674265
  0
LINE
  5
2A8
100
AcDbEntity
  8
0
100
AcDbLine
 62
7
  6
CONTINUOUS
 10
6.014209839
 20
4.0940424795
 11
5.9989124
 21
4.1309737642
  0
LINE
  5
2A9
100
AcDbEntity
  8
0
100
AcDbLine
 62
7
  6
CONTINUOUS
 10
5.6593794966
 20
4.9506787043
 11
5.6440820576
 21
4.9876099891
  0
LINE
  5
2AA
100
AcDbEntity
  8
0
100
AcDbLine
 62
7
  6
CONTINUOUS
 10
5.9841927102
 20
4.0370643931
 11
5.9725888315
 21
4.0753172548
  0
LINE
  5
2AB
100
AcDbEntity
  8
0
100
AcDbLine
 62
7
  6
CONTINUOUS
 10
5.715036006
 20
4.9243551358
 11
5.7034321273
 21
4.9626079976
  0
LINE
  5
2AC
100
AcDbEntity
  8
0
100
AcDbLine
 62
7
  6
CONTINUOUS
 10
6.0549079607
 20
4.5343334554
 11
6.0568220828
 21
4.5266918516
  0
LINE
  5
2AD
100
AcDbEntity
  8
0
100
AcDbLine
 62
7
  6
CONTINUOUS
 10
5.9487352931
 20
3.9833028649
 11
5.9409367263
 21
4.0225089077
  0
LINE
  5
2AE
100
AcDbEntity
  8
0
100
AcDbLine
 62
7
  6
CONTINUOUS
 10
5.7678443532
 20
4.8927030306
 11
5.7600457864
 21
4.9319090734
  0
LINE
  5
2AF
100
AcDbEntity
  8
0
100
AcDbLine
 62
7
  6
CONTINUOUS
 10
6.0678509217
 20
4.4712461341
 11
6.0690068187
 21
4.4634537099
  0
CIRCLE
  5
2B0
100
AcDbEntity
  8
0
100
AcDbCircle
 62
7
  6
CONTINUOUS
 10
5.4192934783
 20
4.3710597826
 40
3.345
  0
CIRCLE
  5
2B1
100
AcDbEntity
  8
0
100
AcDbCircle
 62
7
  6
CONTINUOUS
 10
5.4192934783
 20
4.3710597826
 40
3.285
  0
CIRCLE
  5
2B2
100
AcDbEntity
  8
0
100
AcDbCircle
 62
7
  6
CONTINUOUS
 10
5.4192934783
 20
4.3710597826
 40
3.1791860468
  0
CIRCLE
  5
2B3
100
AcDbEntity
  8
0
100
AcDbCircle
 62
7
  6
CONTINUOUS
 10
5.4192934783
 20
4.3710597826
 40
3.1665232016
  0
CIRCLE
  5
2B4
100
AcDbEntity
  8
0
100
AcDbCircle
 62
7
  6
CONTINUOUS
 10
5.4192934783
 20
4.3710597826
 40
2.9592845965
  0
CIRCLE
  5
2B5
100
AcDbEntity
  8
0
100
AcDbCircle
 62
7
  6
CONTINUOUS
 10
5.4192934783
 20
4.3710597826
 40
2.9024999995
  0
CIRCLE
  5
2B6
100
AcDbEntity
  8
0
100
AcDbCircle
 62
7
  6
CONTINUOUS
 10
5.4192934783
 20
4.3710597826
 40
2.8497029519
  0
ARC
  5
2B7
100
AcDbEntity
  8
0
100
AcDbCircle
 62
7
  6
CONTINUOUS
 10
5.4192934783
 20
4.3710597826
 40
0.65625
100
AcDbArc
 50
92.4686059031
 51
93.1563940969
  0
ARC
  5
2B8
100
AcDbEntity
  8
0
100
AcDbCircle
 62
7
  6
CONTINUOUS
 10
5.4192934783
 20
4.3710597826
 40
0.65625
100
AcDbArc
 50
109.3436059031
 51
110.0313940969
  0
ARC
  5
2B9
100
AcDbEntity
  8
0
100
AcDbCircle
 62
7
  6
CONTINUOUS
 10
5.4192934783
 20
4.3710597826
 40
0.65625
100
AcDbArc
 50
114.9686059031
 51
115.6563940969
  0
ARC
  5
2BA
100
AcDbEntity
  8
0
100
AcDbCircle
 62
7
  6
CONTINUOUS
 10
5.4192934783
 20
4.3710597826
 40
0.65625
100
AcDbArc
 50
131.8436059031
 51
132.5313940969
  0
ARC
  5
2BB
100
AcDbEntity
  8
0
100
AcDbCircle
 62
7
  6
CONTINUOUS
 10
5.4192934783
 20
4.3710597826
 40
0.65625
100
AcDbArc
 50
137.4686059031
 51
138.1563940969
  0
ARC
  5
2BC
100
AcDbEntity
  8
0
100
AcDbCircle
 62
7
  6
CONTINUOUS
 10
5.4192934783
 20
4.3710597826
 40
0.65625
100
AcDbArc
 50
154.3436059031
 51
155.0313940969
  0
ARC
  5
2BD
100
AcDbEntity
  8
0
100
AcDbCircle
 62
7
  6
CONTINUOUS
 10
5.4192934783
 20
4.3710597826
 40
0.65625
100
AcDbArc
 50
159.9686059031
 51
160.6563940969
  0
ARC
  5
2BE
100
AcDbEntity
  8
0
100
AcDbCircle
 62
7
  6
CONTINUOUS
 10
5.4192934783
 20
4.3710597826
 40
0.65625
100
AcDbArc
 50
176.8436059031
 51
177.5313940969
  0
ARC
  5
2BF
100
AcDbEntity
  8
0
100
AcDbCircle
 62
7
  6
CONTINUOUS
 10
5.4192934783
 20
4.3710597826
 40
0.65625
100
AcDbArc
 50
182.4686059031
 51
183.1563940969
  0
ARC
  5
2C0
100
AcDbEntity
  8
0
100
AcDbCircle
 62
7
  6
CONTINUOUS
 10
5.4192934783
 20
4.3710597826
 40
0.65625
100
AcDbArc
 50
199.3436059031
 51
200.0313940969
  0
ARC
  5
2C1
100
AcDbEntity
  8
0
100
AcDbCircle
 62
7
  6
CONTINUOUS
 10
5.4192934783
 20
4.3710597826
 40
0.65625
100
AcDbArc
 50
204.9686059031
 51
205.6563940969
  0
ARC
  5
2C2
100
AcDbEntity
  8
0
100
AcDbCircle
 62
7
  6
CONTINUOUS
 10
5.4192934783
 20
4.3710597826
 40
0.65625
100
AcDbArc
 50
221.8436059031
 51
222.5313940969
  0
ARC
  5
2C3
100
AcDbEntity
  8
0
100
AcDbCircle
 62
7
  6
CONTINUOUS
 10
5.4192934783
 20
4.3710597826
 40
0.65625
100
AcDbArc
 50
227.4686059031
 51
228.1563940969
  0
ARC
  5
2C4
100
AcDbEntity
  8
0
100
AcDbCircle
 62
7
  6
CONTINUOUS
 10
5.4192934783
 20
4.3710597826
 40
0.65625
100
AcDbArc
 50
244.3436059031
 51
245.0313940969
  0
ARC
  5
2C5
100
AcDbEntity
  8
0
100
AcDbCircle
 62
7
  6
CONTINUOUS
 10
5.4192934783
 20
4.3710597826
 40
0.65625
100
AcDbArc
 50
249.9686059031
 51
250.6563940969
  0
ARC
  5
2C6
100
AcDbEntity
  8
0
100
AcDbCircle
 62
7
  6
CONTINUOUS
 10
5.4192934783
 20
4.3710597826
 40
0.65625
100
AcDbArc
 50
266.8436059031
 51
267.5313940969
  0
ARC
  5
2C7
100
AcDbEntity
  8
0
100
AcDbCircle
 62
7
  6
CONTINUOUS
 10
5.4192934783
 20
4.3710597826
 40
0.65625
100
AcDbArc
 50
272.4686059031
 51
273.1563940969
  0
ARC
  5
2C8
100
AcDbEntity
  8
0
100
AcDbCircle
 62
7
  6
CONTINUOUS
 10
5.4192934783
 20
4.3710597826
 40
0.65625
100
AcDbArc
 50
289.3436059031
 51
290.0313940969
  0
ARC
  5
2C9
100
AcDbEntity
  8
0
100
AcDbCircle
 62
7
  6
CONTINUOUS
 10
5.4192934783
 20
4.3710597826
 40
0.65625
100
AcDbArc
 50
294.9686059031
 51
295.6563940969
  0
ARC
  5
2CA
100
AcDbEntity
  8
0
100
AcDbCircle
 62
7
  6
CONTINUOUS
 10
5.4192934783
 20
4.3710597826
 40
0.65625
100
AcDbArc
 50
311.8436059031
 51
312.5313940969
  0
ARC
  5
2CB
100
AcDbEntity
  8
0
100
AcDbCircle
 62
7
  6
CONTINUOUS
 10
5.4192934783
 20
4.3710597826
 40
0.65625
100
AcDbArc
 50
317.4686059031
 51
318.1563940969
  0
ARC
  5
2CC
100
AcDbEntity
  8
0
100
AcDbCircle
 62
7
  6
CONTINUOUS
 10
5.4192934783
 20
4.3710597826
 40
0.65625
100
AcDbArc
 50
334.3436059031
 51
335.0313940969
  0
ARC
  5
2CD
100
AcDbEntity
  8
0
100
AcDbCircle
 62
7
  6
CONTINUOUS
 10
5.4192934783
 20
4.3710597826
 40
0.65625
100
AcDbArc
 50
339.9686059031
 51
340.6563940969
  0
ARC
  5
2CE
100
AcDbEntity
  8
0
100
AcDbCircle
 62
7
  6
CONTINUOUS
 10
5.4192934783
 20
4.3710597826
 40
0.65625
100
AcDbArc
 50
356.8436059031
 51
357.5313940969
  0
ARC
  5
2CF
100
AcDbEntity
  8
0
100
AcDbCircle
 62
7
  6
CONTINUOUS
 10
5.4192934783
 20
4.3710597826
 40
0.65625
100
AcDbArc
 50
2.4686059031
 51
3.1563940969
  0
ARC
  5
2D0
100
AcDbEntity
  8
0
100
AcDbCircle
 62
7
  6
CONTINUOUS
 10
5.4192934783
 20
4.3710597826
 40
0.65625
100
AcDbArc
 50
19.3436059031
 51
20.0313940969
  0
ARC
  5
2D1
100
AcDbEntity
  8
0
100
AcDbCircle
 62
7
  6
CONTINUOUS
 10
5.4192934783
 20
4.3710597826
 40
0.65625
100
AcDbArc
 50
24.9686059031
 51
25.6563940969
  0
ARC
  5
2D2
100
AcDbEntity
  8
0
100
AcDbCircle
 62
7
  6
CONTINUOUS
 10
5.4192934783
 20
4.3710597826
 40
0.65625
100
AcDbArc
 50
41.8436059031
 51
42.5313940969
  0
ARC
  5
2D3
100
AcDbEntity
  8
0
100
AcDbCircle
 62
7
  6
CONTINUOUS
 10
5.4192934783
 20
4.3710597826
 40
0.65625
100
AcDbArc
 50
47.4686059031
 51
48.1563940969
  0
ARC
  5
2D4
100
AcDbEntity
  8
0
100
AcDbCircle
 62
7
  6
CONTINUOUS
 10
5.4192934783
 20
4.3710597826
 40
0.65625
100
AcDbArc
 50
64.3436059031
 51
65.0313940969
  0
ARC
  5
2D5
100
AcDbEntity
  8
0
100
AcDbCircle
 62
7
  6
CONTINUOUS
 10
5.4192934783
 20
4.3710597826
 40
0.65625
100
AcDbArc
 50
69.9686059031
 51
70.6563940969
  0
ARC
  5
2D6
100
AcDbEntity
  8
0
100
AcDbCircle
 62
7
  6
CONTINUOUS
 10
5.4192934783
 20
4.3710597826
 40
0.65625
100
AcDbArc
 50
86.8436059031
 51
87.5313940969
  0
ARC
  5
2D7
100
AcDbEntity
  8
0
100
AcDbCircle
 62
7
  6
CONTINUOUS
 10
5.4192934783
 20
4.3710597826
 40
0.6328125
100
AcDbArc
 50
185.1390657814
 51
186.1146327943
  0
ARC
  5
2D8
100
AcDbEntity
  8
0
100
AcDbCircle
 62
7
  6
CONTINUOUS
 10
5.4192934783
 20
4.3710597826
 40
0.6328125
100
AcDbArc
 50
190.7598971037
 51
191.7354686537
  0
ARC
  5
2D9
100
AcDbEntity
  8
0
100
AcDbCircle
 62
7
  6
CONTINUOUS
 10
5.4192934783
 20
4.3710597826
 40
0.6328125
100
AcDbArc
 50
196.3894840548
 51
197.361339373
  0
ARC
  5
2DA
100
AcDbEntity
  8
0
100
AcDbCircle
 62
7
  6
CONTINUOUS
 10
5.4192934783
 20
4.3710597826
 40
0.6328125
100
AcDbArc
 50
202.014238998
 51
202.9891787871
  0
ARC
  5
2DB
100
AcDbEntity
  8
0
100
AcDbCircle
 62
7
  6
CONTINUOUS
 10
5.4192934783
 20
4.3710597826
 40
0.6328125
100
AcDbArc
 50
207.6355742999
 51
208.6102099017
  0
ARC
  5
2DC
100
AcDbEntity
  8
0
100
AcDbCircle
 62
7
  6
CONTINUOUS
 10
5.4192934783
 20
4.3710597826
 40
0.6328125
100
AcDbArc
 50
213.2642318119
 51
214.2362605984
  0
ARC
  5
2DD
100
AcDbEntity
  8
0
100
AcDbCircle
 62
7
  6
CONTINUOUS
 10
5.4192934783
 20
4.3710597826
 40
0.6328125
100
AcDbArc
 50
218.8888427054
 51
219.8635948019
  0
ARC
  5
2DE
100
AcDbEntity
  8
0
100
AcDbCircle
 62
7
  6
CONTINUOUS
 10
5.4192934783
 20
4.3710597826
 40
0.6328125
100
AcDbArc
 50
224.5111541069
 51
225.4855665247
  0
ARC
  5
2DF
100
AcDbEntity
  8
0
100
AcDbCircle
 62
7
  6
CONTINUOUS
 10
5.4192934783
 20
4.3710597826
 40
0.6328125
100
AcDbArc
 50
230.1398724573
 51
231.1114566802
  0
ARC
  5
2E0
100
AcDbEntity
  8
0
100
AcDbCircle
 62
7
  6
CONTINUOUS
 10
5.4192934783
 20
4.3710597826
 40
0.6328125
100
AcDbArc
 50
235.7633619892
 51
236.7379441649
  0
ARC
  5
2E1
100
AcDbEntity
  8
0
100
AcDbCircle
 62
7
  6
CONTINUOUS
 10
5.4192934783
 20
4.3710597826
 40
0.6328125
100
AcDbArc
 50
241.3865104882
 51
242.3601265032
  0
ARC
  5
2E2
100
AcDbEntity
  8
0
100
AcDbCircle
 62
7
  6
CONTINUOUS
 10
5.4192934783
 20
4.3710597826
 40
0.6328125
100
AcDbArc
 50
247.0148618304
 51
247.9872401381
  0
ARC
  5
2E3
100
AcDbEntity
  8
0
100
AcDbCircle
 62
7
  6
CONTINUOUS
 10
5.4192934783
 20
4.3710597826
 40
0.6328125
100
AcDbArc
 50
252.6383342162
 51
253.6127139959
  0
ARC
  5
2E4
100
AcDbEntity
  8
0
100
AcDbCircle
 62
7
  6
CONTINUOUS
 10
5.4192934783
 20
4.3710597826
 40
0.6328125
100
AcDbArc
 50
258.2622660137
 51
259.2349999375
  0
ARC
  5
2E5
100
AcDbEntity
  8
0
100
AcDbCircle
 62
7
  6
CONTINUOUS
 10
5.4192934783
 20
4.3710597826
 40
0.6328125
100
AcDbArc
 50
263.8894874614
 51
264.8623716992
  0
ARC
  5
2E6
100
AcDbEntity
  8
0
100
AcDbCircle
 62
7
  6
CONTINUOUS
 10
5.4192934783
 20
4.3710597826
 40
0.6328125
100
AcDbArc
 50
269.5128018026
 51
270.4871981974
  0
ARC
  5
2E7
100
AcDbEntity
  8
0
100
AcDbCircle
 62
7
  6
CONTINUOUS
 10
5.4192934783
 20
4.3710597826
 40
0.6328125
100
AcDbArc
 50
275.1376283008
 51
276.1105125386
  0
ARC
  5
2E8
100
AcDbEntity
  8
0
100
AcDbCircle
 62
7
  6
CONTINUOUS
 10
5.4192934783
 20
4.3710597826
 40
0.6328125
100
AcDbArc
 50
280.7650000625
 51
281.7377339863
  0
ARC
  5
2E9
100
AcDbEntity
  8
0
100
AcDbCircle
 62
7
  6
CONTINUOUS
 10
5.4192934783
 20
4.3710597826
 40
0.6328125
100
AcDbArc
 50
286.3872860041
 51
287.3616657838
  0
ARC
  5
2EA
100
AcDbEntity
  8
0
100
AcDbCircle
 62
7
  6
CONTINUOUS
 10
5.4192934783
 20
4.3710597826
 40
0.6328125
100
AcDbArc
 50
292.0127598619
 51
292.9851381696
  0
ARC
  5
2EB
100
AcDbEntity
  8
0
100
AcDbCircle
 62
7
  6
CONTINUOUS
 10
5.4192934783
 20
4.3710597826
 40
0.6328125
100
AcDbArc
 50
297.6398734968
 51
298.6134895118
  0
ARC
  5
2EC
100
AcDbEntity
  8
0
100
AcDbCircle
 62
7
  6
CONTINUOUS
 10
5.4192934783
 20
4.3710597826
 40
0.6328125
100
AcDbArc
 50
303.2620558351
 51
304.2366380108
  0
ARC
  5
2ED
100
AcDbEntity
  8
0
100
AcDbCircle
 62
7
  6
CONTINUOUS
 10
5.4192934783
 20
4.3710597826
 40
0.6328125
100
AcDbArc
 50
308.8885433198
 51
309.8601275427
  0
ARC
  5
2EE
100
AcDbEntity
  8
0
100
AcDbCircle
 62
7
  6
CONTINUOUS
 10
5.4192934783
 20
4.3710597826
 40
0.6328125
100
AcDbArc
 50
314.5144334753
 51
315.4888458931
  0
ARC
  5
2EF
100
AcDbEntity
  8
0
100
AcDbCircle
 62
7
  6
CONTINUOUS
 10
5.4192934783
 20
4.3710597826
 40
0.6328125
100
AcDbArc
 50
320.1364051981
 51
321.1111572946
  0
ARC
  5
2F0
100
AcDbEntity
  8
0
100
AcDbCircle
 62
7
  6
CONTINUOUS
 10
5.4192934783
 20
4.3710597826
 40
0.6328125
100
AcDbArc
 50
325.7637394016
 51
326.7357681881
  0
ARC
  5
2F1
100
AcDbEntity
  8
0
100
AcDbCircle
 62
7
  6
CONTINUOUS
 10
5.4192934783
 20
4.3710597826
 40
0.6328125
100
AcDbArc
 50
331.3897900983
 51
332.3644257001
  0
ARC
  5
2F2
100
AcDbEntity
  8
0
100
AcDbCircle
 62
7
  6
CONTINUOUS
 10
5.4192934783
 20
4.3710597826
 40
0.6328125
100
AcDbArc
 50
337.0108212129
 51
337.985761002
  0
ARC
  5
2F3
100
AcDbEntity
  8
0
100
AcDbCircle
 62
7
  6
CONTINUOUS
 10
5.4192934783
 20
4.3710597826
 40
0.6328125
100
AcDbArc
 50
342.638660627
 51
343.6105159452
  0
ARC
  5
2F4
100
AcDbEntity
  8
0
100
AcDbCircle
 62
7
  6
CONTINUOUS
 10
5.4192934783
 20
4.3710597826
 40
0.6328125
100
AcDbArc
 50
348.2645313463
 51
349.2401028963
  0
ARC
  5
2F5
100
AcDbEntity
  8
0
100
AcDbCircle
 62
7
  6
CONTINUOUS
 10
5.4192934783
 20
4.3710597826
 40
0.6328125
100
AcDbArc
 50
353.8853672057
 51
354.8609342186
  0
ARC
  5
2F6
100
AcDbEntity
  8
0
100
AcDbCircle
 62
7
  6
CONTINUOUS
 10
5.4192934783
 20
4.3710597826
 40
0.6328125
100
AcDbArc
 50
179.513877374
 51
180.486122626
  0
ARC
  5
2F7
100
AcDbEntity
  8
0
100
AcDbCircle
 62
7
  6
CONTINUOUS
 10
5.4192934783
 20
4.3710597826
 40
0.6328125
100
AcDbArc
 50
173.8853672057
 51
174.8609342186
  0
ARC
  5
2F8
100
AcDbEntity
  8
0
100
AcDbCircle
 62
7
  6
CONTINUOUS
 10
5.4192934783
 20
4.3710597826
 40
0.6328125
100
AcDbArc
 50
168.2645313463
 51
169.2401028963
  0
ARC
  5
2F9
100
AcDbEntity
  8
0
100
AcDbCircle
 62
7
  6
CONTINUOUS
 10
5.4192934783
 20
4.3710597826
 40
0.6328125
100
AcDbArc
 50
162.638660627
 51
163.6105159452
  0
ARC
  5
2FA
100
AcDbEntity
  8
0
100
AcDbCircle
 62
7
  6
CONTINUOUS
 10
5.4192934783
 20
4.3710597826
 40
0.6328125
100
AcDbArc
 50
157.0108212129
 51
157.985761002
  0
ARC
  5
2FB
100
AcDbEntity
  8
0
100
AcDbCircle
 62
7
  6
CONTINUOUS
 10
5.4192934783
 20
4.3710597826
 40
0.6328125
100
AcDbArc
 50
151.3897900983
 51
152.3644257001
  0
ARC
  5
2FC
100
AcDbEntity
  8
0
100
AcDbCircle
 62
7
  6
CONTINUOUS
 10
5.4192934783
 20
4.3710597826
 40
0.6328125
100
AcDbArc
 50
145.7637394016
 51
146.7357681881
  0
ARC
  5
2FD
100
AcDbEntity
  8
0
100
AcDbCircle
 62
7
  6
CONTINUOUS
 10
5.4192934783
 20
4.3710597826
 40
0.6328125
100
AcDbArc
 50
140.1364051981
 51
141.1111572946
  0
ARC
  5
2FE
100
AcDbEntity
  8
0
100
AcDbCircle
 62
7
  6
CONTINUOUS
 10
5.4192934783
 20
4.3710597826
 40
0.6328125
100
AcDbArc
 50
134.5144334753
 51
135.4888458931
  0
ARC
  5
2FF
100
AcDbEntity
  8
0
100
AcDbCircle
 62
7
  6
CONTINUOUS
 10
5.4192934783
 20
4.3710597826
 40
0.6328125
100
AcDbArc
 50
128.8885433198
 51
129.8601275427
  0
ARC
  5
300
100
AcDbEntity
  8
0
100
AcDbCircle
 62
7
  6
CONTINUOUS
 10
5.4192934783
 20
4.3710597826
 40
0.6328125
100
AcDbArc
 50
123.2620558351
 51
124.2366380108
  0
ARC
  5
301
100
AcDbEntity
  8
0
100
AcDbCircle
 62
7
  6
CONTINUOUS
 10
5.4192934783
 20
4.3710597826
 40
0.6328125
100
AcDbArc
 50
117.6398734968
 51
118.6134895118
  0
ARC
  5
302
100
AcDbEntity
  8
0
100
AcDbCircle
 62
7
  6
CONTINUOUS
 10
5.4192934783
 20
4.3710597826
 40
0.6328125
100
AcDbArc
 50
112.0127598619
 51
112.9851381696
  0
ARC
  5
303
100
AcDbEntity
  8
0
100
AcDbCircle
 62
7
  6
CONTINUOUS
 10
5.4192934783
 20
4.3710597826
 40
0.6328125
100
AcDbArc
 50
106.3872860041
 51
107.3616657838
  0
ARC
  5
304
100
AcDbEntity
  8
0
100
AcDbCircle
 62
7
  6
CONTINUOUS
 10
5.4192934783
 20
4.3710597826
 40
0.6328125
100
AcDbArc
 50
100.7650000625
 51
101.7377339863
  0
ARC
  5
305
100
AcDbEntity
  8
0
100
AcDbCircle
 62
7
  6
CONTINUOUS
 10
5.4192934783
 20
4.3710597826
 40
0.6328125
100
AcDbArc
 50
95.1376283008
 51
96.1105125386
  0
ARC
  5
306
100
AcDbEntity
  8
0
100
AcDbCircle
 62
7
  6
CONTINUOUS
 10
5.4192934783
 20
4.3710597826
 40
0.6328125
100
AcDbArc
 50
89.5128018026
 51
90.4871981974
  0
ARC
  5
307
100
AcDbEntity
  8
0
100
AcDbCircle
 62
7
  6
CONTINUOUS
 10
5.4192934783
 20
4.3710597826
 40
0.6328125
100
AcDbArc
 50
83.8894874614
 51
84.8623716992
  0
ARC
  5
308
100
AcDbEntity
  8
0
100
AcDbCircle
 62
7
  6
CONTINUOUS
 10
5.4192934783
 20
4.3710597826
 40
0.6328125
100
AcDbArc
 50
78.2622660137
 51
79.2349999375
  0
ARC
  5
309
100
AcDbEntity
  8
0
100
AcDbCircle
 62
7
  6
CONTINUOUS
 10
5.4192934783
 20
4.3710597826
 40
0.6328125
100
AcDbArc
 50
72.6383342162
 51
73.6127139959
  0
ARC
  5
30A
100
AcDbEntity
  8
0
100
AcDbCircle
 62
7
  6
CONTINUOUS
 10
5.4192934783
 20
4.3710597826
 40
0.6328125
100
AcDbArc
 50
67.0148618304
 51
67.9872401381
  0
ARC
  5
30B
100
AcDbEntity
  8
0
100
AcDbCircle
 62
7
  6
CONTINUOUS
 10
5.4192934783
 20
4.3710597826
 40
0.6328125
100
AcDbArc
 50
61.3865104882
 51
62.3601265032
  0
ARC
  5
30C
100
AcDbEntity
  8
0
100
AcDbCircle
 62
7
  6
CONTINUOUS
 10
5.4192934783
 20
4.3710597826
 40
0.6328125
100
AcDbArc
 50
55.7633619892
 51
56.7379441649
  0
ARC
  5
30D
100
AcDbEntity
  8
0
100
AcDbCircle
 62
7
  6
CONTINUOUS
 10
5.4192934783
 20
4.3710597826
 40
0.6328125
100
AcDbArc
 50
50.1398724573
 51
51.1114566802
  0
ARC
  5
30E
100
AcDbEntity
  8
0
100
AcDbCircle
 62
7
  6
CONTINUOUS
 10
5.4192934783
 20
4.3710597826
 40
0.6328125
100
AcDbArc
 50
44.5111541069
 51
45.4855665247
  0
ARC
  5
30F
100
AcDbEntity
  8
0
100
AcDbCircle
 62
7
  6
CONTINUOUS
 10
5.4192934783
 20
4.3710597826
 40
0.6328125
100
AcDbArc
 50
38.8888427054
 51
39.8635948019
  0
ARC
  5
310
100
AcDbEntity
  8
0
100
AcDbCircle
 62
7
  6
CONTINUOUS
 10
5.4192934783
 20
4.3710597826
 40
0.6328125
100
AcDbArc
 50
33.2642318119
 51
34.2362605984
  0
ARC
  5
311
100
AcDbEntity
  8
0
100
AcDbCircle
 62
7
  6
CONTINUOUS
 10
5.4192934783
 20
4.3710597826
 40
0.6328125
100
AcDbArc
 50
27.6355742999
 51
28.6102099017
  0
ARC
  5
312
100
AcDbEntity
  8
0
100
AcDbCircle
 62
7
  6
CONTINUOUS
 10
5.4192934783
 20
4.3710597826
 40
0.6328125
100
AcDbArc
 50
22.014238998
 51
22.9891787871
  0
ARC
  5
313
100
AcDbEntity
  8
0
100
AcDbCircle
 62
7
  6
CONTINUOUS
 10
5.4192934783
 20
4.3710597826
 40
0.6328125
100
AcDbArc
 50
16.3894840548
 51
17.361339373
  0
ARC
  5
314
100
AcDbEntity
  8
0
100
AcDbCircle
 62
7
  6
CONTINUOUS
 10
5.4192934783
 20
4.3710597826
 40
0.6328125
100
AcDbArc
 50
10.7598971037
 51
11.7354686537
  0
ARC
  5
315
100
AcDbEntity
  8
0
100
AcDbCircle
 62
7
  6
CONTINUOUS
 10
5.4192934783
 20
4.3710597826
 40
0.6328125
100
AcDbArc
 50
5.1390657814
 51
6.1146327943
  0
ARC
  5
316
100
AcDbEntity
  8
0
100
AcDbCircle
 62
7
  6
CONTINUOUS
 10
5.4192934783
 20
4.3710597826
 40
0.6328125
100
AcDbArc
 50
359.513877374
 51
0.486122626
  0
CIRCLE
  5
317
100
AcDbEntity
  8
0
100
AcDbCircle
 62
7
  6
CONTINUOUS
 10
5.4192934783
 20
4.3710597826
 40
0.6075
  0
CIRCLE
  5
318
100
AcDbEntity
  8
0
100
AcDbCircle
 62
7
  6
CONTINUOUS
 10
5.4192934783
 20
4.3710597826
 40
0.5625
  0
ARC
  5
319
100
AcDbEntity
  8
0
100
AcDbCircle
 62
7
  6
CONTINUOUS
 10
5.4192934783
 20
4.3710597826
 40
0.474375
100
AcDbArc
 50
203.5091982589
 51
336.4908017411
  0
ARC
  5
31A
100
AcDbEntity
  8
0
100
AcDbCircle
 62
7
  6
CONTINUOUS
 10
5.4192934783
 20
4.3710597826
 40
0.474375
100
AcDbArc
 50
23.5091982589
 51
156.4908017411
  0
CIRCLE
  5
31B
100
AcDbEntity
  8
0
100
AcDbCircle
 62
7
  6
CONTINUOUS
 10
5.4192934783
 20
4.3710597826
 40
0.4125
  0
CIRCLE
  5
31C
100
AcDbEntity
  8
0
100
AcDbCircle
 62
7
  6
CONTINUOUS
 10
5.4192934783
 20
4.3710597826
 40
0.3975
  0
ENDSEC
  0
SECTION
  2
OBJECTS
  0
DICTIONARY
  5
C
100
AcDbDictionary
280
0
281
1
  3
ACAD_GROUP
350
D
  3
ACAD_MLINESTYLE
350
17
  3
ACAD_LAYOUT
350
1A
  3
ACAD_PLOTSETTINGS
350
19
  3
ACAD_PLOTSTYLENAME
350
E
  0
DICTIONARY
  5
D
102
{ACAD_REACTORS
330
C
102
}
100
AcDbDictionary
280
0
281
1
  0
ACDBDICTIONARYWDFLT
  5
E
102
{ACAD_REACTORS
330
C
102
}
100
AcDbDictionary
281
1
  3
Normal
350
F
100
AcDbDictionaryWithDefault
340
F
  0
DICTIONARY
  5
17
102
{ACAD_REACTORS
330
C
102
}
100
AcDbDictionary
280
0
281
1
  3
Standard
350
18
  0
DICTIONARY
  5
19
102
{ACAD_REACTORS
330
C
102
}
100
AcDbDictionary
281
1
  0
DICTIONARY
  5
1A
102
{ACAD_REACTORS
330
C
102
}
100
AcDbDictionary
281
1
  3
Model
350
31D
  3
Layout1
350
31E
  0
ACDBPLACEHOLDER
  5
F
102
{ACAD_REACTORS
330
E
102
}
  0
MLINESTYLE
  5
18
102
{ACAD_REACTORS
330
17
102
}
100
AcDbMlineStyle
  2
STANDARD
 70
0
  3

 62
256
 51
90.0
 52
90.0
 71
2
 49
0.5
 62
256
  6
BYLAYER
 49
-0.5
 62
256
  6
BYLAYER
  0
LAYOUT
  5
31D
102
{ACAD_REACTORS
330
1A
102
}
100
AcDbPlotSettings
  1

  2
none_device
  4
ANSI_A_(11.00_x_8.50_Inches)
  6

 40
0.0
 41
0.0
 42
0.0
 43
0.0
 44
279.4
 45
215.9
 46
0.0
 47
0.0
 48
0.0
 49
0.0
140
0.0
141
0.0
142
1.0
143
1.0
 70
1024
 72
0
 73
0
 74
0
  7

 75
0
147
1.0
148
0.0
149
0.0
100
AcDbLayout
  1
Model
 70
0
 71
0
 10
0.0
 20
0.0
 11
11.0
 21
8.5
 12
0.0
 22
0.0
 32
0.0
 14
0.0
 24
0.0
 34
0.0
 15
0.0
 25
0.0
 35
0.0
146
0.0
 13
0.0
 23
0.0
 33
0.0
 16
1.0
 26
0.0
 36
0.0
 17
0.0
 27
1.0
 37
0.0
 76
0
330
202
345
0
346
0
  0
LAYOUT
  5
31E
102
{ACAD_REACTORS
330
1A
102
}
100
AcDbPlotSettings
  1

  2
none_device
  4
ANSI_A_(11.00_x_8.50_Inches)
  6

 40
0.0
 41
0.0
 42
0.0
 43
0.0
 44
279.4
 45
215.9
 46
0.0
 47
0.0
 48
0.0
 49
0.0
140
0.0
141
0.0
142
1.0
143
1.0
 70
0
 72
0
 73
0
 74
0
  7

 75
0
147
1.0
148
0.0
149
0.0
100
AcDbLayout
  1
Layout1
 70
0
 71
1
 10
0.0
 20
0.0
 11
11.0
 21
8.5
 12
0.0
 22
0.0
 32
0.0
 14
0.0
 24
0.0
 34
0.0
 15
0.0
 25
0.0
 35
0.0
146
0.0
 13
0.0
 23
0.0
 33
0.0
 16
1.0
 26
0.0
 36
0.0
 17
0.0
 27
1.0
 37
0.0
 76
0
330
203
345
0
346
0
  0
ENDSEC
  0
EOF
