999
DXF file: 2156_right.dxf
999
Pro/ENGINEER 2018400 by Parametric Technology Corporation
  0
SECTION
  2
HEADER
  9
$ACADVER
  1
AC1027
  9
$DWGCODEPAGE
  3
ANSI_1252
  9
$EXTMAX
 10
11.0
 20
8.5
 30
0.0
  9
$EXTMIN
 10
0.0
 20
0.0
 30
0.0
  9
$LIMMIN
 10
0.0
 20
0.0
  9
$LIMMAX
 10
11.0
 20
8.5
  9
$VIEWCTR
 10
5.5
 20
4.25
  9
$VIEWSIZE
 40
8.5
  9
$CLAYER
  8
0
  9
$LTSCALE
 40
0.605
  9
$CELTYPE
  6
BYLAYER
  9
$DIMSCALE
 40
1.0
  9
$DIMASZ
 40
0.1
  9
$DIMEXO
 40
0.0625
  9
$DIMDLI
 40
0.418
  9
$DIMEXE
 40
0.125
  9
$DIMCEN
 40
0.099
  9
$DIMLFAC
 40
1.0
  9
$DIMBLK
  1
_FILLED
  9
$DIMALT
 70
1
  9
$DIMALTD
 70
1
  9
$DIMALTTD
 70
2
  9
$DIMALTF
 40
25.4
  9
$DIMTXT
 40
0.08
  9
$DIMTOL
 70
1
  9
$DIMLIM
 70
0
  9
$DIMTFAC
 40
1.0
  9
$DIMTP
 40
0.01
  9
$DIMTM
 40
0.01
  9
$DIMGAP
 40
0.09
  9
$DIMDSEP
 70
46
  9
$AUNITS
 70
0
  9
$PDMODE
 70
3
  9
$PDSIZE
 40
0.3125
  9
$HANDSEED
  5
51D
  9
$TILEMODE
 70
1
  9
$MEASUREMENT
 70
0
  9
$INSUNITS
 70
1
  0
ENDSEC
  0
SECTION
  2
CLASSES
  0
CLASS
  1
ACDBDICTIONARYWDFLT
  2
AcDbDictionaryWithDefault
  3
AutoCAD 2000
 90
0
 91
1
280
0
281
0
  0
CLASS
  1
ACDBPLACEHOLDER
  2
AcDbPlaceHolder
  3
AutoCAD 2000
 90
0
 91
1
280
0
281
0
  0
CLASS
  1
LAYOUT
  2
AcDbLayout
  3
AutoCAD 2000
 90
0
 91
0
280
0
281
0
  0
ENDSEC
  0
SECTION
  2
TABLES
  0
TABLE
  2
VPORT
  5
8
100
AcDbSymbolTable
 70
2
  0
VPORT
  5
1F4
100
AcDbSymbolTableRecord
100
AcDbViewportTableRecord
  2
*ACTIVE
 70
0
 10
0.0
 20
0.0
 11
1.0
 21
1.0
 12
5.5
 22
4.25
 13
0.0
 23
0.0
 14
1.0
 24
1.0
 15
0.0
 25
0.0
 16
0.0
 26
0.0
 36
1.0
 17
0.0
 27
0.0
 37
0.0
 40
8.5
 41
1.2941176471
 42
50.0
 43
0.0
 44
0.0
 50
0.0
 51
0.0
 71
0
 72
100
 73
1
 74
1
 75
0
 76
0
 77
0
 78
0
  0
ENDTAB
  0
TABLE
  2
LTYPE
  5
5
100
AcDbSymbolTable
 70
6
  0
LTYPE
  5
14
100
AcDbSymbolTableRecord
100
AcDbLinetypeTableRecord
  2
BYBLOCK
 70
0
  3

 72
65
 73
0
 40
0.0
  0
LTYPE
  5
15
100
AcDbSymbolTableRecord
100
AcDbLinetypeTableRecord
  2
BYLAYER
 70
0
  3

 72
65
 73
0
 40
0.0
  0
LTYPE
  5
16
100
AcDbSymbolTableRecord
100
AcDbLinetypeTableRecord
  2
CONTINUOUS
 70
64
  3
Solid line
 72
65
 73
0
 40
0.0
  0
LTYPE
  5
1F5
100
AcDbSymbolTableRecord
100
AcDbLinetypeTableRecord
  2
CENTER
 70
64
  3
____ _ ____ _ ____ _ ____ _ ____ _ ____ _ ____
 72
65
 73
4
 40
0.6
 49
0.375
 74
0
 49
-0.075
 74
0
 49
0.075
 74
0
 49
-0.075
 74
0
  0
LTYPE
  5
1F6
100
AcDbSymbolTableRecord
100
AcDbLinetypeTableRecord
  2
HIDDEN
 70
64
  3
- - - - - - - - - - - - - - - - - - - -
 72
65
 73
2
 40
0.2
 49
0.1
 74
0
 49
-0.1
 74
0
  0
LTYPE
  5
1F7
100
AcDbSymbolTableRecord
100
AcDbLinetypeTableRecord
  2
PHANTOM
 70
64
  3
_____ _ _ _____ _ _ _____ _ _ _____
 72
65
 73
6
 40
0.8
 49
0.45
 74
0
 49
-0.05
 74
0
 49
0.1
 74
0
 49
-0.05
 74
0
 49
0.1
 74
0
 49
-0.05
 74
0
  0
LTYPE
  5
1F8
100
AcDbSymbolTableRecord
100
AcDbLinetypeTableRecord
  2
DOT
 70
64
  3
. . . . . . . . . . . . . . . . . . . .
 72
65
 73
2
 40
0.2
 49
0.1
 74
0
 49
-0.1
 74
0
  0
LTYPE
  5
1F9
100
AcDbSymbolTableRecord
100
AcDbLinetypeTableRecord
  2
DASHED
 70
64
  3
- - - - - - - - - - - - - - - - - - - -
 72
65
 73
2
 40
0.2
 49
0.1
 74
0
 49
-0.1
 74
0
  0
ENDTAB
  0
TABLE
  2
LAYER
  5
2
100
AcDbSymbolTable
 70
36
  0
LAYER
  5
10
100
AcDbSymbolTableRecord
100
AcDbLayerTableRecord
  2
0
 70
0
 62
7
  6
CONTINUOUS
370
-3
390
F
  0
LAYER
  5
1FA
100
AcDbSymbolTableRecord
100
AcDbLayerTableRecord
  2
DEFAULT_1
 70
0
 62
7
  6
CENTER
370
-3
390
F
  0
LAYER
  5
1FB
100
AcDbSymbolTableRecord
100
AcDbLayerTableRecord
  2
DEFAULT_2
 70
0
 62
8
  6
HIDDEN
370
-3
390
F
  0
LAYER
  5
1FC
100
AcDbSymbolTableRecord
100
AcDbLayerTableRecord
  2
DEFAULT_3
 70
0
 62
7
  6
PHANTOM
370
-3
390
F
  0
LAYER
  5
1FD
100
AcDbSymbolTableRecord
100
AcDbLayerTableRecord
  2
_  SHELL
 70
0
 62
7
  6
CONTINUOUS
370
-3
390
F
  0
LAYER
  5
1FE
100
AcDbSymbolTableRecord
100
AcDbLayerTableRecord
  2
06___PRT_ALL_SURFS_15
 70
0
 62
7
  6
CONTINUOUS
370
-3
390
F
  0
LAYER
  5
1FF
100
AcDbSymbolTableRecord
100
AcDbLayerTableRecord
  2
11_9
 70
0
 62
7
  6
CONTINUOUS
370
-3
390
F
  0
LAYER
  5
200
100
AcDbSymbolTableRecord
100
AcDbLayerTableRecord
  2
1451A0A-0Z1-01
 70
0
 62
7
  6
CONTINUOUS
370
-3
390
F
  0
LAYER
  5
201
100
AcDbSymbolTableRecord
100
AcDbLayerTableRecord
  2
1451A0A-0Z1-02
 70
0
 62
7
  6
CONTINUOUS
370
-3
390
F
  0
LAYER
  5
202
100
AcDbSymbolTableRecord
100
AcDbLayerTableRecord
  2
1451A0A-0Z1-02_1
 70
0
 62
7
  6
CONTINUOUS
370
-3
390
F
  0
LAYER
  5
203
100
AcDbSymbolTableRecord
100
AcDbLayerTableRecord
  2
1451A0A-0Z1-03
 70
0
 62
7
  6
CONTINUOUS
370
-3
390
F
  0
LAYER
  5
204
100
AcDbSymbolTableRecord
100
AcDbLayerTableRecord
  2
1451A0A-0Z1-04
 70
0
 62
7
  6
CONTINUOUS
370
-3
390
F
  0
LAYER
  5
205
100
AcDbSymbolTableRecord
100
AcDbLayerTableRecord
  2
1451A0A-0Z1-05
 70
0
 62
7
  6
CONTINUOUS
370
-3
390
F
  0
LAYER
  5
206
100
AcDbSymbolTableRecord
100
AcDbLayerTableRecord
  2
1451A0A-0Z1-06
 70
0
 62
7
  6
CONTINUOUS
370
-3
390
F
  0
LAYER
  5
207
100
AcDbSymbolTableRecord
100
AcDbLayerTableRecord
  2
1451A0A-0Z1-07
 70
0
 62
7
  6
CONTINUOUS
370
-3
390
F
  0
LAYER
  5
208
100
AcDbSymbolTableRecord
100
AcDbLayerTableRecord
  2
22_4
 70
0
 62
7
  6
CONTINUOUS
370
-3
390
F
  0
LAYER
  5
209
100
AcDbSymbolTableRecord
100
AcDbLayerTableRecord
  2
22_5
 70
0
 62
7
  6
CONTINUOUS
370
-3
390
F
  0
LAYER
  5
20A
100
AcDbSymbolTableRecord
100
AcDbLayerTableRecord
  2
264X18
 70
0
 62
7
  6
CONTINUOUS
370
-3
390
F
  0
LAYER
  5
20B
100
AcDbSymbolTableRecord
100
AcDbLayerTableRecord
  2
30X15
 70
0
 62
7
  6
CONTINUOUS
370
-3
390
F
  0
LAYER
  5
20C
100
AcDbSymbolTableRecord
100
AcDbLayerTableRecord
  2
315X18
 70
0
 62
7
  6
CONTINUOUS
370
-3
390
F
  0
LAYER
  5
20D
100
AcDbSymbolTableRecord
100
AcDbLayerTableRecord
  2
59X178
 70
0
 62
7
  6
CONTINUOUS
370
-3
390
F
  0
LAYER
  5
20E
100
AcDbSymbolTableRecord
100
AcDbLayerTableRecord
  2
6X15
 70
0
 62
7
  6
CONTINUOUS
370
-3
390
F
  0
LAYER
  5
20F
100
AcDbSymbolTableRecord
100
AcDbLayerTableRecord
  2
925X178
 70
0
 62
7
  6
CONTINUOUS
370
-3
390
F
  0
LAYER
  5
210
100
AcDbSymbolTableRecord
100
AcDbLayerTableRecord
  2
ALL_FEATURES
 70
0
 62
7
  6
CONTINUOUS
370
-3
390
F
  0
LAYER
  5
211
100
AcDbSymbolTableRecord
100
AcDbLayerTableRecord
  2
AXES_FEATURES
 70
0
 62
7
  6
CONTINUOUS
370
-3
390
F
  0
LAYER
  5
212
100
AcDbSymbolTableRecord
100
AcDbLayerTableRecord
  2
CHAMFER_FEATURES
 70
0
 62
7
  6
CONTINUOUS
370
-3
390
F
  0
LAYER
  5
213
100
AcDbSymbolTableRecord
100
AcDbLayerTableRecord
  2
COLOR14
 70
0
 62
7
  6
CONTINUOUS
370
-3
390
F
  0
LAYER
  5
214
100
AcDbSymbolTableRecord
100
AcDbLayerTableRecord
  2
COLOR33
 70
0
 62
7
  6
CONTINUOUS
370
-3
390
F
  0
LAYER
  5
215
100
AcDbSymbolTableRecord
100
AcDbLayerTableRecord
  2
COLOR9
 70
0
 62
7
  6
CONTINUOUS
370
-3
390
F
  0
LAYER
  5
216
100
AcDbSymbolTableRecord
100
AcDbLayerTableRecord
  2
CUT_FEATURES
 70
0
 62
7
  6
CONTINUOUS
370
-3
390
F
  0
LAYER
  5
217
100
AcDbSymbolTableRecord
100
AcDbLayerTableRecord
  2
DATUM_CURVES
 70
0
 62
7
  6
CONTINUOUS
370
-3
390
F
  0
LAYER
  5
218
100
AcDbSymbolTableRecord
100
AcDbLayerTableRecord
  2
DATUM_PLANES
 70
0
 62
7
  6
CONTINUOUS
370
-3
390
F
  0
LAYER
  5
219
100
AcDbSymbolTableRecord
100
AcDbLayerTableRecord
  2
DATUM_POINTS
 70
0
 62
7
  6
CONTINUOUS
370
-3
390
F
  0
LAYER
  5
21A
100
AcDbSymbolTableRecord
100
AcDbLayerTableRecord
  2
DEFAULT_COORDINATE_SYSTEM
 70
0
 62
7
  6
CONTINUOUS
370
-3
390
F
  0
LAYER
  5
21B
100
AcDbSymbolTableRecord
100
AcDbLayerTableRecord
  2
DEFAULT_DATUM_AXES
 70
0
 62
7
  6
CONTINUOUS
370
-3
390
F
  0
LAYER
  5
21C
100
AcDbSymbolTableRecord
100
AcDbLayerTableRecord
  2
DEFAULT_DATUM_CURVES
 70
0
 62
7
  6
CONTINUOUS
370
-3
390
F
  0
LAYER
  5
21D
100
AcDbSymbolTableRecord
100
AcDbLayerTableRecord
  2
DEFAULT_DATUM_PLANES
 70
0
 62
7
  6
CONTINUOUS
370
-3
390
F
  0
LAYER
  5
21E
100
AcDbSymbolTableRecord
100
AcDbLayerTableRecord
  2
DEFAULT_SURFACES
 70
0
 62
7
  6
CONTINUOUS
370
-3
390
F
  0
LAYER
  5
21F
100
AcDbSymbolTableRecord
100
AcDbLayerTableRecord
  2
DIMENSIONS
 70
0
 62
7
  6
CONTINUOUS
370
-3
390
F
  0
LAYER
  5
220
100
AcDbSymbolTableRecord
100
AcDbLayerTableRecord
  2
HIDE
 70
0
 62
7
  6
CONTINUOUS
370
-3
390
F
  0
LAYER
  5
221
100
AcDbSymbolTableRecord
100
AcDbLayerTableRecord
  2
HIDE_10
 70
0
 62
7
  6
CONTINUOUS
370
-3
390
F
  0
LAYER
  5
222
100
AcDbSymbolTableRecord
100
AcDbLayerTableRecord
  2
HIDE_7
 70
0
 62
7
  6
CONTINUOUS
370
-3
390
F
  0
LAYER
  5
223
100
AcDbSymbolTableRecord
100
AcDbLayerTableRecord
  2
HIDE_8
 70
0
 62
7
  6
CONTINUOUS
370
-3
390
F
  0
LAYER
  5
224
100
AcDbSymbolTableRecord
100
AcDbLayerTableRecord
  2
HIDE_9
 70
0
 62
7
  6
CONTINUOUS
370
-3
390
F
  0
LAYER
  5
225
100
AcDbSymbolTableRecord
100
AcDbLayerTableRecord
  2
HOLE_FEATURES
 70
0
 62
7
  6
CONTINUOUS
370
-3
390
F
  0
LAYER
  5
226
100
AcDbSymbolTableRecord
100
AcDbLayerTableRecord
  2
INTFCLR_33883
 70
0
 62
7
  6
CONTINUOUS
370
-3
390
F
  0
LAYER
  5
227
100
AcDbSymbolTableRecord
100
AcDbLayerTableRecord
  2
INTFCLR_33883_1
 70
0
 62
7
  6
CONTINUOUS
370
-3
390
F
  0
LAYER
  5
228
100
AcDbSymbolTableRecord
100
AcDbLayerTableRecord
  2
INTFCLR_33883_2
 70
0
 62
7
  6
CONTINUOUS
370
-3
390
F
  0
LAYER
  5
229
100
AcDbSymbolTableRecord
100
AcDbLayerTableRecord
  2
INTFCLR_33883_3
 70
0
 62
7
  6
CONTINUOUS
370
-3
390
F
  0
LAYER
  5
22A
100
AcDbSymbolTableRecord
100
AcDbLayerTableRecord
  2
INTFCLR_33883_4
 70
0
 62
7
  6
CONTINUOUS
370
-3
390
F
  0
LAYER
  5
22B
100
AcDbSymbolTableRecord
100
AcDbLayerTableRecord
  2
INTFCLR_33883_5
 70
0
 62
7
  6
CONTINUOUS
370
-3
390
F
  0
LAYER
  5
22C
100
AcDbSymbolTableRecord
100
AcDbLayerTableRecord
  2
INTF_BLANK
 70
0
 62
7
  6
CONTINUOUS
370
-3
390
F
  0
LAYER
  5
22D
100
AcDbSymbolTableRecord
100
AcDbLayerTableRecord
  2
NOTES
 70
0
 62
7
  6
CONTINUOUS
370
-3
390
F
  0
LAYER
  5
22E
100
AcDbSymbolTableRecord
100
AcDbLayerTableRecord
  2
PART_REFERENCE_DIMENSIONS
 70
0
 62
7
  6
CONTINUOUS
370
-3
390
F
  0
LAYER
  5
22F
100
AcDbSymbolTableRecord
100
AcDbLayerTableRecord
  2
POINTS
 70
0
 62
7
  6
CONTINUOUS
370
-3
390
F
  0
LAYER
  5
230
100
AcDbSymbolTableRecord
100
AcDbLayerTableRecord
  2
PROTRUSION_FEATURES
 70
0
 62
7
  6
CONTINUOUS
370
-3
390
F
  0
LAYER
  5
231
100
AcDbSymbolTableRecord
100
AcDbLayerTableRecord
  2
REFERENCE_DIMENSIONS
 70
0
 62
7
  6
CONTINUOUS
370
-3
390
F
  0
LAYER
  5
232
100
AcDbSymbolTableRecord
100
AcDbLayerTableRecord
  2
ROUND_FEATURES
 70
0
 62
7
  6
CONTINUOUS
370
-3
390
F
  0
LAYER
  5
233
100
AcDbSymbolTableRecord
100
AcDbLayerTableRecord
  2
S01012-09A
 70
0
 62
7
  6
CONTINUOUS
370
-3
390
F
  0
LAYER
  5
234
100
AcDbSymbolTableRecord
100
AcDbLayerTableRecord
  2
S01012-10A
 70
0
 62
7
  6
CONTINUOUS
370
-3
390
F
  0
LAYER
  5
235
100
AcDbSymbolTableRecord
100
AcDbLayerTableRecord
  2
S02015-05
 70
0
 62
7
  6
CONTINUOUS
370
-3
390
F
  0
LAYER
  5
236
100
AcDbSymbolTableRecord
100
AcDbLayerTableRecord
  2
S02015-16B
 70
0
 62
7
  6
CONTINUOUS
370
-3
390
F
  0
LAYER
  5
237
100
AcDbSymbolTableRecord
100
AcDbLayerTableRecord
  2
S02015-17
 70
0
 62
7
  6
CONTINUOUS
370
-3
390
F
  0
LAYER
  5
238
100
AcDbSymbolTableRecord
100
AcDbLayerTableRecord
  2
S02015-18
 70
0
 62
7
  6
CONTINUOUS
370
-3
390
F
  0
LAYER
  5
239
100
AcDbSymbolTableRecord
100
AcDbLayerTableRecord
  2
S02015-20A
 70
0
 62
7
  6
CONTINUOUS
370
-3
390
F
  0
LAYER
  5
23A
100
AcDbSymbolTableRecord
100
AcDbLayerTableRecord
  2
S02015-31A
 70
0
 62
7
  6
CONTINUOUS
370
-3
390
F
  0
LAYER
  5
23B
100
AcDbSymbolTableRecord
100
AcDbLayerTableRecord
  2
S02015-32A
 70
0
 62
7
  6
CONTINUOUS
370
-3
390
F
  0
LAYER
  5
23C
100
AcDbSymbolTableRecord
100
AcDbLayerTableRecord
  2
S02015-32A_1
 70
0
 62
7
  6
CONTINUOUS
370
-3
390
F
  0
LAYER
  5
23D
100
AcDbSymbolTableRecord
100
AcDbLayerTableRecord
  2
S02015-35
 70
0
 62
7
  6
CONTINUOUS
370
-3
390
F
  0
LAYER
  5
23E
100
AcDbSymbolTableRecord
100
AcDbLayerTableRecord
  2
S15025-04A
 70
0
 62
7
  6
CONTINUOUS
370
-3
390
F
  0
LAYER
  5
23F
100
AcDbSymbolTableRecord
100
AcDbLayerTableRecord
  2
SURFACE
 70
0
 62
7
  6
CONTINUOUS
370
-3
390
F
  0
LAYER
  5
240
100
AcDbSymbolTableRecord
100
AcDbLayerTableRecord
  2
___SHELL
 70
0
 62
7
  6
CONTINUOUS
370
-3
390
F
  0
ENDTAB
  0
TABLE
  2
STYLE
  5
3
100
AcDbSymbolTable
 70
1
  0
STYLE
  5
11
100
AcDbSymbolTableRecord
100
AcDbTextStyleTableRecord
  2
STANDARD
 70
0
 40
0.0
 41
0.8
 50
0.0
 71
0
 42
0.2
  3
txt
  4

  0
STYLE
  5
241
100
AcDbSymbolTableRecord
100
AcDbTextStyleTableRecord
  2
TEXTSTYLE_1
 70
0
 40
0.0
 41
0.8
 50
0.0
 71
0
 42
0.2
  3
gdt
  4

  0
ENDTAB
  0
TABLE
  2
VIEW
  5
6
100
AcDbSymbolTable
 70
0
  0
ENDTAB
  0
TABLE
  2
UCS
  5
7
100
AcDbSymbolTable
 70
0
  0
ENDTAB
  0
TABLE
  2
APPID
  5
9
100
AcDbSymbolTable
 70
1
  0
APPID
  5
242
100
AcDbSymbolTableRecord
100
AcDbRegAppTableRecord
  2
ACAD
 70
0
  0
ENDTAB
  0
TABLE
  2
BLOCK_RECORD
  5
1
100
AcDbSymbolTable
 70
0
  0
BLOCK_RECORD
  5
243
100
AcDbSymbolTableRecord
100
AcDbBlockTableRecord
  2
*Model_Space
  0
BLOCK_RECORD
  5
244
100
AcDbSymbolTableRecord
100
AcDbBlockTableRecord
  2
*Paper_Space
  0
BLOCK_RECORD
  5
245
100
AcDbSymbolTableRecord
100
AcDbBlockTableRecord
  2
_FILLED
  0
ENDTAB
  0
TABLE
  2
DIMSTYLE
  5
A
100
AcDbSymbolTable
 70
1
100
AcDbDimStyleTable
 71
0
  0
DIMSTYLE
105
246
100
AcDbSymbolTableRecord
100
AcDbDimStyleTableRecord
  2
STANDARD
 70
0
  3

  4

 40
1.0
 41
0.1
 42
0.0625
 43
0.38
 44
0.125
 45
0.0
 46
0.0
 47
0.01
 48
0.01
140
0.08
141
0.09
142
0.0
143
25.4
144
1.0
145
0.0
146
1.0
147
0.09
 71
1.0
 72
0.0
 73
1
 74
1
 75
0
 76
0
 77
0
 78
4
 79
1
170
1
171
1
172
0
173
0
174
0
175
0
176
0
177
0
178
0
270
2
179
2
271
2
272
2
273
2
274
2
275
0
280
0
281
0
282
0
283
1
284
4
285
0
286
0
287
3
288
0
340
11
278
46
341
245
342
245
343
245
344
245
  0
ENDTAB
  0
ENDSEC
  0
SECTION
  2
BLOCKS
  0
BLOCK
  5
20
100
AcDbEntity
  8
0
100
AcDbBlockBegin
  2
*Model_Space
 70
0
 10
0.0
 20
0.0
 30
0.0
  3
*Model_Space
  1

  0
ENDBLK
  5
21
100
AcDbEntity
  8
0
100
AcDbBlockEnd
  0
BLOCK
  5
1C
100
AcDbEntity
  8
0
100
AcDbBlockBegin
  2
*Paper_Space
 70
0
 10
0.0
 20
0.0
 30
0.0
  3
*Paper_Space
  1

  0
ENDBLK
  5
1D
100
AcDbEntity
  8
0
100
AcDbBlockEnd
  0
BLOCK
  5
247
100
AcDbEntity
  8
0
100
AcDbBlockBegin
  2
_FILLED
 70
64
 10
0.0
 20
0.0
  3
_FILLED
  1

  0
SOLID
  5
248
100
AcDbEntity
  8
0
  6
BYBLOCK
 62
0
100
AcDbTrace
 10
0.0
 20
0.0
 11
-1.0
 21
0.2
 12
-1.0
 22
-0.2
 13
-1.0
 23
-0.2
  0
ENDBLK
  5
249
100
AcDbEntity
  8
0
  6
BYBLOCK
 62
0
100
AcDbBlockEnd
  0
ENDSEC
  0
SECTION
  2
ENTITIES
  0
MTEXT
  5
24A
100
AcDbEntity
  8
0
100
AcDbMText
 62
2
  6
CONTINUOUS
  7
STANDARD
 71
3
 72
1
 10
5.5641597205
 20
1.391022194
 30
0.0
 11
1.0
 21
0.0
 31
0.0
 73
2
 44
0.9
  1
SCALE  1.000
 40
0.08
 41
0.768
  0
LINE
  5
24B
100
AcDbEntity
  8
0
100
AcDbLine
 62
7
  6
CONTINUOUS
 10
0.0
 20
0.0
 11
0.0
 21
8.5
  0
LINE
  5
24C
100
AcDbEntity
  8
0
100
AcDbLine
 62
7
  6
CONTINUOUS
 10
0.0
 20
0.0
 11
11.0
 21
0.0
  0
LINE
  5
24D
100
AcDbEntity
  8
0
100
AcDbLine
 62
7
  6
CONTINUOUS
 10
0.0
 20
8.5
 11
11.0
 21
8.5
  0
LINE
  5
24E
100
AcDbEntity
  8
0
100
AcDbLine
 62
7
  6
CONTINUOUS
 10
11.0
 20
0.0
 11
11.0
 21
8.5
  0
LINE
  5
24F
100
AcDbEntity
  8
0
100
AcDbLine
 62
7
  6
CONTINUOUS
 10
3.2670285749
 20
2.657156364
 11
3.2751826629
 21
2.649002276
  0
LINE
  5
250
100
AcDbEntity
  8
0
100
AcDbLine
 62
7
  6
CONTINUOUS
 10
3.3220307331
 20
2.6571558248
 11
3.3301842819
 21
2.649002276
  0
LINE
  5
251
100
AcDbEntity
  8
0
100
AcDbLine
 62
7
  6
CONTINUOUS
 10
3.5053805111
 20
2.6156090382
 11
3.5135344863
 21
2.6074550631
  0
LINE
  5
252
100
AcDbEntity
  8
0
100
AcDbLine
 62
7
  6
CONTINUOUS
 10
3.4832874008
 20
2.6571557446
 11
3.4914408694
 21
2.649002276
  0
LINE
  5
253
100
AcDbEntity
  8
0
100
AcDbLine
 62
7
  6
CONTINUOUS
 10
3.053113354
 20
3.4522054664
 11
3.053113354
 21
3.2691566388
  0
LINE
  5
254
100
AcDbEntity
  8
0
100
AcDbLine
 62
7
  6
CONTINUOUS
 10
3.5999455061
 20
2.6156089031
 11
3.6080993461
 21
2.6074550631
  0
LINE
  5
255
100
AcDbEntity
  8
0
100
AcDbLine
 62
7
  6
CONTINUOUS
 10
3.7398095648
 20
2.6571557667
 11
3.7479630555
 21
2.649002276
  0
LINE
  5
256
100
AcDbEntity
  8
0
100
AcDbLine
 62
7
  6
CONTINUOUS
 10
3.782630787
 20
2.6156089031
 11
3.790784627
 21
2.6074550631
  0
LINE
  5
257
100
AcDbEntity
  8
0
100
AcDbLine
 62
7
  6
CONTINUOUS
 10
3.2612629603
 20
2.7059956054
 11
3.2612629603
 21
2.6710757889
  0
LINE
  5
258
100
AcDbEntity
  8
0
100
AcDbLine
 62
7
  6
CONTINUOUS
 10
4.3876080669
 20
2.3800905424
 11
4.4759571661
 21
2.3800905424
  0
LINE
  5
259
100
AcDbEntity
  8
0
100
AcDbLine
 62
7
  6
CONTINUOUS
 10
4.4800060628
 20
2.3800905424
 11
4.6959657569
 21
2.3800905424
  0
LINE
  5
25A
100
AcDbEntity
  8
0
100
AcDbLine
 62
7
  6
CONTINUOUS
 10
4.7029898297
 20
2.3800905424
 11
4.7820848561
 21
2.3800905424
  0
LINE
  5
25B
100
AcDbEntity
  8
0
100
AcDbLine
 62
7
  6
CONTINUOUS
 10
4.7892321541
 20
2.3800905424
 11
5.0052043667
 21
2.3800905424
  0
LINE
  5
25C
100
AcDbEntity
  8
0
100
AcDbLine
 62
7
  6
CONTINUOUS
 10
5.0978567133
 20
2.3800905424
 11
5.1269945539
 21
2.3800905424
  0
LINE
  5
25D
100
AcDbEntity
  8
0
100
AcDbLine
 62
7
  6
CONTINUOUS
 10
5.134141852
 20
2.3800905424
 11
5.3501024099
 21
2.3800905424
  0
LINE
  5
25E
100
AcDbEntity
  8
0
100
AcDbLine
 62
7
  6
CONTINUOUS
 10
5.3547025884
 20
2.3800905424
 11
5.5286186411
 21
2.3800905424
  0
LINE
  5
25F
100
AcDbEntity
  8
0
100
AcDbLine
 62
7
  6
CONTINUOUS
 10
4.3736622127
 20
2.3858557937
 11
4.7483166884
 21
2.3858555338
  0
LINE
  5
260
100
AcDbEntity
  8
0
100
AcDbLine
 62
7
  6
CONTINUOUS
 10
4.7753115368
 20
2.3858555338
 11
5.0191249841
 21
2.3858555338
  0
LINE
  5
261
100
AcDbEntity
  8
0
100
AcDbLine
 62
7
  6
CONTINUOUS
 10
5.8978904204
 20
2.3859044421
 11
5.8819041849
 21
2.3859044421
  0
LINE
  5
262
100
AcDbEntity
  8
0
100
AcDbLine
 62
7
  6
CONTINUOUS
 10
4.7148140367
 20
2.390776937
 11
4.7703901336
 21
2.390776937
  0
LINE
  5
263
100
AcDbEntity
  8
0
100
AcDbLine
 62
7
  6
CONTINUOUS
 10
5.0240463873
 20
2.390776937
 11
5.1152940041
 21
2.390776937
  0
LINE
  5
264
100
AcDbEntity
  8
0
100
AcDbLine
 62
7
  6
CONTINUOUS
 10
4.3655086283
 20
2.3940093781
 11
4.7180464762
 21
2.3940093765
  0
LINE
  5
265
100
AcDbEntity
  8
0
100
AcDbLine
 62
7
  6
CONTINUOUS
 10
4.7671576924
 20
2.3940093781
 11
5.0272788284
 21
2.3940093781
  0
LINE
  5
266
100
AcDbEntity
  8
0
100
AcDbLine
 62
7
  6
CONTINUOUS
 10
5.1120615646
 20
2.3940093765
 11
5.5507180798
 21
2.3940093781
  0
LINE
  5
267
100
AcDbEntity
  8
0
100
AcDbLine
 62
7
  6
CONTINUOUS
 10
4.3146246751
 20
2.3997755818
 11
5.601602033
 21
2.3997755818
  0
LINE
  5
268
100
AcDbEntity
  8
0
100
AcDbLine
 62
7
  6
CONTINUOUS
 10
4.2961358509
 20
2.4127279106
 11
5.6200908571
 21
2.4127279106
  0
LINE
  5
269
100
AcDbEntity
  8
0
100
AcDbLine
 62
7
  6
CONTINUOUS
 10
5.1202154073
 20
2.3858555338
 11
5.5425644953
 21
2.3858557937
  0
LINE
  5
26A
100
AcDbEntity
  8
0
100
AcDbLine
 62
7
  6
CONTINUOUS
 10
3.9725715009
 20
2.54788604
 11
3.9725385585
 21
2.5478912604
  0
LINE
  5
26B
100
AcDbEntity
  8
0
100
AcDbLine
 62
7
  6
CONTINUOUS
 10
3.9724959336
 20
2.5478981245
 11
3.9724746096
 21
2.5479016368
  0
LWPOLYLINE
  5
26C
100
AcDbEntity
  8
0
100
AcDbPolyline
 62
7
  6
CONTINUOUS
 90
23
 70
0
 10
3.9724679998
 20
2.5479027534
 10
3.9724824026
 20
2.54790025
 10
3.9725438385
 20
2.5478890268
 10
3.9726392369
 20
2.5478705535
 10
3.9727792619
 20
2.5478415597
 10
3.9730216871
 20
2.5477865825
 10
3.9733766516
 20
2.5476956048
 10
3.9738205807
 20
2.547564417
 10
3.9743550308
 20
2.5473803883
 10
3.9749811087
 20
2.5471270744
 10
3.9756698452
 20
2.5467981786
 10
3.9763774406
 20
2.5464000349
 10
3.9770855097
 20
2.5459335511
 10
3.9777819735
 20
2.5453977695
 10
3.9784574678
 20
2.5447914146
 10
3.9791240161
 20
2.5440895148
 10
3.9797856639
 20
2.5432610548
 10
3.9804099622
 20
2.54230991
 10
3.9809646587
 20
2.5412495951
 10
3.9814330273
 20
2.540066857
 10
3.9817946809
 20
2.538732474
 10
3.9820072086
 20
2.5372657253
 10
3.9820452031
 20
2.5363131864
  0
LWPOLYLINE
  5
26D
100
AcDbEntity
  8
0
100
AcDbPolyline
 62
7
  6
CONTINUOUS
 90
18
 70
0
 10
4.0083376215
 20
2.5463699039
 10
4.0082059453
 20
2.5464040475
 10
4.0079394737
 20
2.5464758035
 10
4.0077641117
 20
2.5465258839
 10
4.0076648427
 20
2.5465561209
 10
4.0076518399
 20
2.5465604131
 10
4.0077814602
 20
2.5465131543
 10
4.008029977
 20
2.5464118583
 10
4.0083949439
 20
2.5462442044
 10
4.0089414792
 20
2.5459553322
 10
4.0096531632
 20
2.5455114634
 10
4.0104505983
 20
2.5449151099
 10
4.0113136933
 20
2.5441286057
 10
4.0122843815
 20
2.5430119448
 10
4.0132585947
 20
2.5415055794
 10
4.014031042
 20
2.5397481652
 10
4.0145143415
 20
2.5378336576
 10
4.0146691001
 20
2.5359340071
  0
LWPOLYLINE
  5
26E
100
AcDbEntity
  8
0
100
AcDbPolyline
 62
7
  6
CONTINUOUS
 90
12
 70
0
 10
4.4244364616
 20
2.5389809728
 10
4.4238801526
 20
2.5392121933
 10
4.4235996941
 20
2.5393451877
 10
4.4236845874
 20
2.5392917426
 10
4.4240216742
 20
2.5390535377
 10
4.4245427385
 20
2.538612503
 10
4.4252547975
 20
2.5378666889
 10
4.4260843333
 20
2.5367291259
 10
4.4268409307
 20
2.53526395
 10
4.4274102647
 20
2.5334656898
 10
4.4276621857
 20
2.531390809
 10
4.427665052
 20
2.531130726
  0
LINE
  5
26F
100
AcDbEntity
  8
0
100
AcDbLine
 62
7
  6
CONTINUOUS
 10
3.98550511
 20
2.5014786914
 11
3.9982714051
 21
2.4887123963
  0
LINE
  5
270
100
AcDbEntity
  8
0
100
AcDbLine
 62
7
  6
CONTINUOUS
 10
4.0181278679
 20
2.5014786914
 11
4.030894163
 21
2.4887123963
  0
LINE
  5
271
100
AcDbEntity
  8
0
100
AcDbLine
 62
7
  6
CONTINUOUS
 10
4.0409867888
 20
2.6156089031
 11
4.0491406288
 21
2.6074550631
  0
LINE
  5
272
100
AcDbEntity
  8
0
100
AcDbLine
 62
7
  6
CONTINUOUS
 10
4.0741154377
 20
2.6571561154
 11
4.0822692513
 21
2.6490023018
  0
LINE
  5
273
100
AcDbEntity
  8
0
100
AcDbLine
 62
7
  6
CONTINUOUS
 10
3.3162645793
 20
2.7059956054
 11
3.3162645793
 21
2.6710757889
  0
LINE
  5
274
100
AcDbEntity
  8
0
100
AcDbLine
 62
7
  6
CONTINUOUS
 10
3.338113354
 20
3.6747777956
 11
3.338113354
 21
3.640789363
  0
LINE
  5
275
100
AcDbEntity
  8
0
100
AcDbLine
 62
7
  6
CONTINUOUS
 10
6.983113354
 20
2.7343600634
 11
6.835113354
 21
2.7266037121
  0
LINE
  5
276
100
AcDbEntity
  8
0
100
AcDbLine
 62
7
  6
CONTINUOUS
 10
4.7472070591
 20
2.4852530645
 11
4.6546611507
 21
2.4852530645
  0
LINE
  5
277
100
AcDbEntity
  8
0
100
AcDbLine
 62
7
  6
CONTINUOUS
 10
4.1317793567
 20
2.4852530645
 11
4.0392898377
 21
2.4852530645
  0
LINE
  5
278
100
AcDbEntity
  8
0
100
AcDbLine
 62
7
  6
CONTINUOUS
 10
4.0066389386
 20
2.4852530645
 11
4.0355261876
 21
2.4852530645
  0
LINE
  5
279
100
AcDbEntity
  8
0
100
AcDbLine
 62
7
  6
CONTINUOUS
 10
4.452243302
 20
2.4852530645
 11
4.5448194417
 21
2.4852530645
  0
LINE
  5
27A
100
AcDbEntity
  8
0
100
AcDbLine
 62
7
  6
CONTINUOUS
 10
4.8723418599
 20
2.4852530645
 11
4.9648891073
 21
2.4852530645
  0
LINE
  5
27B
100
AcDbEntity
  8
0
100
AcDbLine
 62
7
  6
CONTINUOUS
 10
5.5118396281
 20
2.4852530645
 11
5.6044076397
 21
2.4852530645
  0
LINE
  5
27C
100
AcDbEntity
  8
0
100
AcDbLine
 62
7
  6
CONTINUOUS
 10
5.7515785573
 20
2.4852530645
 11
5.7549973074
 21
2.4852530645
  0
LINE
  5
27D
100
AcDbEntity
  8
0
100
AcDbLine
 62
7
  6
CONTINUOUS
 10
5.6464878544
 20
2.4852530645
 11
5.750643543
 21
2.4852530645
  0
LINE
  5
27E
100
AcDbEntity
  8
0
100
AcDbLine
 62
7
  6
CONTINUOUS
 10
5.7599922665
 20
2.4852530645
 11
5.8525699024
 21
2.4852530645
  0
LINE
  5
27F
100
AcDbEntity
  8
0
100
AcDbLine
 62
7
  6
CONTINUOUS
 10
4.8639750494
 20
2.4887123963
 11
4.9732559178
 21
2.4887123963
  0
LINE
  5
280
100
AcDbEntity
  8
0
100
AcDbLine
 62
7
  6
CONTINUOUS
 10
4.4438909376
 20
2.4887123963
 11
4.553171806
 21
2.4887123963
  0
LINE
  5
281
100
AcDbEntity
  8
0
100
AcDbLine
 62
7
  6
CONTINUOUS
 10
4.6462936707
 20
2.4887123963
 11
4.7555745391
 21
2.4887123963
  0
LINE
  5
282
100
AcDbEntity
  8
0
100
AcDbLine
 62
7
  6
CONTINUOUS
 10
3.9982900921
 20
2.4887124332
 11
4.1401750314
 21
2.4887123963
  0
LINE
  5
283
100
AcDbEntity
  8
0
100
AcDbLine
 62
7
  6
CONTINUOUS
 10
5.5034831993
 20
2.4887123968
 11
5.6127640686
 21
2.4887123968
  0
LINE
  5
284
100
AcDbEntity
  8
0
100
AcDbLine
 62
7
  6
CONTINUOUS
 10
5.6477469481
 20
2.4887123961
 11
5.8609215182
 21
2.4887123959
  0
LINE
  5
285
100
AcDbEntity
  8
0
100
AcDbLine
 62
7
  6
CONTINUOUS
 10
4.5551524784
 20
2.4906930687
 11
4.6443129983
 21
2.4906930687
  0
LINE
  5
286
100
AcDbEntity
  8
0
100
AcDbLine
 62
7
  6
CONTINUOUS
 10
4.7575552115
 20
2.4906930687
 11
4.861994377
 21
2.4906930687
  0
LINE
  5
287
100
AcDbEntity
  8
0
100
AcDbLine
 62
7
  6
CONTINUOUS
 10
4.9752365902
 20
2.4906930687
 11
5.5015025273
 21
2.4906930687
  0
LINE
  5
288
100
AcDbEntity
  8
0
100
AcDbLine
 62
7
  6
CONTINUOUS
 10
5.6147447405
 20
2.4906930687
 11
5.647748245
 21
2.4906930687
  0
LINE
  5
289
100
AcDbEntity
  8
0
100
AcDbLine
 62
7
  6
CONTINUOUS
 10
4.2677588541
 20
2.4906930687
 11
4.4419102653
 21
2.4906930687
  0
LINE
  5
28A
100
AcDbEntity
  8
0
100
AcDbLine
 62
7
  6
CONTINUOUS
 10
3.98550511
 20
2.5014786914
 11
4.1529413265
 21
2.5014786914
  0
LINE
  5
28B
100
AcDbEntity
  8
0
100
AcDbLine
 62
7
  6
CONTINUOUS
 10
4.4311246426
 20
2.5014786914
 11
4.5659381011
 21
2.5014786914
  0
LINE
  5
28C
100
AcDbEntity
  8
0
100
AcDbLine
 62
7
  6
CONTINUOUS
 10
4.6335273756
 20
2.5014786914
 11
4.7683408342
 21
2.5014786914
  0
LINE
  5
28D
100
AcDbEntity
  8
0
100
AcDbLine
 62
7
  6
CONTINUOUS
 10
4.8512087543
 20
2.5014786914
 11
4.9860222129
 21
2.5014786914
  0
LINE
  5
28E
100
AcDbEntity
  8
0
100
AcDbLine
 62
7
  6
CONTINUOUS
 10
5.4907169047
 20
2.5014786913
 11
5.6255303631
 21
2.5014786913
  0
LINE
  5
28F
100
AcDbEntity
  8
0
100
AcDbLine
 62
7
  6
CONTINUOUS
 10
5.6369626223
 20
2.5014786914
 11
5.8736878137
 21
2.5014786914
  0
LINE
  5
290
100
AcDbEntity
  8
0
100
AcDbLine
 62
7
  6
CONTINUOUS
 10
5.8771472262
 20
2.50983039
 11
5.6335032099
 21
2.50983039
  0
LINE
  5
291
100
AcDbEntity
  8
0
100
AcDbLine
 62
7
  6
CONTINUOUS
 10
5.6289897756
 20
2.50983039
 11
5.4872574922
 21
2.50983039
  0
LINE
  5
292
100
AcDbEntity
  8
0
100
AcDbLine
 62
7
  6
CONTINUOUS
 10
4.9894816253
 20
2.50983039
 11
4.8477493419
 21
2.50983039
  0
LINE
  5
293
100
AcDbEntity
  8
0
100
AcDbLine
 62
7
  6
CONTINUOUS
 10
4.7718002466
 20
2.50983039
 11
4.6300679632
 21
2.50983039
  0
LINE
  5
294
100
AcDbEntity
  8
0
100
AcDbLine
 62
7
  6
CONTINUOUS
 10
4.5693975136
 20
2.50983039
 11
4.4276652301
 21
2.50983039
  0
LINE
  5
295
100
AcDbEntity
  8
0
100
AcDbLine
 62
7
  6
CONTINUOUS
 10
4.1564007389
 20
2.50983039
 11
3.9820699816
 21
2.50983039
  0
LINE
  5
296
100
AcDbEntity
  8
0
100
AcDbLine
 62
7
  6
CONTINUOUS
 10
4.2347358325
 20
2.5163968854
 11
4.4276652301
 21
2.5163968854
  0
LINE
  5
297
100
AcDbEntity
  8
0
100
AcDbLine
 62
7
  6
CONTINUOUS
 10
4.5693978377
 20
2.5163968854
 11
4.6300679632
 21
2.5163968854
  0
LINE
  5
298
100
AcDbEntity
  8
0
100
AcDbLine
 62
7
  6
CONTINUOUS
 10
4.7718005392
 20
2.5163968854
 11
4.8477493419
 21
2.5163968854
  0
LINE
  5
299
100
AcDbEntity
  8
0
100
AcDbLine
 62
7
  6
CONTINUOUS
 10
4.9894816253
 20
2.5163968854
 11
5.4872574922
 21
2.5163968854
  0
LINE
  5
29A
100
AcDbEntity
  8
0
100
AcDbLine
 62
7
  6
CONTINUOUS
 10
5.6289897756
 20
2.5163968854
 11
5.6335032099
 21
2.5163968854
  0
LINE
  5
29B
100
AcDbEntity
  8
0
100
AcDbLine
 62
7
  6
CONTINUOUS
 10
6.1195306769
 20
2.5745113395
 11
3.7966960312
 21
2.5745113395
  0
LINE
  5
29C
100
AcDbEntity
  8
0
100
AcDbLine
 62
7
  6
CONTINUOUS
 10
3.7849115862
 20
2.5812825589
 11
6.1313151219
 21
2.5812825589
  0
LINE
  5
29D
100
AcDbEntity
  8
0
100
AcDbLine
 62
7
  6
CONTINUOUS
 10
6.2202785812
 20
2.5966247253
 11
3.6959473473
 21
2.5966199133
  0
LINE
  5
29E
100
AcDbEntity
  8
0
100
AcDbLine
 62
7
  6
CONTINUOUS
 10
4.149099571
 20
2.6016897709
 11
4.0630744756
 21
2.6016897709
  0
LINE
  5
29F
100
AcDbEntity
  8
0
100
AcDbLine
 62
7
  6
CONTINUOUS
 10
3.8907435692
 20
2.6016897709
 11
3.8047184738
 21
2.6016897709
  0
LINE
  5
2A0
100
AcDbEntity
  8
0
100
AcDbLine
 62
7
  6
CONTINUOUS
 10
3.5274739687
 20
2.6016897709
 11
3.6134877927
 21
2.6016897709
  0
LINE
  5
2A1
100
AcDbEntity
  8
0
100
AcDbLine
 62
7
  6
CONTINUOUS
 10
3.6220221383
 20
2.6016897709
 11
3.7080693429
 21
2.6016897709
  0
LINE
  5
2A2
100
AcDbEntity
  8
0
100
AcDbLine
 62
7
  6
CONTINUOUS
 10
4.3794944569
 20
2.6016897709
 11
4.4655199661
 21
2.6016897709
  0
LINE
  5
2A3
100
AcDbEntity
  8
0
100
AcDbLine
 62
7
  6
CONTINUOUS
 10
4.7324045057
 20
2.6016897709
 11
4.8184516407
 21
2.6016897709
  0
LINE
  5
2A4
100
AcDbEntity
  8
0
100
AcDbLine
 62
7
  6
CONTINUOUS
 10
5.0977760241
 20
2.6016897709
 11
5.1838212456
 21
2.6016897709
  0
LINE
  5
2A5
100
AcDbEntity
  8
0
100
AcDbLine
 62
7
  6
CONTINUOUS
 10
5.45071116
 20
2.6016897709
 11
5.5367278331
 21
2.6016897709
  0
LINE
  5
2A6
100
AcDbEntity
  8
0
100
AcDbLine
 62
7
  6
CONTINUOUS
 10
5.767116668
 20
2.6016897709
 11
5.8531627016
 21
2.6016897709
  0
LINE
  5
2A7
100
AcDbEntity
  8
0
100
AcDbLine
 62
7
  6
CONTINUOUS
 10
6.0254747484
 20
2.6016897709
 11
6.1115166248
 21
2.6016897709
  0
LINE
  5
2A8
100
AcDbEntity
  8
0
100
AcDbLine
 62
7
  6
CONTINUOUS
 10
6.2081558771
 20
2.6016897709
 11
6.2941697911
 21
2.6016897709
  0
LINE
  5
2A9
100
AcDbEntity
  8
0
100
AcDbLine
 62
7
  6
CONTINUOUS
 10
6.302743764
 20
2.6016897709
 11
6.3887478907
 21
2.6016897709
  0
LINE
  5
2AA
100
AcDbEntity
  8
0
100
AcDbLine
 62
7
  6
CONTINUOUS
 10
6.1996043775
 20
2.6036893233
 11
6.1200722766
 21
2.6036893233
  0
LINE
  5
2AB
100
AcDbEntity
  8
0
100
AcDbLine
 62
7
  6
CONTINUOUS
 10
6.0169190966
 20
2.6036893233
 11
5.8617162748
 21
2.6036893233
  0
LINE
  5
2AC
100
AcDbEntity
  8
0
100
AcDbLine
 62
7
  6
CONTINUOUS
 10
5.7585630948
 20
2.6036893233
 11
5.5452960866
 21
2.6036893233
  0
LINE
  5
2AD
100
AcDbEntity
  8
0
100
AcDbLine
 62
7
  6
CONTINUOUS
 10
5.4421429066
 20
2.6036893233
 11
5.1923752249
 21
2.6036893233
  0
LINE
  5
2AE
100
AcDbEntity
  8
0
100
AcDbLine
 62
7
  6
CONTINUOUS
 10
5.0892220449
 20
2.6036893233
 11
4.8270046632
 21
2.6036893233
  0
LINE
  5
2AF
100
AcDbEntity
  8
0
100
AcDbLine
 62
7
  6
CONTINUOUS
 10
4.7238514832
 20
2.6036893233
 11
4.4740838015
 21
2.6036893233
  0
LINE
  5
2B0
100
AcDbEntity
  8
0
100
AcDbLine
 62
7
  6
CONTINUOUS
 10
3.7166223149
 20
2.6036893155
 11
3.7961544472
 21
2.6036893155
  0
LINE
  5
2B1
100
AcDbEntity
  8
0
100
AcDbLine
 62
7
  6
CONTINUOUS
 10
3.8993075957
 20
2.6036893155
 11
4.054510449
 21
2.6036893155
  0
LINE
  5
2B2
100
AcDbEntity
  8
0
100
AcDbLine
 62
7
  6
CONTINUOUS
 10
4.1576635975
 20
2.6036893155
 11
4.3709306215
 21
2.6036893233
  0
LINE
  5
2B3
100
AcDbEntity
  8
0
100
AcDbLine
 62
7
  6
CONTINUOUS
 10
3.790784627
 20
2.6074550631
 11
3.9046774159
 21
2.6074550631
  0
LINE
  5
2B4
100
AcDbEntity
  8
0
100
AcDbLine
 62
7
  6
CONTINUOUS
 10
4.3655668401
 20
2.6074550631
 11
4.479453606
 21
2.6074550631
  0
LINE
  5
2B5
100
AcDbEntity
  8
0
100
AcDbLine
 62
7
  6
CONTINUOUS
 10
5.0838522404
 20
2.6074550631
 11
5.1977450294
 21
2.6074550631
  0
LINE
  5
2B6
100
AcDbEntity
  8
0
100
AcDbLine
 62
7
  6
CONTINUOUS
 10
5.7531993134
 20
2.6074550631
 11
5.8670860793
 21
2.6074550631
  0
LINE
  5
2B7
100
AcDbEntity
  8
0
100
AcDbLine
 62
7
  6
CONTINUOUS
 10
4.7185358791
 20
2.6074550631
 11
4.8323744677
 21
2.6074550631
  0
LINE
  5
2B8
100
AcDbEntity
  8
0
100
AcDbLine
 62
7
  6
CONTINUOUS
 10
4.0491406288
 20
2.6074550631
 11
4.1630334178
 21
2.6074550631
  0
LINE
  5
2B9
100
AcDbEntity
  8
0
100
AcDbLine
 62
7
  6
CONTINUOUS
 10
3.5135344863
 20
2.6074550631
 11
3.7219921351
 21
2.6074550631
  0
LINE
  5
2BA
100
AcDbEntity
  8
0
100
AcDbLine
 62
7
  6
CONTINUOUS
 10
5.4367731021
 20
2.6074550631
 11
5.5506658911
 21
2.6074550631
  0
LINE
  5
2BB
100
AcDbEntity
  8
0
100
AcDbLine
 62
7
  6
CONTINUOUS
 10
6.0116034925
 20
2.6074550631
 11
6.1254420789
 21
2.6074550609
  0
LINE
  5
2BC
100
AcDbEntity
  8
0
100
AcDbLine
 62
7
  6
CONTINUOUS
 10
5.8752399193
 20
2.6156089031
 11
5.7450394503
 21
2.6156089031
  0
LINE
  5
2BD
100
AcDbEntity
  8
0
100
AcDbLine
 62
7
  6
CONTINUOUS
 10
5.2058988694
 20
2.6156089031
 11
5.0756984004
 21
2.6156089031
  0
LINE
  5
2BE
100
AcDbEntity
  8
0
100
AcDbLine
 62
7
  6
CONTINUOUS
 10
3.5053805111
 20
2.6156090382
 11
3.7301459751
 21
2.6156089031
  0
LINE
  5
2BF
100
AcDbEntity
  8
0
100
AcDbLine
 62
7
  6
CONTINUOUS
 10
4.0409867888
 20
2.6156089031
 11
4.1711872578
 21
2.6156089031
  0
LINE
  5
2C0
100
AcDbEntity
  8
0
100
AcDbLine
 62
7
  6
CONTINUOUS
 10
4.7103278387
 20
2.6156089031
 11
4.8405283077
 21
2.6156089031
  0
LINE
  5
2C1
100
AcDbEntity
  8
0
100
AcDbLine
 62
7
  6
CONTINUOUS
 10
5.4286192621
 20
2.6156089031
 11
5.5588197311
 21
2.6156089031
  0
LINE
  5
2C2
100
AcDbEntity
  8
0
100
AcDbLine
 62
7
  6
CONTINUOUS
 10
6.0033954521
 20
2.6156089031
 11
6.1335959211
 21
2.6156089031
  0
LINE
  5
2C3
100
AcDbEntity
  8
0
100
AcDbLine
 62
7
  6
CONTINUOUS
 10
6.186080733
 20
2.615608903
 11
6.4108460618
 21
2.6156089031
  0
LINE
  5
2C4
100
AcDbEntity
  8
0
100
AcDbLine
 62
7
  6
CONTINUOUS
 10
4.4876074459
 20
2.615608903
 11
4.357406977
 21
2.615608903
  0
LINE
  5
2C5
100
AcDbEntity
  8
0
100
AcDbLine
 62
7
  6
CONTINUOUS
 10
3.912831256
 20
2.6156089031
 11
3.782630787
 21
2.6156089031
  0
LINE
  5
2C6
100
AcDbEntity
  8
0
100
AcDbLine
 62
7
  6
CONTINUOUS
 10
6.1813420424
 20
2.623383647
 11
6.1383346117
 21
2.623383647
  0
LINE
  5
2C7
100
AcDbEntity
  8
0
100
AcDbLine
 62
7
  6
CONTINUOUS
 10
5.9986567615
 20
2.623383647
 11
5.8799786099
 21
2.623383647
  0
LINE
  5
2C8
100
AcDbEntity
  8
0
100
AcDbLine
 62
7
  6
CONTINUOUS
 10
5.7403007597
 20
2.623383647
 11
5.5635584217
 21
2.623383647
  0
LINE
  5
2C9
100
AcDbEntity
  8
0
100
AcDbLine
 62
7
  6
CONTINUOUS
 10
5.4238805715
 20
2.623383647
 11
5.21063756
 21
2.623383647
  0
LINE
  5
2CA
100
AcDbEntity
  8
0
100
AcDbLine
 62
7
  6
CONTINUOUS
 10
5.0709597098
 20
2.623383647
 11
4.8452669983
 21
2.623383647
  0
LINE
  5
2CB
100
AcDbEntity
  8
0
100
AcDbLine
 62
7
  6
CONTINUOUS
 10
4.7059442525
 20
2.623383647
 11
4.4923461366
 21
2.6233836471
  0
LINE
  5
2CC
100
AcDbEntity
  8
0
100
AcDbLine
 62
7
  6
CONTINUOUS
 10
3.7348846657
 20
2.623383647
 11
3.7778920964
 21
2.623383647
  0
LINE
  5
2CD
100
AcDbEntity
  8
0
100
AcDbLine
 62
7
  6
CONTINUOUS
 10
3.9175699465
 20
2.623383647
 11
4.0366990415
 21
2.623383647
  0
LINE
  5
2CE
100
AcDbEntity
  8
0
100
AcDbLine
 62
7
  6
CONTINUOUS
 10
4.1759259484
 20
2.623383647
 11
4.3526682861
 21
2.623383648
  0
LINE
  5
2CF
100
AcDbEntity
  8
0
100
AcDbLine
 62
7
  6
CONTINUOUS
 10
6.4166119691
 20
2.6295286206
 11
6.1803148257
 21
2.6295286206
  0
LINE
  5
2D0
100
AcDbEntity
  8
0
100
AcDbLine
 62
7
  6
CONTINUOUS
 10
6.1393618283
 20
2.6295286206
 11
5.9976295449
 21
2.6295286206
  0
LINE
  5
2D1
100
AcDbEntity
  8
0
100
AcDbLine
 62
7
  6
CONTINUOUS
 10
5.8810058265
 20
2.6295286206
 11
5.7392735431
 21
2.6295286206
  0
LINE
  5
2D2
100
AcDbEntity
  8
0
100
AcDbLine
 62
7
  6
CONTINUOUS
 10
5.5645856383
 20
2.6295286206
 11
5.4228533548
 21
2.6295286206
  0
LINE
  5
2D3
100
AcDbEntity
  8
0
100
AcDbLine
 62
7
  6
CONTINUOUS
 10
5.2116647766
 20
2.6295286206
 11
5.0699324931
 21
2.6295286206
  0
LINE
  5
2D4
100
AcDbEntity
  8
0
100
AcDbLine
 62
7
  6
CONTINUOUS
 10
4.8462942149
 20
2.6295286206
 11
4.7045619315
 21
2.6295286206
  0
LINE
  5
2D5
100
AcDbEntity
  8
0
100
AcDbLine
 62
7
  6
CONTINUOUS
 10
4.4933733532
 20
2.6295286206
 11
4.3516410698
 21
2.6295286206
  0
LINE
  5
2D6
100
AcDbEntity
  8
0
100
AcDbLine
 62
7
  6
CONTINUOUS
 10
4.176953165
 20
2.6295286206
 11
4.0352208815
 21
2.6295286206
  0
LINE
  5
2D7
100
AcDbEntity
  8
0
100
AcDbLine
 62
7
  6
CONTINUOUS
 10
3.9185971632
 20
2.6295286206
 11
3.7768648797
 21
2.6295286206
  0
LINE
  5
2D8
100
AcDbEntity
  8
0
100
AcDbLine
 62
7
  6
CONTINUOUS
 10
3.7359118824
 20
2.6295286206
 11
3.499614739
 21
2.6295286206
  0
LINE
  5
2D9
100
AcDbEntity
  8
0
100
AcDbLine
 62
7
  6
CONTINUOUS
 10
3.7359118824
 20
2.641029516
 11
3.7768648797
 21
2.641029516
  0
LINE
  5
2DA
100
AcDbEntity
  8
0
100
AcDbLine
 62
7
  6
CONTINUOUS
 10
3.9185971632
 20
2.641029516
 11
4.0352208815
 21
2.641029516
  0
LINE
  5
2DB
100
AcDbEntity
  8
0
100
AcDbLine
 62
7
  6
CONTINUOUS
 10
4.178445898
 20
2.641029516
 11
4.3516410698
 21
2.6410295179
  0
LINE
  5
2DC
100
AcDbEntity
  8
0
100
AcDbLine
 62
7
  6
CONTINUOUS
 10
4.4933733532
 20
2.6410295161
 11
4.7045619315
 21
2.641029516
  0
LINE
  5
2DD
100
AcDbEntity
  8
0
100
AcDbLine
 62
7
  6
CONTINUOUS
 10
4.8462942149
 20
2.641029516
 11
5.0699324931
 21
2.641029516
  0
LINE
  5
2DE
100
AcDbEntity
  8
0
100
AcDbLine
 62
7
  6
CONTINUOUS
 10
5.2116647766
 20
2.641029516
 11
5.4228533548
 21
2.641029516
  0
LINE
  5
2DF
100
AcDbEntity
  8
0
100
AcDbLine
 62
7
  6
CONTINUOUS
 10
5.5645856383
 20
2.641029516
 11
5.7377808107
 21
2.641029516
  0
LINE
  5
2E0
100
AcDbEntity
  8
0
100
AcDbLine
 62
7
  6
CONTINUOUS
 10
5.8810058265
 20
2.641029516
 11
5.9976295449
 21
2.641029516
  0
LINE
  5
2E1
100
AcDbEntity
  8
0
100
AcDbLine
 62
7
  6
CONTINUOUS
 10
6.1393618283
 20
2.641029516
 11
6.1803148257
 21
2.641029516
  0
LINE
  5
2E2
100
AcDbEntity
  8
0
100
AcDbLine
 62
7
  6
CONTINUOUS
 10
5.820037938
 20
2.6432369392
 11
5.7103619984
 21
2.6432369392
  0
LINE
  5
2E3
100
AcDbEntity
  8
0
100
AcDbLine
 62
7
  6
CONTINUOUS
 10
4.5950977422
 20
2.6432369392
 11
4.4855714187
 21
2.6432369392
  0
LINE
  5
2E4
100
AcDbEntity
  8
0
100
AcDbLine
 62
7
  6
CONTINUOUS
 10
4.2058647434
 20
2.6432369392
 11
4.0961887363
 21
2.6432369392
  0
LINE
  5
2E5
100
AcDbEntity
  8
0
100
AcDbLine
 62
7
  6
CONTINUOUS
 10
3.2891021559
 20
2.6432369392
 11
3.3405039778
 21
2.6432369392
  0
LINE
  5
2E6
100
AcDbEntity
  8
0
100
AcDbLine
 62
7
  6
CONTINUOUS
 10
3.3441107004
 20
2.6432369392
 11
3.4537727889
 21
2.6432369392
  0
LINE
  5
2E7
100
AcDbEntity
  8
0
100
AcDbLine
 62
7
  6
CONTINUOUS
 10
3.5053880181
 20
2.6432369392
 11
3.6150086462
 21
2.6432369392
  0
LINE
  5
2E8
100
AcDbEntity
  8
0
100
AcDbLine
 62
7
  6
CONTINUOUS
 10
3.7618846262
 20
2.6432369392
 11
3.8715564103
 21
2.6432369392
  0
LINE
  5
2E9
100
AcDbEntity
  8
0
100
AcDbLine
 62
7
  6
CONTINUOUS
 10
4.9032961201
 20
2.6432369392
 11
5.012930588
 21
2.6432369392
  0
LINE
  5
2EA
100
AcDbEntity
  8
0
100
AcDbLine
 62
7
  6
CONTINUOUS
 10
5.3210668555
 20
2.6432369392
 11
5.4307173998
 21
2.6432369392
  0
LINE
  5
2EB
100
AcDbEntity
  8
0
100
AcDbLine
 62
7
  6
CONTINUOUS
 10
6.0446701101
 20
2.6432369392
 11
6.1543422695
 21
2.6432369392
  0
LINE
  5
2EC
100
AcDbEntity
  8
0
100
AcDbLine
 62
7
  6
CONTINUOUS
 10
6.3012123611
 20
2.6432369392
 11
6.4108443907
 21
2.6432369392
  0
LINE
  5
2ED
100
AcDbEntity
  8
0
100
AcDbLine
 62
7
  6
CONTINUOUS
 10
6.4624579126
 20
2.6432369392
 11
6.5721120142
 21
2.6432369392
  0
LINE
  5
2EE
100
AcDbEntity
  8
0
100
AcDbLine
 62
7
  6
CONTINUOUS
 10
6.5752766782
 20
2.6432369392
 11
6.6271245522
 21
2.6432369392
  0
LINE
  5
2EF
100
AcDbEntity
  8
0
100
AcDbLine
 62
7
  6
CONTINUOUS
 10
3.3296446453
 20
2.649002276
 11
3.2751826629
 21
2.649002276
  0
LINE
  5
2F0
100
AcDbEntity
  8
0
100
AcDbLine
 62
7
  6
CONTINUOUS
 10
3.3301842819
 20
2.649002276
 11
3.4676992075
 21
2.649002276
  0
LINE
  5
2F1
100
AcDbEntity
  8
0
100
AcDbLine
 62
7
  6
CONTINUOUS
 10
3.4914408694
 20
2.649002276
 11
3.628955795
 21
2.649002276
  0
LINE
  5
2F2
100
AcDbEntity
  8
0
100
AcDbLine
 62
7
  6
CONTINUOUS
 10
3.7479630555
 20
2.649002276
 11
3.885477981
 21
2.649002276
  0
LINE
  5
2F3
100
AcDbEntity
  8
0
100
AcDbLine
 62
7
  6
CONTINUOUS
 10
4.4715771177
 20
2.649002276
 11
4.6090920432
 21
2.649002276
  0
LINE
  5
2F4
100
AcDbEntity
  8
0
100
AcDbLine
 62
7
  6
CONTINUOUS
 10
4.8893558913
 20
2.649002276
 11
5.0268708168
 21
2.649002276
  0
LINE
  5
2F5
100
AcDbEntity
  8
0
100
AcDbLine
 62
7
  6
CONTINUOUS
 10
5.3071346649
 20
2.649002276
 11
5.4446495904
 21
2.649002276
  0
LINE
  5
2F6
100
AcDbEntity
  8
0
100
AcDbLine
 62
7
  6
CONTINUOUS
 10
5.6964425054
 20
2.649002276
 11
5.833957431
 21
2.649002276
  0
LINE
  5
2F7
100
AcDbEntity
  8
0
100
AcDbLine
 62
7
  6
CONTINUOUS
 10
6.030748727
 20
2.649002276
 11
6.1682636526
 21
2.649002276
  0
LINE
  5
2F8
100
AcDbEntity
  8
0
100
AcDbLine
 62
7
  6
CONTINUOUS
 10
6.2872709131
 20
2.649002276
 11
6.4247858387
 21
2.649002276
  0
LINE
  5
2F9
100
AcDbEntity
  8
0
100
AcDbLine
 62
7
  6
CONTINUOUS
 10
6.4485275006
 20
2.649002276
 11
6.5860424262
 21
2.649002276
  0
LINE
  5
2FA
100
AcDbEntity
  8
0
100
AcDbLine
 62
7
  6
CONTINUOUS
 10
6.5865820627
 20
2.649002276
 11
6.6410440452
 21
2.649002276
  0
LINE
  5
2FB
100
AcDbEntity
  8
0
100
AcDbLine
 62
7
  6
CONTINUOUS
 10
4.0822692513
 20
2.6490023018
 11
4.2197842285
 21
2.6490023018
  0
LINE
  5
2FC
100
AcDbEntity
  8
0
100
AcDbLine
 62
7
  6
CONTINUOUS
 10
6.6491981332
 20
2.657156364
 11
6.4403740099
 21
2.6571557667
  0
LINE
  5
2FD
100
AcDbEntity
  8
0
100
AcDbLine
 62
7
  6
CONTINUOUS
 10
6.4329393295
 20
2.6571557668
 11
6.2791174223
 21
2.6571557668
  0
LINE
  5
2FE
100
AcDbEntity
  8
0
100
AcDbLine
 62
7
  6
CONTINUOUS
 10
6.1764171433
 20
2.6571557667
 11
6.0225952363
 21
2.6571557667
  0
LINE
  5
2FF
100
AcDbEntity
  8
0
100
AcDbLine
 62
7
  6
CONTINUOUS
 10
5.8421109217
 20
2.6571557667
 11
5.6882890147
 21
2.6571557667
  0
LINE
  5
300
100
AcDbEntity
  8
0
100
AcDbLine
 62
7
  6
CONTINUOUS
 10
5.4528030811
 20
2.6571557667
 11
5.2989811742
 21
2.6571557667
  0
LINE
  5
301
100
AcDbEntity
  8
0
100
AcDbLine
 62
7
  6
CONTINUOUS
 10
5.0350243075
 20
2.6571557667
 11
4.8812024006
 21
2.6571557667
  0
LINE
  5
302
100
AcDbEntity
  8
0
100
AcDbLine
 62
7
  6
CONTINUOUS
 10
3.4758527562
 20
2.6571558248
 11
3.2670291722
 21
2.6571557667
  0
LINE
  5
303
100
AcDbEntity
  8
0
100
AcDbLine
 62
7
  6
CONTINUOUS
 10
4.6172455339
 20
2.6571557667
 11
4.463423627
 21
2.6571557667
  0
LINE
  5
304
100
AcDbEntity
  8
0
100
AcDbLine
 62
7
  6
CONTINUOUS
 10
4.2279380421
 20
2.6571561154
 11
4.0741154377
 21
2.6571561154
  0
LINE
  5
305
100
AcDbEntity
  8
0
100
AcDbLine
 62
7
  6
CONTINUOUS
 10
3.8936314717
 20
2.6571557667
 11
3.7398095648
 21
2.6571557667
  0
LINE
  5
306
100
AcDbEntity
  8
0
100
AcDbLine
 62
7
  6
CONTINUOUS
 10
3.6371092635
 20
2.6571557446
 11
3.4832874008
 21
2.6571557446
  0
LINE
  5
307
100
AcDbEntity
  8
0
100
AcDbLine
 62
7
  6
CONTINUOUS
 10
4.1652072133
 20
2.5271073374
 11
4.1652115866
 21
2.5271073367
  0
LINE
  5
308
100
AcDbEntity
  8
0
100
AcDbLine
 62
7
  6
CONTINUOUS
 10
6.194234573
 20
2.6074550631
 11
6.4026923855
 21
2.6074552267
  0
LINE
  5
309
100
AcDbEntity
  8
0
100
AcDbLine
 62
7
  6
CONTINUOUS
 10
2.933113354
 20
2.7343600634
 11
3.081113354
 21
2.7266037121
  0
LINE
  5
30A
100
AcDbEntity
  8
0
100
AcDbLine
 62
7
  6
CONTINUOUS
 10
4.1652115866
 20
2.5271073367
 11
4.1665089764
 21
2.5270289876
  0
LINE
  5
30B
100
AcDbEntity
  8
0
100
AcDbLine
 62
7
  6
CONTINUOUS
 10
4.8450702046
 20
2.5337018002
 11
4.844378694
 21
2.533954409
  0
LWPOLYLINE
  5
30C
100
AcDbEntity
  8
0
100
AcDbPolyline
 62
7
  6
CONTINUOUS
 90
11
 70
0
 10
4.6269991874
 20
2.5363654893
 10
4.6264209508
 20
2.5366089893
 10
4.6261904213
 20
2.5367214667
 10
4.6263341182
 20
2.5366303008
 10
4.6267133096
 20
2.5363475766
 10
4.6272453925
 20
2.535867376
 10
4.6279382695
 20
2.5350881045
 10
4.6287154544
 20
2.5339354508
 10
4.6294037004
 20
2.5324720012
 10
4.6298991562
 20
2.5306770888
 10
4.6300695232
 20
2.5287850329
  0
LWPOLYLINE
  5
30D
100
AcDbEntity
  8
0
100
AcDbPolyline
 62
7
  6
CONTINUOUS
 90
10
 70
0
 10
4.844378694
 20
2.533954409
 10
4.8438578668
 20
2.5341740543
 10
4.8440671967
 20
2.5340343784
 10
4.8445196645
 20
2.5336813862
 10
4.8452074221
 20
2.5330143105
 10
4.8460529704
 20
2.5319338606
 10
4.8468511863
 20
2.5304885509
 10
4.8474711089
 20
2.528650793
 10
4.847746464
 20
2.5264933497
 10
4.8477490158
 20
2.5262496797
  0
LINE
  5
30E
100
AcDbEntity
  8
0
100
AcDbLine
 62
7
  6
CONTINUOUS
 10
4.3655086283
 20
2.3940093781
 11
4.3736622127
 21
2.3858557937
  0
LINE
  5
30F
100
AcDbEntity
  8
0
100
AcDbLine
 62
7
  6
CONTINUOUS
 10
4.4579253435
 20
2.3940093765
 11
4.4660791862
 21
2.3858555338
  0
LINE
  5
310
100
AcDbEntity
  8
0
100
AcDbLine
 62
7
  6
CONTINUOUS
 10
4.4311246426
 20
2.5014786914
 11
4.4438909376
 21
2.4887123963
  0
LINE
  5
311
100
AcDbEntity
  8
0
100
AcDbLine
 62
7
  6
CONTINUOUS
 10
4.357406977
 20
2.615608903
 11
4.365560817
 21
2.6074550631
  0
LINE
  5
312
100
AcDbEntity
  8
0
100
AcDbLine
 62
7
  6
CONTINUOUS
 10
3.4775211668
 20
2.7059956054
 11
3.4775211668
 21
2.6710757889
  0
LINE
  5
313
100
AcDbEntity
  8
0
100
AcDbLine
 62
7
  6
CONTINUOUS
 10
3.499614739
 20
2.6441284889
 11
3.499614739
 21
2.6295286206
  0
LINE
  5
314
100
AcDbEntity
  8
0
100
AcDbLine
 62
7
  6
CONTINUOUS
 10
3.5941795989
 20
2.6432369392
 11
3.5941795989
 21
2.6295286206
  0
LINE
  5
315
100
AcDbEntity
  8
0
100
AcDbLine
 62
7
  6
CONTINUOUS
 10
3.6428754975
 20
2.6930448699
 11
3.6428754975
 21
2.6710757889
  0
LINE
  5
316
100
AcDbEntity
  8
0
100
AcDbLine
 62
7
  6
CONTINUOUS
 10
3.9820456976
 20
2.5363130135
 11
3.9820699816
 21
2.5363167898
  0
LINE
  5
317
100
AcDbEntity
  8
0
100
AcDbLine
 62
7
  6
CONTINUOUS
 10
6.6549637477
 20
2.6710757889
 11
6.2733512105
 21
2.6710757889
  0
LINE
  5
318
100
AcDbEntity
  8
0
100
AcDbLine
 62
7
  6
CONTINUOUS
 10
6.1821833552
 20
2.6710757889
 11
6.0168290245
 21
2.6710757889
  0
LINE
  5
319
100
AcDbEntity
  8
0
100
AcDbLine
 62
7
  6
CONTINUOUS
 10
5.8478771336
 20
2.6710757889
 11
5.6825228029
 21
2.6710757889
  0
LINE
  5
31A
100
AcDbEntity
  8
0
100
AcDbLine
 62
7
  6
CONTINUOUS
 10
5.458569293
 20
2.6710757889
 11
5.2932149623
 21
2.6710757889
  0
LINE
  5
31B
100
AcDbEntity
  8
0
100
AcDbLine
 62
7
  6
CONTINUOUS
 10
5.0407905194
 20
2.6710757889
 11
4.8754361887
 21
2.6710757889
  0
LINE
  5
31C
100
AcDbEntity
  8
0
100
AcDbLine
 62
7
  6
CONTINUOUS
 10
4.6230117458
 20
2.6710757889
 11
4.4576574151
 21
2.6710757889
  0
LINE
  5
31D
100
AcDbEntity
  8
0
100
AcDbLine
 62
7
  6
CONTINUOUS
 10
3.8993976836
 20
2.6710757889
 11
3.7340433529
 21
2.6710757889
  0
LINE
  5
31E
100
AcDbEntity
  8
0
100
AcDbLine
 62
7
  6
CONTINUOUS
 10
3.6428754975
 20
2.6710757889
 11
3.2612629603
 21
2.6710757889
  0
LINE
  5
31F
100
AcDbEntity
  8
0
100
AcDbLine
 62
7
  6
CONTINUOUS
 10
4.0683495745
 20
2.6710757889
 11
4.2337039052
 21
2.6710757889
  0
LINE
  5
320
100
AcDbEntity
  8
0
100
AcDbLine
 62
7
  6
CONTINUOUS
 10
3.1924598465
 20
2.7059956054
 11
6.7212299152
 21
2.7059956054
  0
LINE
  5
321
100
AcDbEntity
  8
0
100
AcDbLine
 62
7
  6
CONTINUOUS
 10
3.1897509168
 20
2.7062392347
 11
6.7264757913
 21
2.7062392347
  0
LINE
  5
322
100
AcDbEntity
  8
0
100
AcDbLine
 62
7
  6
CONTINUOUS
 10
3.081113354
 20
2.7266037121
 11
6.835113354
 21
2.7266037121
  0
LINE
  5
323
100
AcDbEntity
  8
0
100
AcDbLine
 62
7
  6
CONTINUOUS
 10
2.933113354
 20
2.7343600634
 11
6.983113354
 21
2.7343600634
  0
LINE
  5
324
100
AcDbEntity
  8
0
100
AcDbLine
 62
7
  6
CONTINUOUS
 10
7.1080504955
 20
2.8440817488
 11
2.8081762126
 21
2.8440817488
  0
LWPOLYLINE
  5
325
100
AcDbEntity
  8
0
100
AcDbPolyline
 62
7
  6
CONTINUOUS
 90
14
 70
0
 10
5.4821017075
 20
2.5282704111
 10
5.4818661516
 20
2.5283183346
 10
5.4814371633
 20
2.5284174607
 10
5.4812820254
 20
2.5284591819
 10
5.4813831837
 20
2.5284197225
 10
5.4817966177
 20
2.528233055
 10
5.482493413
 20
2.5278377521
 10
5.4833252745
 20
2.5272405702
 10
5.4841975144
 20
2.5264470747
 10
5.4851542175
 20
2.5253165374
 10
5.4860920088
 20
2.5237801275
 10
5.4867980778
 20
2.5219942556
 10
5.4871912853
 20
2.5200508439
 10
5.4872573192
 20
2.5188402796
  0
LINE
  5
326
100
AcDbEntity
  8
0
100
AcDbLine
 62
7
  6
CONTINUOUS
 10
4.463423627
 20
2.6571557667
 11
4.4715771177
 21
2.649002276
  0
LINE
  5
327
100
AcDbEntity
  8
0
100
AcDbLine
 62
7
  6
CONTINUOUS
 10
4.6335273756
 20
2.5014786914
 11
4.6462936707
 21
2.4887123963
  0
LINE
  5
328
100
AcDbEntity
  8
0
100
AcDbLine
 62
7
  6
CONTINUOUS
 10
4.7671576924
 20
2.3940093781
 11
4.7753115368
 21
2.3858555338
  0
LINE
  5
329
100
AcDbEntity
  8
0
100
AcDbLine
 62
7
  6
CONTINUOUS
 10
3.7340433529
 20
2.7059956054
 11
3.7340433529
 21
2.6710757889
  0
LINE
  5
32A
100
AcDbEntity
  8
0
100
AcDbLine
 62
7
  6
CONTINUOUS
 10
3.7359118824
 20
2.650007252
 11
3.7359118824
 21
2.6295286206
  0
LINE
  5
32B
100
AcDbEntity
  8
0
100
AcDbLine
 62
7
  6
CONTINUOUS
 10
3.7768648797
 20
2.6432369392
 11
3.7768648797
 21
2.6295286206
  0
LINE
  5
32C
100
AcDbEntity
  8
0
100
AcDbLine
 62
7
  6
CONTINUOUS
 10
3.7966960312
 20
2.5812825589
 11
3.7966960312
 21
2.5745113395
  0
LINE
  5
32D
100
AcDbEntity
  8
0
100
AcDbLine
 62
7
  6
CONTINUOUS
 10
2.8570307471
 20
2.9146258345
 11
7.059195961
 21
2.9146258345
  0
LINE
  5
32E
100
AcDbEntity
  8
0
100
AcDbLine
 62
7
  6
CONTINUOUS
 10
2.9558779084
 20
2.9897695075
 11
6.9603487997
 21
2.9897695075
  0
LINE
  5
32F
100
AcDbEntity
  8
0
100
AcDbLine
 62
7
  6
CONTINUOUS
 10
4.7103278387
 20
2.6156089031
 11
4.7184816787
 21
2.6074550631
  0
LINE
  5
330
100
AcDbEntity
  8
0
100
AcDbLine
 62
7
  6
CONTINUOUS
 10
4.8512087543
 20
2.5014786914
 11
4.8639750494
 21
2.4887123963
  0
LINE
  5
331
100
AcDbEntity
  8
0
100
AcDbLine
 62
7
  6
CONTINUOUS
 10
5.1120615646
 20
2.3940093765
 11
5.1202154073
 21
2.3858555338
  0
LINE
  5
332
100
AcDbEntity
  8
0
100
AcDbLine
 62
7
  6
CONTINUOUS
 10
4.8812024006
 20
2.6571557667
 11
4.8893558913
 21
2.649002276
  0
LINE
  5
333
100
AcDbEntity
  8
0
100
AcDbLine
 62
7
  6
CONTINUOUS
 10
4.2677588541
 20
2.4906930687
 11
4.2961358509
 21
2.4127279106
  0
LINE
  5
334
100
AcDbEntity
  8
0
100
AcDbLine
 62
7
  6
CONTINUOUS
 10
3.8993976836
 20
2.6960945079
 11
3.8993976836
 21
2.6710757889
  0
LINE
  5
335
100
AcDbEntity
  8
0
100
AcDbLine
 62
7
  6
CONTINUOUS
 10
3.9185971632
 20
2.6518572145
 11
3.9185971632
 21
2.6295286206
  0
LINE
  5
336
100
AcDbEntity
  8
0
100
AcDbLine
 62
7
  6
CONTINUOUS
 10
3.9820456976
 20
2.5363130135
 11
3.9820456976
 21
2.50983039
  0
LINE
  5
337
100
AcDbEntity
  8
0
100
AcDbLine
 62
7
  6
CONTINUOUS
 10
4.0146684555
 20
2.5359320446
 11
4.0146684555
 21
2.50983039
  0
LINE
  5
338
100
AcDbEntity
  8
0
100
AcDbLine
 62
7
  6
CONTINUOUS
 10
4.0352208815
 20
2.6717604882
 11
4.0352208815
 21
2.6295286206
  0
LINE
  5
339
100
AcDbEntity
  8
0
100
AcDbLine
 62
7
  6
CONTINUOUS
 10
5.0756984004
 20
2.6156089031
 11
5.0838522404
 21
2.6074550631
  0
LINE
  5
33A
100
AcDbEntity
  8
0
100
AcDbLine
 62
7
  6
CONTINUOUS
 10
4.0683495745
 20
2.7059956054
 11
4.0683495745
 21
2.6710757889
  0
LINE
  5
33B
100
AcDbEntity
  8
0
100
AcDbLine
 62
7
  6
CONTINUOUS
 10
4.1564007389
 20
2.5156769191
 11
4.1564007389
 21
2.50983039
  0
LINE
  5
33C
100
AcDbEntity
  8
0
100
AcDbLine
 62
7
  6
CONTINUOUS
 10
4.176953165
 20
2.6432369392
 11
4.176953165
 21
2.6295286206
  0
LWPOLYLINE
  5
33D
100
AcDbEntity
  8
0
100
AcDbPolyline
 62
7
  6
CONTINUOUS
 90
5
 70
0
 10
4.1564012143
 20
2.515677815
 10
4.1564215716
 20
2.5163748062
 10
4.1566907811
 20
2.5182661395
 10
4.1572788487
 20
2.5201285695
 10
4.1581480166
 20
2.5218330141
  0
LINE
  5
33E
100
AcDbEntity
  8
0
100
AcDbLine
 62
7
  6
CONTINUOUS
 10
3.053113354
 20
3.2691566388
 11
6.863113354
 21
3.2691566388
  0
LWPOLYLINE
  5
33F
100
AcDbEntity
  8
0
100
AcDbPolyline
 62
7
  6
CONTINUOUS
 90
8
 70
0
 10
5.6289433993
 20
2.5262168264
 10
5.6298919989
 20
2.5254392788
 10
5.6308413809
 20
2.5244482013
 10
5.6318030849
 20
2.5231241856
 10
5.6326570195
 20
2.5214495568
 10
5.633235023
 20
2.5195970316
 10
5.6334900978
 20
2.5176919513
 10
5.6335031182
 20
2.5171413772
  0
LINE
  5
340
100
AcDbEntity
  8
0
100
AcDbLine
 62
7
  6
CONTINUOUS
 10
5.2989811742
 20
2.6571557667
 11
5.3071346649
 21
2.649002276
  0
LINE
  5
341
100
AcDbEntity
  8
0
100
AcDbLine
 62
7
  6
CONTINUOUS
 10
5.4907169047
 20
2.5014786913
 11
5.5034831993
 21
2.4887123968
  0
LINE
  5
342
100
AcDbEntity
  8
0
100
AcDbLine
 62
7
  6
CONTINUOUS
 10
5.4286192621
 20
2.6156089031
 11
5.4367731021
 21
2.6074550631
  0
LINE
  5
343
100
AcDbEntity
  8
0
100
AcDbLine
 62
7
  6
CONTINUOUS
 10
4.2337039052
 20
2.7000708826
 11
4.2337039052
 21
2.6710757889
  0
LINE
  5
344
100
AcDbEntity
  8
0
100
AcDbLine
 62
7
  6
CONTINUOUS
 10
4.3516410698
 20
2.6685474316
 11
4.3516410698
 21
2.6295286206
  0
LINE
  5
345
100
AcDbEntity
  8
0
100
AcDbLine
 62
7
  6
CONTINUOUS
 10
4.383113354
 20
5.2809110359
 11
4.383113354
 21
4.3409110359
  0
LINE
  5
346
100
AcDbEntity
  8
ALL_FEATURES
100
AcDbLine
 62
7
  6
CONTINUOUS
 10
5.3555494289
 20
5.5558471107
 11
5.3037070716
 21
5.5040047534
  0
LINE
  5
347
100
AcDbEntity
  8
0
100
AcDbLine
 62
7
  6
CONTINUOUS
 10
6.863113354
 20
3.4522054664
 11
3.053113354
 21
3.4522054664
  0
LINE
  5
348
100
AcDbEntity
  8
0
100
AcDbLine
 62
7
  6
CONTINUOUS
 10
6.8186186023
 20
3.5207213757
 11
3.0976081058
 21
3.5207213757
  0
LINE
  5
349
100
AcDbEntity
  8
0
100
AcDbLine
 62
7
  6
CONTINUOUS
 10
5.8647308814
 20
2.4915590516
 11
5.86417177
 21
2.492068718
  0
LINE
  5
34A
100
AcDbEntity
  8
0
100
AcDbLine
 62
7
  6
CONTINUOUS
 10
5.864786152
 20
2.4917961936
 11
5.8642282084
 21
2.4923091423
  0
LINE
  5
34B
100
AcDbEntity
  8
0
100
AcDbLine
 62
7
  6
CONTINUOUS
 10
5.6369626223
 20
2.5014786914
 11
5.6497289184
 21
2.4887123953
  0
LINE
  5
34C
100
AcDbEntity
  8
0
100
AcDbLine
 62
7
  6
CONTINUOUS
 10
4.4276652301
 20
2.5311334725
 11
4.4276652301
 21
2.50983039
  0
LINE
  5
34D
100
AcDbEntity
  8
0
100
AcDbLine
 62
7
  6
CONTINUOUS
 10
4.4576574151
 20
2.7059956054
 11
4.4576574151
 21
2.6710757889
  0
LINE
  5
34E
100
AcDbEntity
  8
0
100
AcDbLine
 62
7
  6
CONTINUOUS
 10
4.4933733532
 20
2.6432369392
 11
4.4933733532
 21
2.6295286206
  0
LINE
  5
34F
100
AcDbEntity
  8
ALL_FEATURES
100
AcDbLine
 62
7
  6
CONTINUOUS
 10
4.505613354
 20
6.0109110359
 11
4.505613354
 21
5.6887831856
  0
LINE
  5
350
100
AcDbEntity
  8
0
100
AcDbLine
 62
7
  6
CONTINUOUS
 10
4.5693975136
 20
2.5204636146
 11
4.5693975136
 21
2.50983039
  0
LINE
  5
351
100
AcDbEntity
  8
0
100
AcDbLine
 62
7
  6
CONTINUOUS
 10
3.3262480869
 20
3.6225184539
 11
6.5899786212
 21
3.6225184539
  0
LINE
  5
352
100
AcDbEntity
  8
0
100
AcDbLine
 62
7
  6
CONTINUOUS
 10
3.338113354
 20
3.640789363
 11
6.578113354
 21
3.640789363
  0
LINE
  5
353
100
AcDbEntity
  8
0
100
AcDbLine
 62
7
  6
CONTINUOUS
 10
6.578113354
 20
3.6747777956
 11
3.338113354
 21
3.6747777956
  0
LINE
  5
354
100
AcDbEntity
  8
0
100
AcDbLine
 62
7
  6
CONTINUOUS
 10
6.5624277471
 20
3.6943069024
 11
3.353798961
 21
3.6943069024
  0
LINE
  5
355
100
AcDbEntity
  8
0
100
AcDbLine
 62
7
  6
CONTINUOUS
 10
5.6882890147
 20
2.6571557667
 11
5.6964425054
 21
2.649002276
  0
LINE
  5
356
100
AcDbEntity
  8
0
100
AcDbLine
 62
7
  6
CONTINUOUS
 10
5.7450394503
 20
2.6156089031
 11
5.7531932903
 21
2.6074550631
  0
LINE
  5
357
100
AcDbEntity
  8
0
100
AcDbLine
 62
7
  6
CONTINUOUS
 10
4.6230117458
 20
2.7047043392
 11
4.6230117458
 21
2.6710757889
  0
LINE
  5
358
100
AcDbEntity
  8
0
100
AcDbLine
 62
7
  6
CONTINUOUS
 10
4.6300679632
 20
2.5287872751
 11
4.6300679632
 21
2.50983039
  0
LINE
  5
359
100
AcDbEntity
  8
0
100
AcDbLine
 62
7
  6
CONTINUOUS
 10
4.7045619315
 20
2.6649654767
 11
4.7045619315
 21
2.6295286206
  0
LINE
  5
35A
100
AcDbEntity
  8
0
100
AcDbLine
 62
7
  6
CONTINUOUS
 10
4.7718002466
 20
2.5228200644
 11
4.7718002466
 21
2.50983039
  0
LINE
  5
35B
100
AcDbEntity
  8
0
100
AcDbLine
 62
7
  6
CONTINUOUS
 10
4.7904082557
 20
5.2809110359
 11
4.7904082557
 21
4.9309110359
  0
LWPOLYLINE
  5
35C
100
AcDbEntity
  8
0
100
AcDbPolyline
 62
7
  6
CONTINUOUS
 90
8
 70
0
 10
4.5693978377
 20
2.5204650191
 10
4.5695116741
 20
2.5220330214
 10
4.569974759
 20
2.5239518272
 10
4.5707149272
 20
2.5256330784
 10
4.5716337688
 20
2.5270284109
 10
4.5725161988
 20
2.5280134136
 10
4.5732762161
 20
2.5286759447
 10
4.5738936791
 20
2.5291102302
  0
LINE
  5
35D
100
AcDbEntity
  8
0
100
AcDbLine
 62
7
  6
CONTINUOUS
 10
3.3262480869
 20
3.6225184539
 11
3.0976081058
 21
3.5207213757
  0
LINE
  5
35E
100
AcDbEntity
  8
0
100
AcDbLine
 62
7
  6
CONTINUOUS
 10
6.0033954521
 20
2.6156089031
 11
6.0115492943
 21
2.6074550609
  0
LINE
  5
35F
100
AcDbEntity
  8
0
100
AcDbLine
 62
7
  6
CONTINUOUS
 10
6.0225952363
 20
2.6571557667
 11
6.030748727
 21
2.649002276
  0
LINE
  5
360
100
AcDbEntity
  8
0
100
AcDbLine
 62
7
  6
CONTINUOUS
 10
6.186080733
 20
2.615608903
 11
6.194234573
 21
2.6074550631
  0
LINE
  5
361
100
AcDbEntity
  8
0
100
AcDbLine
 62
7
  6
CONTINUOUS
 10
4.9894815257
 20
2.5253633789
 11
4.9894816253
 21
2.5253458024
  0
LINE
  5
362
100
AcDbEntity
  8
ALL_FEATURES
100
AcDbLine
 62
7
  6
CONTINUOUS
 10
4.8334889182
 20
5.8859110359
 11
4.8334889182
 21
5.6887831856
  0
LINE
  5
363
100
AcDbEntity
  8
0
100
AcDbLine
 62
7
  6
CONTINUOUS
 10
4.8462942149
 20
2.6612590991
 11
4.8462942149
 21
2.6295286206
  0
LINE
  5
364
100
AcDbEntity
  8
0
100
AcDbLine
 62
7
  6
CONTINUOUS
 10
4.8477493419
 20
2.526252679
 11
4.8477493419
 21
2.50983039
  0
LINE
  5
365
100
AcDbEntity
  8
0
100
AcDbLine
 62
7
  6
CONTINUOUS
 10
4.8754361887
 20
2.7059956054
 11
4.8754361887
 21
2.6710757889
  0
LWPOLYLINE
  5
366
100
AcDbEntity
  8
0
100
AcDbPolyline
 62
7
  6
CONTINUOUS
 90
8
 70
0
 10
4.7718005392
 20
2.5228100261
 10
4.77200207
 20
2.524868503
 10
4.7725596963
 20
2.5267458104
 10
4.7733540478
 20
2.5283133649
 10
4.7742657957
 20
2.5295511256
 10
4.7750674061
 20
2.5303623268
 10
4.7756927801
 20
2.530861154
 10
4.7760717063
 20
2.5311093371
  0
LINE
  5
367
100
AcDbEntity
  8
0
100
AcDbLine
 62
7
  6
CONTINUOUS
 10
3.4758527562
 20
2.6571558248
 11
3.4676992075
 21
2.649002276
  0
LINE
  5
368
100
AcDbEntity
  8
0
100
AcDbLine
 62
7
  6
CONTINUOUS
 10
6.2791174223
 20
2.6571557668
 11
6.2872709131
 21
2.649002276
  0
LINE
  5
369
100
AcDbEntity
  8
0
100
AcDbLine
 62
7
  6
CONTINUOUS
 10
6.4403740099
 20
2.6571557667
 11
6.4485275006
 21
2.649002276
  0
LINE
  5
36A
100
AcDbEntity
  8
0
100
AcDbLine
 62
7
  6
CONTINUOUS
 10
4.9894816253
 20
2.5253458024
 11
4.9894816253
 21
2.50983039
  0
LINE
  5
36B
100
AcDbEntity
  8
0
100
AcDbLine
 62
7
  6
CONTINUOUS
 10
5.0407905194
 20
2.7059956054
 11
5.0407905194
 21
2.6710757889
  0
LINE
  5
36C
100
AcDbEntity
  8
0
100
AcDbLine
 62
7
  6
CONTINUOUS
 10
5.0699324931
 20
2.6612590991
 11
5.0699324931
 21
2.6295286206
  0
LINE
  5
36D
100
AcDbEntity
  8
ALL_FEATURES
100
AcDbLine
 62
7
  6
CONTINUOUS
 10
5.0827377898
 20
5.8859110359
 11
5.0827377898
 21
5.6887831856
  0
LINE
  5
36E
100
AcDbEntity
  8
0
100
AcDbLine
 62
7
  6
CONTINUOUS
 10
5.1258184523
 20
5.2809110359
 11
5.1258184523
 21
4.9309110359
  0
LWPOLYLINE
  5
36F
100
AcDbEntity
  8
0
100
AcDbPolyline
 62
7
  6
CONTINUOUS
 90
10
 70
0
 10
4.9894791785
 20
2.5253579889
 10
4.9894821857
 20
2.5255976893
 10
4.989713725
 20
2.5275416685
 10
4.9902372946
 20
2.5292435231
 10
4.9909662057
 20
2.5306901005
 10
4.9917806883
 20
2.531824819
 10
4.9924887744
 20
2.5325730207
 10
4.9930213894
 20
2.5330247948
 10
4.9933920208
 20
2.5332846517
 10
4.99345115
 20
2.5333212705
  0
LINE
  5
370
100
AcDbEntity
  8
0
100
AcDbLine
 62
7
  6
CONTINUOUS
 10
3.6371092635
 20
2.6571557446
 11
3.628955795
 21
2.649002276
  0
LINE
  5
371
100
AcDbEntity
  8
0
100
AcDbLine
 62
7
  6
CONTINUOUS
 10
5.533113354
 20
4.3409110359
 11
4.383113354
 21
4.3409110359
  0
LINE
  5
372
100
AcDbEntity
  8
0
100
AcDbLine
 62
7
  6
CONTINUOUS
 10
6.5899786212
 20
3.6225184539
 11
6.8186186023
 21
3.5207213757
  0
LINE
  5
373
100
AcDbEntity
  8
0
100
AcDbLine
 62
7
  6
CONTINUOUS
 10
5.2116647766
 20
2.6649654767
 11
5.2116647766
 21
2.6295286206
  0
LINE
  5
374
100
AcDbEntity
  8
0
100
AcDbLine
 62
7
  6
CONTINUOUS
 10
5.2932149623
 20
2.7047043392
 11
5.2932149623
 21
2.6710757889
  0
LWPOLYLINE
  5
375
100
AcDbEntity
  8
0
100
AcDbPolyline
 62
7
  6
CONTINUOUS
 90
10
 70
0
 10
4.1581480166
 20
2.5218330141
 10
4.1591671748
 20
2.5232371117
 10
4.1602581943
 20
2.5243632529
 10
4.1614308863
 20
2.5252902245
 10
4.1625861002
 20
2.5259907139
 10
4.1635542546
 20
2.526444206
 10
4.1643406354
 20
2.5267327563
 10
4.1649989404
 20
2.5269216133
 10
4.1655142974
 20
2.5270353291
 10
4.165655064
 20
2.5270608981
  0
LINE
  5
376
100
AcDbEntity
  8
0
100
AcDbLine
 62
7
  6
CONTINUOUS
 10
3.7301459751
 20
2.6156089031
 11
3.7219921351
 21
2.6074550631
  0
LINE
  5
377
100
AcDbEntity
  8
0
100
AcDbLine
 62
7
  6
CONTINUOUS
 10
3.8936314717
 20
2.6571557667
 11
3.885477981
 21
2.649002276
  0
LINE
  5
378
100
AcDbEntity
  8
0
100
AcDbLine
 62
7
  6
CONTINUOUS
 10
3.912831256
 20
2.6156089031
 11
3.9046774159
 21
2.6074550631
  0
LINE
  5
379
100
AcDbEntity
  8
ALL_FEATURES
100
AcDbLine
 62
7
  6
CONTINUOUS
 10
5.410613354
 20
6.0109110359
 11
5.410613354
 21
5.6887831856
  0
LINE
  5
37A
100
AcDbEntity
  8
0
100
AcDbLine
 62
7
  6
CONTINUOUS
 10
5.4228533548
 20
2.6432369392
 11
5.4228533548
 21
2.6295286206
  0
LINE
  5
37B
100
AcDbEntity
  8
0
100
AcDbLine
 62
7
  6
CONTINUOUS
 10
5.458569293
 20
2.7059956054
 11
5.458569293
 21
2.6710757889
  0
LINE
  5
37C
100
AcDbEntity
  8
0
100
AcDbLine
 62
7
  6
CONTINUOUS
 10
5.4872574922
 20
2.5188395078
 11
5.4872574922
 21
2.50983039
  0
LINE
  5
37D
100
AcDbEntity
  8
0
100
AcDbLine
 62
7
  6
CONTINUOUS
 10
5.533113354
 20
5.2809110359
 11
5.533113354
 21
4.3409110359
  0
LINE
  5
37E
100
AcDbEntity
  8
0
100
AcDbLine
 62
7
  6
CONTINUOUS
 10
4.1711872578
 20
2.6156089031
 11
4.1630334178
 21
2.6074550631
  0
LINE
  5
37F
100
AcDbEntity
  8
0
100
AcDbLine
 62
7
  6
CONTINUOUS
 10
4.2279380421
 20
2.6571561154
 11
4.2197842285
 21
2.6490023018
  0
LINE
  5
380
100
AcDbEntity
  8
0
100
AcDbLine
 62
7
  6
CONTINUOUS
 10
5.5645856383
 20
2.6685474316
 11
5.5645856383
 21
2.6295286206
  0
LINE
  5
381
100
AcDbEntity
  8
0
100
AcDbLine
 62
7
  6
CONTINUOUS
 10
5.6289897756
 20
2.5327619451
 11
5.6289897756
 21
2.50983039
  0
LINE
  5
382
100
AcDbEntity
  8
0
100
AcDbLine
 62
7
  6
CONTINUOUS
 10
5.6335032099
 20
2.5171467713
 11
5.6335032099
 21
2.50983039
  0
LINE
  5
383
100
AcDbEntity
  8
0
100
AcDbLine
 62
7
  6
CONTINUOUS
 10
5.6825228029
 20
2.7000708826
 11
5.6825228029
 21
2.6710757889
  0
LINE
  5
384
100
AcDbEntity
  8
0
100
AcDbLine
 62
7
  6
CONTINUOUS
 10
5.7392735431
 20
2.6432369392
 11
5.7392735431
 21
2.6295286206
  0
LINE
  5
385
100
AcDbEntity
  8
0
100
AcDbLine
 62
7
  6
CONTINUOUS
 10
4.1529413265
 20
2.5014786914
 11
4.1401750314
 21
2.4887123963
  0
LINE
  5
386
100
AcDbEntity
  8
0
100
AcDbLine
 62
7
  6
CONTINUOUS
 10
4.4876074459
 20
2.615608903
 11
4.479453606
 21
2.6074550631
  0
LINE
  5
387
100
AcDbEntity
  8
0
100
AcDbLine
 62
7
  6
CONTINUOUS
 10
5.1258184524
 20
4.9309110359
 11
4.7904082557
 21
4.9309110359
  0
LINE
  5
388
100
AcDbEntity
  8
ALL_FEATURES
100
AcDbLine
 62
7
  6
CONTINUOUS
 10
4.5606772792
 20
5.5558471107
 11
4.6125196365
 21
5.5040047534
  0
LINE
  5
389
100
AcDbEntity
  8
0
100
AcDbLine
 62
7
  6
CONTINUOUS
 10
5.7752354933
 20
2.5344642478
 11
5.7752354933
 21
2.50983039
  0
LINE
  5
38A
100
AcDbEntity
  8
0
100
AcDbLine
 62
7
  6
CONTINUOUS
 10
5.8478771336
 20
2.7059956054
 11
5.8478771336
 21
2.6710757889
  0
LINE
  5
38B
100
AcDbEntity
  8
0
100
AcDbLine
 62
7
  6
CONTINUOUS
 10
5.8771472228
 20
2.5356525114
 11
5.8771472262
 21
2.50983039
  0
LINE
  5
38C
100
AcDbEntity
  8
0
100
AcDbLine
 62
7
  6
CONTINUOUS
 10
5.8810058265
 20
2.6717604882
 11
5.8810058265
 21
2.6295286206
  0
LWPOLYLINE
  5
38D
100
AcDbEntity
  8
0
100
AcDbPolyline
 62
7
  6
CONTINUOUS
 90
9
 70
0
 10
5.6289877072
 20
2.5327661522
 10
5.629146417
 20
2.534633922
 10
5.6296236435
 20
2.5364567377
 10
5.6303103544
 20
2.537990152
 10
5.6311121189
 20
2.5392366359
 10
5.6318729356
 20
2.5401330137
 10
5.6325106271
 20
2.5407345494
 10
5.633032666
 20
2.5411406999
 10
5.6331870616
 20
2.541245773
  0
LWPOLYLINE
  5
38E
100
AcDbEntity
  8
0
100
AcDbPolyline
 62
7
  6
CONTINUOUS
 90
9
 70
0
 10
5.7752333378
 20
2.534461774
 10
5.7754194184
 20
2.5365123059
 10
5.7759330903
 20
2.5383881034
 10
5.7766798548
 20
2.5400013214
 10
5.7775636168
 20
2.5413304738
 10
5.7784122432
 20
2.5422956867
 10
5.7791472161
 20
2.5429632264
 10
5.7797856909
 20
2.5434394131
 10
5.7800298401
 20
2.5435974749
  0
LINE
  5
38F
100
AcDbEntity
  8
0
100
AcDbLine
 62
7
  6
CONTINUOUS
 10
4.6172455339
 20
2.6571557667
 11
4.6090920432
 21
2.649002276
  0
LINE
  5
390
100
AcDbEntity
  8
0
100
AcDbLine
 62
7
  6
CONTINUOUS
 10
4.5659381011
 20
2.5014786914
 11
4.553171806
 21
2.4887123963
  0
LINE
  5
391
100
AcDbEntity
  8
0
100
AcDbLine
 62
7
  6
CONTINUOUS
 10
5.9976295449
 20
2.6518572145
 11
5.9976295449
 21
2.6295286206
  0
LINE
  5
392
100
AcDbEntity
  8
0
100
AcDbLine
 62
7
  6
CONTINUOUS
 10
6.0168290245
 20
2.6960945079
 11
6.0168290245
 21
2.6710757889
  0
LWPOLYLINE
  5
393
100
AcDbEntity
  8
0
100
AcDbPolyline
 62
7
  6
CONTINUOUS
 90
12
 70
0
 10
5.877147393
 20
2.5356514161
 10
5.8772817386
 20
2.5374164907
 10
5.8777377209
 20
2.5393111127
 10
5.8784762601
 20
2.5410496406
 10
5.8794131606
 20
2.5425421639
 10
5.8803516266
 20
2.5436528049
 10
5.8811838221
 20
2.5444326941
 10
5.8819444744
 20
2.5450181824
 10
5.8826088722
 20
2.5454449948
 10
5.8830905203
 20
2.5457080009
 10
5.883377287
 20
2.5458447933
 10
5.8834723818
 20
2.5458863265
  0
LINE
  5
394
100
AcDbEntity
  8
0
100
AcDbLine
 62
7
  6
CONTINUOUS
 10
4.8405283077
 20
2.6156089031
 11
4.8323744677
 21
2.6074550631
  0
LINE
  5
395
100
AcDbEntity
  8
0
100
AcDbLine
 62
7
  6
CONTINUOUS
 10
4.7683408342
 20
2.5014786914
 11
4.7555745391
 21
2.4887123963
  0
LINE
  5
396
100
AcDbEntity
  8
0
100
AcDbLine
 62
7
  6
CONTINUOUS
 10
4.7180464762
 20
2.3940093765
 11
4.7098926335
 21
2.3858555338
  0
LINE
  5
397
100
AcDbEntity
  8
0
100
AcDbLine
 62
7
  6
CONTINUOUS
 10
5.0350243075
 20
2.6571557667
 11
5.0268708168
 21
2.649002276
  0
LINE
  5
398
100
AcDbEntity
  8
0
100
AcDbLine
 62
7
  6
CONTINUOUS
 10
5.533113354
 20
5.2809110359
 11
4.383113354
 21
5.2809110359
  0
LINE
  5
399
100
AcDbEntity
  8
0
100
AcDbLine
 62
7
  6
CONTINUOUS
 10
6.1195306769
 20
2.5812825589
 11
6.1195306769
 21
2.5745113395
  0
LINE
  5
39A
100
AcDbEntity
  8
0
100
AcDbLine
 62
7
  6
CONTINUOUS
 10
6.1393618283
 20
2.6432369392
 11
6.1393618283
 21
2.6295286206
  0
LINE
  5
39B
100
AcDbEntity
  8
0
100
AcDbLine
 62
7
  6
CONTINUOUS
 10
6.1803148257
 20
2.650007252
 11
6.1803148257
 21
2.6295286206
  0
LINE
  5
39C
100
AcDbEntity
  8
0
100
AcDbLine
 62
7
  6
CONTINUOUS
 10
6.1821833552
 20
2.7059956054
 11
6.1821833552
 21
2.6710757889
  0
LINE
  5
39D
100
AcDbEntity
  8
0
100
AcDbLine
 62
7
  6
CONTINUOUS
 10
6.2733512105
 20
2.6930448699
 11
6.2733512105
 21
2.6710757889
  0
LINE
  5
39E
100
AcDbEntity
  8
0
100
AcDbLine
 62
7
  6
CONTINUOUS
 10
5.648467854
 20
2.4906930687
 11
5.6200908571
 21
2.4127279106
  0
LINE
  5
39F
100
AcDbEntity
  8
0
100
AcDbLine
 62
7
  6
CONTINUOUS
 10
4.9860222129
 20
2.5014786914
 11
4.9732559178
 21
2.4887123963
  0
LINE
  5
3A0
100
AcDbEntity
  8
0
100
AcDbLine
 62
7
  6
CONTINUOUS
 10
5.2058988694
 20
2.6156089031
 11
5.1977450294
 21
2.6074550631
  0
LINE
  5
3A1
100
AcDbEntity
  8
0
100
AcDbLine
 62
7
  6
CONTINUOUS
 10
5.0272788284
 20
2.3940093781
 11
5.0191249841
 21
2.3858555338
  0
LINE
  5
3A2
100
AcDbEntity
  8
ALL_FEATURES
100
AcDbLine
 62
7
  6
CONTINUOUS
 10
4.6124941182
 20
5.3908421617
 11
5.3037325898
 21
5.3908421617
  0
LINE
  5
3A3
100
AcDbEntity
  8
0
100
AcDbLine
 62
7
  6
CONTINUOUS
 10
6.3220471092
 20
2.6432369392
 11
6.3220471092
 21
2.6295286206
  0
LINE
  5
3A4
100
AcDbEntity
  8
0
100
AcDbLine
 62
7
  6
CONTINUOUS
 10
6.4166119691
 20
2.6441284889
 11
6.4166119691
 21
2.6295286206
  0
LINE
  5
3A5
100
AcDbEntity
  8
0
100
AcDbLine
 62
7
  6
CONTINUOUS
 10
6.4387055412
 20
2.7059956054
 11
6.4387055412
 21
2.6710757889
  0
LINE
  5
3A6
100
AcDbEntity
  8
0
100
AcDbLine
 62
7
  6
CONTINUOUS
 10
5.4528030811
 20
2.6571557667
 11
5.4446495904
 21
2.649002276
  0
LINE
  5
3A7
100
AcDbEntity
  8
0
100
AcDbLine
 62
7
  6
CONTINUOUS
 10
5.5588197311
 20
2.6156089031
 11
5.5506658911
 21
2.6074550631
  0
LINE
  5
3A8
100
AcDbEntity
  8
0
100
AcDbLine
 62
7
  6
CONTINUOUS
 10
5.3721826973
 20
2.3940093765
 11
5.3640288546
 21
2.3858555338
  0
LINE
  5
3A9
100
AcDbEntity
  8
ALL_FEATURES
100
AcDbLine
 62
7
  6
CONTINUOUS
 10
4.6125196365
 20
5.5040047534
 11
5.3037070716
 21
5.5040047534
  0
LINE
  5
3AA
100
AcDbEntity
  8
ALL_FEATURES
100
AcDbLine
 62
7
  6
CONTINUOUS
 10
4.5606772791
 20
5.5558471108
 11
5.355549429
 21
5.5558471108
  0
LINE
  5
3AB
100
AcDbEntity
  8
ALL_FEATURES
100
AcDbLine
 62
7
  6
CONTINUOUS
 10
4.505613354
 20
5.6887831856
 11
4.8334889182
 21
5.6887831856
  0
LINE
  5
3AC
100
AcDbEntity
  8
ALL_FEATURES
100
AcDbLine
 62
7
  6
CONTINUOUS
 10
5.0827377898
 20
5.6887831856
 11
5.410613354
 21
5.6887831856
  0
LINE
  5
3AD
100
AcDbEntity
  8
0
100
AcDbLine
 62
7
  6
CONTINUOUS
 10
6.578113354
 20
3.6747777956
 11
6.578113354
 21
3.640789363
  0
LINE
  5
3AE
100
AcDbEntity
  8
0
100
AcDbLine
 62
7
  6
CONTINUOUS
 10
6.5999621288
 20
2.7059956054
 11
6.5999621288
 21
2.6710757889
  0
LINE
  5
3AF
100
AcDbEntity
  8
0
100
AcDbLine
 62
7
  6
CONTINUOUS
 10
6.6549637477
 20
2.7059956054
 11
6.6549637477
 21
2.6710757889
  0
LINE
  5
3B0
100
AcDbEntity
  8
0
100
AcDbLine
 62
7
  6
CONTINUOUS
 10
5.6255303631
 20
2.5014786913
 11
5.6127640686
 21
2.4887123968
  0
LINE
  5
3B1
100
AcDbEntity
  8
0
100
AcDbLine
 62
7
  6
CONTINUOUS
 10
5.5507180798
 20
2.3940093781
 11
5.5425644953
 21
2.3858557937
  0
LINE
  5
3B2
100
AcDbEntity
  8
0
100
AcDbLine
 62
7
  6
CONTINUOUS
 10
5.8421109217
 20
2.6571557667
 11
5.833957431
 21
2.649002276
  0
LINE
  5
3B3
100
AcDbEntity
  8
0
100
AcDbLine
 62
7
  6
CONTINUOUS
 10
6.863113354
 20
3.4522054664
 11
6.863113354
 21
3.2691566388
  0
LINE
  5
3B4
100
AcDbEntity
  8
0
100
AcDbLine
 62
7
  6
CONTINUOUS
 10
5.8752399193
 20
2.6156089031
 11
5.8670860793
 21
2.6074550631
  0
LINE
  5
3B5
100
AcDbEntity
  8
0
100
AcDbLine
 62
7
  6
CONTINUOUS
 10
5.7717760809
 20
2.5014786914
 11
5.7590097848
 21
2.4887123953
  0
LINE
  5
3B6
100
AcDbEntity
  8
0
100
AcDbLine
 62
7
  6
CONTINUOUS
 10
5.8736878137
 20
2.5014786914
 11
5.8609215182
 21
2.4887123959
  0
LINE
  5
3B7
100
AcDbEntity
  8
0
100
AcDbLine
 62
7
  6
CONTINUOUS
 10
6.1335959211
 20
2.6156089031
 11
6.1254420789
 21
2.6074550609
  0
LINE
  5
3B8
100
AcDbEntity
  8
ALL_FEATURES
100
AcDbLine
 62
7
  6
CONTINUOUS
 10
4.8334889182
 20
5.8859110359
 11
5.0827377898
 21
5.8859110359
  0
LINE
  5
3B9
100
AcDbEntity
  8
ALL_FEATURES
100
AcDbLine
 62
7
  6
CONTINUOUS
 10
4.505613354
 20
6.0109110359
 11
5.410613354
 21
6.0109110359
  0
LINE
  5
3BA
100
AcDbEntity
  8
0
100
AcDbLine
 62
7
  6
CONTINUOUS
 10
6.1764171433
 20
2.6571557667
 11
6.1682636526
 21
2.649002276
  0
LINE
  5
3BB
100
AcDbEntity
  8
0
100
AcDbLine
 62
7
  6
CONTINUOUS
 10
6.3162812019
 20
2.615608903
 11
6.3081273619
 21
2.6074550631
  0
LINE
  5
3BC
100
AcDbEntity
  8
0
100
AcDbLine
 62
7
  6
CONTINUOUS
 10
6.4329393295
 20
2.6571557668
 11
6.4247858387
 21
2.649002276
  0
LINE
  5
3BD
100
AcDbEntity
  8
0
100
AcDbLine
 62
7
  6
CONTINUOUS
 10
6.4108460618
 20
2.6156089031
 11
6.4026923855
 21
2.6074552267
  0
LINE
  5
3BE
100
AcDbEntity
  8
0
100
AcDbLine
 62
7
  6
CONTINUOUS
 10
6.5941959169
 20
2.6571557667
 11
6.5860424262
 21
2.649002276
  0
LINE
  5
3BF
100
AcDbEntity
  8
0
100
AcDbLine
 62
7
  6
CONTINUOUS
 10
6.6491981332
 20
2.657156364
 11
6.6410440452
 21
2.649002276
  0
ARC
  5
3C0
100
AcDbEntity
  8
0
100
AcDbCircle
 62
7
  6
CONTINUOUS
 10
3.2265093733
 20
1.880114701
 40
0.8518515897
100
AcDbArc
 50
74.5802845708
 51
75.8148825965
  0
ARC
  5
3C1
100
AcDbEntity
  8
0
100
AcDbCircle
 62
7
  6
CONTINUOUS
 10
3.28910181
 20
2.6629219786
 40
0.0196850394
100
AcDbArc
 50
225.0011432902
 51
270.001006738
  0
ARC
  5
3C2
100
AcDbEntity
  8
0
100
AcDbCircle
 62
7
  6
CONTINUOUS
 10
3.2809479997
 20
2.6710757889
 40
0.0196850394
100
AcDbArc
 50
180.0
 51
225.0024588136
  0
ARC
  5
3C3
100
AcDbEntity
  8
0
100
AcDbCircle
 62
7
  6
CONTINUOUS
 10
3.4619338707
 20
2.6710757889
 40
0.0196850394
100
AcDbArc
 50
314.9975411859
 51
333.8750990227
  0
ARC
  5
3C4
100
AcDbEntity
  8
0
100
AcDbCircle
 62
7
  6
CONTINUOUS
 10
3.3359496187
 20
2.6710757889
 40
0.0196850394
100
AcDbArc
 50
180.0
 51
225.0024588136
  0
ARC
  5
3C5
100
AcDbEntity
  8
0
100
AcDbCircle
 62
7
  6
CONTINUOUS
 10
3.344103429
 20
2.6629219786
 40
0.0196850394
100
AcDbArc
 50
225.0011432902
 51
270.001006738
  0
ARC
  5
3C6
100
AcDbEntity
  8
0
100
AcDbCircle
 62
7
  6
CONTINUOUS
 10
3.4537800604
 20
2.6629219786
 40
0.0196850394
100
AcDbArc
 50
269.998993262
 51
314.9988567098
  0
ARC
  5
3C7
100
AcDbEntity
  8
0
100
AcDbCircle
 62
7
  6
CONTINUOUS
 10
3.6231904582
 20
2.6710757889
 40
0.0196850394
100
AcDbArc
 50
314.9975411858
 51
360.0
  0
ARC
  5
3C8
100
AcDbEntity
  8
0
100
AcDbCircle
 62
7
  6
CONTINUOUS
 10
3.4972062062
 20
2.6710757889
 40
0.0196850394
100
AcDbArc
 50
180.0
 51
225.0024588142
  0
ARC
  5
3C9
100
AcDbEntity
  8
0
100
AcDbCircle
 62
7
  6
CONTINUOUS
 10
3.5053600165
 20
2.6629219786
 40
0.0196850394
100
AcDbArc
 50
225.00114329
 51
270.0010067377
  0
ARC
  5
3CA
100
AcDbEntity
  8
0
100
AcDbCircle
 62
7
  6
CONTINUOUS
 10
3.6150366479
 20
2.6629219786
 40
0.0196850394
100
AcDbArc
 50
269.9989932623
 51
314.99885671
  0
ARC
  5
3CB
100
AcDbEntity
  8
0
100
AcDbCircle
 62
7
  6
CONTINUOUS
 10
3.5192997784
 20
2.6295286206
 40
0.0196850394
100
AcDbArc
 50
180.0
 51
225.0012047959
  0
ARC
  5
3CC
100
AcDbEntity
  8
0
100
AcDbCircle
 62
7
  6
CONTINUOUS
 10
3.6135081728
 20
2.6213748103
 40
0.0196850394
100
AcDbArc
 50
269.9989177866
 51
282.5062037105
  0
ARC
  5
3CD
100
AcDbEntity
  8
0
100
AcDbCircle
 62
7
  6
CONTINUOUS
 10
3.5274535887
 20
2.6213748103
 40
0.0196850394
100
AcDbArc
 50
225.001327205
 51
270.0010822134
  0
ARC
  5
3CE
100
AcDbEntity
  8
0
100
AcDbCircle
 62
7
  6
CONTINUOUS
 10
3.7080730327
 20
2.6213748103
 40
0.0196850394
100
AcDbArc
 50
269.9989177863
 51
314.9986727947
  0
ARC
  5
3CF
100
AcDbEntity
  8
0
100
AcDbCircle
 62
7
  6
CONTINUOUS
 10
3.716226843
 20
2.6295286206
 40
0.0196850394
100
AcDbArc
 50
314.9987952051
 51
360.0
  0
ARC
  5
3D0
100
AcDbEntity
  8
0
100
AcDbCircle
 62
7
  6
CONTINUOUS
 10
3.6138646383
 20
2.6295286206
 40
0.0196850394
100
AcDbArc
 50
180.0
 51
225.0012047956
  0
ARC
  5
3D1
100
AcDbEntity
  8
0
100
AcDbCircle
 62
7
  6
CONTINUOUS
 10
3.6220184485
 20
2.6213748103
 40
0.0196850394
100
AcDbArc
 50
225.0013272053
 51
270.0010822137
  0
ARC
  5
3D2
100
AcDbEntity
  8
0
100
AcDbCircle
 62
7
  6
CONTINUOUS
 10
3.6973352634
 20
2.6043755947
 40
0.0078740157
100
AcDbArc
 50
199.9760716118
 51
259.854080614
  0
ARC
  5
3D3
100
AcDbEntity
  8
0
100
AcDbCircle
 62
7
  6
CONTINUOUS
 10
3.1916944513
 20
2.7138696212
 40
0.0078740157
100
AcDbArc
 50
255.7100596427
 51
270.0
  0
ARC
  5
3D4
100
AcDbEntity
  8
0
100
AcDbCircle
 62
7
  6
CONTINUOUS
 10
2.603113354
 20
3.2691566388
 40
0.45
100
AcDbArc
 50
321.6210152008
 51
360.0
  0
ARC
  5
3D5
100
AcDbEntity
  8
0
100
AcDbCircle
 62
7
  6
CONTINUOUS
 10
2.7598976004
 20
3.1449845805
 40
0.25
100
AcDbArc
 50
292.8632234306
 51
321.6210152008
  0
ARC
  5
3D6
100
AcDbEntity
  8
0
100
AcDbCircle
 62
7
  6
CONTINUOUS
 10
2.888113354
 20
2.8409110359
 40
0.08
100
AcDbArc
 50
112.8632234306
 51
177.7285491583
  0
ARC
  5
3D7
100
AcDbEntity
  8
0
100
AcDbCircle
 62
7
  6
CONTINUOUS
 10
3.128113354
 20
3.4522054664
 40
0.075
100
AcDbArc
 50
114.0
 51
180.0
  0
ARC
  5
3D8
100
AcDbEntity
  8
0
100
AcDbCircle
 62
7
  6
CONTINUOUS
 10
3.358113354
 20
3.6747777956
 40
0.02
100
AcDbArc
 50
102.4577510794
 51
180.0
  0
ARC
  5
3D9
100
AcDbEntity
  8
0
100
AcDbCircle
 62
7
  6
CONTINUOUS
 10
3.318113354
 20
3.640789363
 40
0.02
100
AcDbArc
 50
294.0
 51
360.0
  0
ARC
  5
3DA
100
AcDbEntity
  8
0
100
AcDbCircle
 62
7
  6
CONTINUOUS
 10
4.0627838156
 20
2.4306185118
 40
0.2467117101
100
AcDbArc
 50
88.6914476936
 51
89.9622302409
  0
ARC
  5
3DB
100
AcDbEntity
  8
0
100
AcDbCircle
 62
7
  6
CONTINUOUS
 10
3.8348433802
 20
2.4369154365
 40
0.2330213525
100
AcDbArc
 50
74.2346095071
 51
74.5434897535
  0
ARC
  5
3DC
100
AcDbEntity
  8
0
100
AcDbCircle
 62
7
  6
CONTINUOUS
 10
3.8469834337
 20
2.4792132692
 40
0.1890163241
100
AcDbArc
 50
72.7598662874
 51
74.292535395
  0
ARC
  5
3DD
100
AcDbEntity
  8
0
100
AcDbCircle
 62
7
  6
CONTINUOUS
 10
4.0071964251
 20
2.4771979622
 40
0.0708154378
100
AcDbArc
 50
88.8486257318
 51
89.0760991947
  0
ARC
  5
3DE
100
AcDbEntity
  8
0
100
AcDbCircle
 62
7
  6
CONTINUOUS
 10
4.230763062
 20
2.4772277625
 40
0.0393700787
100
AcDbArc
 50
19.9999167392
 51
84.208519173
  0
ARC
  5
3DF
100
AcDbEntity
  8
0
100
AcDbCircle
 62
7
  6
CONTINUOUS
 10
4.314633726
 20
2.4194606212
 40
0.0196850394
100
AcDbArc
 50
200.0000948195
 51
270.0002417934
  0
ARC
  5
3E0
100
AcDbEntity
  8
0
100
AcDbCircle
 62
7
  6
CONTINUOUS
 10
4.1665724893
 20
2.5865473873
 40
0.0595212197
100
AcDbArc
 50
269.0974543362
 51
269.9383826379
  0
ARC
  5
3E1
100
AcDbEntity
  8
0
100
AcDbCircle
 62
7
  6
CONTINUOUS
 10
4.0074213112
 20
2.4918939305
 40
0.0561177552
100
AcDbArc
 50
89.0637381309
 51
89.991115403
  0
ARC
  5
3E2
100
AcDbEntity
  8
0
100
AcDbCircle
 62
7
  6
CONTINUOUS
 10
3.8797126442
 20
2.6710757889
 40
0.0196850394
100
AcDbArc
 50
314.9975411861
 51
360.0
  0
ARC
  5
3E3
100
AcDbEntity
  8
0
100
AcDbCircle
 62
7
  6
CONTINUOUS
 10
3.7537283923
 20
2.6710757889
 40
0.0196850394
100
AcDbArc
 50
180.0
 51
225.0024588139
  0
ARC
  5
3E4
100
AcDbEntity
  8
0
100
AcDbCircle
 62
7
  6
CONTINUOUS
 10
3.7618822026
 20
2.6629219786
 40
0.0196850394
100
AcDbArc
 50
225.0011432895
 51
270.0010067371
  0
ARC
  5
3E5
100
AcDbEntity
  8
0
100
AcDbCircle
 62
7
  6
CONTINUOUS
 10
3.871558834
 20
2.6629219786
 40
0.0196850394
100
AcDbArc
 50
269.9989932614
 51
314.9988567094
  0
ARC
  5
3E6
100
AcDbEntity
  8
0
100
AcDbCircle
 62
7
  6
CONTINUOUS
 10
3.7965499191
 20
2.6295286206
 40
0.0196850394
100
AcDbArc
 50
180.0
 51
225.0012047948
  0
ARC
  5
3E7
100
AcDbEntity
  8
0
100
AcDbCircle
 62
7
  6
CONTINUOUS
 10
3.8989121238
 20
2.6295286206
 40
0.0196850394
100
AcDbArc
 50
314.9987952044
 51
360.0
  0
ARC
  5
3E8
100
AcDbEntity
  8
0
100
AcDbCircle
 62
7
  6
CONTINUOUS
 10
3.8907583135
 20
2.6213748103
 40
0.0196850394
100
AcDbArc
 50
269.9989177867
 51
314.998672795
  0
ARC
  5
3E9
100
AcDbEntity
  8
0
100
AcDbCircle
 62
7
  6
CONTINUOUS
 10
3.8047037294
 20
2.6213748103
 40
0.0196850394
100
AcDbArc
 50
225.0013272057
 51
270.0010822143
  0
ARC
  5
3EA
100
AcDbEntity
  8
0
100
AcDbCircle
 62
7
  6
CONTINUOUS
 10
4.1491143154
 20
2.6213748103
 40
0.0196850394
100
AcDbArc
 50
269.9989177811
 51
314.9986727884
  0
ARC
  5
3EB
100
AcDbEntity
  8
0
100
AcDbCircle
 62
7
  6
CONTINUOUS
 10
4.1572681256
 20
2.6295286206
 40
0.0196850394
100
AcDbArc
 50
314.9987952044
 51
360.0
  0
ARC
  5
3EC
100
AcDbEntity
  8
0
100
AcDbCircle
 62
7
  6
CONTINUOUS
 10
4.0549059209
 20
2.6295286206
 40
0.0196850394
100
AcDbArc
 50
180.0
 51
225.0012047956
  0
ARC
  5
3ED
100
AcDbEntity
  8
0
100
AcDbCircle
 62
7
  6
CONTINUOUS
 10
4.0630597312
 20
2.6213748103
 40
0.0196850394
100
AcDbArc
 50
225.0013272116
 51
270.001082219
  0
ARC
  5
3EE
100
AcDbEntity
  8
0
100
AcDbCircle
 62
7
  6
CONTINUOUS
 10
4.2140188658
 20
2.6710757889
 40
0.0196850394
100
AcDbArc
 50
314.9989767129
 51
360.0
  0
ARC
  5
3EF
100
AcDbEntity
  8
0
100
AcDbCircle
 62
7
  6
CONTINUOUS
 10
4.0880346139
 20
2.6710757889
 40
0.0196850394
100
AcDbArc
 50
180.0
 51
225.0010232871
  0
ARC
  5
3F0
100
AcDbEntity
  8
0
100
AcDbCircle
 62
7
  6
CONTINUOUS
 10
4.0961884242
 20
2.6629219786
 40
0.0196850394
100
AcDbArc
 50
225.0010369649
 51
270.0009085171
  0
ARC
  5
3F1
100
AcDbEntity
  8
0
100
AcDbCircle
 62
7
  6
CONTINUOUS
 10
4.2058650556
 20
2.6629219786
 40
0.0196850394
100
AcDbArc
 50
269.9990914829
 51
314.9989630351
  0
ARC
  5
3F2
100
AcDbEntity
  8
0
100
AcDbCircle
 62
7
  6
CONTINUOUS
 10
3.9938567212
 20
2.50983039
 40
0.0118110236
100
AcDbArc
 50
180.0
 51
225.0002999894
  0
ARC
  5
3F3
100
AcDbEntity
  8
0
100
AcDbCircle
 62
7
  6
CONTINUOUS
 10
4.0066230231
 20
2.4970640881
 40
0.0118110236
100
AcDbArc
 50
225.0002531645
 51
270.0002596323
  0
ARC
  5
3F4
100
AcDbEntity
  8
0
100
AcDbCircle
 62
7
  6
CONTINUOUS
 10
4.1318234134
 20
2.4970640881
 40
0.0118110236
100
AcDbArc
 50
269.9997403685
 51
314.9997468361
  0
ARC
  5
3F5
100
AcDbEntity
  8
0
100
AcDbCircle
 62
7
  6
CONTINUOUS
 10
4.1445897153
 20
2.50983039
 40
0.0118110236
100
AcDbArc
 50
314.9997000106
 51
360.0
  0
ARC
  5
3F6
100
AcDbEntity
  8
0
100
AcDbCircle
 62
7
  6
CONTINUOUS
 10
4.0264794791
 20
2.50983039
 40
0.0118110236
100
AcDbArc
 50
180.0
 51
225.0002999876
  0
ARC
  5
3F7
100
AcDbEntity
  8
0
100
AcDbCircle
 62
7
  6
CONTINUOUS
 10
4.039245781
 20
2.4970640881
 40
0.0118110236
100
AcDbArc
 50
225.0002531657
 51
270.0002596341
  0
ARC
  5
3F8
100
AcDbEntity
  8
0
100
AcDbCircle
 62
7
  6
CONTINUOUS
 10
3.9702603147
 20
2.5363193371
 40
0.0118091033
100
AcDbArc
 50
8.8340226034
 51
82.10498757
  0
ARC
  5
3F9
100
AcDbEntity
  8
0
100
AcDbCircle
 62
7
  6
CONTINUOUS
 10
3.970375995
 20
2.5363276299
 40
0.0116935092
100
AcDbArc
 50
359.9469042524
 51
8.8809180043
  0
ARC
  5
3FA
100
AcDbEntity
  8
0
100
AcDbCircle
 62
7
  6
CONTINUOUS
 10
4.3939434802
 20
2.3086144856
 40
0.3687322995
100
AcDbArc
 50
86.3570763171
 51
88.7576514793
  0
ARC
  5
3FB
100
AcDbEntity
  8
0
100
AcDbCircle
 62
7
  6
CONTINUOUS
 10
4.7660025936
 20
2.3213413033
 40
0.35598952
100
AcDbArc
 50
87.5439871335
 51
89.7021225733
  0
ARC
  5
3FC
100
AcDbEntity
  8
0
100
AcDbCircle
 62
7
  6
CONTINUOUS
 10
4.7661757377
 20
2.3387379085
 40
0.3385922599
100
AcDbArc
 50
89.7161165678
 51
89.9995857781
  0
ARC
  5
3FD
100
AcDbEntity
  8
0
100
AcDbCircle
 62
7
  6
CONTINUOUS
 10
4.7661731341
 20
2.3438967215
 40
0.3334334469
100
AcDbArc
 50
89.9991319703
 51
91.2462497209
  0
ARC
  5
3FE
100
AcDbEntity
  8
0
100
AcDbCircle
 62
7
  6
CONTINUOUS
 10
4.3952714133
 20
2.3602041825
 40
0.3171260072
100
AcDbArc
 50
88.7954273801
 51
89.9789517506
  0
ARC
  5
3FF
100
AcDbEntity
  8
0
100
AcDbCircle
 62
7
  6
CONTINUOUS
 10
4.3953581505
 20
2.398510946
 40
0.278819224
100
AcDbArc
 50
89.993883932
 51
91.3628694083
  0
ARC
  5
400
100
AcDbEntity
  8
0
100
AcDbCircle
 62
7
  6
CONTINUOUS
 10
4.4088934392
 20
2.4045299828
 40
0.2716951778
100
AcDbArc
 50
79.6492583194
 51
80.3845294797
  0
ARC
  5
401
100
AcDbEntity
  8
0
100
AcDbCircle
 62
7
  6
CONTINUOUS
 10
4.7892303384
 20
2.3997755818
 40
0.0196850394
100
AcDbArc
 50
225.0025651318
 51
270.0027356757
  0
ARC
  5
402
100
AcDbEntity
  8
0
100
AcDbCircle
 62
7
  6
CONTINUOUS
 10
4.7532376785
 20
2.3800905424
 40
0.0196850394
100
AcDbArc
 50
44.9975750784
 51
89.9960818714
  0
ARC
  5
403
100
AcDbEntity
  8
0
100
AcDbCircle
 62
7
  6
CONTINUOUS
 10
4.6959738318
 20
2.3997755818
 40
0.0196850394
100
AcDbArc
 50
269.9972642494
 51
314.9974348102
  0
ARC
  5
404
100
AcDbEntity
  8
0
100
AcDbCircle
 62
7
  6
CONTINUOUS
 10
4.4799979878
 20
2.3997755818
 40
0.0196850394
100
AcDbArc
 50
225.0025651901
 51
270.002735751
  0
ARC
  5
405
100
AcDbEntity
  8
0
100
AcDbCircle
 62
7
  6
CONTINUOUS
 10
4.7319664918
 20
2.3800905424
 40
0.0196850394
100
AcDbArc
 50
90.00392895
 51
135.0024317524
  0
ARC
  5
406
100
AcDbEntity
  8
0
100
AcDbCircle
 62
7
  6
CONTINUOUS
 10
4.4440053279
 20
2.3800905424
 40
0.0196850394
100
AcDbArc
 50
44.9975682479
 51
82.4962814925
  0
ARC
  5
407
100
AcDbEntity
  8
0
100
AcDbCircle
 62
7
  6
CONTINUOUS
 10
4.3875812743
 20
2.3997755818
 40
0.0196850394
100
AcDbArc
 50
225.0025651318
 51
270.0015873101
  0
ARC
  5
408
100
AcDbEntity
  8
0
100
AcDbCircle
 62
7
  6
CONTINUOUS
 10
4.3515886143
 20
2.3800905424
 40
0.0196850394
100
AcDbArc
 50
44.9984858797
 51
86.4160194498
  0
ARC
  5
409
100
AcDbEntity
  8
0
100
AcDbCircle
 62
7
  6
CONTINUOUS
 10
4.7820924991
 20
2.3997755818
 40
0.0196850394
100
AcDbArc
 50
269.997264249
 51
280.4683062659
  0
ARC
  5
40A
100
AcDbEntity
  8
0
100
AcDbCircle
 62
7
  6
CONTINUOUS
 10
4.5606419309
 20
2.4907951121
 40
0.0476450727
100
AcDbArc
 50
70.8485712402
 51
72.6681538996
  0
ARC
  5
40B
100
AcDbEntity
  8
0
100
AcDbCircle
 62
7
  6
CONTINUOUS
 10
4.8951212281
 20
2.6710757889
 40
0.0196850394
100
AcDbArc
 50
180.0
 51
225.0024588143
  0
ARC
  5
40C
100
AcDbEntity
  8
0
100
AcDbCircle
 62
7
  6
CONTINUOUS
 10
4.9032750383
 20
2.6629219786
 40
0.0196850394
100
AcDbArc
 50
225.0011432902
 51
270.001006738
  0
ARC
  5
40D
100
AcDbEntity
  8
0
100
AcDbCircle
 62
7
  6
CONTINUOUS
 10
4.6033267064
 20
2.6710757889
 40
0.0196850394
100
AcDbArc
 50
314.9975411863
 51
360.0
  0
ARC
  5
40E
100
AcDbEntity
  8
0
100
AcDbCircle
 62
7
  6
CONTINUOUS
 10
4.4773424545
 20
2.6710757889
 40
0.0196850394
100
AcDbArc
 50
180.0
 51
225.0024588147
  0
ARC
  5
40F
100
AcDbEntity
  8
0
100
AcDbCircle
 62
7
  6
CONTINUOUS
 10
4.4854962647
 20
2.6629219786
 40
0.0196850394
100
AcDbArc
 50
225.0011432896
 51
270.0010067372
  0
ARC
  5
410
100
AcDbEntity
  8
0
100
AcDbCircle
 62
7
  6
CONTINUOUS
 10
4.5951728961
 20
2.6629219786
 40
0.0196850394
100
AcDbArc
 50
269.9989932615
 51
314.9988567095
  0
ARC
  5
411
100
AcDbEntity
  8
0
100
AcDbCircle
 62
7
  6
CONTINUOUS
 10
4.3713261091
 20
2.6295286206
 40
0.0196850394
100
AcDbArc
 50
180.0
 51
225.0012049649
  0
ARC
  5
412
100
AcDbEntity
  8
0
100
AcDbCircle
 62
7
  6
CONTINUOUS
 10
4.4736883139
 20
2.6295286206
 40
0.0196850394
100
AcDbArc
 50
314.9987950343
 51
360.0
  0
ARC
  5
413
100
AcDbEntity
  8
0
100
AcDbCircle
 62
7
  6
CONTINUOUS
 10
4.4655345036
 20
2.6213748103
 40
0.0196850394
100
AcDbArc
 50
269.9989177854
 51
314.9986727936
  0
ARC
  5
414
100
AcDbEntity
  8
0
100
AcDbCircle
 62
7
  6
CONTINUOUS
 10
4.3794799194
 20
2.6213748103
 40
0.0196850394
100
AcDbArc
 50
225.0013272064
 51
270.0010822146
  0
ARC
  5
415
100
AcDbEntity
  8
0
100
AcDbCircle
 62
7
  6
CONTINUOUS
 10
4.8184553653
 20
2.6213748103
 40
0.0196850394
100
AcDbArc
 50
269.9989177867
 51
314.998672795
  0
ARC
  5
416
100
AcDbEntity
  8
0
100
AcDbCircle
 62
7
  6
CONTINUOUS
 10
4.8266091756
 20
2.6295286206
 40
0.0196850394
100
AcDbArc
 50
314.9987952045
 51
360.0
  0
ARC
  5
417
100
AcDbEntity
  8
0
100
AcDbCircle
 62
7
  6
CONTINUOUS
 10
4.7242469708
 20
2.6295286206
 40
0.0196850394
100
AcDbArc
 50
180.0
 51
225.0012047948
  0
ARC
  5
418
100
AcDbEntity
  8
0
100
AcDbCircle
 62
7
  6
CONTINUOUS
 10
4.7324007811
 20
2.6213748103
 40
0.0196850394
100
AcDbArc
 50
225.0013272052
 51
270.0010822136
  0
ARC
  5
419
100
AcDbEntity
  8
0
100
AcDbCircle
 62
7
  6
CONTINUOUS
 10
4.544820188
 20
2.4970640881
 40
0.0118110236
100
AcDbArc
 50
269.9997403679
 51
314.9997468357
  0
ARC
  5
41A
100
AcDbEntity
  8
0
100
AcDbCircle
 62
7
  6
CONTINUOUS
 10
4.5575864899
 20
2.50983039
 40
0.0118110236
100
AcDbArc
 50
314.9997000108
 51
360.0
  0
ARC
  5
41B
100
AcDbEntity
  8
0
100
AcDbCircle
 62
7
  6
CONTINUOUS
 10
4.4394762537
 20
2.50983039
 40
0.0118110236
100
AcDbArc
 50
180.0
 51
225.0002999879
  0
ARC
  5
41C
100
AcDbEntity
  8
0
100
AcDbCircle
 62
7
  6
CONTINUOUS
 10
4.4522425556
 20
2.4970640881
 40
0.0118110236
100
AcDbArc
 50
225.0002531656
 51
270.0002596339
  0
ARC
  5
41D
100
AcDbEntity
  8
0
100
AcDbCircle
 62
7
  6
CONTINUOUS
 10
4.7472229211
 20
2.4970640881
 40
0.0118110236
100
AcDbArc
 50
269.9997403667
 51
314.9997468348
  0
ARC
  5
41E
100
AcDbEntity
  8
0
100
AcDbCircle
 62
7
  6
CONTINUOUS
 10
4.759989223
 20
2.50983039
 40
0.0118110236
100
AcDbArc
 50
314.9997000109
 51
360.0
  0
ARC
  5
41F
100
AcDbEntity
  8
0
100
AcDbCircle
 62
7
  6
CONTINUOUS
 10
4.6418789868
 20
2.50983039
 40
0.0118110236
100
AcDbArc
 50
180.0
 51
225.0002999879
  0
ARC
  5
420
100
AcDbEntity
  8
0
100
AcDbCircle
 62
7
  6
CONTINUOUS
 10
4.6546452887
 20
2.4970640881
 40
0.0118110236
100
AcDbArc
 50
225.0002531652
 51
270.0002596333
  0
ARC
  5
421
100
AcDbEntity
  8
0
100
AcDbCircle
 62
7
  6
CONTINUOUS
 10
4.8595603655
 20
2.50983039
 40
0.0118110236
100
AcDbArc
 50
180.0
 51
225.0002999885
  0
ARC
  5
422
100
AcDbEntity
  8
0
100
AcDbCircle
 62
7
  6
CONTINUOUS
 10
4.8723266674
 20
2.4970640881
 40
0.0118110236
100
AcDbArc
 50
225.0002531654
 51
270.0002596337
  0
ARC
  5
423
100
AcDbEntity
  8
0
100
AcDbCircle
 62
7
  6
CONTINUOUS
 10
4.9580995208
 20
9.6489130666
 40
7.1691060897
100
AcDbArc
 50
263.6113261854
 51
264.2089899485
  0
ARC
  5
424
100
AcDbEntity
  8
0
100
AcDbCircle
 62
7
  6
CONTINUOUS
 10
4.9580995208
 20
9.6489130666
 40
7.1691060897
100
AcDbArc
 50
260.6769302766
 51
262.098581803
  0
ARC
  5
425
100
AcDbEntity
  8
0
100
AcDbCircle
 62
7
  6
CONTINUOUS
 10
4.9580995208
 20
9.6489483765
 40
7.1643816803
100
AcDbArc
 50
259.8532230909
 51
260.5748796072
  0
ARC
  5
426
100
AcDbEntity
  8
0
100
AcDbCircle
 62
7
  6
CONTINUOUS
 10
4.9580995208
 20
9.6489483765
 40
7.1643816803
100
AcDbArc
 50
255.0673065853
 51
255.7102731772
  0
ARC
  5
427
100
AcDbEntity
  8
0
100
AcDbCircle
 62
7
  6
CONTINUOUS
 10
2.9439316235
 20
5.5495720494
 40
1.9
100
AcDbArc
 50
282.4577510794
 51
320.4893591774
  0
ARC
  5
428
100
AcDbEntity
  8
ALL_FEATURES
100
AcDbCircle
 62
7
  6
CONTINUOUS
 10
4.693613354
 20
5.6887831856
 40
0.188
100
AcDbArc
 50
180.0
 51
225.0
  0
ARC
  5
429
100
AcDbEntity
  8
ALL_FEATURES
100
AcDbCircle
 62
7
  6
CONTINUOUS
 10
4.555951094
 20
5.4474362109
 40
0.08
100
AcDbArc
 50
314.9741595356
 51
45.0
  0
ARC
  5
42A
100
AcDbEntity
  8
0
100
AcDbCircle
 62
7
  6
CONTINUOUS
 10
5.1502939583
 20
2.319594689
 40
0.3577374236
100
AcDbArc
 50
91.2179091128
 51
92.4003257805
  0
ARC
  5
42B
100
AcDbEntity
  8
0
100
AcDbCircle
 62
7
  6
CONTINUOUS
 10
5.52167024
 20
2.3268202297
 40
0.3505176278
100
AcDbArc
 50
91.273370429
 51
92.4470176737
  0
ARC
  5
42C
100
AcDbEntity
  8
0
100
AcDbCircle
 62
7
  6
CONTINUOUS
 10
5.1500690037
 20
2.3321447519
 40
0.345185417
100
AcDbArc
 50
90.0033995785
 51
91.2248550894
  0
ARC
  5
42D
100
AcDbEntity
  8
0
100
AcDbCircle
 62
7
  6
CONTINUOUS
 10
5.1500711365
 20
2.3454062756
 40
0.3319238935
100
AcDbArc
 50
88.7233993511
 51
90.003903568
  0
ARC
  5
42E
100
AcDbEntity
  8
0
100
AcDbCircle
 62
7
  6
CONTINUOUS
 10
5.5208838903
 20
2.3664021713
 40
0.3109280003
100
AcDbArc
 50
90.0083098766
 51
91.2905928536
  0
ARC
  5
42F
100
AcDbEntity
  8
0
100
AcDbCircle
 62
7
  6
CONTINUOUS
 10
5.5089698261
 20
2.3953022445
 40
0.2810668047
100
AcDbArc
 50
99.3092369914
 51
100.3375346163
  0
ARC
  5
430
100
AcDbEntity
  8
0
100
AcDbCircle
 62
7
  6
CONTINUOUS
 10
5.5209377329
 20
2.4043153547
 40
0.2730148316
100
AcDbArc
 50
88.5922408625
 51
90.0207634513
  0
ARC
  5
431
100
AcDbEntity
  8
0
100
AcDbCircle
 62
7
  6
CONTINUOUS
 10
5.5286454338
 20
2.3997755818
 40
0.0196850394
100
AcDbArc
 50
269.9984126899
 51
314.9974348682
  0
ARC
  5
432
100
AcDbEntity
  8
0
100
AcDbCircle
 62
7
  6
CONTINUOUS
 10
5.350110053
 20
2.3997755818
 40
0.0196850394
100
AcDbArc
 50
269.9972642495
 51
314.9974348102
  0
ARC
  5
433
100
AcDbEntity
  8
0
100
AcDbCircle
 62
7
  6
CONTINUOUS
 10
5.134134209
 20
2.3997755818
 40
0.0196850394
100
AcDbArc
 50
225.0025651901
 51
270.002735751
  0
ARC
  5
434
100
AcDbEntity
  8
0
100
AcDbCircle
 62
7
  6
CONTINUOUS
 10
5.3861027129
 20
2.3800905424
 40
0.0196850394
100
AcDbArc
 50
90.00392895
 51
135.0024317524
  0
ARC
  5
435
100
AcDbEntity
  8
0
100
AcDbCircle
 62
7
  6
CONTINUOUS
 10
5.098141549
 20
2.3800905424
 40
0.0196850394
100
AcDbArc
 50
44.9975682479
 51
89.9960710504
  0
ARC
  5
436
100
AcDbEntity
  8
0
100
AcDbCircle
 62
7
  6
CONTINUOUS
 10
5.0052061824
 20
2.3997755818
 40
0.0196850394
100
AcDbArc
 50
269.9972643243
 51
314.9974348681
  0
ARC
  5
437
100
AcDbEntity
  8
0
100
AcDbCircle
 62
7
  6
CONTINUOUS
 10
5.0411988424
 20
2.3800905424
 40
0.0196850394
100
AcDbArc
 50
90.0039181288
 51
135.0024249217
  0
ARC
  5
438
100
AcDbEntity
  8
0
100
AcDbCircle
 62
7
  6
CONTINUOUS
 10
5.1269963697
 20
2.3997755818
 40
0.0196850394
100
AcDbArc
 50
269.9972643243
 51
280.468306272
  0
ARC
  5
439
100
AcDbEntity
  8
0
100
AcDbCircle
 62
7
  6
CONTINUOUS
 10
5.4388842536
 20
2.6710757889
 40
0.0196850394
100
AcDbArc
 50
314.9975411859
 51
360.0
  0
ARC
  5
43A
100
AcDbEntity
  8
0
100
AcDbCircle
 62
7
  6
CONTINUOUS
 10
5.3129000016
 20
2.6710757889
 40
0.0196850394
100
AcDbArc
 50
180.0
 51
225.0024588136
  0
ARC
  5
43B
100
AcDbEntity
  8
0
100
AcDbCircle
 62
7
  6
CONTINUOUS
 10
5.3210538119
 20
2.6629219786
 40
0.0196850394
100
AcDbArc
 50
225.0011432902
 51
270.001006738
  0
ARC
  5
43C
100
AcDbEntity
  8
0
100
AcDbCircle
 62
7
  6
CONTINUOUS
 10
5.4307304433
 20
2.6629219786
 40
0.0196850394
100
AcDbArc
 50
269.998993262
 51
314.9988567098
  0
ARC
  5
43D
100
AcDbEntity
  8
0
100
AcDbCircle
 62
7
  6
CONTINUOUS
 10
5.02110548
 20
2.6710757889
 40
0.0196850394
100
AcDbArc
 50
314.9975411863
 51
360.0
  0
ARC
  5
43E
100
AcDbEntity
  8
0
100
AcDbCircle
 62
7
  6
CONTINUOUS
 10
5.0129516697
 20
2.6629219786
 40
0.0196850394
100
AcDbArc
 50
269.998993262
 51
314.9988567098
  0
ARC
  5
43F
100
AcDbEntity
  8
0
100
AcDbCircle
 62
7
  6
CONTINUOUS
 10
5.0896175325
 20
2.6295286206
 40
0.0196850394
100
AcDbArc
 50
180.0
 51
225.0012047959
  0
ARC
  5
440
100
AcDbEntity
  8
0
100
AcDbCircle
 62
7
  6
CONTINUOUS
 10
5.1919797372
 20
2.6295286206
 40
0.0196850394
100
AcDbArc
 50
314.9987952046
 51
360.0
  0
ARC
  5
441
100
AcDbEntity
  8
0
100
AcDbCircle
 62
7
  6
CONTINUOUS
 10
5.183825927
 20
2.6213748103
 40
0.0196850394
100
AcDbArc
 50
269.9989177866
 51
314.9986727949
  0
ARC
  5
442
100
AcDbEntity
  8
0
100
AcDbCircle
 62
7
  6
CONTINUOUS
 10
5.0977713428
 20
2.6213748103
 40
0.0196850394
100
AcDbArc
 50
225.0013272051
 51
270.0010822134
  0
ARC
  5
443
100
AcDbEntity
  8
0
100
AcDbCircle
 62
7
  6
CONTINUOUS
 10
5.5367467887
 20
2.6213748103
 40
0.0196850394
100
AcDbArc
 50
269.9989177863
 51
314.9986727948
  0
ARC
  5
444
100
AcDbEntity
  8
0
100
AcDbCircle
 62
7
  6
CONTINUOUS
 10
5.4425383942
 20
2.6295286206
 40
0.0196850394
100
AcDbArc
 50
180.0
 51
225.0012047956
  0
ARC
  5
445
100
AcDbEntity
  8
0
100
AcDbCircle
 62
7
  6
CONTINUOUS
 10
5.4506922045
 20
2.6213748103
 40
0.0196850394
100
AcDbArc
 50
225.0013272052
 51
270.0010822137
  0
ARC
  5
446
100
AcDbEntity
  8
0
100
AcDbCircle
 62
7
  6
CONTINUOUS
 10
5.4990685158
 20
2.50983039
 40
0.0118110236
100
AcDbArc
 50
180.0
 51
225.0003003629
  0
ARC
  5
447
100
AcDbEntity
  8
0
100
AcDbCircle
 62
7
  6
CONTINUOUS
 10
5.5118348177
 20
2.4970640881
 40
0.0118110236
100
AcDbArc
 50
225.0002500349
 51
270.0002564154
  0
ARC
  5
448
100
AcDbEntity
  8
0
100
AcDbCircle
 62
7
  6
CONTINUOUS
 10
4.9649042998
 20
2.4970640881
 40
0.0118110236
100
AcDbArc
 50
269.9997403663
 51
314.9997468346
  0
ARC
  5
449
100
AcDbEntity
  8
0
100
AcDbCircle
 62
7
  6
CONTINUOUS
 10
4.9776706017
 20
2.50983039
 40
0.0118110236
100
AcDbArc
 50
314.9997000108
 51
360.0
  0
ARC
  5
44A
100
AcDbEntity
  8
0
100
AcDbCircle
 62
7
  6
CONTINUOUS
 10
6.0022971418
 20
0.8693462211
 40
1.6834467947
100
AcDbArc
 50
97.363941587
 51
97.7368436407
  0
ARC
  5
44B
100
AcDbEntity
  8
0
100
AcDbCircle
 62
7
  6
CONTINUOUS
 10
5.5646380937
 20
2.3800905424
 40
0.0196850394
100
AcDbArc
 50
93.5839805502
 51
135.0015141203
  0
ARC
  5
44C
100
AcDbEntity
  8
0
100
AcDbCircle
 62
7
  6
CONTINUOUS
 10
5.6015929821
 20
2.4194606212
 40
0.0196850394
100
AcDbArc
 50
269.9997582066
 51
339.9999051805
  0
ARC
  5
44D
100
AcDbEntity
  8
0
100
AcDbCircle
 62
7
  6
CONTINUOUS
 10
5.7506581678
 20
2.4970640881
 40
0.0118110236
100
AcDbArc
 50
269.9997330535
 51
314.999746835
  0
ARC
  5
44E
100
AcDbEntity
  8
0
100
AcDbCircle
 62
7
  6
CONTINUOUS
 10
5.7634244697
 20
2.50983039
 40
0.0118110236
100
AcDbArc
 50
314.9997000112
 51
360.0
  0
ARC
  5
44F
100
AcDbEntity
  8
0
100
AcDbCircle
 62
7
  6
CONTINUOUS
 10
5.6453142335
 20
2.50983039
 40
0.0118110236
100
AcDbArc
 50
180.0
 51
225.0002999888
  0
ARC
  5
450
100
AcDbEntity
  8
0
100
AcDbCircle
 62
7
  6
CONTINUOUS
 10
5.6580805354
 20
2.4970640881
 40
0.0118110236
100
AcDbArc
 50
225.0002531649
 51
270.0002669464
  0
ARC
  5
451
100
AcDbEntity
  8
0
100
AcDbCircle
 62
7
  6
CONTINUOUS
 10
5.6044124501
 20
2.4970640881
 40
0.0118110236
100
AcDbArc
 50
269.9997435846
 51
314.9997499651
  0
ARC
  5
452
100
AcDbEntity
  8
0
100
AcDbCircle
 62
7
  6
CONTINUOUS
 10
5.617178752
 20
2.50983039
 40
0.0118110236
100
AcDbArc
 50
314.9996996385
 51
360.0
  0
ARC
  5
453
100
AcDbEntity
  8
0
100
AcDbCircle
 62
7
  6
CONTINUOUS
 10
5.7599922683
 20
2.4970640881
 40
0.0118110236
100
AcDbArc
 50
246.7034209995
 51
270.0002621649
  0
ARC
  5
454
100
AcDbEntity
  8
0
100
AcDbCircle
 62
7
  6
CONTINUOUS
 10
5.6281144926
 20
2.5327676595
 40
0.000873216
100
AcDbArc
 50
359.9054994437
 51
11.3521152266
  0
ARC
  5
455
100
AcDbEntity
  8
0
100
AcDbCircle
 62
7
  6
CONTINUOUS
 10
5.7011306279
 20
2.6858803085
 40
0.0245790481
100
AcDbArc
 50
125.0754381081
 51
126.5033507932
  0
ARC
  5
456
100
AcDbEntity
  8
0
100
AcDbCircle
 62
7
  6
CONTINUOUS
 10
5.8281920942
 20
2.6710757889
 40
0.0196850394
100
AcDbArc
 50
314.9975411859
 51
360.0
  0
ARC
  5
457
100
AcDbEntity
  8
0
100
AcDbCircle
 62
7
  6
CONTINUOUS
 10
5.7022078422
 20
2.6710757889
 40
0.0196850394
100
AcDbArc
 50
180.0
 51
225.0024588141
  0
ARC
  5
458
100
AcDbEntity
  8
0
100
AcDbCircle
 62
7
  6
CONTINUOUS
 10
5.7103616525
 20
2.6629219786
 40
0.0196850394
100
AcDbArc
 50
225.00114329
 51
270.0010067378
  0
ARC
  5
459
100
AcDbEntity
  8
0
100
AcDbCircle
 62
7
  6
CONTINUOUS
 10
5.8200382839
 20
2.6629219786
 40
0.0196850394
100
AcDbArc
 50
269.9989932622
 51
314.99885671
  0
ARC
  5
45A
100
AcDbEntity
  8
0
100
AcDbCircle
 62
7
  6
CONTINUOUS
 10
5.7589585824
 20
2.6295286206
 40
0.0196850394
100
AcDbArc
 50
180.0
 51
225.0012047948
  0
ARC
  5
45B
100
AcDbEntity
  8
0
100
AcDbCircle
 62
7
  6
CONTINUOUS
 10
5.7671123927
 20
2.6213748103
 40
0.0196850394
100
AcDbArc
 50
225.0013272057
 51
270.0010822143
  0
ARC
  5
45C
100
AcDbEntity
  8
0
100
AcDbCircle
 62
7
  6
CONTINUOUS
 10
5.5449005989
 20
2.6295286206
 40
0.0196850394
100
AcDbArc
 50
314.9987952051
 51
360.0
  0
ARC
  5
45D
100
AcDbEntity
  8
0
100
AcDbCircle
 62
7
  6
CONTINUOUS
 10
5.8533335713
 20
2.4402304375
 40
0.2370997368
100
AcDbArc
 50
90.0128831749
 51
91.3142004854
  0
ARC
  5
45E
100
AcDbEntity
  8
0
100
AcDbCircle
 62
7
  6
CONTINUOUS
 10
6.0769676262
 20
2.4527831426
 40
0.2165508689
100
AcDbArc
 50
105.3833711865
 51
106.8089005308
  0
ARC
  5
45F
100
AcDbEntity
  8
0
100
AcDbCircle
 62
7
  6
CONTINUOUS
 10
5.8534461034
 20
2.4894859216
 40
0.18784432
100
AcDbArc
 50
88.3022527355
 51
90.0505855851
  0
ARC
  5
460
100
AcDbEntity
  8
0
100
AcDbCircle
 62
7
  6
CONTINUOUS
 10
5.8979221149
 20
2.5146417684
 40
0.128735686
100
AcDbArc
 50
262.0665196425
 51
269.1968068556
  0
ARC
  5
461
100
AcDbEntity
  8
0
100
AcDbCircle
 62
7
  6
CONTINUOUS
 10
5.8819196309
 20
2.5141401788
 40
0.1282339162
100
AcDbArc
 50
268.1961638826
 51
269.9931323839
  0
ARC
  5
462
100
AcDbEntity
  8
0
100
AcDbCircle
 62
7
  6
CONTINUOUS
 10
5.8979048877
 20
2.5140219667
 40
0.128115704
100
AcDbArc
 50
269.2006248476
 51
269.9833259443
  0
ARC
  5
463
100
AcDbEntity
  8
0
100
AcDbCircle
 62
7
  6
CONTINUOUS
 10
6.008506099
 20
2.4742951388
 40
0.0410156674
100
AcDbArc
 50
312.385309133
 51
314.6974028532
  0
ARC
  5
464
100
AcDbEntity
  8
0
100
AcDbCircle
 62
7
  6
CONTINUOUS
 10
5.8525699007
 20
2.4970640881
 40
0.0118110236
100
AcDbArc
 50
269.999737837
 51
314.9997468357
  0
ARC
  5
465
100
AcDbEntity
  8
0
100
AcDbCircle
 62
7
  6
CONTINUOUS
 10
5.8653362026
 20
2.50983039
 40
0.0118110236
100
AcDbArc
 50
314.9997000107
 51
360.0
  0
ARC
  5
466
100
AcDbEntity
  8
0
100
AcDbCircle
 62
7
  6
CONTINUOUS
 10
6.0400892363
 20
2.6985233886
 40
0.376564664
100
AcDbArc
 50
214.6072065298
 51
214.8753833235
  0
ARC
  5
467
100
AcDbEntity
  8
0
100
AcDbCircle
 62
7
  6
CONTINUOUS
 10
6.0349057229
 20
2.6949050541
 40
0.3702431821
100
AcDbArc
 50
214.8746754911
 51
215.6523527906
  0
ARC
  5
468
100
AcDbEntity
  8
0
100
AcDbCircle
 62
7
  6
CONTINUOUS
 10
6.0538397052
 20
2.6920599891
 40
0.3700007964
100
AcDbArc
 50
214.0938925985
 51
214.3158984373
  0
ARC
  5
469
100
AcDbEntity
  8
0
100
AcDbCircle
 62
7
  6
CONTINUOUS
 10
6.0504306035
 20
2.6897302999
 40
0.3658717019
100
AcDbArc
 50
214.3155399883
 51
214.6490838498
  0
ARC
  5
46A
100
AcDbEntity
  8
0
100
AcDbCircle
 62
7
  6
CONTINUOUS
 10
6.0273946349
 20
2.6895355288
 40
0.3610101968
100
AcDbArc
 50
215.6547093463
 51
216.2011656138
  0
ARC
  5
46B
100
AcDbEntity
  8
0
100
AcDbCircle
 62
7
  6
CONTINUOUS
 10
6.0454413845
 20
2.6862731226
 40
0.3598017493
100
AcDbArc
 50
214.647900432
 51
215.1924537084
  0
ARC
  5
46C
100
AcDbEntity
  8
0
100
AcDbCircle
 62
7
  6
CONTINUOUS
 10
5.9899028735
 20
2.7032071671
 40
0.3578866687
100
AcDbArc
 50
217.5533616524
 51
218.2315987674
  0
ARC
  5
46D
100
AcDbEntity
  8
0
100
AcDbCircle
 62
7
  6
CONTINUOUS
 10
5.9832918797
 20
2.6979785089
 40
0.3494579178
100
AcDbArc
 50
218.2289698121
 51
219.1815454878
  0
ARC
  5
46E
100
AcDbEntity
  8
0
100
AcDbCircle
 62
7
  6
CONTINUOUS
 10
5.9959681513
 20
2.6359626097
 40
0.1951297225
100
AcDbArc
 50
227.7347175221
 51
230.0970556477
  0
ARC
  5
46F
100
AcDbEntity
  8
0
100
AcDbCircle
 62
7
  6
CONTINUOUS
 10
6.0365140638
 20
2.6710757889
 40
0.0196850394
100
AcDbArc
 50
180.0
 51
225.0024588139
  0
ARC
  5
470
100
AcDbEntity
  8
0
100
AcDbCircle
 62
7
  6
CONTINUOUS
 10
6.0446678741
 20
2.6629219786
 40
0.0196850394
100
AcDbArc
 50
225.0011432895
 51
270.0010067371
  0
ARC
  5
471
100
AcDbEntity
  8
0
100
AcDbCircle
 62
7
  6
CONTINUOUS
 10
5.8613207872
 20
2.6295286206
 40
0.0196850394
100
AcDbArc
 50
314.9987952044
 51
360.0
  0
ARC
  5
472
100
AcDbEntity
  8
0
100
AcDbCircle
 62
7
  6
CONTINUOUS
 10
5.8531669769
 20
2.6213748103
 40
0.0196850394
100
AcDbArc
 50
269.9989177866
 51
314.998672795
  0
ARC
  5
473
100
AcDbEntity
  8
0
100
AcDbCircle
 62
7
  6
CONTINUOUS
 10
6.1115229787
 20
2.6213748103
 40
0.0196850394
100
AcDbArc
 50
269.9989099294
 51
314.9986727884
  0
ARC
  5
474
100
AcDbEntity
  8
0
100
AcDbCircle
 62
7
  6
CONTINUOUS
 10
6.119676789
 20
2.6295286206
 40
0.0196850394
100
AcDbArc
 50
314.9987952044
 51
360.0
  0
ARC
  5
475
100
AcDbEntity
  8
0
100
AcDbCircle
 62
7
  6
CONTINUOUS
 10
6.0173145842
 20
2.6295286206
 40
0.0196850394
100
AcDbArc
 50
180.0
 51
225.0012047956
  0
ARC
  5
476
100
AcDbEntity
  8
0
100
AcDbCircle
 62
7
  6
CONTINUOUS
 10
6.0254683945
 20
2.6213748103
 40
0.0196850394
100
AcDbArc
 50
225.0013272117
 51
270.0010900707
  0
ARC
  5
477
100
AcDbEntity
  8
0
100
AcDbCircle
 62
7
  6
CONTINUOUS
 10
4.958113354
 20
4.9360739159
 40
2.5590551181
100
AcDbArc
 50
264.5188586967
 51
265.9005806951
  0
ARC
  5
478
100
AcDbEntity
  8
0
100
AcDbCircle
 62
7
  6
CONTINUOUS
 10
4.958113354
 20
4.9360739159
 40
2.5590551181
100
AcDbArc
 50
266.6527317001
 51
268.3189505182
  0
ARC
  5
479
100
AcDbEntity
  8
0
100
AcDbCircle
 62
7
  6
CONTINUOUS
 10
4.958113354
 20
4.9360739159
 40
2.5590551181
100
AcDbArc
 50
268.6729177583
 51
273.6363791601
  0
ARC
  5
47A
100
AcDbEntity
  8
ALL_FEATURES
100
AcDbCircle
 62
7
  6
CONTINUOUS
 10
4.958113354
 20
5.0449110359
 40
0.489
100
AcDbArc
 50
28.8615325013
 51
45.0258404644
  0
ARC
  5
47B
100
AcDbEntity
  8
ALL_FEATURES
100
AcDbCircle
 62
7
  6
CONTINUOUS
 10
4.958113354
 20
5.0449110359
 40
0.489
100
AcDbArc
 50
134.9741595356
 51
151.1384674987
  0
ARC
  5
47C
100
AcDbEntity
  8
0
100
AcDbCircle
 62
7
  6
CONTINUOUS
 10
6.7119998299
 20
1.7952157436
 40
0.9396224919
100
AcDbArc
 50
104.232946669
 51
105.2435696444
  0
ARC
  5
47D
100
AcDbEntity
  8
0
100
AcDbCircle
 62
7
  6
CONTINUOUS
 10
6.40577841
 20
1.8446520713
 40
0.8382575535
100
AcDbArc
 50
99.0882027458
 51
99.4546351358
  0
ARC
  5
47E
100
AcDbEntity
  8
0
100
AcDbCircle
 62
7
  6
CONTINUOUS
 10
6.4012059263
 20
2.3771947917
 40
0.343517614
100
AcDbArc
 50
106.8318219496
 51
107.0369449969
  0
ARC
  5
47F
100
AcDbEntity
  8
0
100
AcDbCircle
 62
7
  6
CONTINUOUS
 10
7.028113354
 20
2.8409110359
 40
0.08
100
AcDbArc
 50
2.2714508417
 51
67.1367765694
  0
ARC
  5
480
100
AcDbEntity
  8
0
100
AcDbCircle
 62
7
  6
CONTINUOUS
 10
6.6271248981
 20
2.6629219786
 40
0.0196850394
100
AcDbArc
 50
269.998993262
 51
314.9988567098
  0
ARC
  5
481
100
AcDbEntity
  8
0
100
AcDbCircle
 62
7
  6
CONTINUOUS
 10
6.6352787084
 20
2.6710757889
 40
0.0196850394
100
AcDbArc
 50
314.9975411864
 51
360.0
  0
ARC
  5
482
100
AcDbEntity
  8
0
100
AcDbCircle
 62
7
  6
CONTINUOUS
 10
6.5802770894
 20
2.6710757889
 40
0.0196850394
100
AcDbArc
 50
314.9975411863
 51
360.0
  0
ARC
  5
483
100
AcDbEntity
  8
0
100
AcDbCircle
 62
7
  6
CONTINUOUS
 10
6.4542928374
 20
2.6710757889
 40
0.0196850394
100
AcDbArc
 50
206.1249009817
 51
225.0024588147
  0
ARC
  5
484
100
AcDbEntity
  8
0
100
AcDbCircle
 62
7
  6
CONTINUOUS
 10
6.4624466477
 20
2.6629219786
 40
0.0196850394
100
AcDbArc
 50
225.0011432896
 51
270.0008463776
  0
ARC
  5
485
100
AcDbEntity
  8
0
100
AcDbCircle
 62
7
  6
CONTINUOUS
 10
6.5721232791
 20
2.6629219786
 40
0.0196850394
100
AcDbArc
 50
269.9991536211
 51
314.9988567094
  0
ARC
  5
486
100
AcDbEntity
  8
0
100
AcDbCircle
 62
7
  6
CONTINUOUS
 10
6.4190205019
 20
2.6710757889
 40
0.0196850394
100
AcDbArc
 50
314.9975417674
 51
360.0
  0
ARC
  5
487
100
AcDbEntity
  8
0
100
AcDbCircle
 62
7
  6
CONTINUOUS
 10
6.2930362499
 20
2.6710757889
 40
0.0196850394
100
AcDbArc
 50
180.0
 51
225.0024582326
  0
ARC
  5
488
100
AcDbEntity
  8
0
100
AcDbCircle
 62
7
  6
CONTINUOUS
 10
6.3011900602
 20
2.6629219786
 40
0.0196850394
100
AcDbArc
 50
225.0011432897
 51
270.0010702875
  0
ARC
  5
489
100
AcDbEntity
  8
0
100
AcDbCircle
 62
7
  6
CONTINUOUS
 10
6.4108666916
 20
2.6629219786
 40
0.0196850394
100
AcDbArc
 50
269.9989297125
 51
314.9988567103
  0
ARC
  5
48A
100
AcDbEntity
  8
0
100
AcDbCircle
 62
7
  6
CONTINUOUS
 10
6.1624983158
 20
2.6710757889
 40
0.0196850394
100
AcDbArc
 50
314.9975411861
 51
360.0
  0
ARC
  5
48B
100
AcDbEntity
  8
0
100
AcDbCircle
 62
7
  6
CONTINUOUS
 10
6.1543445055
 20
2.6629219786
 40
0.0196850394
100
AcDbArc
 50
269.9989932615
 51
314.9988567094
  0
ARC
  5
48C
100
AcDbEntity
  8
0
100
AcDbCircle
 62
7
  6
CONTINUOUS
 10
6.1999998651
 20
2.6295286206
 40
0.0196850394
100
AcDbArc
 50
180.0
 51
225.0012049649
  0
ARC
  5
48D
100
AcDbEntity
  8
0
100
AcDbCircle
 62
7
  6
CONTINUOUS
 10
6.3023620698
 20
2.6295286206
 40
0.0196850394
100
AcDbArc
 50
314.9987950343
 51
360.0
  0
ARC
  5
48E
100
AcDbEntity
  8
0
100
AcDbCircle
 62
7
  6
CONTINUOUS
 10
6.2942082595
 20
2.6213748103
 40
0.0196850394
100
AcDbArc
 50
269.9988674531
 51
314.9986727936
  0
ARC
  5
48F
100
AcDbEntity
  8
0
100
AcDbCircle
 62
7
  6
CONTINUOUS
 10
6.2081536754
 20
2.6213748103
 40
0.0196850394
100
AcDbArc
 50
225.0013272064
 51
270.0011325469
  0
ARC
  5
490
100
AcDbEntity
  8
0
100
AcDbCircle
 62
7
  6
CONTINUOUS
 10
6.3887731194
 20
2.6213748103
 40
0.0196850394
100
AcDbArc
 50
269.9994703127
 51
314.998672795
  0
ARC
  5
491
100
AcDbEntity
  8
0
100
AcDbCircle
 62
7
  6
CONTINUOUS
 10
6.3969269297
 20
2.6295286206
 40
0.0196850394
100
AcDbArc
 50
314.9987952045
 51
360.0
  0
ARC
  5
492
100
AcDbEntity
  8
0
100
AcDbCircle
 62
7
  6
CONTINUOUS
 10
6.3027185353
 20
2.6213748103
 40
0.0196850394
100
AcDbArc
 50
257.4937962893
 51
270.0005296873
  0
ARC
  5
493
100
AcDbEntity
  8
0
100
AcDbCircle
 62
7
  6
CONTINUOUS
 10
6.2188914447
 20
2.6043755947
 40
0.0078740157
100
AcDbArc
 50
280.1465387618
 51
340.0239308105
  0
ARC
  5
494
100
AcDbEntity
  8
0
100
AcDbCircle
 62
7
  6
CONTINUOUS
 10
6.7245322568
 20
2.7138696212
 40
0.0078740157
100
AcDbArc
 50
270.0
 51
284.2899403573
  0
ARC
  5
495
100
AcDbEntity
  8
0
100
AcDbCircle
 62
7
  6
CONTINUOUS
 10
7.313113354
 20
3.2691566388
 40
0.45
100
AcDbArc
 50
180.0
 51
218.3789847992
  0
ARC
  5
496
100
AcDbEntity
  8
0
100
AcDbCircle
 62
7
  6
CONTINUOUS
 10
7.1563291076
 20
3.1449845805
 40
0.25
100
AcDbArc
 50
218.3789847992
 51
247.1367765694
  0
ARC
  5
497
100
AcDbEntity
  8
0
100
AcDbCircle
 62
7
  6
CONTINUOUS
 10
6.788113354
 20
3.4522054664
 40
0.075
100
AcDbArc
 50
0.0
 51
66.0
  0
ARC
  5
498
100
AcDbEntity
  8
0
100
AcDbCircle
 62
7
  6
CONTINUOUS
 10
6.558113354
 20
3.6747777956
 40
0.02
100
AcDbArc
 50
0.0
 51
77.5422489206
  0
ARC
  5
499
100
AcDbEntity
  8
0
100
AcDbCircle
 62
7
  6
CONTINUOUS
 10
6.598113354
 20
3.640789363
 40
0.02
100
AcDbArc
 50
180.0
 51
246.0
  0
ARC
  5
49A
100
AcDbEntity
  8
0
100
AcDbCircle
 62
7
  6
CONTINUOUS
 10
4.9581271873
 20
9.6489130666
 40
7.1691060897
100
AcDbArc
 50
277.3616080364
 51
279.3230697234
  0
ARC
  5
49B
100
AcDbEntity
  8
0
100
AcDbCircle
 62
7
  6
CONTINUOUS
 10
4.9581271873
 20
9.6489483765
 40
7.1643816803
100
AcDbArc
 50
279.4251203928
 51
280.1467817724
  0
ARC
  5
49C
100
AcDbEntity
  8
0
100
AcDbCircle
 62
7
  6
CONTINUOUS
 10
4.9581271873
 20
9.6489483765
 40
7.1643816803
100
AcDbArc
 50
284.2897268228
 51
284.9326934147
  0
ARC
  5
49D
100
AcDbEntity
  8
0
100
AcDbCircle
 62
7
  6
CONTINUOUS
 10
6.9722950845
 20
5.5495720494
 40
1.9
100
AcDbArc
 50
219.5106408226
 51
257.5422489206
  0
ARC
  5
49E
100
AcDbEntity
  8
ALL_FEATURES
100
AcDbCircle
 62
7
  6
CONTINUOUS
 10
5.222613354
 20
5.6887831856
 40
0.188
100
AcDbArc
 50
315.0
 51
360.0
  0
ARC
  5
49F
100
AcDbEntity
  8
ALL_FEATURES
100
AcDbCircle
 62
7
  6
CONTINUOUS
 10
5.3602756141
 20
5.4474362109
 40
0.08
100
AcDbArc
 50
135.0
 51
225.0258404644
  0
SPLINE
  5
4A0
100
AcDbEntity
  8
ALL_FEATURES
100
AcDbSpline
 62
7
  6
CONTINUOUS
 70
0
 71
3
 72
30
 73
26
 74
0
 42
0.0000001
 43
0.0000001
 44
0.0000000001
 40
0.0
 40
0.0
 40
0.0
 40
0.0
 40
0.0312455436
 40
0.0625571968
 40
0.0938734203
 40
0.125162154
 40
0.1564497026
 40
0.1877311141
 40
0.2502274404
 40
0.281502204
 40
0.3127592238
 40
0.3752496266
 40
0.4065041598
 40
0.4377483602
 40
0.5002302834
 40
0.5314773937
 40
0.5627168378
 40
0.6251867051
 40
0.6564269862
 40
0.6876617564
 40
0.7501192031
 40
0.8125919263
 40
0.8750775321
 40
0.9375565458
 40
1.0
 40
1.0
 40
1.0
 40
1.0
 10
5.0827377898
 20
5.6887831856
 30
0.0
 10
5.0827377898
 20
5.6870926945
 30
0.0
 10
5.0825682237
 20
5.6837059285
 30
0.0
 10
5.0818260777
 20
5.6786742293
 30
0.0
 10
5.080611283
 20
5.6737324651
 30
0.0
 10
5.0789429149
 20
5.6689270946
 30
0.0
 10
5.07686375
 20
5.6642873756
 30
0.0
 10
5.0735959311
 20
5.6583553544
 30
0.0
 10
5.0696477103
 20
5.6528262136
 30
0.0
 10
5.0651814687
 20
5.6477417294
 30
0.0
 10
5.0604066078
 20
5.6429451861
 30
0.0
 10
5.0552223438
 20
5.6385775944
 30
0.0
 10
5.0497348717
 20
5.6346227369
 30
0.0
 10
5.0440672738
 20
5.6309306948
 30
0.0
 10
5.038159835
 20
5.6276220904
 30
0.0
 10
5.0320753274
 20
5.6246711267
 30
0.0
 10
5.0258859317
 20
5.6219480996
 30
0.0
 10
5.019555935
 20
5.61955748
 30
0.0
 10
5.0131226041
 20
5.6174790264
 30
0.0
 10
5.0066287092
 20
5.6156001568
 30
0.0
 10
4.998410378
 20
5.613616784
 30
0.0
 10
4.9884301502
 20
5.6117973368
 30
0.0
 10
4.978366439
 20
5.6105101835
 30
0.0
 10
4.9682517484
 20
5.6097445464
 30
0.0
 10
4.9614917592
 20
5.6095761783
 30
0.0
 10
4.9581133541
 20
5.6095761783
 30
0.0
  0
SPLINE
  5
4A1
100
AcDbEntity
  8
ALL_FEATURES
100
AcDbSpline
 62
7
  6
CONTINUOUS
 70
0
 71
3
 72
25
 73
21
 74
0
 42
0.0000001
 43
0.0000001
 44
0.0000000001
 40
0.0
 40
0.0
 40
0.0
 40
0.0
 40
0.1249548949
 40
0.2498961629
 40
0.312386645
 40
0.3748764334
 40
0.4373638273
 40
0.4998507288
 40
0.5623369724
 40
0.6248219019
 40
0.6873059244
 40
0.7497909815
 40
0.7810523612
 40
0.8123215804
 40
0.8435927667
 40
0.8748643919
 40
0.9061426275
 40
0.9374320568
 40
0.9687361442
 40
1.0
 40
1.0
 40
1.0
 40
1.0
 10
4.9581133541
 20
5.6095761783
 30
0.0
 10
4.9513536107
 20
5.6095761783
 30
0.0
 10
4.9378257749
 20
5.610252291
 30
0.0
 10
4.9210894566
 20
5.6128285757
 30
0.0
 10
4.9079398798
 20
5.6160008073
 30
0.0
 10
4.8982347554
 20
5.6189667322
 30
0.0
 10
4.8887409635
 20
5.6225541704
 30
0.0
 10
4.8795235366
 20
5.6268053202
 30
0.0
 10
4.8706671056
 20
5.6317691951
 30
0.0
 10
4.86228203
 20
5.6374995268
 30
0.0
 10
4.8545144475
 20
5.6440480251
 30
0.0
 10
4.8487114354
 20
5.6502264289
 30
0.0
 10
4.8445975771
 20
5.6556004795
 30
0.0
 10
4.8418099427
 20
5.6598464578
 30
0.0
 10
4.8393576595
 20
5.6642957684
 30
0.0
 10
4.8372806316
 20
5.6689335479
 30
0.0
 10
4.8356159042
 20
5.6737364436
 30
0.0
 10
4.8343976513
 20
5.678674226
 30
0.0
 10
4.8336572907
 20
5.6837049297
 30
0.0
 10
4.8334889182
 20
5.6870918901
 30
0.0
 10
4.8334889182
 20
5.6887831856
 30
0.0
  0
SPLINE
  5
4A2
100
AcDbEntity
  8
0
100
AcDbSpline
 62
7
  6
CONTINUOUS
 70
0
 71
3
 72
17
 73
13
 74
0
 42
0.0000001
 43
0.0000001
 44
0.0000000001
 40
0.0
 40
0.0
 40
0.0
 40
0.0
 40
0.1956583317
 40
0.3724183383
 40
0.5293324176
 40
0.6656562704
 40
0.7807619221
 40
0.8742797791
 40
0.9130614105
 40
0.9467150105
 40
0.9755293042
 40
1.0
 40
1.0
 40
1.0
 40
1.0
 10
6.0143453362
 20
2.6600817861
 30
0.0
 10
6.013193067
 20
2.6597323821
 30
0.0
 10
6.0110063467
 20
2.6590454135
 30
0.0
 10
6.007924004
 20
2.6579902678
 30
0.0
 10
6.0052179083
 20
2.6569675338
 30
0.0
 10
6.0029040045
 20
2.6559847184
 30
0.0
 10
6.0009975242
 20
2.6550487855
 30
0.0
 10
5.9996845115
 20
2.6542716746
 30
0.0
 10
5.998861553
 20
2.6536654398
 30
0.0
 10
5.9983922962
 20
2.6532539186
 30
0.0
 10
5.9980315928
 20
2.6528570423
 30
0.0
 10
5.9978505158
 20
2.6525807887
 30
0.0
 10
5.9977834254
 20
2.6524459667
 30
0.0
  0
LINE
  5
4A3
100
AcDbEntity
  8
0
100
AcDbLine
 62
7
  6
CONTINUOUS
 10
5.9977834254
 20
2.6524459667
 11
5.9976303819
 21
2.651858143
  0
SPLINE
  5
4A4
100
AcDbEntity
  8
0
100
AcDbSpline
 62
7
  6
CONTINUOUS
 70
0
 71
3
 72
11
 73
7
 74
0
 42
0.0000001
 43
0.0000001
 44
0.0000000001
 40
0.0
 40
0.0
 40
0.0
 40
0.0
 40
0.2546807877
 40
0.5101777919
 40
0.760526277
 40
1.0
 40
1.0
 40
1.0
 40
1.0
 10
5.5067047031
 20
2.6770182309
 30
0.0
 10
5.5030199965
 20
2.6768615544
 30
0.0
 10
5.4956430846
 20
2.6764368471
 30
0.0
 10
5.4846692113
 20
2.675490282
 30
0.0
 10
5.473945691
 20
2.6742549113
 30
0.0
 10
5.4669257408
 20
2.6732285671
 30
0.0
 10
5.4635036402
 20
2.6726673011
 30
0.0
  0
SPLINE
  5
4A5
100
AcDbEntity
  8
0
100
AcDbSpline
 62
7
  6
CONTINUOUS
 70
0
 71
3
 72
11
 73
7
 74
0
 42
0.0000001
 43
0.0000001
 44
0.0000000001
 40
0.0
 40
0.0
 40
0.0
 40
0.0
 40
0.2741987848
 40
0.5351765419
 40
0.7782813469
 40
1.0
 40
1.0
 40
1.0
 40
1.0
 10
4.7589211414
 20
2.6772512956
 30
0.0
 10
4.7559742541
 20
2.6771869492
 30
0.0
 10
4.7502238935
 20
2.6769842343
 30
0.0
 10
4.7418735577
 20
2.6764450471
 30
0.0
 10
4.7341068796
 20
2.6756860652
 30
0.0
 10
4.72915397
 20
2.67501186
 30
0.0
 10
4.7268009885
 20
2.6746320554
 30
0.0
  0
SPLINE
  5
4A6
100
AcDbEntity
  8
0
100
AcDbSpline
 62
7
  6
CONTINUOUS
 70
0
 71
3
 72
17
 73
13
 74
0
 42
0.0000001
 43
0.0000001
 44
0.0000000001
 40
0.0
 40
0.0
 40
0.0
 40
0.0
 40
0.1905166424
 40
0.3632698114
 40
0.5172485128
 40
0.6516075531
 40
0.7660862829
 40
0.8160015549
 40
0.861164929
 40
0.901770163
 40
0.9381209209
 40
1.0
 40
1.0
 40
1.0
 40
1.0
 10
4.7268009885
 20
2.6746320554
 30
0.0
 10
4.7252854239
 20
2.6743874218
 30
0.0
 10
4.7224027177
 20
2.6738744827
 30
0.0
 10
4.7183301259
 20
2.6729821831
 30
0.0
 10
4.714741503
 20
2.6720121371
 30
0.0
 10
4.7116646279
 20
2.6709711373
 30
0.0
 10
4.7094510422
 20
2.6700134022
 30
0.0
 10
4.7079672647
 20
2.6692047641
 30
0.0
 10
4.7070460956
 20
2.6686141538
 30
0.0
 10
4.7062654678
 20
2.6680113653
 30
0.0
 10
4.7054590145
 20
2.6672362746
 30
0.0
 10
4.7049937203
 20
2.6665720331
 30
0.0
 10
4.7048016722
 20
2.6661118804
 30
0.0
  0
LINE
  5
4A7
100
AcDbEntity
  8
0
100
AcDbLine
 62
7
  6
CONTINUOUS
 10
4.7048016722
 20
2.6661118804
 11
4.704563655
 21
2.6649647726
  0
LINE
  5
4A8
100
AcDbEntity
  8
0
100
AcDbLine
 62
7
  6
CONTINUOUS
 10
4.3887266261
 20
2.6772512956
 11
4.3765660448
 21
2.6766350614
  0
SPLINE
  5
4A9
100
AcDbEntity
  8
0
100
AcDbSpline
 62
7
  6
CONTINUOUS
 70
0
 71
3
 72
19
 73
15
 74
0
 42
0.0000001
 43
0.0000001
 44
0.0000000001
 40
0.0
 40
0.0
 40
0.0
 40
0.0
 40
0.2054126902
 40
0.3889267076
 40
0.5489839375
 40
0.6844217096
 40
0.7428204217
 40
0.7950348183
 40
0.8411838067
 40
0.8815123314
 40
0.916509473
 40
0.9470066672
 40
0.9742577249
 40
1.0
 40
1.0
 40
1.0
 40
1.0
 10
4.3765660448
 20
2.6766350614
 30
0.0
 10
4.3746978257
 20
2.6764831975
 30
0.0
 10
4.3711648058
 20
2.676137793
 30
0.0
 10
4.3662016242
 20
2.6754450894
 30
0.0
 10
4.3619079593
 20
2.6746154067
 30
0.0
 10
4.3587832719
 20
2.6737823226
 30
0.0
 10
4.3566650515
 20
2.6730344896
 30
0.0
 10
4.355347832
 20
2.6724737183
 30
0.0
 10
4.3542247747
 20
2.6718866804
 30
0.0
 10
4.3532982701
 20
2.6712735732
 30
0.0
 10
4.3525697257
 20
2.6706339985
 30
0.0
 10
4.3520401243
 20
2.669966184
 30
0.0
 10
4.3517150423
 20
2.6692679621
 30
0.0
 10
4.3516419424
 20
2.668781672
 30
0.0
 10
4.3516417084
 20
2.6685467751
 30
0.0
  0
SPLINE
  5
4AA
100
AcDbEntity
  8
0
100
AcDbSpline
 62
7
  6
CONTINUOUS
 70
0
 71
3
 72
12
 73
8
 74
0
 42
0.0000001
 43
0.0000001
 44
0.0000000001
 40
0.0
 40
0.0
 40
0.0
 40
0.0
 40
0.263960166
 40
0.5280579552
 40
0.7779143755
 40
0.8932213271
 40
1.0
 40
1.0
 40
1.0
 40
1.0
 10
6.2680806527
 20
2.6715227102
 30
0.0
 10
6.2624714076
 20
2.6705888591
 30
0.0
 10
6.2512678215
 20
2.6686122625
 30
0.0
 10
6.2348156834
 20
2.6654189516
 30
0.0
 10
6.221555049
 20
2.6625993642
 30
0.0
 10
6.2116466501
 20
2.6603201848
 30
0.0
 10
6.2069975592
 20
2.6591898077
 30
0.0
 10
6.2047666946
 20
2.6586288334
 30
0.0
  0
SPLINE
  5
4AB
100
AcDbEntity
  8
0
100
AcDbSpline
 62
7
  6
CONTINUOUS
 70
0
 71
3
 72
17
 73
13
 74
0
 42
0.0000001
 43
0.0000001
 44
0.0000000001
 40
0.0
 40
0.0
 40
0.0
 40
0.0
 40
0.1925985914
 40
0.3684393254
 40
0.5260472774
 40
0.6639801359
 40
0.7810920479
 40
0.876514544
 40
0.9158625317
 40
0.9495396938
 40
0.9775451278
 40
1.0
 40
1.0
 40
1.0
 40
1.0
 10
6.2047666946
 20
2.6586288334
 30
0.0
 10
6.2031900604
 20
2.6582323722
 30
0.0
 10
6.2001781596
 20
2.6574571189
 30
0.0
 10
6.1958931927
 20
2.6562921454
 30
0.0
 10
6.1920711009
 20
2.6551853607
 30
0.0
 10
6.1887459459
 20
2.6541467873
 30
0.0
 10
6.1859477884
 20
2.6531856229
 30
0.0
 10
6.1839643999
 20
2.6524165185
 30
0.0
 10
6.1826663474
 20
2.6518355005
 30
0.0
 10
6.1819037152
 20
2.6514528525
 30
0.0
 10
6.1812893856
 20
2.6510957032
 30
0.0
 10
6.1809407672
 20
2.6508487927
 30
0.0
 10
6.1807956222
 20
2.6507268968
 30
0.0
  0
LINE
  5
4AC
100
AcDbEntity
  8
0
100
AcDbLine
 62
7
  6
CONTINUOUS
 10
6.1807956222
 20
2.6507268968
 11
6.1803206943
 21
2.6500782722
  0
SPLINE
  5
4AD
100
AcDbEntity
  8
0
100
AcDbSpline
 62
7
  6
CONTINUOUS
 70
0
 71
3
 72
8
 73
4
 74
0
 42
0.0000001
 43
0.0000001
 44
0.0000000001
 40
0.0
 40
0.0
 40
0.0
 40
0.0
 40
1.0
 40
1.0
 40
1.0
 40
1.0
 10
6.1803206943
 20
2.6500782722
 30
0.0
 10
6.1803167901
 20
2.6500546962
 30
0.0
 10
6.18031467
 20
2.6500307347
 30
0.0
 10
6.1803146337
 20
2.6500068377
 30
0.0
  0
SPLINE
  5
4AE
100
AcDbEntity
  8
0
100
AcDbSpline
 62
7
  6
CONTINUOUS
 70
0
 71
3
 72
11
 73
7
 74
0
 42
0.0000001
 43
0.0000001
 44
0.0000000001
 40
0.0
 40
0.0
 40
0.0
 40
0.0
 40
0.2710429664
 40
0.531885548
 40
0.7766584317
 40
1.0
 40
1.0
 40
1.0
 40
1.0
 10
5.1353114375
 20
2.6770182309
 30
0.0
 10
5.13165043
 20
2.676864752
 30
0.0
 10
5.1244702689
 20
2.6764532379
 30
0.0
 10
5.114010803
 20
2.6755137331
 30
0.0
 10
5.1042306046
 20
2.6742868501
 30
0.0
 10
5.0979861415
 20
2.6732432692
 30
0.0
 10
5.0950222369
 20
2.6726673011
 30
0.0
  0
SPLINE
  5
4AF
100
AcDbEntity
  8
0
100
AcDbSpline
 62
7
  6
CONTINUOUS
 70
0
 71
3
 72
19
 73
15
 74
0
 42
0.0000001
 43
0.0000001
 44
0.0000000001
 40
0.0
 40
0.0
 40
0.0
 40
0.0
 40
0.2004213845
 40
0.3804578301
 40
0.5386940067
 40
0.6740207724
 40
0.7328978717
 40
0.7859476501
 40
0.8332944183
 40
0.8751626907
 40
0.9119350989
 40
0.9442437311
 40
0.9731086109
 40
1.0
 40
1.0
 40
1.0
 40
1.0
 10
5.0950222369
 20
2.6726673011
 30
0.0
 10
5.093141684
 20
2.672301858
 30
0.0
 10
5.0895830334
 20
2.6715478985
 30
0.0
 10
5.084594321
 20
2.6702645705
 30
0.0
 10
5.0802742319
 20
2.6689043243
 30
0.0
 10
5.0771340773
 20
2.6676716241
 30
0.0
 10
5.075006546
 20
2.6666398084
 30
0.0
 10
5.0736787592
 20
2.6658926537
 30
0.0
 10
5.072545686
 20
2.6651379264
 30
0.0
 10
5.0716094752
 20
2.6643768314
 30
0.0
 10
5.0708721284
 20
2.6636099034
 30
0.0
 10
5.0703367293
 20
2.6628354057
 30
0.0
 10
5.0700091485
 20
2.6620521595
 30
0.0
 10
5.069933934
 20
2.6615169035
 30
0.0
 10
5.0699340911
 20
2.6612598617
 30
0.0
  0
LINE
  5
4B0
100
AcDbEntity
  8
0
100
AcDbLine
 62
7
  6
CONTINUOUS
 10
5.2934133094
 20
2.7059957066
 11
5.293215672
 21
2.7047044789
  0
SPLINE
  5
4B1
100
AcDbEntity
  8
0
100
AcDbSpline
 62
7
  6
CONTINUOUS
 70
0
 71
3
 72
13
 73
9
 74
0
 42
0.0000001
 43
0.0000001
 44
0.0000000001
 40
0.0
 40
0.0
 40
0.0
 40
0.0
 40
0.3193543805
 40
0.5861104727
 40
0.7020725762
 40
0.8082456741
 40
0.9066819247
 40
1.0
 40
1.0
 40
1.0
 40
1.0
 10
5.6865092946
 20
2.7056374899
 30
0.0
 10
5.6859042019
 20
2.7051893421
 30
0.0
 10
5.6848313496
 20
2.7043132432
 30
0.0
 10
5.6837089856
 20
2.7030821394
 30
0.0
 10
5.6830859026
 20
2.7021091083
 30
0.0
 10
5.6827647357
 20
2.7014219465
 30
0.0
 10
5.6825692544
 20
2.7007439774
 30
0.0
 10
5.6825237992
 20
2.7002909381
 30
0.0
 10
5.6825236346
 20
2.700070912
 30
0.0
  0
SPLINE
  5
4B2
100
AcDbEntity
  8
0
100
AcDbSpline
 62
7
  6
CONTINUOUS
 70
0
 71
3
 72
11
 73
7
 74
0
 42
0.0000001
 43
0.0000001
 44
0.0000000001
 40
0.0
 40
0.0
 40
0.0
 40
0.0
 40
0.305867677
 40
0.5750961612
 40
0.8065686893
 40
1.0
 40
1.0
 40
1.0
 40
1.0
 10
6.030926186
 20
2.7059957066
 30
0.0
 10
6.0297079867
 20
2.7054980819
 30
0.0
 10
6.0274334566
 20
2.7045223903
 30
0.0
 10
6.0243105004
 20
2.7030055052
 30
0.0
 10
6.0217084031
 20
2.7015362668
 30
0.0
 10
6.0201946573
 20
2.7005038484
 30
0.0
 10
6.0195414302
 20
2.6999882584
 30
0.0
  0
SPLINE
  5
4B3
100
AcDbEntity
  8
0
100
AcDbSpline
 62
7
  6
CONTINUOUS
 70
0
 71
3
 72
11
 73
7
 74
0
 42
0.0000001
 43
0.0000001
 44
0.0000000001
 40
0.0
 40
0.0
 40
0.0
 40
0.0
 40
0.3225526874
 40
0.5909641175
 40
0.8121689006
 40
1.0
 40
1.0
 40
1.0
 40
1.0
 10
6.0195414302
 20
2.6999882584
 30
0.0
 10
6.0191294768
 20
2.6996631049
 30
0.0
 10
6.0183998833
 20
2.6990331734
 30
0.0
 10
6.0175244452
 20
2.6980353633
 30
0.0
 10
6.0169739823
 20
2.6970684526
 30
0.0
 10
6.0168324839
 20
2.6964010664
 30
0.0
 10
6.0168325848
 20
2.6960954528
 30
0.0
  0
SPLINE
  5
4B4
100
AcDbEntity
  8
0
100
AcDbSpline
 62
7
  6
CONTINUOUS
 70
0
 71
3
 72
14
 73
10
 74
0
 42
0.0000001
 43
0.0000001
 44
0.0000000001
 40
0.0
 40
0.0
 40
0.0
 40
0.0
 40
0.3407785307
 40
0.4904390201
 40
0.6251128629
 40
0.7439877994
 40
0.8463263341
 40
0.9316983985
 40
1.0
 40
1.0
 40
1.0
 40
1.0
 10
6.3005592912
 20
2.7056374899
 30
0.0
 10
6.2975510042
 20
2.7047155713
 30
0.0
 10
6.2932386014
 20
2.703330042
 30
0.0
 10
6.2878024613
 20
2.701389725
 30
0.0
 10
6.284328362
 20
2.7000504294
 30
0.0
 10
6.2813005669
 20
2.6987723544
 30
0.0
 10
6.2787395546
 20
2.697563413
 30
0.0
 10
6.2766626677
 20
2.6964324698
 30
0.0
 10
6.2754743089
 20
2.6956503523
 30
0.0
 10
6.2749764225
 20
2.6952633183
 30
0.0
  0
SPLINE
  5
4B5
100
AcDbEntity
  8
0
100
AcDbSpline
 62
7
  6
CONTINUOUS
 70
0
 71
3
 72
11
 73
7
 74
0
 42
0.0000001
 43
0.0000001
 44
0.0000000001
 40
0.0
 40
0.0
 40
0.0
 40
0.0
 40
0.3323689434
 40
0.4759504584
 40
0.6052039084
 40
1.0
 40
1.0
 40
1.0
 40
1.0
 10
6.2749764225
 20
2.6952633183
 30
0.0
 10
6.2747302373
 20
2.6950719452
 30
0.0
 10
6.2743881382
 20
2.6947838419
 30
0.0
 10
6.2739926476
 20
2.6943739751
 30
0.0
 10
6.2735981145
 20
2.6938937163
 30
0.0
 10
6.2733511435
 20
2.6934151801
 30
0.0
 10
6.2733514081
 20
2.6930447944
 30
0.0
  0
SPLINE
  5
4B6
100
AcDbEntity
  8
0
100
AcDbSpline
 62
7
  6
CONTINUOUS
 70
0
 71
3
 72
13
 73
9
 74
0
 42
0.0000001
 43
0.0000001
 44
0.0000000001
 40
0.0
 40
0.0
 40
0.0
 40
0.0
 40
0.3220369835
 40
0.5998306448
 40
0.7202518183
 40
0.8274981224
 40
0.9209458714
 40
1.0
 40
1.0
 40
1.0
 40
1.0
 10
6.4649515276
 20
2.7017793451
 30
0.0
 10
6.4620921168
 20
2.7009969309
 30
0.0
 10
6.4567749072
 20
2.699507249
 30
0.0
 10
6.4504202693
 20
2.6976134541
 30
0.0
 10
6.4459864512
 20
2.6962016285
 30
0.0
 10
6.4431833827
 20
2.6952625433
 30
0.0
 10
6.440757598
 20
2.6943975426
 30
0.0
 10
6.4392759866
 20
2.6938252011
 30
0.0
 10
6.4386027786
 20
2.6935488129
 30
0.0
  0
SPLINE
  5
4B7
100
AcDbEntity
  8
0
100
AcDbSpline
 62
7
  6
CONTINUOUS
 70
0
 71
3
 72
10
 73
6
 74
0
 42
0.0000001
 43
0.0000001
 44
0.0000000001
 40
0.0
 40
0.0
 40
0.0
 40
0.0
 40
0.5399199936
 40
0.7808018748
 40
1.0
 40
1.0
 40
1.0
 40
1.0
 10
4.0629464496
 20
2.6773301683
 30
0.0
 10
4.0602068197
 20
2.6773301683
 30
0.0
 10
4.0562436774
 20
2.6772570595
 30
0.0
 10
4.0511776085
 20
2.6769624296
 30
0.0
 10
4.0488517098
 20
2.6767555884
 30
0.0
 10
4.0477460174
 20
2.6766350614
 30
0.0
  0
LINE
  5
4B8
100
AcDbEntity
  8
0
100
AcDbLine
 62
7
  6
CONTINUOUS
 10
4.0477460174
 20
2.6766350614
 11
4.04387622
 21
2.6761051098
  0
SPLINE
  5
4B9
100
AcDbEntity
  8
0
100
AcDbSpline
 62
7
  6
CONTINUOUS
 70
0
 71
3
 72
13
 73
9
 74
0
 42
0.0000001
 43
0.0000001
 44
0.0000000001
 40
0.0
 40
0.0
 40
0.0
 40
0.0
 40
0.3518263971
 40
0.5011651446
 40
0.6328683068
 40
0.7473418169
 40
0.845556176
 40
1.0
 40
1.0
 40
1.0
 40
1.0
 10
4.04387622
 20
2.6761051098
 30
0.0
 10
4.0428026781
 20
2.6759226306
 30
0.0
 10
4.0412793482
 20
2.6756168151
 30
0.0
 10
4.0393946608
 20
2.6750787783
 30
0.0
 10
4.0382413447
 20
2.6746666313
 30
0.0
 10
4.0372687622
 20
2.6742223449
 30
0.0
 10
4.0362970939
 20
2.6736392401
 30
0.0
 10
4.0357013697
 20
2.6730841846
 30
0.0
 10
4.0354674652
 20
2.6726673011
 30
0.0
  0
LINE
  5
4BA
100
AcDbEntity
  8
0
100
AcDbLine
 62
7
  6
CONTINUOUS
 10
4.0354674652
 20
2.6726673011
 11
4.0352211471
 21
2.6717614563
  0
SPLINE
  5
4BB
100
AcDbEntity
  8
0
100
AcDbSpline
 62
7
  6
CONTINUOUS
 70
0
 71
3
 72
16
 73
12
 74
0
 42
0.0000001
 43
0.0000001
 44
0.0000000001
 40
0.0
 40
0.0
 40
0.0
 40
0.0
 40
0.1228855627
 40
0.1843758366
 40
0.2459087397
 40
0.3692200289
 40
0.4930819822
 40
0.6175792028
 40
0.7431016996
 40
0.8703752431
 40
1.0
 40
1.0
 40
1.0
 40
1.0
 10
5.8978568937
 20
2.3859175279
 30
0.0
 10
5.904144784
 20
2.3859155818
 30
0.0
 10
5.9135891424
 20
2.3864079112
 30
0.0
 10
5.9260678569
 20
2.3880556929
 30
0.0
 10
5.9384645333
 20
2.3903650237
 30
0.0
 10
5.953751805
 20
2.3944553585
 30
0.0
 10
5.9715811894
 20
2.4011537471
 30
0.0
 10
5.9888064551
 20
2.4095395362
 30
0.0
 10
6.0053590063
 20
2.4195227183
 30
0.0
 10
6.0212264554
 20
2.4310088153
 30
0.0
 10
6.0312548824
 20
2.4395293434
 30
0.0
 10
6.0361548019
 20
2.4439996729
 30
0.0
  0
SPLINE
  5
4BC
100
AcDbEntity
  8
0
100
AcDbSpline
 62
7
  6
CONTINUOUS
 70
0
 71
3
 72
17
 73
13
 74
0
 42
0.0000001
 43
0.0000001
 44
0.0000000001
 40
0.0
 40
0.0
 40
0.0
 40
0.0
 40
0.0601737251
 40
0.1200766458
 40
0.179966563
 40
0.2400419325
 40
0.3612983592
 40
0.4848384679
 40
0.6109775918
 40
0.739438168
 40
0.869529173
 40
1.0
 40
1.0
 40
1.0
 40
1.0
 10
6.0361552399
 20
2.4439997296
 30
0.0
 10
6.0381747375
 20
2.4458422198
 30
0.0
 10
6.0420576067
 20
2.4496836018
 30
0.0
 10
6.0474111348
 20
2.4558726866
 30
0.0
 10
6.052294094
 20
2.4624336234
 30
0.0
 10
6.0582251746
 20
2.4716569086
 30
0.0
 10
6.0645745781
 20
2.4840088309
 30
0.0
 10
6.0705278683
 20
2.4998069754
 30
0.0
 10
6.0749388896
 20
2.5164378857
 30
0.0
 10
6.0778295523
 20
2.533697842
 30
0.0
 10
6.0792219359
 20
2.5513367899
 30
0.0
 10
6.0791497807
 20
2.5631909175
 30
0.0
 10
6.0788588737
 20
2.5691110906
 30
0.0
  0
SPLINE
  5
4BD
100
AcDbEntity
  8
0
100
AcDbSpline
 62
7
  6
CONTINUOUS
 70
0
 71
3
 72
12
 73
8
 74
0
 42
0.0000001
 43
0.0000001
 44
0.0000000001
 40
0.0
 40
0.0
 40
0.0
 40
0.0
 40
0.0804705388
 40
0.1747509508
 40
0.4027659716
 40
0.6796868202
 40
1.0
 40
1.0
 40
1.0
 40
1.0
 10
3.4775653432
 20
2.6935725907
 30
0.0
 10
3.4769258428
 20
2.6938341275
 30
0.0
 10
3.4755260618
 20
2.6943751159
 30
0.0
 10
3.4722701555
 20
2.6955409196
 30
0.0
 10
3.467377346
 20
2.6971344429
 30
0.0
 10
3.4605916693
 20
2.6991748586
 30
0.0
 10
3.4556571721
 20
2.7005704159
 30
0.0
 10
3.4530063578
 20
2.7013030149
 30
0.0
  0
SPLINE
  5
4BE
100
AcDbEntity
  8
0
100
AcDbSpline
 62
7
  6
CONTINUOUS
 70
0
 71
3
 72
13
 73
9
 74
0
 42
0.0000001
 43
0.0000001
 44
0.0000000001
 40
0.0
 40
0.0
 40
0.0
 40
0.0
 40
0.171303283
 40
0.272566417
 40
0.3871152113
 40
0.5163674463
 40
0.6612507401
 40
1.0
 40
1.0
 40
1.0
 40
1.0
 10
3.6428755926
 20
2.6930445659
 30
0.0
 10
3.6428756386
 20
2.6932381873
 30
0.0
 10
3.642792184
 20
2.6935467205
 30
0.0
 10
3.6425794985
 20
2.693929017
 30
0.0
 10
3.6423472592
 20
2.6942438806
 30
0.0
 10
3.6420515395
 20
2.6945694156
 30
0.0
 10
3.6415459695
 20
2.6950438268
 30
0.0
 10
3.6411111375
 20
2.6953774413
 30
0.0
 10
3.6407989167
 20
2.6955990661
 30
0.0
  0
SPLINE
  5
4BF
100
AcDbEntity
  8
0
100
AcDbSpline
 62
7
  6
CONTINUOUS
 70
0
 71
3
 72
14
 73
10
 74
0
 42
0.0000001
 43
0.0000001
 44
0.0000000001
 40
0.0
 40
0.0
 40
0.0
 40
0.0
 40
0.0712300624
 40
0.1588747313
 40
0.2626219725
 40
0.381914225
 40
0.5161145902
 40
0.6644715279
 40
1.0
 40
1.0
 40
1.0
 40
1.0
 10
3.6407989167
 20
2.6955990661
 30
0.0
 10
3.640249932
 20
2.6959887538
 30
0.0
 10
3.638968745
 20
2.6967774836
 30
0.0
 10
3.6367642307
 20
2.6979204295
 30
0.0
 10
3.6340907247
 20
2.6991375024
 30
0.0
 10
3.6309668744
 20
2.7004203397
 30
0.0
 10
3.6274124806
 20
2.7017601867
 30
0.0
 10
3.6218986889
 20
2.703691399
 30
0.0
 10
3.6175379384
 20
2.7050738693
 30
0.0
 10
3.6145026593
 20
2.7059925144
 30
0.0
  0
SPLINE
  5
4C0
100
AcDbEntity
  8
0
100
AcDbSpline
 62
7
  6
CONTINUOUS
 70
0
 71
3
 72
11
 73
7
 74
0
 42
0.0000001
 43
0.0000001
 44
0.0000000001
 40
0.0
 40
0.0
 40
0.0
 40
0.0
 40
0.1915412699
 40
0.4144832738
 40
0.6817079485
 40
1.0
 40
1.0
 40
1.0
 40
1.0
 10
3.8993968038
 20
2.6960954045
 30
0.0
 10
3.8993972363
 20
2.6963821451
 30
0.0
 10
3.8992736405
 20
2.697004744
 30
0.0
 10
3.8987846136
 20
2.6979109967
 30
0.0
 10
3.8980071963
 20
2.6988455244
 30
0.0
 10
3.8973571106
 20
2.6994368193
 30
0.0
 10
3.8969904823
 20
2.6997411641
 30
0.0
  0
SPLINE
  5
4C1
100
AcDbEntity
  8
0
100
AcDbSpline
 62
7
  6
CONTINUOUS
 70
0
 71
3
 72
11
 73
7
 74
0
 42
0.0000001
 43
0.0000001
 44
0.0000000001
 40
0.0
 40
0.0
 40
0.0
 40
0.0
 40
0.1900362429
 40
0.4204820548
 40
0.6908780634
 40
1.0
 40
1.0
 40
1.0
 40
1.0
 10
3.8969904823
 20
2.6997411641
 30
0.0
 10
3.8963427709
 20
2.7002788413
 30
0.0
 10
3.8948159375
 20
2.7013550734
 30
0.0
 10
3.8921600336
 20
2.7028800013
 30
0.0
 10
3.8889362145
 20
2.70445952
 30
0.0
 10
3.8865773386
 20
2.7054744265
 30
0.0
 10
3.885309822
 20
2.7059925144
 30
0.0
  0
SPLINE
  5
4C2
100
AcDbEntity
  8
0
100
AcDbSpline
 62
7
  6
CONTINUOUS
 70
0
 71
3
 72
19
 73
15
 74
0
 42
0.0000001
 43
0.0000001
 44
0.0000000001
 40
0.0
 40
0.0
 40
0.0
 40
0.0
 40
0.02136595
 40
0.0459686901
 40
0.0751909168
 40
0.1098315221
 40
0.1503402548
 40
0.1969716471
 40
0.2498665022
 40
0.3090575216
 40
0.4461181645
 40
0.6075597718
 40
0.792545059
 40
1.0
 40
1.0
 40
1.0
 40
1.0
 10
3.9185964335
 20
2.6518581046
 30
0.0
 10
3.9185960815
 20
2.6519855828
 30
0.0
 10
3.9185436255
 20
2.6522605568
 30
0.0
 10
3.9183372535
 20
2.6526631962
 30
0.0
 10
3.9180078613
 20
2.653078672
 30
0.0
 10
3.9175561634
 20
2.6535093312
 30
0.0
 10
3.9169822255
 20
2.6539563405
 30
0.0
 10
3.9162861257
 20
2.6544194761
 30
0.0
 10
3.915468519
 20
2.654898075
 30
0.0
 10
3.914152462
 20
2.6555901007
 30
0.0
 10
3.9122092545
 20
2.6564761436
 30
0.0
 10
3.9095283608
 20
2.6575430833
 30
0.0
 10
3.9064139759
 20
2.6586502305
 30
0.0
 10
3.9041855629
 20
2.6593699802
 30
0.0
 10
3.9030035469
 20
2.6597372778
 30
0.0
  0
SPLINE
  5
4C3
100
AcDbEntity
  8
0
100
AcDbSpline
 62
7
  6
CONTINUOUS
 70
0
 71
3
 72
12
 73
8
 74
0
 42
0.0000001
 43
0.0000001
 44
0.0000000001
 40
0.0
 40
0.0
 40
0.0
 40
0.0
 40
0.1423604578
 40
0.2358383488
 40
0.3477254276
 40
0.6316308903
 40
1.0
 40
1.0
 40
1.0
 40
1.0
 10
3.7359123783
 20
2.6500067992
 30
0.0
 10
3.7359122476
 20
2.6501214373
 30
0.0
 10
3.7358311213
 20
2.6503078869
 30
0.0
 10
3.7356551052
 20
2.6505238332
 30
0.0
 10
3.7353674704
 20
2.6507955861
 30
0.0
 10
3.7348606692
 20
2.6511480696
 30
0.0
 10
3.7344017408
 20
2.6514045038
 30
0.0
 10
3.7341385942
 20
2.6515414215
 30
0.0
  0
LINE
  5
4C4
100
AcDbEntity
  8
0
100
AcDbLine
 62
7
  6
CONTINUOUS
 10
3.7341385942
 20
2.6515414215
 11
3.729452713
 21
2.653462885
  0
LINE
  5
4C5
100
AcDbEntity
  8
0
100
AcDbLine
 62
7
  6
CONTINUOUS
 10
3.729452713
 20
2.653462885
 11
3.7221441613
 21
2.6557647073
  0
LINE
  5
4C6
100
AcDbEntity
  8
0
100
AcDbLine
 62
7
  6
CONTINUOUS
 10
3.7221441613
 20
2.6557647073
 11
3.7125693827
 21
2.6583483647
  0
SPLINE
  5
4C7
100
AcDbEntity
  8
0
100
AcDbSpline
 62
7
  6
CONTINUOUS
 70
0
 71
3
 72
12
 73
8
 74
0
 42
0.0000001
 43
0.0000001
 44
0.0000000001
 40
0.0
 40
0.0
 40
0.0
 40
0.0
 40
0.1057850329
 40
0.2211276623
 40
0.4727586597
 40
0.738282802
 40
1.0
 40
1.0
 40
1.0
 40
1.0
 10
3.7125693827
 20
2.6583483647
 30
0.0
 10
3.7101337606
 20
2.6589677554
 30
0.0
 10
3.7050307708
 20
2.6602167175
 30
0.0
 10
3.6940852685
 20
2.6627357151
 30
0.0
 10
3.6793814995
 20
2.6658388439
 30
0.0
 10
3.6612056331
 20
2.6693116107
 30
0.0
 10
3.6488587979
 20
2.6714273729
 30
0.0
 10
3.6427189915
 20
2.6724081073
 30
0.0
  0
LINE
  5
4C8
100
AcDbEntity
  8
0
100
AcDbLine
 62
7
  6
CONTINUOUS
 10
4.6230111625
 20
2.7047043155
 11
4.6228161259
 21
2.7059925581
  0
SPLINE
  5
4C9
100
AcDbEntity
  8
0
100
AcDbSpline
 62
7
  6
CONTINUOUS
 70
0
 71
3
 72
17
 73
13
 74
0
 42
0.0000001
 43
0.0000001
 44
0.0000000001
 40
0.0
 40
0.0
 40
0.0
 40
0.0
 40
0.0601737248
 40
0.1200766432
 40
0.1799665564
 40
0.240041921
 40
0.3612983372
 40
0.4848384391
 40
0.6109775638
 40
0.7394381466
 40
0.8695291622
 40
1.0
 40
1.0
 40
1.0
 40
1.0
 10
6.0361552737
 20
2.4439998324
 30
0.0
 10
6.038174767
 20
2.4458423223
 30
0.0
 10
6.0420576274
 20
2.4496837036
 30
0.0
 10
6.0474111426
 20
2.455872786
 30
0.0
 10
6.0522940891
 20
2.4624337192
 30
0.0
 10
6.0582251534
 20
2.4716569981
 30
0.0
 10
6.0645745381
 20
2.48400891
 30
0.0
 10
6.0705278089
 20
2.499807039
 30
0.0
 10
6.0749388147
 20
2.5164379318
 30
0.0
 10
6.0778294659
 20
2.5336978692
 30
0.0
 10
6.0792218422
 20
2.5513367974
 30
0.0
 10
6.0791496849
 20
2.5631909115
 30
0.0
 10
6.0788587776
 20
2.5691110779
 30
0.0
  0
SPLINE
  5
4CA
100
AcDbEntity
  8
0
100
AcDbSpline
 62
7
  6
CONTINUOUS
 70
0
 71
3
 72
16
 73
12
 74
0
 42
0.0000001
 43
0.0000001
 44
0.0000000001
 40
0.0
 40
0.0
 40
0.0
 40
0.0
 40
0.1215151408
 40
0.2425077982
 40
0.3641757911
 40
0.4871237309
 40
0.5491660188
 40
0.6116046132
 40
0.7380718923
 40
0.86735128
 40
1.0
 40
1.0
 40
1.0
 40
1.0
 10
5.8819355912
 20
2.385905758
 30
0.0
 10
5.8738718765
 20
2.3859041106
 30
0.0
 10
5.8577577764
 20
2.3869944156
 30
0.0
 10
5.8340156631
 20
2.3918526447
 30
0.0
 10
5.8110142653
 20
2.399767789
 30
0.0
 10
5.7926641576
 20
2.4086774443
 30
0.0
 10
5.7785419615
 20
2.4170668105
 30
0.0
 10
5.7647030252
 20
2.4263428534
 30
0.0
 10
5.7481112416
 20
2.4394647436
 30
0.0
 10
5.7294743815
 20
2.4573142017
 30
0.0
 10
5.7179716502
 20
2.4703749316
 30
0.0
 10
5.7124102601
 20
2.477198097
 30
0.0
  0
SPLINE
  5
4CB
100
AcDbEntity
  8
0
100
AcDbSpline
 62
7
  6
CONTINUOUS
 70
0
 71
3
 72
17
 73
13
 74
0
 42
0.0000001
 43
0.0000001
 44
0.0000000001
 40
0.0
 40
0.0
 40
0.0
 40
0.0
 40
0.0315273529
 40
0.0642700393
 40
0.099468888
 40
0.1381326225
 40
0.2284655069
 40
0.3389521601
 40
0.4711262667
 40
0.6255883914
 40
0.8021478993
 40
1.0
 40
1.0
 40
1.0
 40
1.0
 10
5.2116629993
 20
2.6649644752
 30
0.0
 10
5.2116630164
 20
2.6651665633
 30
0.0
 10
5.2116176794
 20
2.6655798448
 30
0.0
 10
5.2114149209
 20
2.6661886413
 30
0.0
 10
5.2110799408
 20
2.6667882302
 30
0.0
 10
5.2104252361
 20
2.6676168253
 30
0.0
 10
5.2092429496
 20
2.6686165412
 30
0.0
 10
5.2074058441
 20
2.6697128911
 30
0.0
 10
5.2050826808
 20
2.6707638628
 30
0.0
 10
5.2022832958
 20
2.6717602223
 30
0.0
 10
5.1990230597
 20
2.6726954797
 30
0.0
 10
5.1966857067
 20
2.6732439228
 30
0.0
 10
5.1954457434
 20
2.6735101343
 30
0.0
  0
SPLINE
  5
4CC
100
AcDbEntity
  8
0
100
AcDbSpline
 62
7
  6
CONTINUOUS
 70
0
 71
3
 72
9
 73
5
 74
0
 42
0.0000001
 43
0.0000001
 44
0.0000000001
 40
0.0
 40
0.0
 40
0.0
 40
0.0
 40
0.4748806645
 40
1.0
 40
1.0
 40
1.0
 40
1.0
 10
5.1954457434
 20
2.6735101343
 30
0.0
 10
5.1937366541
 20
2.673877064
 30
0.0
 10
5.1901172897
 20
2.67455582
 30
0.0
 10
5.1864742203
 20
2.6750887303
 30
0.0
 10
5.1845573821
 20
2.6753378814
 30
0.0
  0
SPLINE
  5
4CD
100
AcDbEntity
  8
0
100
AcDbSpline
 62
7
  6
CONTINUOUS
 70
0
 71
3
 72
10
 73
6
 74
0
 42
0.0000001
 43
0.0000001
 44
0.0000000001
 40
0.0
 40
0.0
 40
0.0
 40
0.0
 40
0.2291627643
 40
0.4740240248
 40
1.0
 40
1.0
 40
1.0
 40
1.0
 10
5.1845573821
 20
2.6753378814
 30
0.0
 10
5.1824993003
 20
2.6756053914
 30
0.0
 10
5.1782323962
 20
2.6760854752
 30
0.0
 10
5.1692064296
 20
2.6768373283
 30
0.0
 10
5.1622283566
 20
2.6771414889
 30
0.0
 10
5.1574660826
 20
2.6772477827
 30
0.0
  0
SPLINE
  5
4CE
100
AcDbEntity
  8
0
100
AcDbSpline
 62
7
  6
CONTINUOUS
 70
0
 71
3
 72
19
 73
15
 74
0
 42
0.0000001
 43
0.0000001
 44
0.0000000001
 40
0.0
 40
0.0
 40
0.0
 40
0.0
 40
0.0264907919
 40
0.054095432
 40
0.0845564558
 40
0.119179591
 40
0.1588547791
 40
0.2041693334
 40
0.2555069171
 40
0.3130729
 40
0.4471660601
 40
0.6066502546
 40
0.7912267972
 40
1.0
 40
1.0
 40
1.0
 40
1.0
 10
5.8810048821
 20
2.6717615306
 30
0.0
 10
5.8810045115
 20
2.6719243991
 30
0.0
 10
5.8809567613
 20
2.6722588005
 30
0.0
 10
5.8807417732
 20
2.6727383052
 30
0.0
 10
5.8803905914
 20
2.6731924585
 30
0.0
 10
5.8799075912
 20
2.6736226451
 30
0.0
 10
5.879293712
 20
2.6740308749
 30
0.0
 10
5.8785487848
 20
2.6744177432
 30
0.0
 10
5.8776728514
 20
2.6747829671
 30
0.0
 10
5.876258009
 20
2.6752653636
 30
0.0
 10
5.8741611945
 20
2.6757927842
 30
0.0
 10
5.8712652468
 20
2.6763067972
 30
0.0
 10
5.867890558
 20
2.6767224431
 30
0.0
 10
5.8654796154
 20
2.6769192045
 30
0.0
 10
5.864198842
 20
2.6770038165
 30
0.0
  0
LINE
  5
4CF
100
AcDbEntity
  8
0
100
AcDbLine
 62
7
  6
CONTINUOUS
 10
5.864198842
 20
2.6770038165
 11
5.8590113565
 21
2.6772477827
  0
SPLINE
  5
4D0
100
AcDbEntity
  8
0
100
AcDbSpline
 62
7
  6
CONTINUOUS
 70
0
 71
3
 72
11
 73
7
 74
0
 42
0.0000001
 43
0.0000001
 44
0.0000000001
 40
0.0
 40
0.0
 40
0.0
 40
0.0
 40
0.237952121
 40
0.4867536267
 40
0.7422296658
 40
1.0
 40
1.0
 40
1.0
 40
1.0
 10
4.4542760354
 20
2.6724081073
 30
0.0
 10
4.451370328
 20
2.6729007911
 30
0.0
 10
4.4454107399
 20
2.6738176297
 30
0.0
 10
4.4362893793
 20
2.6749705954
 30
0.0
 10
4.4268975665
 20
2.675916807
 30
0.0
 10
4.4205582802
 20
2.6763993406
 30
0.0
 10
4.4173720605
 20
2.6766017277
 30
0.0
  0
SPLINE
  5
4D1
100
AcDbEntity
  8
0
100
AcDbSpline
 62
7
  6
CONTINUOUS
 70
0
 71
3
 72
16
 73
12
 74
0
 42
0.0000001
 43
0.0000001
 44
0.0000000001
 40
0.0
 40
0.0
 40
0.0
 40
0.0
 40
0.0330680919
 40
0.0674947748
 40
0.1443008701
 40
0.236739841
 40
0.3479856786
 40
0.4795936667
 40
0.6322471956
 40
0.8058836627
 40
1.0
 40
1.0
 40
1.0
 40
1.0
 10
4.8462931506
 20
2.6612596827
 30
0.0
 10
4.8462933181
 20
2.6614452912
 30
0.0
 10
4.8462553627
 20
2.6618251233
 30
0.0
 10
4.846021546
 20
2.6626050339
 30
0.0
 10
4.8454079851
 20
2.663591549
 30
0.0
 10
4.8442795701
 20
2.6647011598
 30
0.0
 10
4.8427421121
 20
2.6657963581
 30
0.0
 10
4.8407979899
 20
2.6668747538
 30
0.0
 10
4.8384529113
 20
2.6679319708
 30
0.0
 10
4.8357181894
 20
2.6689624926
 30
0.0
 10
4.833751911
 20
2.6695932771
 30
0.0
 10
4.8327081414
 20
2.6699058226
 30
0.0
  0
SPLINE
  5
4D2
100
AcDbEntity
  8
0
100
AcDbSpline
 62
7
  6
CONTINUOUS
 70
0
 71
3
 72
9
 73
5
 74
0
 42
0.0000001
 43
0.0000001
 44
0.0000000001
 40
0.0
 40
0.0
 40
0.0
 40
0.0
 40
0.4725196894
 40
1.0
 40
1.0
 40
1.0
 40
1.0
 10
4.8327081414
 20
2.6699058226
 30
0.0
 10
4.8311231718
 20
2.6703804246
 30
0.0
 10
4.8277391012
 20
2.6712861436
 30
0.0
 10
4.8243190412
 20
2.672041074
 30
0.0
 10
4.8225089346
 20
2.6724081073
 30
0.0
  0
SPLINE
  5
4D3
100
AcDbEntity
  8
0
100
AcDbSpline
 62
7
  6
CONTINUOUS
 70
0
 71
3
 72
11
 73
7
 74
0
 42
0.0000001
 43
0.0000001
 44
0.0000000001
 40
0.0
 40
0.0
 40
0.0
 40
0.0
 40
0.2214385687
 40
0.4657923845
 40
0.7273947421
 40
1.0
 40
1.0
 40
1.0
 40
1.0
 10
4.8225089346
 20
2.6724081073
 30
0.0
 10
4.8195036167
 20
2.6730174924
 30
0.0
 10
4.813145266
 20
2.6741205469
 30
0.0
 10
4.8031535338
 20
2.6754153384
 30
0.0
 10
4.7924156579
 20
2.6764081327
 30
0.0
 10
4.7850291618
 20
2.6768421063
 30
0.0
 10
4.7812575936
 20
2.6770038165
 30
0.0
  0
SPLINE
  5
4D4
100
AcDbEntity
  8
0
100
AcDbSpline
 62
7
  6
CONTINUOUS
 70
0
 71
3
 72
17
 73
13
 74
0
 42
0.0000001
 43
0.0000001
 44
0.0000000001
 40
0.0
 40
0.0
 40
0.0
 40
0.0
 40
0.0316835003
 40
0.0642864547
 40
0.0991135222
 40
0.1372442749
 40
0.2263774524
 40
0.3360097793
 40
0.4678361397
 40
0.6224678483
 40
0.7999890873
 40
1.0
 40
1.0
 40
1.0
 40
1.0
 10
5.5645845265
 20
2.6685470021
 30
0.0
 10
5.564584395
 20
2.6687216922
 30
0.0
 10
5.5645453134
 20
2.6690773221
 30
0.0
 10
5.5643691828
 20
2.6695985604
 30
0.0
 10
5.5640780652
 20
2.6701062426
 30
0.0
 10
5.563509403
 20
2.6707999846
 30
0.0
 10
5.5624782985
 20
2.6716220342
 30
0.0
 10
5.5608748457
 20
2.6724983695
 30
0.0
 10
5.5588464494
 20
2.6733178653
 30
0.0
 10
5.5564007179
 20
2.6740750336
 30
0.0
 10
5.5535471704
 20
2.6747644236
 30
0.0
 10
5.5515013437
 20
2.6751526322
 30
0.0
 10
5.5504142339
 20
2.6753378814
 30
0.0
  0
SPLINE
  5
4D5
100
AcDbEntity
  8
0
100
AcDbSpline
 62
7
  6
CONTINUOUS
 70
0
 71
3
 72
9
 73
5
 74
0
 42
0.0000001
 43
0.0000001
 44
0.0000000001
 40
0.0
 40
0.0
 40
0.0
 40
0.0
 40
0.4719521296
 40
1.0
 40
1.0
 40
1.0
 40
1.0
 10
5.5504142339
 20
2.6753378814
 30
0.0
 10
5.5487972197
 20
2.6756134292
 30
0.0
 10
5.5453545988
 20
2.6761020356
 30
0.0
 10
5.5418954864
 20
2.6764486215
 30
0.0
 10
5.5400665931
 20
2.6766017277
 30
0.0
  0
LINE
  5
4D6
100
AcDbEntity
  8
0
100
AcDbLine
 62
7
  6
CONTINUOUS
 10
5.5400665931
 20
2.6766017277
 11
5.5276450412
 21
2.6772477827
  0
SPLINE
  5
4D7
100
AcDbEntity
  8
0
100
AcDbSpline
 62
7
  6
CONTINUOUS
 70
0
 71
3
 72
13
 73
9
 74
0
 42
0.0000001
 43
0.0000001
 44
0.0000000001
 40
0.0
 40
0.0
 40
0.0
 40
0.0
 40
0.0912477968
 40
0.1879911081
 40
0.2930947306
 40
0.4087006675
 40
0.6767819529
 40
1.0
 40
1.0
 40
1.0
 40
1.0
 10
4.2337031625
 20
2.7000708356
 30
0.0
 10
4.2337033222
 20
2.7003043866
 30
0.0
 10
4.2336525385
 20
2.7007867229
 30
0.0
 10
4.2334321843
 20
2.7015077104
 30
0.0
 10
4.2330697539
 20
2.7022383663
 30
0.0
 10
4.2323655694
 20
2.7032761103
 30
0.0
 10
4.2311021504
 20
2.7045873017
 30
0.0
 10
4.2299035059
 20
2.7055166947
 30
0.0
 10
4.2292267576
 20
2.7059925227
 30
0.0
  0
SPLINE
  5
4D8
100
AcDbEntity
  8
0
100
AcDbSpline
 62
7
  6
CONTINUOUS
 70
0
 71
3
 72
17
 73
13
 74
0
 42
0.0000001
 43
0.0000001
 44
0.0000000001
 40
0.0
 40
0.0
 40
0.0
 40
0.0
 40
0.2237502597
 40
0.4184975689
 40
0.5841763115
 40
0.7208199704
 40
0.8286692836
 40
0.9084724184
 40
0.9385227294
 40
0.9627592289
 40
0.9824680102
 40
1.0
 40
1.0
 40
1.0
 40
1.0
 10
5.8726602617
 20
2.5363169018
 30
0.0
 10
5.873008053
 20
2.5363169329
 30
0.0
 10
5.8736585794
 20
2.5363112504
 30
0.0
 10
5.8745662518
 20
2.5362814716
 30
0.0
 10
5.8753373693
 20
2.5362313598
 30
0.0
 10
5.8759715885
 20
2.536161705
 30
0.0
 10
5.8764678811
 20
2.536072709
 30
0.0
 10
5.8767945948
 20
2.5359774481
 30
0.0
 10
5.8769815725
 20
2.5358838211
 30
0.0
 10
5.8770744401
 20
2.5358145385
 30
0.0
 10
5.8771337791
 20
2.5357372132
 30
0.0
 10
5.8771474054
 20
2.5356786401
 30
0.0
 10
5.877147393
 20
2.5356513889
 30
0.0
  0
SPLINE
  5
4D9
100
AcDbEntity
  8
0
100
AcDbSpline
 62
7
  6
CONTINUOUS
 70
0
 71
3
 72
13
 73
9
 74
0
 42
0.0000001
 43
0.0000001
 44
0.0000000001
 40
0.0
 40
0.0
 40
0.0
 40
0.0
 40
0.1280751535
 40
0.2496695365
 40
0.3634334782
 40
0.4733323007
 40
0.7201954559
 40
1.0
 40
1.0
 40
1.0
 40
1.0
 10
5.88220012
 20
2.5480148391
 30
0.0
 10
5.8815081335
 20
2.5479123004
 30
0.0
 10
5.8801753652
 20
2.5475753627
 30
0.0
 10
5.8783717023
 20
2.5467207037
 30
0.0
 10
5.8768286972
 20
2.5456204157
 30
0.0
 10
5.8750009819
 20
2.5438005146
 30
0.0
 10
5.8731908337
 20
2.5407508686
 30
0.0
 10
5.8726591706
 20
2.5378450732
 30
0.0
 10
5.872659849
 20
2.53631679
 30
0.0
  0
SPLINE
  5
4DA
100
AcDbEntity
  8
0
100
AcDbSpline
 62
7
  6
CONTINUOUS
 70
0
 71
3
 72
19
 73
15
 74
0
 42
0.0000001
 43
0.0000001
 44
0.0000000001
 40
0.0
 40
0.0
 40
0.0
 40
0.0
 40
0.2119784984
 40
0.4014005744
 40
0.566496296
 40
0.7056257749
 40
0.7651388004
 40
0.8178733974
 40
0.8638131768
 40
0.9029976894
 40
0.9355702023
 40
0.9618833622
 40
0.9827751336
 40
1.0
 40
1.0
 40
1.0
 40
1.0
 10
5.6050815354
 20
2.5363169071
 30
0.0
 10
5.6068215545
 20
2.5363169749
 30
0.0
 10
5.6101165873
 20
2.5362850739
 30
0.0
 10
5.6147645405
 20
2.5361258575
 30
0.0
 10
5.6188086642
 20
2.5358610837
 30
0.0
 10
5.621778837
 20
2.5355415519
 30
0.0
 10
5.6238176774
 20
2.5352213677
 30
0.0
 10
5.625091955
 20
2.5349697126
 30
0.0
 10
5.6261903582
 20
2.5346950226
 30
0.0
 10
5.6271107063
 20
2.5343981034
 30
0.0
 10
5.6278520038
 20
2.534079947
 30
0.0
 10
5.6284145477
 20
2.533738795
 30
0.0
 10
5.6288021914
 20
2.5333698787
 30
0.0
 10
5.6289427554
 20
2.5330781575
 30
0.0
 10
5.628970625
 20
2.5329395416
 30
0.0
  0
SPLINE
  5
4DB
100
AcDbEntity
  8
0
100
AcDbSpline
 62
7
  6
CONTINUOUS
 70
0
 71
3
 72
14
 73
10
 74
0
 42
0.0000001
 43
0.0000001
 44
0.0000000001
 40
0.0
 40
0.0
 40
0.0
 40
0.0
 40
0.1056337311
 40
0.2115410679
 40
0.3168734506
 40
0.4245487628
 40
0.6851080648
 40
0.8377906333
 40
1.0
 40
1.0
 40
1.0
 40
1.0
 10
5.6118303647
 20
2.5480133583
 30
0.0
 10
5.6113315248
 20
2.5479092658
 30
0.0
 10
5.6103585117
 20
2.5475556643
 30
0.0
 10
5.6090845096
 20
2.5466899447
 30
0.0
 10
5.6080004255
 20
2.5455866065
 30
0.0
 10
5.6066806814
 20
2.5437128641
 30
0.0
 10
5.6057217387
 20
2.5413473737
 30
0.0
 10
5.6051782357
 20
2.5386210414
 30
0.0
 10
5.6050776979
 20
2.5370992979
 30
0.0
 10
5.6050779125
 20
2.5363167885
 30
0.0
  0
SPLINE
  5
4DC
100
AcDbEntity
  8
0
100
AcDbSpline
 62
7
  6
CONTINUOUS
 70
0
 71
3
 72
21
 73
17
 74
0
 42
0.0000001
 43
0.0000001
 44
0.0000000001
 40
0.0
 40
0.0
 40
0.0
 40
0.0
 40
0.2207319518
 40
0.4145734077
 40
0.5807513535
 40
0.653254791
 40
0.7186025129
 40
0.7767436413
 40
0.8276694818
 40
0.8714793198
 40
0.8907771284
 40
0.9083798352
 40
0.9386906784
 40
0.9630590264
 40
0.9827257905
 40
1.0
 40
1.0
 40
1.0
 40
1.0
 10
5.7627727174
 20
2.5363169014
 30
0.0
 10
5.7637249076
 20
2.5363169485
 30
0.0
 10
5.7655133906
 20
2.536300504
 30
0.0
 10
5.7680174547
 20
2.5362157549
 30
0.0
 10
5.7698797737
 20
2.5360931303
 30
0.0
 10
5.7711847242
 20
2.5359607154
 30
0.0
 10
5.7720232818
 20
2.5358518077
 30
0.0
 10
5.7727657861
 20
2.5357290207
 30
0.0
 10
5.7734112094
 20
2.5355923879
 30
0.0
 10
5.7738861233
 20
2.5354624793
 30
0.0
 10
5.7742156372
 20
2.5353496205
 30
0.0
 10
5.7744850256
 20
2.5352422759
 30
0.0
 10
5.7747652258
 20
2.5351031388
 30
0.0
 10
5.7750257823
 20
2.5349123921
 30
0.0
 10
5.7751930382
 20
2.53470091
 30
0.0
 10
5.7752329362
 20
2.5345400435
 30
0.0
 10
5.7752333319
 20
2.5344655274
 30
0.0
  0
SPLINE
  5
4DD
100
AcDbEntity
  8
0
100
AcDbSpline
 62
7
  6
CONTINUOUS
 70
0
 71
3
 72
13
 73
9
 74
0
 42
0.0000001
 43
0.0000001
 44
0.0000000001
 40
0.0
 40
0.0
 40
0.0
 40
0.0
 40
0.1196651296
 40
0.2352486403
 40
0.3456704108
 40
0.4545757981
 40
0.7065877099
 40
1.0
 40
1.0
 40
1.0
 40
1.0
 10
5.7711664877
 20
2.5480133869
 30
0.0
 10
5.7705540162
 20
2.547910621
 30
0.0
 10
5.7693690683
 20
2.5475689085
 30
0.0
 10
5.767780989
 20
2.5467102436
 30
0.0
 10
5.7664252017
 20
2.5456081653
 30
0.0
 10
5.7648021356
 20
2.5437659077
 30
0.0
 10
5.7632201632
 20
2.540693165
 30
0.0
 10
5.7627677568
 20
2.5378395274
 30
0.0
 10
5.7627682753
 20
2.5363167885
 30
0.0
  0
SPLINE
  5
4DE
100
AcDbEntity
  8
0
100
AcDbSpline
 62
7
  6
CONTINUOUS
 70
0
 71
3
 72
17
 73
13
 74
0
 42
0.0000001
 43
0.0000001
 44
0.0000000001
 40
0.0
 40
0.0
 40
0.0
 40
0.0
 40
0.0175670856
 40
0.0371973181
 40
0.061221451
 40
0.0909588505
 40
0.1700014823
 40
0.2771769709
 40
0.4135240289
 40
0.5795160637
 40
0.7751032189
 40
1.0
 40
1.0
 40
1.0
 40
1.0
 10
4.0146691001
 20
2.5359339491
 30
0.0
 10
4.0146690918
 20
2.5359496624
 30
0.0
 10
4.0146767307
 20
2.5359833277
 30
0.0
 10
4.0147102337
 20
2.5360280079
 30
0.0
 10
4.014762897
 20
2.5360680374
 30
0.0
 10
4.0148691326
 20
2.5361220768
 30
0.0
 10
4.0150555232
 20
2.536176993
 30
0.0
 10
4.0153395622
 20
2.5362281135
 30
0.0
 10
4.0157039728
 20
2.5362679424
 30
0.0
 10
4.0161485133
 20
2.5362963251
 30
0.0
 10
4.0166729105
 20
2.5363129967
 30
0.0
 10
4.0170490364
 20
2.5363160611
 30
0.0
 10
4.0172502002
 20
2.5363159783
 30
0.0
  0
SPLINE
  5
4DF
100
AcDbEntity
  8
0
100
AcDbSpline
 62
7
  6
CONTINUOUS
 70
0
 71
3
 72
14
 73
10
 74
0
 42
0.0000001
 43
0.0000001
 44
0.0000000001
 40
0.0
 40
0.0
 40
0.0
 40
0.0
 40
0.0764597148
 40
0.1586360058
 40
0.2527037387
 40
0.362775914
 40
0.4913432982
 40
0.6398960075
 40
1.0
 40
1.0
 40
1.0
 40
1.0
 10
4.427665043
 20
2.5311350491
 30
0.0
 10
4.4276650155
 20
2.5312589315
 30
0.0
 10
4.4277080636
 20
2.5315177224
 30
0.0
 10
4.4278992852
 20
2.5318855996
 30
0.0
 10
4.4282089906
 20
2.5322355099
 30
0.0
 10
4.4286336331
 20
2.5325707652
 30
0.0
 10
4.4291729937
 20
2.5328936483
 30
0.0
 10
4.4301066526
 20
2.5333368937
 30
0.0
 10
4.4308890807
 20
2.5336042776
 30
0.0
 10
4.4314478846
 20
2.5337720691
 30
0.0
  0
SPLINE
  5
4E0
100
AcDbEntity
  8
0
100
AcDbSpline
 62
7
  6
CONTINUOUS
 70
0
 71
3
 72
14
 73
10
 74
0
 42
0.0000001
 43
0.0000001
 44
0.0000000001
 40
0.0
 40
0.0
 40
0.0
 40
0.0
 40
0.0753122874
 40
0.1661275775
 40
0.2720392514
 40
0.3924139496
 40
0.5264276171
 40
0.6731175884
 40
1.0
 40
1.0
 40
1.0
 40
1.0
 10
4.4314478846
 20
2.5337720691
 30
0.0
 10
4.4322003482
 20
2.5339980106
 30
0.0
 10
4.4338864335
 20
2.5344084724
 30
0.0
 10
4.4366816164
 20
2.5349046198
 30
0.0
 10
4.4399627312
 20
2.5353329753
 30
0.0
 10
4.4437050183
 20
2.5356889931
 30
0.0
 10
4.4478801121
 20
2.5359692387
 30
0.0
 10
4.4542126822
 20
2.5362478169
 30
0.0
 10
4.4591538284
 20
2.5363167976
 30
0.0
 10
4.462563846
 20
2.5363167912
 30
0.0
  0
SPLINE
  5
4E1
100
AcDbEntity
  8
0
100
AcDbSpline
 62
7
  6
CONTINUOUS
 70
0
 71
3
 72
24
 73
20
 74
0
 42
0.0000001
 43
0.0000001
 44
0.0000000001
 40
0.0
 40
0.0
 40
0.0
 40
0.0
 40
0.0076943917
 40
0.0158718933
 40
0.0250223679
 40
0.0354952675
 40
0.0475110574
 40
0.0612059517
 40
0.0939179156
 40
0.1339915358
 40
0.1815173101
 40
0.2364105651
 40
0.2983824089
 40
0.3670896783
 40
0.4421690856
 40
0.5232365172
 40
0.6098062749
 40
0.797247661
 40
1.0
 40
1.0
 40
1.0
 40
1.0
 10
4.6300695231
 20
2.5287850487
 30
0.0
 10
4.6300692558
 20
2.5289195993
 30
0.0
 10
4.6301090358
 20
2.5291986674
 30
0.0
 10
4.6302874638
 20
2.529602986
 30
0.0
 10
4.6305799173
 20
2.5299953161
 30
0.0
 10
4.6309831017
 20
2.5303770838
 30
0.0
 10
4.6314957049
 20
2.5307502642
 30
0.0
 10
4.6323780023
 20
2.5312677736
 30
0.0
 10
4.6337677315
 20
2.5318753637
 30
0.0
 10
4.6357677303
 20
2.5325333716
 30
0.0
 10
4.6381832363
 20
2.5331513157
 30
0.0
 10
4.6410010662
 20
2.5337243424
 30
0.0
 10
4.6442040203
 20
2.5342494738
 30
0.0
 10
4.6477713042
 20
2.5347226487
 30
0.0
 10
4.6516814373
 20
2.5351401544
 30
0.0
 10
4.6559109776
 20
2.5354980327
 30
0.0
 10
4.6621072438
 20
2.5359035166
 30
0.0
 10
4.6704391778
 20
2.5362351431
 30
0.0
 10
4.6772628129
 20
2.536316386
 30
0.0
 10
4.6808083181
 20
2.5363159783
 30
0.0
  0
SPLINE
  5
4E2
100
AcDbEntity
  8
0
100
AcDbSpline
 62
7
  6
CONTINUOUS
 70
0
 71
3
 72
14
 73
10
 74
0
 42
0.0000001
 43
0.0000001
 44
0.0000000001
 40
0.0
 40
0.0
 40
0.0
 40
0.0
 40
0.0768433858
 40
0.1604423633
 40
0.2561094354
 40
0.3673413587
 40
0.4962893718
 40
0.6442602825
 40
1.0
 40
1.0
 40
1.0
 40
1.0
 10
4.8477490076
 20
2.5262570101
 30
0.0
 10
4.847749214
 20
2.5264204234
 30
0.0
 10
4.8478060384
 20
2.5267633867
 30
0.0
 10
4.8480490582
 20
2.5272572303
 30
0.0
 10
4.8484408568
 20
2.5277398062
 30
0.0
 10
4.848977985
 20
2.5282140286
 30
0.0
 10
4.849659875
 20
2.5286818963
 30
0.0
 10
4.85083593
 20
2.529338047
 30
0.0
 10
4.8518266009
 20
2.5297543722
 30
0.0
 10
4.8525347116
 20
2.530020612
 30
0.0
  0
SPLINE
  5
4E3
100
AcDbEntity
  8
0
100
AcDbSpline
 62
7
  6
CONTINUOUS
 70
0
 71
3
 72
16
 73
12
 74
0
 42
0.0000001
 43
0.0000001
 44
0.0000000001
 40
0.0
 40
0.0
 40
0.0
 40
0.0
 40
0.0334998423
 40
0.0718975994
 40
0.1150721624
 40
0.1628771097
 40
0.2716680091
 40
0.3962739043
 40
0.5342256589
 40
0.6828691632
 40
1.0
 40
1.0
 40
1.0
 40
1.0
 10
4.8525347116
 20
2.530020612
 30
0.0
 10
4.8531985981
 20
2.5302702241
 30
0.0
 10
4.8546437749
 20
2.5307520728
 30
0.0
 10
4.8569925241
 20
2.5314020165
 30
0.0
 10
4.8596605601
 20
2.532025108
 30
0.0
 10
4.8638093129
 20
2.5328509337
 30
0.0
 10
4.8696949533
 20
2.5337648092
 30
0.0
 10
4.8775066336
 20
2.5346665181
 30
0.0
 10
4.8861836721
 20
2.5353921395
 30
0.0
 10
4.8989464494
 20
2.5361132164
 30
0.0
 10
4.9088102196
 20
2.5363167196
 30
0.0
 10
4.9155245384
 20
2.5363159783
 30
0.0
  0
LINE
  5
4E4
100
AcDbEntity
  8
0
100
AcDbLine
 62
7
  6
CONTINUOUS
 10
3.9725983253
 20
2.5478772705
 11
3.9718650597
 21
2.548003424
  0
SPLINE
  5
4E5
100
AcDbEntity
  8
0
100
AcDbSpline
 62
7
  6
CONTINUOUS
 70
0
 71
3
 72
16
 73
12
 74
0
 42
0.0000001
 43
0.0000001
 44
0.0000000001
 40
0.0
 40
0.0
 40
0.0
 40
0.0
 40
0.1424125805
 40
0.2847251708
 40
0.4241639926
 40
0.5581716516
 40
0.6843780715
 40
0.7439300568
 40
0.800806575
 40
0.9059979495
 40
1.0
 40
1.0
 40
1.0
 40
1.0
 10
6.0698121344
 20
2.567917578
 30
0.0
 10
6.0700722897
 20
2.5641259755
 30
0.0
 10
6.0702780323
 20
2.5565206138
 30
0.0
 10
6.069683487
 20
2.5452051182
 30
0.0
 10
6.0681902047
 20
2.5341973063
 30
0.0
 10
6.0658501946
 20
2.5237778579
 30
0.0
 10
6.0631918027
 20
2.5156512975
 30
0.0
 10
6.0606642199
 20
2.5096860085
 30
0.0
 10
6.0580252014
 20
2.5043894376
 30
0.0
 10
6.0543671281
 20
2.4985893548
 30
0.0
 10
6.0508397773
 20
2.4945703691
 30
0.0
 10
6.0490060395
 20
2.4928585027
 30
0.0
  0
SPLINE
  5
4E6
100
AcDbEntity
  8
0
100
AcDbSpline
 62
7
  6
CONTINUOUS
 70
0
 71
3
 72
21
 73
17
 74
0
 42
0.0000001
 43
0.0000001
 44
0.0000000001
 40
0.0
 40
0.0
 40
0.0
 40
0.0
 40
0.1381416451
 40
0.2037028274
 40
0.2671121354
 40
0.3286300019
 40
0.3886281042
 40
0.4475232843
 40
0.5057559553
 40
0.5637822788
 40
0.6220606953
 40
0.6810391685
 40
0.7411466796
 40
0.802783026
 40
0.8662965917
 40
1.0
 40
1.0
 40
1.0
 40
1.0
 10
6.0490060395
 20
2.4928585027
 30
0.0
 10
6.0422658372
 20
2.4867572464
 30
0.0
 10
6.0317445611
 20
2.4783533817
 30
0.0
 10
6.0168183636
 20
2.4690384063
 30
0.0
 10
6.0056534413
 20
2.4633002403
 30
0.0
 10
5.9943530604
 20
2.4587342364
 30
0.0
 10
5.9829531574
 20
2.4553482626
 30
0.0
 10
5.9714859582
 20
2.4531458572
 30
0.0
 10
5.9599830719
 20
2.4521300533
 30
0.0
 10
5.9484771669
 20
2.452303239
 30
0.0
 10
5.9370013449
 20
2.4536615117
 30
0.0
 10
5.9255879841
 20
2.456200107
 30
0.0
 10
5.9142694569
 20
2.4599134874
 30
0.0
 10
5.9030778021
 20
2.4647958084
 30
0.0
 10
5.8881138876
 20
2.4729730914
 30
0.0
 10
5.8775455707
 20
2.4806284003
 30
0.0
 10
5.8707945701
 20
2.4862723188
 30
0.0
  0
SPLINE
  5
4E7
100
AcDbEntity
  8
0
100
AcDbSpline
 62
7
  6
CONTINUOUS
 70
0
 71
3
 72
15
 73
11
 74
0
 42
0.0000001
 43
0.0000001
 44
0.0000000001
 40
0.0
 40
0.0
 40
0.0
 40
0.0
 40
0.1359578249
 40
0.2687650948
 40
0.3979962869
 40
0.5235829484
 40
0.6459338947
 40
0.7656334689
 40
0.8833973622
 40
1.0
 40
1.0
 40
1.0
 40
1.0
 10
6.0490059393
 20
2.4928589123
 30
0.0
 10
6.0495096337
 20
2.4905912689
 30
0.0
 10
6.0502752554
 20
2.4860534012
 30
0.0
 10
6.0506836066
 20
2.4792526078
 30
0.0
 10
6.0503286332
 20
2.4726238233
 30
0.0
 10
6.0492022269
 20
2.4662620432
 30
0.0
 10
6.0473272786
 20
2.4602484847
 30
0.0
 10
6.0447193561
 20
2.45465984
 30
0.0
 10
6.0414157434
 20
2.4495695689
 30
0.0
 10
6.0387711128
 20
2.4465411654
 30
0.0
 10
6.0373549807
 20
2.4451399163
 30
0.0
  0
SPLINE
  5
4E8
100
AcDbEntity
  8
0
100
AcDbSpline
 62
7
  6
CONTINUOUS
 70
0
 71
3
 72
15
 73
11
 74
0
 42
0.0000001
 43
0.0000001
 44
0.0000000001
 40
0.0
 40
0.0
 40
0.0
 40
0.0
 40
0.1084046967
 40
0.2195900794
 40
0.3347823613
 40
0.4550225826
 40
0.5811462812
 40
0.7137607131
 40
0.8532989278
 40
1.0
 40
1.0
 40
1.0
 40
1.0
 10
5.8801535882
 20
2.3871382142
 30
0.0
 10
5.8743370013
 20
2.3879469131
 30
0.0
 10
5.8626520408
 20
2.3903868564
 30
0.0
 10
5.8454861666
 20
2.3963778015
 30
0.0
 10
5.8285980083
 20
2.4046843072
 30
0.0
 10
5.8120694539
 20
2.4152625594
 30
0.0
 10
5.7959740521
 20
2.4280591408
 30
0.0
 10
5.7803755288
 20
2.4430055564
 30
0.0
 10
5.7653468282
 20
2.4600359268
 30
0.0
 10
5.7559840912
 20
2.4724159603
 30
0.0
 10
5.7514039068
 20
2.4789104921
 30
0.0
  0
SPLINE
  5
4E9
100
AcDbEntity
  8
0
100
AcDbSpline
 62
7
  6
CONTINUOUS
 70
0
 71
3
 72
27
 73
23
 74
0
 42
0.0000001
 43
0.0000001
 44
0.0000000001
 40
0.0
 40
0.0
 40
0.0
 40
0.0
 40
0.1015351708
 40
0.1898436668
 40
0.2646663456
 40
0.3257852521
 40
0.3730743337
 40
0.3915641354
 40
0.40669367
 40
0.4186325627
 40
0.4277793486
 40
0.4350717921
 40
0.4422823409
 40
0.4512820803
 40
0.4631305978
 40
0.4782752516
 40
0.4969081877
 40
0.5449203016
 40
0.6074135611
 40
0.684335061
 40
0.7755375122
 40
1.0
 40
1.0
 40
1.0
 40
1.0
 10
4.0074300132
 20
2.548011685
 30
0.0
 10
4.0071892053
 20
2.5480109606
 30
0.0
 10
4.0067389495
 20
2.5480062394
 30
0.0
 10
4.0061115101
 20
2.5479865531
 30
0.0
 10
4.0055804683
 20
2.547954893
 30
0.0
 10
4.0051480351
 20
2.5479111423
 30
0.0
 10
4.0048505407
 20
2.5478623504
 30
0.0
 10
4.0046648049
 20
2.5478135531
 30
0.0
 10
4.0045629063
 20
2.5477769555
 30
0.0
 10
4.0044864553
 20
2.5477370465
 30
0.0
 10
4.0044342192
 20
2.547693114
 30
0.0
 10
4.0044085016
 20
2.5476401925
 30
0.0
 10
4.0044179069
 20
2.5475823304
 30
0.0
 10
4.0044567984
 20
2.5475268996
 30
0.0
 10
4.0045207207
 20
2.5474698197
 30
0.0
 10
4.0046109781
 20
2.5474096733
 30
0.0
 10
4.0047815629
 20
2.5473170079
 30
0.0
 10
4.0050639524
 20
2.5471970551
 30
0.0
 10
4.0054831194
 20
2.5470488776
 30
0.0
 10
4.0060060065
 20
2.5468879453
 30
0.0
 10
4.0069033279
 20
2.5466392387
 30
0.0
 10
4.0076310587
 20
2.5464626148
 30
0.0
 10
4.0081496318
 20
2.5463422741
 30
0.0
  0
SPLINE
  5
4EA
100
AcDbEntity
  8
0
100
AcDbSpline
 62
7
  6
CONTINUOUS
 70
0
 71
3
 72
29
 73
25
 74
0
 42
0.0000001
 43
0.0000001
 44
0.0000000001
 40
0.0
 40
0.0
 40
0.0
 40
0.0
 40
0.0706166766
 40
0.1276727606
 40
0.1510901502
 40
0.1710972357
 40
0.1877120668
 40
0.2009947176
 40
0.2110764718
 40
0.2182723264
 40
0.2234620723
 40
0.2286765067
 40
0.2359306399
 40
0.2460850536
 40
0.259442531
 40
0.2761257258
 40
0.2961908582
 40
0.3196651344
 40
0.3768688415
 40
0.4476898238
 40
0.5320000098
 40
0.6296358305
 40
0.7403599639
 40
1.0
 40
1.0
 40
1.0
 40
1.0
 10
4.1665084787
 20
2.527026202
 30
0.0
 10
4.1668326529
 20
2.5270263273
 30
0.0
 10
4.1674187659
 20
2.527032548
 30
0.0
 10
4.1681119946
 20
2.5270617887
 30
0.0
 10
4.1685717123
 20
2.5271003426
 30
0.0
 10
4.1688454616
 20
2.5271331745
 30
0.0
 10
4.1690713591
 20
2.5271718627
 30
0.0
 10
4.1692498951
 20
2.5272157551
 30
0.0
 10
4.1693813134
 20
2.5272659492
 30
0.0
 10
4.169470149
 20
2.5273207071
 30
0.0
 10
4.1695143767
 20
2.5273962141
 30
0.0
 10
4.1694883166
 20
2.5274800012
 30
0.0
 10
4.1694144163
 20
2.5275545381
 30
0.0
 10
4.1692978793
 20
2.5276350613
 30
0.0
 10
4.1691341549
 20
2.5277208146
 30
0.0
 10
4.1689232837
 20
2.5278129335
 30
0.0
 10
4.1686646679
 20
2.5279109
 30
0.0
 10
4.1682265788
 20
2.5280592876
 30
0.0
 10
4.1675589531
 20
2.5282550041
 30
0.0
 10
4.1666153512
 20
2.5284997317
 30
0.0
 10
4.165485882
 20
2.5287660257
 30
0.0
 10
4.1641733425
 20
2.5290531487
 30
0.0
 10
4.1620689607
 20
2.5294860628
 30
0.0
 10
4.1603984875
 20
2.5298031807
 30
0.0
 10
4.1592262251
 20
2.5300186956
 30
0.0
  0
LINE
  5
4EB
100
AcDbEntity
  8
0
100
AcDbLine
 62
7
  6
CONTINUOUS
 10
4.1592262251
 20
2.5300186956
 11
4.1504343322
 21
2.5315318461
  0
SPLINE
  5
4EC
100
AcDbEntity
  8
0
100
AcDbSpline
 62
7
  6
CONTINUOUS
 70
0
 71
3
 72
20
 73
16
 74
0
 42
0.0000001
 43
0.0000001
 44
0.0000000001
 40
0.0
 40
0.0
 40
0.0
 40
0.0
 40
0.0535114198
 40
0.1138783709
 40
0.2508522764
 40
0.4014537605
 40
0.5553044213
 40
0.7017485551
 40
0.7689477097
 40
0.830506304
 40
0.8853128894
 40
0.9323704428
 40
0.9708114938
 40
0.9866048533
 40
1.0
 40
1.0
 40
1.0
 40
1.0
 10
4.1504343322
 20
2.5315318461
 30
0.0
 10
4.1479201669
 20
2.531942245
 30
0.0
 10
4.1425648344
 20
2.5327856385
 30
0.0
 10
4.1307538381
 20
2.5345499341
 30
0.0
 10
4.1143479192
 20
2.5368356875
 30
0.0
 10
4.093507773
 20
2.5395377155
 30
0.0
 10
4.0721973964
 20
2.5421130473
 30
0.0
 10
4.0548108149
 20
2.544058314
 30
0.0
 10
4.0417792716
 20
2.5454075858
 30
0.0
 10
4.0330814626
 20
2.5462524622
 30
0.0
 10
4.0253324099
 20
2.546945051
 30
0.0
 10
4.0186738977
 20
2.5474729708
 30
0.0
 10
4.0138618026
 20
2.5477878426
 30
0.0
 10
4.0106458489
 20
2.5479412854
 30
0.0
 10
4.0092569396
 20
2.5479862998
 30
0.0
 10
4.0086193848
 20
2.5479991021
 30
0.0
  0
LINE
  5
4ED
100
AcDbEntity
  8
0
100
AcDbLine
 62
7
  6
CONTINUOUS
 10
4.0121607796
 20
2.5431170459
 11
4.004169813
 21
2.5441153691
  0
LINE
  5
4EE
100
AcDbEntity
  8
0
100
AcDbLine
 62
7
  6
CONTINUOUS
 10
4.004169813
 20
2.5441153691
 11
3.9872867415
 21
2.5462048548
  0
LINE
  5
4EF
100
AcDbEntity
  8
0
100
AcDbLine
 62
7
  6
CONTINUOUS
 10
3.9872867415
 20
2.5462048548
 11
3.9725556676
 21
2.547954062
  0
LINE
  5
4F0
100
AcDbEntity
  8
0
100
AcDbLine
 62
7
  6
CONTINUOUS
 10
3.9725556676
 20
2.547954062
 11
3.9718871898
 21
2.548011685
  0
SPLINE
  5
4F1
100
AcDbEntity
  8
0
100
AcDbSpline
 62
7
  6
CONTINUOUS
 70
0
 71
3
 72
34
 73
30
 74
0
 42
0.0000001
 43
0.0000001
 44
0.0000000001
 40
0.0
 40
0.0
 40
0.0
 40
0.0
 40
0.1123214417
 40
0.2225639184
 40
0.3285708158
 40
0.4287156609
 40
0.5217260518
 40
0.6062897375
 40
0.6810290268
 40
0.7447234979
 40
0.772218462
 40
0.7967334988
 40
0.8182250014
 40
0.8366804779
 40
0.8521403273
 40
0.8647171658
 40
0.8700050497
 40
0.8746945711
 40
0.8826337603
 40
0.886225985
 40
0.8898149002
 40
0.8977237278
 40
0.9023851701
 40
0.907640623
 40
0.9201586261
 40
0.9355940434
 40
0.9540462927
 40
0.9755246657
 40
1.0
 40
1.0
 40
1.0
 40
1.0
 10
4.9150800263
 20
2.548011685
 30
0.0
 10
4.9116649678
 20
2.5480089927
 30
0.0
 10
4.9048979864
 20
2.5479545172
 30
0.0
 10
4.8949103251
 20
2.5477197577
 30
0.0
 10
4.8852981945
 20
2.5473227065
 30
0.0
 10
4.8762185318
 20
2.5467703773
 30
0.0
 10
4.8678022002
 20
2.5460807449
 30
0.0
 10
4.8601729048
 20
2.5452685846
 30
0.0
 10
4.8534547802
 20
2.5443454223
 30
0.0
 10
4.8484867977
 20
2.5434535927
 30
0.0
 10
4.8450556284
 20
2.5426745049
 30
0.0
 10
4.8428951449
 20
2.5421006643
 30
0.0
 10
4.8410251691
 20
2.5415109973
 30
0.0
 10
4.8394505829
 20
2.5409079191
 30
0.0
 10
4.8381754274
 20
2.5402938243
 30
0.0
 10
4.8373173172
 20
2.5397466188
 30
0.0
 10
4.8367997126
 20
2.5392939613
 30
0.0
 10
4.8364365911
 20
2.538887825
 30
0.0
 10
4.8361919935
 20
2.5384415531
 30
0.0
 10
4.8361297443
 20
2.5379813714
 30
0.0
 10
4.836183197
 20
2.5375210449
 30
0.0
 10
4.8364180738
 20
2.5370717678
 30
0.0
 10
4.8367719138
 20
2.5366610964
 30
0.0
 10
4.8372792503
 20
2.5362023069
 30
0.0
 10
4.8381269489
 20
2.5356451442
 30
0.0
 10
4.839392961
 20
2.5350181976
 30
0.0
 10
4.840959952
 20
2.534399025
 30
0.0
 10
4.8428217841
 20
2.5337896958
 30
0.0
 10
4.8441685104
 20
2.53341589
 30
0.0
 10
4.8448888119
 20
2.5332289823
 30
0.0
  0
SPLINE
  5
4F2
100
AcDbEntity
  8
0
100
AcDbSpline
 62
7
  6
CONTINUOUS
 70
0
 71
3
 72
22
 73
18
 74
0
 42
0.0000001
 43
0.0000001
 44
0.0000000001
 40
0.0
 40
0.0
 40
0.0
 40
0.0
 40
0.2125045556
 40
0.302433389
 40
0.3814635714
 40
0.4497153203
 40
0.507498737
 40
0.5554933853
 40
0.5951265554
 40
0.628972665
 40
0.6610357833
 40
0.6959430449
 40
0.7373832668
 40
0.787608775
 40
0.8477846479
 40
0.9184884328
 40
1.0
 40
1.0
 40
1.0
 40
1.0
 10
4.9923629325
 20
2.5323815381
 30
0.0
 10
4.9934816089
 20
2.5326570764
 30
0.0
 10
4.9950653727
 20
2.5330891601
 30
0.0
 10
4.9970202027
 20
2.5337665174
 30
0.0
 10
4.9982111144
 20
2.5342542068
 30
0.0
 10
4.9992081025
 20
2.5347490286
 30
0.0
 10
5.0000098457
 20
2.535250409
 30
0.0
 10
5.0006159209
 20
2.5357602139
 30
0.0
 10
5.0010268955
 20
2.536283328
 30
0.0
 10
5.0012330177
 20
2.5368305538
 30
0.0
 10
5.0012082639
 20
2.5373917737
 30
0.0
 10
5.0009575925
 20
2.5379357159
 30
0.0
 10
5.0005061388
 20
2.5384600112
 30
0.0
 10
4.9998596975
 20
2.5389748308
 30
0.0
 10
4.9990184135
 20
2.5394846181
 30
0.0
 10
4.9979825188
 20
2.5399900251
 30
0.0
 10
4.9972176112
 20
2.5403012409
 30
0.0
 10
4.996804351
 20
2.5404577994
 30
0.0
  0
SPLINE
  5
4F3
100
AcDbEntity
  8
0
100
AcDbSpline
 62
7
  6
CONTINUOUS
 70
0
 71
3
 72
17
 73
13
 74
0
 42
0.0000001
 43
0.0000001
 44
0.0000000001
 40
0.0
 40
0.0
 40
0.0
 40
0.0
 40
0.0304456606
 40
0.0664750725
 40
0.1079536808
 40
0.154678993
 40
0.2629387373
 40
0.3887557373
 40
0.5289592922
 40
0.6801607096
 40
0.8387097691
 40
1.0
 40
1.0
 40
1.0
 40
1.0
 10
4.996804351
 20
2.5404577994
 30
0.0
 10
4.996023091
 20
2.5407537699
 30
0.0
 10
4.9942881597
 20
2.5413230939
 30
0.0
 10
4.9914244329
 20
2.5420845053
 30
0.0
 10
4.9880948177
 20
2.5428199953
 30
0.0
 10
4.9827943073
 20
2.5438079057
 30
0.0
 10
4.9751642508
 20
2.5449041125
 30
0.0
 10
4.9649500975
 20
2.5459915199
 30
0.0
 10
4.9535341084
 20
2.5468754995
 30
0.0
 10
4.9412032666
 20
2.5475276266
 30
0.0
 10
4.9282826064
 20
2.5479173672
 30
0.0
 10
4.9195059053
 20
2.5480076989
 30
0.0
 10
4.9150800263
 20
2.548011685
 30
0.0
  0
LINE
  5
4F4
100
AcDbEntity
  8
0
100
AcDbLine
 62
7
  6
CONTINUOUS
 10
5.882200636
 20
2.548011685
 11
5.8714710621
 21
2.5476182063
  0
SPLINE
  5
4F5
100
AcDbEntity
  8
0
100
AcDbSpline
 62
7
  6
CONTINUOUS
 70
0
 71
3
 72
13
 73
9
 74
0
 42
0.0000001
 43
0.0000001
 44
0.0000000001
 40
0.0
 40
0.0
 40
0.0
 40
0.0
 40
0.0917425868
 40
0.1977038737
 40
0.3161333953
 40
0.4444770278
 40
0.7196180749
 40
1.0
 40
1.0
 40
1.0
 40
1.0
 10
5.8714710621
 20
2.5476182063
 30
0.0
 10
5.8688639137
 20
2.5474644282
 30
0.0
 10
5.863248574
 20
2.5470815435
 30
0.0
 10
5.8542780289
 20
2.5463580617
 30
0.0
 10
5.8442775861
 20
2.545449748
 30
0.0
 10
5.8294923389
 20
2.5439841782
 30
0.0
 10
5.8101406741
 20
2.5418539857
 30
0.0
 10
5.7944431888
 20
2.5399312205
 30
0.0
 10
5.7865272835
 20
2.5389079835
 30
0.0
  0
SPLINE
  5
4F6
100
AcDbEntity
  8
0
100
AcDbSpline
 62
7
  6
CONTINUOUS
 70
0
 71
3
 72
29
 73
25
 74
0
 42
0.0000001
 43
0.0000001
 44
0.0000000001
 40
0.0
 40
0.0
 40
0.0
 40
0.0
 40
0.1083164837
 40
0.202722227
 40
0.2830701589
 40
0.3492776125
 40
0.3770813143
 40
0.4013679219
 40
0.422173694
 40
0.4395703581
 40
0.4536986633
 40
0.464845709
 40
0.473624708
 40
0.4812757522
 40
0.4895913575
 40
0.5000506026
 40
0.5134524355
 40
0.530148986
 40
0.5739074554
 40
0.6317292601
 40
0.7035190292
 40
0.7890349698
 40
0.8879733568
 40
1.0
 40
1.0
 40
1.0
 40
1.0
 10
5.8829309295
 20
2.5456137284
 30
0.0
 10
5.8832920998
 20
2.545703626
 30
0.0
 10
5.8839667641
 20
2.5458771598
 30
0.0
 10
5.8849034883
 20
2.5461395311
 30
0.0
 10
5.8856941455
 20
2.5463856923
 30
0.0
 10
5.8862589368
 20
2.5465865137
 30
0.0
 10
5.8866348379
 20
2.5467414343
 30
0.0
 10
5.8868623774
 20
2.5468463677
 30
0.0
 10
5.8870523093
 20
2.5469468381
 30
0.0
 10
5.887204645
 20
2.5470427866
 30
0.0
 10
5.8873197219
 20
2.5471344314
 30
0.0
 10
5.8873979914
 20
2.5472223931
 30
0.0
 10
5.8874397286
 20
2.5473101401
 30
0.0
 10
5.8874361632
 20
2.5473990057
 30
0.0
 10
5.8873855346
 20
2.5474780737
 30
0.0
 10
5.887297602
 20
2.5475467646
 30
0.0
 10
5.8871727104
 20
2.5476098366
 30
0.0
 10
5.8869333265
 20
2.5476952832
 30
0.0
 10
5.8865351601
 20
2.5477824779
 30
0.0
 10
5.8859449638
 20
2.5478642859
 30
0.0
 10
5.8852082473
 20
2.5479284453
 30
0.0
 10
5.8843289109
 20
2.5479750905
 30
0.0
 10
5.8833104809
 20
2.5480038565
 30
0.0
 10
5.8825855737
 20
2.5480107283
 30
0.0
 10
5.882200636
 20
2.548011685
 30
0.0
  0
SPLINE
  5
4F7
100
AcDbEntity
  8
0
100
AcDbSpline
 62
7
  6
CONTINUOUS
 70
0
 71
3
 72
40
 73
36
 74
0
 42
0.0000001
 43
0.0000001
 44
0.0000000001
 40
0.0
 40
0.0
 40
0.0
 40
0.0
 40
0.0766874155
 40
0.1619170012
 40
0.2533447626
 40
0.3481545664
 40
0.443557001
 40
0.5368438234
 40
0.6254032948
 40
0.6671219862
 40
0.7067485577
 40
0.7440028808
 40
0.7786138812
 40
0.8103504194
 40
0.8389953545
 40
0.8643378277
 40
0.8862285756
 40
0.904584698
 40
0.9124188527
 40
0.9193508874
 40
0.9253815987
 40
0.9305189507
 40
0.9347864074
 40
0.9382388227
 40
0.940997662
 40
0.943317936
 40
0.9456272465
 40
0.9483631964
 40
0.9517888819
 40
0.9560271115
 40
0.9611310117
 40
0.9671211579
 40
0.9740020142
 40
0.9817732441
 40
1.0
 40
1.0
 40
1.0
 40
1.0
 10
5.6118305948
 20
2.548011685
 30
0.0
 10
5.6080511642
 20
2.5480077484
 30
0.0
 10
5.6000712661
 20
2.5478898737
 30
0.0
 10
5.5875930992
 20
2.5474320198
 30
0.0
 10
5.5742346074
 20
2.5466804909
 30
0.0
 10
5.5603901992
 20
2.5456763598
 30
0.0
 10
5.5464717965
 20
2.5444482785
 30
0.0
 10
5.5328820995
 20
2.5430210234
 30
0.0
 10
5.5219451323
 20
2.5416807281
 30
0.0
 10
5.5136498801
 20
2.5405375578
 30
0.0
 10
5.5078684499
 20
2.5396768708
 30
0.0
 10
5.5024436829
 20
2.5388018944
 30
0.0
 10
5.4974146792
 20
2.5379181357
 30
0.0
 10
5.4928173586
 20
2.5370326451
 30
0.0
 10
5.4886849484
 20
2.5361525027
 30
0.0
 10
5.4850471274
 20
2.5352839275
 30
0.0
 10
5.4819280747
 20
2.5344329733
 30
0.0
 10
5.4796693144
 20
2.5337124098
 30
0.0
 10
5.4781404625
 20
2.5331393309
 30
0.0
 10
5.4771958119
 20
2.5327407449
 30
0.0
 10
5.4763927046
 20
2.5323512414
 30
0.0
 10
5.4757326094
 20
2.5319714855
 30
0.0
 10
5.4752160771
 20
2.5316018153
 30
0.0
 10
5.4748432711
 20
2.5312407073
 30
0.0
 10
5.4746129092
 20
2.5308816426
 30
0.0
 10
5.4745440365
 20
2.530510579
 30
0.0
 10
5.4746655458
 20
2.5301541195
 30
0.0
 10
5.4749475828
 20
2.5298374409
 30
0.0
 10
5.4753703979
 20
2.5295432097
 30
0.0
 10
5.4759363785
 20
2.5292646006
 30
0.0
 10
5.4766450337
 20
2.5289999936
 30
0.0
 10
5.4774953387
 20
2.5287495778
 30
0.0
 10
5.4784853024
 20
2.5285136993
 30
0.0
 10
5.4800758709
 20
2.5282026085
 30
0.0
 10
5.4813450862
 20
2.5280207458
 30
0.0
 10
5.4822366051
 20
2.5279107393
 30
0.0
  0
LINE
  5
4F8
100
AcDbEntity
  8
0
100
AcDbLine
 62
7
  6
CONTINUOUS
 10
5.6275332078
 20
2.5393395083
 11
5.6325012237
 21
2.5406571062
  0
SPLINE
  5
4F9
100
AcDbEntity
  8
0
100
AcDbSpline
 62
7
  6
CONTINUOUS
 70
0
 71
3
 72
28
 73
24
 74
0
 42
0.0000001
 43
0.0000001
 44
0.0000000001
 40
0.0
 40
0.0
 40
0.0
 40
0.0
 40
0.0840014836
 40
0.1553232009
 40
0.2138883433
 40
0.2598608933
 40
0.2783150345
 40
0.2939496362
 40
0.3070816303
 40
0.3182734664
 40
0.3284483908
 40
0.3388008513
 40
0.3504551898
 40
0.3642070462
 40
0.3805373786
 40
0.3997249052
 40
0.4472357724
 40
0.5074390698
 40
0.5805152285
 40
0.6664576794
 40
0.7651785287
 40
0.8765337317
 40
1.0
 40
1.0
 40
1.0
 40
1.0
 10
5.6325012237
 20
2.5406571062
 30
0.0
 10
5.6331941064
 20
2.5408632342
 30
0.0
 10
5.6344694345
 20
2.5412645998
 30
0.0
 10
5.6361991752
 20
2.5418970765
 30
0.0
 10
5.6375846185
 20
2.5425082776
 30
0.0
 10
5.6385110072
 20
2.5430280502
 30
0.0
 10
5.6390615825
 20
2.5434442027
 30
0.0
 10
5.6393547254
 20
2.5437275748
 30
0.0
 10
5.6395592691
 20
2.54400686
 30
0.0
 10
5.6396725122
 20
2.5442858831
 30
0.0
 10
5.6396861161
 20
2.5445645199
 30
0.0
 10
5.6395967468
 20
2.544832535
 30
0.0
 10
5.6394132226
 20
2.5450838944
 30
0.0
 10
5.6391417405
 20
2.5453220131
 30
0.0
 10
5.6387828748
 20
2.5455500198
 30
0.0
 10
5.6381401434
 20
2.5458645237
 30
0.0
 10
5.6371033185
 20
2.5462183225
 30
0.0
 10
5.6355903557
 20
2.5465847407
 30
0.0
 10
5.6337317061
 20
2.5469139916
 30
0.0
 10
5.6315322204
 20
2.547203818
 30
0.0
 10
5.6289964371
 20
2.5474515072
 30
0.0
 10
5.6261329804
 20
2.5476542865
 30
0.0
 10
5.6241145036
 20
2.5477542357
 30
0.0
 10
5.6230528978
 20
2.5477982248
 30
0.0
  0
LINE
  5
4FA
100
AcDbEntity
  8
0
100
AcDbLine
 62
7
  6
CONTINUOUS
 10
5.6230528978
 20
2.5477982248
 11
5.6118305948
 21
2.548011685
  0
SPLINE
  5
4FB
100
AcDbEntity
  8
0
100
AcDbSpline
 62
7
  6
CONTINUOUS
 70
0
 71
3
 72
33
 73
29
 74
0
 42
0.0000001
 43
0.0000001
 44
0.0000000001
 40
0.0
 40
0.0
 40
0.0
 40
0.0
 40
0.1253317318
 40
0.2425622803
 40
0.3506792725
 40
0.4487881019
 40
0.5361089884
 40
0.611972389
 40
0.6758704866
 40
0.7032251812
 40
0.7274908301
 40
0.7486712359
 40
0.7668101217
 40
0.7820123514
 40
0.788574713
 40
0.7944921525
 40
0.8046207844
 40
0.8131697429
 40
0.8172418231
 40
0.8213993707
 40
0.8305826747
 40
0.8417572411
 40
0.8554742038
 40
0.8720191775
 40
0.8915338747
 40
0.9140803909
 40
0.9396820637
 40
1.0
 40
1.0
 40
1.0
 40
1.0
 10
4.4573941572
 20
2.548011685
 30
0.0
 10
4.4552556609
 20
2.5480120439
 30
0.0
 10
4.4511168135
 20
2.5479844352
 30
0.0
 10
4.4451344886
 20
2.5478523075
 30
0.0
 10
4.4396194497
 20
2.5476334254
 30
0.0
 10
4.4346195808
 20
2.5473290679
 30
0.0
 10
4.4301772799
 20
2.546942987
 30
0.0
 10
4.4263297573
 20
2.5464791322
 30
0.0
 10
4.4235150115
 20
2.5460126203
 30
0.0
 10
4.4215892858
 20
2.5455902433
 30
0.0
 10
4.4203877172
 20
2.5452735126
 30
0.0
 10
4.4193542172
 20
2.5449410754
 30
0.0
 10
4.4184903134
 20
2.5445935787
 30
0.0
 10
4.4178847606
 20
2.5442782835
 30
0.0
 10
4.4174925101
 20
2.5440140047
 30
0.0
 10
4.4171933167
 20
2.5437701733
 30
0.0
 10
4.4169084912
 20
2.5434551453
 30
0.0
 10
4.4167537691
 20
2.5430874701
 30
0.0
 10
4.4167342967
 20
2.5427996552
 30
0.0
 10
4.4167772244
 20
2.5425035391
 30
0.0
 10
4.4169621133
 20
2.542118473
 30
0.0
 10
4.4173480515
 20
2.5416784664
 30
0.0
 10
4.4179006134
 20
2.5412335428
 30
0.0
 10
4.4186215845
 20
2.540782122
 30
0.0
 10
4.4195110962
 20
2.5403234419
 30
0.0
 10
4.4205683296
 20
2.5398582211
 30
0.0
 10
4.4222961969
 20
2.5391938085
 30
0.0
 10
4.423694009
 20
2.5387474912
 30
0.0
 10
4.424680918
 20
2.5384555415
 30
0.0
  0
SPLINE
  5
4FC
100
AcDbEntity
  8
0
100
AcDbSpline
 62
7
  6
CONTINUOUS
 70
0
 71
3
 72
23
 73
19
 74
0
 42
0.0000001
 43
0.0000001
 44
0.0000000001
 40
0.0
 40
0.0
 40
0.0
 40
0.0
 40
0.2082012446
 40
0.2944513214
 40
0.3686351191
 40
0.4308179137
 40
0.4815149559
 40
0.5218853984
 40
0.554202261
 40
0.568673681
 40
0.5829048704
 40
0.6134603027
 40
0.6509296011
 40
0.6979986241
 40
0.7559595643
 40
0.8254381077
 40
0.9067423358
 40
1.0
 40
1.0
 40
1.0
 40
1.0
 10
4.5734944572
 20
2.5287740808
 30
0.0
 10
4.5746096329
 20
2.5289527492
 30
0.0
 10
4.5761824232
 20
2.5292419953
 30
0.0
 10
4.5781206195
 20
2.5297370844
 30
0.0
 10
4.5792721057
 20
2.530103978
 30
0.0
 10
4.5802123973
 20
2.530489425
 30
0.0
 10
4.5809417158
 20
2.5308943253
 30
0.0
 10
4.5814648693
 20
2.5313191508
 30
0.0
 10
4.5817378255
 20
2.5317198855
 30
0.0
 10
4.5818230647
 20
2.5320427981
 30
0.0
 10
4.5818297267
 20
2.5323672969
 30
0.0
 10
4.581674443
 20
2.5328004659
 30
0.0
 10
4.5812762145
 20
2.5332895488
 30
0.0
 10
4.5806765646
 20
2.5337822783
 30
0.0
 10
4.5798709493
 20
2.5342828034
 30
0.0
 10
4.5788586495
 20
2.5347924947
 30
0.0
 10
4.5776394918
 20
2.535310097
 30
0.0
 10
4.5767504702
 20
2.5356370972
 30
0.0
 10
4.5762726572
 20
2.5358032596
 30
0.0
  0
SPLINE
  5
4FD
100
AcDbEntity
  8
0
100
AcDbSpline
 62
7
  6
CONTINUOUS
 70
0
 71
3
 72
18
 73
14
 74
0
 42
0.0000001
 43
0.0000001
 44
0.0000000001
 40
0.0
 40
0.0
 40
0.0
 40
0.0
 40
0.0343052003
 40
0.0750882638
 40
0.1219855511
 40
0.1744981537
 40
0.2320912975
 40
0.29418144
 40
0.429137299
 40
0.5736222745
 40
0.7212866311
 40
0.8655559117
 40
1.0
 40
1.0
 40
1.0
 40
1.0
 10
4.5748356602
 20
2.5362768776
 30
0.0
 10
4.5735449165
 20
2.5366813286
 30
0.0
 10
4.5706895806
 20
2.5374703155
 30
0.0
 10
4.566003218
 20
2.5385564454
 30
0.0
 10
4.5605808839
 20
2.5396345209
 30
0.0
 10
4.554481181
 20
2.5406936319
 30
0.0
 10
4.5477693747
 20
2.5417207982
 30
0.0
 10
4.5378196977
 20
2.5430690259
 30
0.0
 10
4.5244355867
 20
2.544571746
 30
0.0
 10
4.5076573428
 20
2.5460339004
 30
0.0
 10
4.4904839558
 20
2.5471431223
 30
0.0
 10
4.4736848458
 20
2.5478335705
 30
0.0
 10
4.462695179
 20
2.5480061688
 30
0.0
 10
4.4573941572
 20
2.548011685
 30
0.0
  0
SPLINE
  5
4FE
100
AcDbEntity
  8
0
100
AcDbSpline
 62
7
  6
CONTINUOUS
 70
0
 71
3
 72
33
 73
29
 74
0
 42
0.0000001
 43
0.0000001
 44
0.0000000001
 40
0.0
 40
0.0
 40
0.0
 40
0.0
 40
0.1197540561
 40
0.2345970211
 40
0.3426222729
 40
0.4423318265
 40
0.5328888149
 40
0.6135193008
 40
0.6833710525
 40
0.713983463
 40
0.7415834738
 40
0.7660969688
 40
0.7875281726
 40
0.8059210946
 40
0.8213610808
 40
0.8340124341
 40
0.8442002637
 40
0.8525772517
 40
0.8564493034
 40
0.8603322458
 40
0.8687897945
 40
0.8791114332
 40
0.8919351904
 40
0.9075804248
 40
0.9261791024
 40
0.9477803462
 40
0.9723922248
 40
1.0
 40
1.0
 40
1.0
 40
1.0
 10
4.6779139726
 20
2.548011685
 30
0.0
 10
4.6750885939
 20
2.5480093608
 30
0.0
 10
4.6695536442
 20
2.5479685976
 30
0.0
 10
4.6614717433
 20
2.5477899965
 30
0.0
 10
4.6538665559
 20
2.5474898286
 30
0.0
 10
4.6468410997
 20
2.5470663287
 30
0.0
 10
4.6404714255
 20
2.5465319095
 30
0.0
 10
4.6348192579
 20
2.5458975215
 30
0.0
 10
4.6305913901
 20
2.5452703405
 30
0.0
 10
4.6276220661
 20
2.5447094978
 30
0.0
 10
4.6257161675
 20
2.5442869738
 30
0.0
 10
4.6240378323
 20
2.5438443566
 30
0.0
 10
4.6225906307
 20
2.5433836997
 30
0.0
 10
4.6213757983
 20
2.5429068017
 30
0.0
 10
4.620393132
 20
2.542415263
 30
0.0
 10
4.6196414406
 20
2.5419082197
 30
0.0
 10
4.6191165994
 20
2.5413820671
 30
0.0
 10
4.6188703797
 20
2.5408975674
 30
0.0
 10
4.6188189387
 20
2.5405172616
 30
0.0
 10
4.6188534457
 20
2.5401331579
 30
0.0
 10
4.6190778248
 20
2.5396327248
 30
0.0
 10
4.6195775927
 20
2.5390709087
 30
0.0
 10
4.6203063158
 20
2.5385114134
 30
0.0
 10
4.6212673728
 20
2.5379511885
 30
0.0
 10
4.6224600536
 20
2.5373885574
 30
0.0
 10
4.6238824698
 20
2.5368252716
 30
0.0
 10
4.6255314241
 20
2.5362630087
 30
0.0
 10
4.6267121592
 20
2.5359102313
 30
0.0
 10
4.6273389354
 20
2.5357329877
 30
0.0
  0
LINE
  5
4FF
100
AcDbEntity
  8
0
100
AcDbLine
 62
7
  6
CONTINUOUS
 10
4.7705610575
 20
2.5295336178
 11
4.7750987201
 21
2.5303326347
  0
SPLINE
  5
500
100
AcDbEntity
  8
0
100
AcDbSpline
 62
7
  6
CONTINUOUS
 70
0
 71
3
 72
22
 73
18
 74
0
 42
0.0000001
 43
0.0000001
 44
0.0000000001
 40
0.0
 40
0.0
 40
0.0
 40
0.0
 40
0.2156835804
 40
0.3069949665
 40
0.3872350345
 40
0.456490979
 40
0.5150678173
 40
0.5636863804
 40
0.6036729611
 40
0.6374299616
 40
0.6688693356
 40
0.7027553156
 40
0.7429653351
 40
0.7918178224
 40
0.8505532058
 40
0.9198295699
 40
1.0
 40
1.0
 40
1.0
 40
1.0
 10
4.7750987201
 20
2.5303326347
 30
0.0
 10
4.7761916461
 20
2.5305579317
 30
0.0
 10
4.7777409169
 20
2.5309159173
 30
0.0
 10
4.7796605036
 20
2.5314918621
 30
0.0
 10
4.7808339329
 20
2.5319127838
 30
0.0
 10
4.7818207012
 20
2.5323459772
 30
0.0
 10
4.7826197459
 20
2.532791337
 30
0.0
 10
4.7832320431
 20
2.5332494008
 30
0.0
 10
4.7836593236
 20
2.5337243376
 30
0.0
 10
4.7838947819
 20
2.5342277704
 30
0.0
 10
4.7839111706
 20
2.5347551671
 30
0.0
 10
4.7837069868
 20
2.5352739653
 30
0.0
 10
4.7833100973
 20
2.5357782252
 30
0.0
 10
4.7827285054
 20
2.5362794538
 30
0.0
 10
4.7819614733
 20
2.5367817346
 30
0.0
 10
4.7810084343
 20
2.5372859147
 30
0.0
 10
4.7803011665
 20
2.537599691
 30
0.0
 10
4.7799179784
 20
2.5377584827
 30
0.0
  0
SPLINE
  5
501
100
AcDbEntity
  8
0
100
AcDbSpline
 62
7
  6
CONTINUOUS
 70
0
 71
3
 72
19
 73
15
 74
0
 42
0.0000001
 43
0.0000001
 44
0.0000000001
 40
0.0
 40
0.0
 40
0.0
 40
0.0
 40
0.0289053476
 40
0.0642701739
 40
0.1058883935
 40
0.1534838335
 40
0.2066555867
 40
0.2649645543
 40
0.3279453605
 40
0.3950159268
 40
0.5389119581
 40
0.6915412243
 40
0.847539841
 40
1.0
 40
1.0
 40
1.0
 40
1.0
 10
4.7799179784
 20
2.5377584827
 30
0.0
 10
4.7790025127
 20
2.5381378481
 30
0.0
 10
4.7769194911
 20
2.538865776
 30
0.0
 10
4.7734222936
 20
2.5398434801
 30
0.0
 10
4.7692597691
 20
2.5408051483
 30
0.0
 10
4.7644680213
 20
2.5417398008
 30
0.0
 10
4.7590885603
 20
2.5426392138
 30
0.0
 10
4.7531685415
 20
2.5434942281
 30
0.0
 10
4.7467605498
 20
2.544295305
 30
0.0
 10
4.7374230348
 20
2.545305814
 30
0.0
 10
4.7250012605
 20
2.5463652801
 30
0.0
 10
4.7095137369
 20
2.5472913369
 30
0.0
 10
4.6937162088
 20
2.5478821113
 30
0.0
 10
4.6831407198
 20
2.5480251328
 30
0.0
 10
4.6779139726
 20
2.548011685
 30
0.0
  0
SPLINE
  5
502
100
AcDbEntity
  8
0
100
AcDbSpline
 62
7
  6
CONTINUOUS
 70
0
 71
3
 72
18
 73
14
 74
0
 42
0.0000001
 43
0.0000001
 44
0.0000000001
 40
0.0
 40
0.0
 40
0.0
 40
0.0
 40
0.0443715842
 40
0.0948958673
 40
0.151112556
 40
0.2123270173
 40
0.3459337222
 40
0.4883325627
 40
0.63226405
 40
0.7701485647
 40
0.8948848762
 40
0.9502735721
 40
1.0
 40
1.0
 40
1.0
 40
1.0
 10
5.7711667767
 20
2.548011685
 30
0.0
 10
5.7692108714
 20
2.5480089881
 30
0.0
 10
5.7650278816
 20
2.54795161
 30
0.0
 10
5.7583699022
 20
2.5477402551
 30
0.0
 10
5.7509743691
 20
2.5473910845
 30
0.0
 10
5.7399283729
 20
2.5467257412
 30
0.0
 10
5.7251057083
 20
2.5455954153
 30
0.0
 10
5.7066741421
 20
2.5438749514
 30
0.0
 10
5.6880860955
 20
2.5418286502
 30
0.0
 10
5.670306339
 20
2.5395778246
 30
0.0
 10
5.656433446
 20
2.5375577464
 30
0.0
 10
5.6464367305
 20
2.5359066154
 30
0.0
 10
5.6418769176
 20
2.5350820179
 30
0.0
 10
5.6397240184
 20
2.5346701105
 30
0.0
  0
LINE
  5
503
100
AcDbEntity
  8
0
100
AcDbLine
 62
7
  6
CONTINUOUS
 10
5.6397240184
 20
2.5346701105
 11
5.6289096191
 21
2.5323339509
  0
SPLINE
  5
504
100
AcDbEntity
  8
0
100
AcDbSpline
 62
7
  6
CONTINUOUS
 70
0
 71
3
 72
29
 73
25
 74
0
 42
0.0000001
 43
0.0000001
 44
0.0000000001
 40
0.0
 40
0.0
 40
0.0
 40
0.0
 40
0.0953395813
 40
0.1772676888
 40
0.2456224433
 40
0.3005316234
 40
0.3230580384
 40
0.3424026572
 40
0.3587139936
 40
0.3722484923
 40
0.3834641522
 40
0.3931643362
 40
0.4025610271
 40
0.4129798888
 40
0.4254266668
 40
0.4405085471
 40
0.4585704432
 40
0.4798139485
 40
0.5322840586
 40
0.5985204391
 40
0.6787848016
 40
0.7728499692
 40
0.8801313088
 40
1.0
 40
1.0
 40
1.0
 40
1.0
 10
5.779581066
 20
2.5432790816
 30
0.0
 10
5.7801201538
 20
2.5434308209
 30
0.0
 10
5.7811192165
 20
2.5437248803
 30
0.0
 10
5.7824892857
 20
2.5441785972
 30
0.0
 10
5.7836148547
 20
2.5446109201
 30
0.0
 10
5.7843932612
 20
2.5449711988
 30
0.0
 10
5.7848865966
 20
2.5452544913
 30
0.0
 10
5.7851696622
 20
2.5454467682
 30
0.0
 10
5.7853913178
 20
2.5456332279
 30
0.0
 10
5.7855519915
 20
2.5458147293
 30
0.0
 10
5.7856516781
 20
2.5459934744
 30
0.0
 10
5.7856857712
 20
2.5461724581
 30
0.0
 10
5.785647005
 20
2.5463462109
 30
0.0
 10
5.7855398396
 20
2.5465063307
 30
0.0
 10
5.7853712718
 20
2.5466545816
 30
0.0
 10
5.7851417305
 20
2.5467942863
 30
0.0
 10
5.7848503736
 20
2.5469266367
 30
0.0
 10
5.7843416014
 20
2.547106361
 30
0.0
 10
5.783541488
 20
2.5473021317
 30
0.0
 10
5.7823884453
 20
2.5474960216
 30
0.0
 10
5.7809842638
 20
2.5476590699
 30
0.0
 10
5.7793351399
 20
2.5477914682
 30
0.0
 10
5.7774508657
 20
2.5478933142
 30
0.0
 10
5.7761172423
 20
2.5479384461
 30
0.0
 10
5.7754133599
 20
2.5479568606
 30
0.0
  0
LINE
  5
505
100
AcDbEntity
  8
0
100
AcDbLine
 62
7
  6
CONTINUOUS
 10
5.7754133599
 20
2.5479568606
 11
5.7711667767
 21
2.548011685
  0
SPLINE
  5
506
100
AcDbEntity
  8
0
100
AcDbSpline
 62
7
  6
CONTINUOUS
 70
0
 71
3
 72
13
 73
9
 74
0
 42
0.0000001
 43
0.0000001
 44
0.0000000001
 40
0.0
 40
0.0
 40
0.0
 40
0.0
 40
0.0689760363
 40
0.147975471
 40
0.2418097934
 40
0.3533189441
 40
0.6350173803
 40
1.0
 40
1.0
 40
1.0
 40
1.0
 10
5.6335031199
 20
2.5171421358
 30
0.0
 10
5.6335033029
 20
2.5172026729
 30
0.0
 10
5.6335283223
 20
2.5173329467
 30
0.0
 10
5.6336279356
 20
2.5175225541
 30
0.0
 10
5.6337869913
 20
2.5177164123
 30
0.0
 10
5.634103533
 20
2.518005162
 30
0.0
 10
5.634662534
 20
2.518371996
 30
0.0
 10
5.63516807
 20
2.5186308118
 30
0.0
 10
5.6354577039
 20
2.5187676456
 30
0.0
  0
SPLINE
  5
507
100
AcDbEntity
  8
0
100
AcDbSpline
 62
7
  6
CONTINUOUS
 70
0
 71
3
 72
24
 73
20
 74
0
 42
0.0000001
 43
0.0000001
 44
0.0000000001
 40
0.0
 40
0.0
 40
0.0
 40
0.0
 40
0.0115167717
 40
0.0256623256
 40
0.042376561
 40
0.0615815938
 40
0.1071189138
 40
0.1614368806
 40
0.2234075288
 40
0.2918386174
 40
0.3653498945
 40
0.4424587306
 40
0.521639263
 40
0.6012728457
 40
0.7553995912
 40
0.8266948946
 40
0.8920984023
 40
0.9502880303
 40
1.0
 40
1.0
 40
1.0
 40
1.0
 10
5.6354577039
 20
2.5187676456
 30
0.0
 10
5.6359049717
 20
2.5189789516
 30
0.0
 10
5.6369243148
 20
2.5194014139
 30
0.0
 10
5.6386416155
 20
2.5200058704
 30
0.0
 10
5.6406961656
 20
2.5206421896
 30
0.0
 10
5.6440666295
 20
2.5215820685
 30
0.0
 10
5.6490378943
 20
2.52278706
 30
0.0
 10
5.6558374141
 20
2.5242317271
 30
0.0
 10
5.6636321335
 20
2.5257152237
 30
0.0
 10
5.672263544
 20
2.5272039282
 30
0.0
 10
5.6815579107
 20
2.5286682997
 30
0.0
 10
5.6913274214
 20
2.5300779502
 30
0.0
 10
5.7013741558
 20
2.531402485
 30
0.0
 10
5.7147202307
 20
2.5330026923
 30
0.0
 10
5.7277568937
 20
2.5343346837
 30
0.0
 10
5.7402079272
 20
2.5353450962
 30
0.0
 10
5.7485617458
 20
2.5358867378
 30
0.0
 10
5.7559983848
 20
2.5362242638
 30
0.0
 10
5.7606330119
 20
2.5363163945
 30
0.0
 10
5.7627682486
 20
2.5363159783
 30
0.0
  0
SPLINE
  5
508
100
AcDbEntity
  8
0
100
AcDbSpline
 62
7
  6
CONTINUOUS
 70
0
 71
3
 72
30
 73
26
 74
0
 42
0.0000001
 43
0.0000001
 44
0.0000000001
 40
0.0
 40
0.0
 40
0.0
 40
0.0
 40
0.002411033
 40
0.0051164254
 40
0.0082725153
 40
0.0119749014
 40
0.0162796391
 40
0.0212194618
 40
0.0330688077
 40
0.0475999066
 40
0.0648213701
 40
0.0846792497
 40
0.107081462
 40
0.1319273345
 40
0.1591114379
 40
0.220018076
 40
0.2886050062
 40
0.3635389428
 40
0.44338401
 40
0.5265240846
 40
0.611313663
 40
0.6960339693
 40
0.8582727348
 40
0.9324878555
 40
1.0
 40
1.0
 40
1.0
 40
1.0
 10
5.4872573192
 20
2.5188402185
 30
0.0
 10
5.4872573984
 20
2.518936883
 30
0.0
 10
5.4872930848
 20
2.5191428397
 30
0.0
 10
5.4874402958
 20
2.5194434346
 30
0.0
 10
5.4876767852
 20
2.5197477004
 30
0.0
 10
5.4880013268
 20
2.520057545
 30
0.0
 10
5.4884136327
 20
2.5203741041
 30
0.0
 10
5.4891245465
 20
2.5208334363
 30
0.0
 10
5.4902421325
 20
2.5214113447
 30
0.0
 10
5.4918523686
 20
2.5220940152
 30
0.0
 10
5.493799436
 20
2.5227968464
 30
0.0
 10
5.4960734493
 20
2.5235166145
 30
0.0
 10
5.4986625404
 20
2.5242494161
 30
0.0
 10
5.5015533095
 20
2.5249912064
 30
0.0
 10
5.5059615521
 20
2.5260264972
 30
0.0
 10
5.5121142468
 20
2.5272980679
 30
0.0
 10
5.5201813279
 20
2.5287498793
 30
0.0
 10
5.5290275575
 20
2.5301473993
 30
0.0
 10
5.5384760588
 20
2.5314602835
 30
0.0
 10
5.548337268
 20
2.5326636333
 30
0.0
 10
5.5584109226
 20
2.5337294052
 30
0.0
 10
5.5716583727
 20
2.5349211956
 30
0.0
 10
5.5845098609
 20
2.535776442
 30
0.0
 10
5.5966887739
 20
2.5362326417
 30
0.0
 10
5.602371138
 20
2.5363163578
 30
0.0
 10
5.6050778764
 20
2.5363159577
 30
0.0
  0
SPLINE
  5
509
100
AcDbEntity
  8
0
100
AcDbSpline
 62
7
  6
CONTINUOUS
 70
0
 71
3
 72
25
 73
21
 74
0
 42
0.0000001
 43
0.0000001
 44
0.0000000001
 40
0.0
 40
0.0
 40
0.0
 40
0.0
 40
0.1877890261
 40
0.3695311153
 40
0.4558725169
 40
0.5380622152
 40
0.6152667148
 40
0.6867098653
 40
0.7517824169
 40
0.8099199916
 40
0.8605900918
 40
0.9034414601
 40
0.9218922356
 40
0.9383511491
 40
0.9528336139
 40
0.9653838865
 40
0.9760989019
 40
0.9851790735
 40
0.9929673906
 40
1.0
 40
1.0
 40
1.0
 40
1.0
 10
4.9155243075
 20
2.5363169014
 30
0.0
 10
4.9202928443
 20
2.536317035
 30
0.0
 10
4.9296768882
 20
2.5361766933
 30
0.0
 10
4.9412432543
 20
2.5356555574
 30
0.0
 10
4.950115865
 20
2.5350258696
 30
0.0
 10
4.9563314351
 20
2.5344700897
 30
0.0
 10
4.9621583612
 20
2.5338285798
 30
0.0
 10
4.9675377446
 20
2.5331066696
 30
0.0
 10
4.97241732
 20
2.5323139009
 30
0.0
 10
4.9767504743
 20
2.5314600836
 30
0.0
 10
4.980494541
 20
2.5305530559
 30
0.0
 10
4.9832176603
 20
2.5297256102
 30
0.0
 10
4.9850662219
 20
2.5290295002
 30
0.0
 10
4.9862158697
 20
2.5285263444
 30
0.0
 10
4.9871969715
 20
2.5280170601
 30
0.0
 10
4.9880075416
 20
2.5275024523
 30
0.0
 10
4.9886462528
 20
2.5269820237
 30
0.0
 10
4.9891128691
 20
2.5264539055
 30
0.0
 10
4.989405152
 20
2.5259142389
 30
0.0
 10
4.9894770684
 20
2.5255366237
 30
0.0
 10
4.9894791777
 20
2.5253580567
 30
0.0
  0
SPLINE
  5
50A
100
AcDbEntity
  8
0
100
AcDbSpline
 62
7
  6
CONTINUOUS
 70
0
 71
3
 72
17
 73
13
 74
0
 42
0.0000001
 43
0.0000001
 44
0.0000000001
 40
0.0
 40
0.0
 40
0.0
 40
0.0
 40
0.018272688
 40
0.04458025
 40
0.0780109428
 40
0.1175320075
 40
0.2099959009
 40
0.3184746459
 40
0.4532939864
 40
0.6151485887
 40
0.8000557489
 40
1.0
 40
1.0
 40
1.0
 40
1.0
 10
4.9150800406
 20
2.5480133869
 30
0.0
 10
4.9151015068
 20
2.5479453364
 30
0.0
 10
4.9151366526
 20
2.5477742605
 30
0.0
 10
4.9151804812
 20
2.5474729197
 30
0.0
 10
4.9152221771
 20
2.5470874171
 30
0.0
 10
4.9152775952
 20
2.5464438485
 30
0.0
 10
4.9153362242
 20
2.5455065299
 30
0.0
 10
4.9153961574
 20
2.5441967138
 30
0.0
 10
4.9154482292
 20
2.5426153818
 30
0.0
 10
4.9154903521
 20
2.5407352243
 30
0.0
 10
4.9155181093
 20
2.5386004576
 30
0.0
 10
4.9155245968
 20
2.5370975823
 30
0.0
 10
4.9155245861
 20
2.5363167885
 30
0.0
  0
LINE
  5
50B
100
AcDbEntity
  8
0
100
AcDbLine
 62
7
  6
CONTINUOUS
 10
5.7752093112
 20
2.5247904009
 11
5.7767240128
 21
2.5250380306
  0
SPLINE
  5
50C
100
AcDbEntity
  8
0
100
AcDbSpline
 62
7
  6
CONTINUOUS
 70
0
 71
3
 72
17
 73
13
 74
0
 42
0.0000001
 43
0.0000001
 44
0.0000000001
 40
0.0
 40
0.0
 40
0.0
 40
0.0
 40
0.1435387041
 40
0.2937809342
 40
0.4446054431
 40
0.5897802308
 40
0.7232138877
 40
0.8392256887
 40
0.8891036227
 40
0.9328218975
 40
0.9699150163
 40
1.0
 40
1.0
 40
1.0
 40
1.0
 10
5.7767240128
 20
2.5250380306
 30
0.0
 10
5.7812882682
 20
2.5257808207
 30
0.0
 10
5.7906396944
 20
2.5272414957
 30
0.0
 10
5.8048147057
 20
2.5293008835
 30
0.0
 10
5.819062297
 20
2.5312221965
 30
0.0
 10
5.832792104
 20
2.5329257791
 30
0.0
 10
5.8454267776
 20
2.5343397332
 30
0.0
 10
5.8550253708
 20
2.5352717467
 30
0.0
 10
5.8617566031
 20
2.5358130114
 30
0.0
 10
5.8659578033
 20
2.536093301
 30
0.0
 10
5.8695264493
 20
2.5362666399
 30
0.0
 10
5.8716906187
 20
2.5363167728
 30
0.0
 10
5.8726598489
 20
2.5363167733
 30
0.0
  0
SPLINE
  5
50D
100
AcDbEntity
  8
0
100
AcDbSpline
 62
7
  6
CONTINUOUS
 70
0
 71
3
 72
22
 73
18
 74
0
 42
0.0000001
 43
0.0000001
 44
0.0000000001
 40
0.0
 40
0.0
 40
0.0
 40
0.0
 40
0.1667063039
 40
0.3359962454
 40
0.4996910664
 40
0.6500012286
 40
0.717924826
 40
0.7799669583
 40
0.83545115
 40
0.8838037997
 40
0.9245306611
 40
0.9419515986
 40
0.9573876217
 40
0.9708415765
 40
0.9823458792
 40
0.9919991735
 40
1.0
 40
1.0
 40
1.0
 40
1.0
 10
4.6808069006
 20
2.5363166997
 30
0.0
 10
4.6859439921
 20
2.5363167223
 30
0.0
 10
4.6962983796
 20
2.5361373656
 30
0.0
 10
4.7116808867
 20
2.535394162
 30
0.0
 10
4.7265288432
 20
2.5342072749
 30
0.0
 10
4.7382242843
 20
2.5328610673
 30
0.0
 10
4.7467667458
 20
2.5315829838
 30
0.0
 10
4.7523952612
 20
2.5305900127
 30
0.0
 10
4.7573996707
 20
2.5295431466
 30
0.0
 10
4.7617213151
 20
2.5284571035
 30
0.0
 10
4.764859389
 20
2.5274867053
 30
0.0
 10
4.7669804839
 20
2.5266830718
 30
0.0
 10
4.768288436
 20
2.5261103138
 30
0.0
 10
4.7693948906
 20
2.5255377298
 30
0.0
 10
4.7702974838
 20
2.5249657496
 30
0.0
 10
4.7709950227
 20
2.5243955738
 30
0.0
 10
4.7713536158
 20
2.5239796387
 30
0.0
 10
4.7714872439
 20
2.5237724453
 30
0.0
  0
LINE
  5
50E
100
AcDbEntity
  8
0
100
AcDbLine
 62
7
  6
CONTINUOUS
 10
4.7714872439
 20
2.5237724453
 11
4.7718005412
 21
2.5228142684
  0
SPLINE
  5
50F
100
AcDbEntity
  8
0
100
AcDbSpline
 62
7
  6
CONTINUOUS
 70
0
 71
3
 72
16
 73
12
 74
0
 42
0.0000001
 43
0.0000001
 44
0.0000000001
 40
0.0
 40
0.0
 40
0.0
 40
0.0
 40
0.0649052853
 40
0.1038210458
 40
0.1467696979
 40
0.2417779121
 40
0.3490953433
 40
0.4797680972
 40
0.6347334962
 40
0.810526233
 40
1.0
 40
1.0
 40
1.0
 40
1.0
 10
4.6779140528
 20
2.5480133869
 30
0.0
 10
4.6781546256
 20
2.5478962588
 30
0.0
 10
4.6784800999
 20
2.5475934901
 30
0.0
 10
4.678830662
 20
2.5471021503
 30
0.0
 10
4.6791895785
 20
2.5464652431
 30
0.0
 10
4.679575419
 20
2.5455276432
 30
0.0
 10
4.6799686978
 20
2.5442108741
 30
0.0
 10
4.680309595
 20
2.5426257034
 30
0.0
 10
4.6805847833
 20
2.5407422018
 30
0.0
 10
4.6807660823
 20
2.5386040618
 30
0.0
 10
4.6808084359
 20
2.5370978914
 30
0.0
 10
4.680808348
 20
2.5363167885
 30
0.0
  0
SPLINE
  5
510
100
AcDbEntity
  8
0
100
AcDbSpline
 62
7
  6
CONTINUOUS
 70
0
 71
3
 72
26
 73
22
 74
0
 42
0.0000001
 43
0.0000001
 44
0.0000000001
 40
0.0
 40
0.0
 40
0.0
 40
0.0
 40
0.0757677157
 40
0.1558354229
 40
0.3234765202
 40
0.4916615992
 40
0.5724256371
 40
0.649198409
 40
0.7207012385
 40
0.7858386841
 40
0.8435904599
 40
0.8930393165
 40
0.9144499003
 40
0.9335601437
 40
0.9503131644
 40
0.9646706578
 40
0.9766522688
 40
0.9863499763
 40
0.9904057381
 40
0.9939864245
 40
1.0
 40
1.0
 40
1.0
 40
1.0
 10
4.4625636411
 20
2.5363169014
 30
0.0
 10
4.4653205708
 20
2.536316991
 30
0.0
 10
4.4709910185
 20
2.5362510612
 30
0.0
 10
4.4827561067
 20
2.5358854358
 30
0.0
 10
4.4978666796
 20
2.5350076887
 30
0.0
 10
4.512966557
 20
2.5336448594
 30
0.0
 10
4.524738966
 20
2.5322694867
 30
0.0
 10
4.5329977174
 20
2.5311480908
 30
0.0
 10
4.5406691804
 20
2.5299398864
 30
0.0
 10
4.5476280769
 20
2.5286680134
 30
0.0
 10
4.5537609935
 20
2.5273554019
 30
0.0
 10
4.558297101
 20
2.5261965746
 30
0.0
 10
4.5614310568
 20
2.5252485862
 30
0.0
 10
4.563403992
 20
2.5245756415
 30
0.0
 10
4.5651063464
 20
2.5239094049
 30
0.0
 10
4.5665314496
 20
2.5232521834
 30
0.0
 10
4.567674537
 20
2.5226064777
 30
0.0
 10
4.5684335582
 20
2.5220511361
 30
0.0
 10
4.5688822277
 20
2.5216052575
 30
0.0
 10
4.569188785
 20
2.5212147628
 30
0.0
 10
4.5693414343
 20
2.5208871612
 30
0.0
 10
4.5693794494
 20
2.5206716751
 30
0.0
  0
LINE
  5
511
100
AcDbEntity
  8
0
100
AcDbLine
 62
7
  6
CONTINUOUS
 10
4.5693794494
 20
2.5206716751
 11
4.5693978366
 21
2.5204663224
  0
SPLINE
  5
512
100
AcDbEntity
  8
0
100
AcDbSpline
 62
7
  6
CONTINUOUS
 70
0
 71
3
 72
15
 73
11
 74
0
 42
0.0000001
 43
0.0000001
 44
0.0000000001
 40
0.0
 40
0.0
 40
0.0
 40
0.0
 40
0.0900432822
 40
0.1859016106
 40
0.2864697194
 40
0.3935028745
 40
0.5190160565
 40
0.6642042573
 40
0.8264204406
 40
1.0
 40
1.0
 40
1.0
 40
1.0
 10
4.4573944364
 20
2.5480148374
 30
0.0
 10
4.4577855606
 20
2.5479078747
 30
0.0
 10
4.4585542849
 20
2.5475339812
 30
0.0
 10
4.4595201377
 20
2.5466628776
 30
0.0
 10
4.4603412965
 20
2.5455624424
 30
0.0
 10
4.4610524371
 20
2.5442368544
 30
0.0
 10
4.4616667143
 20
2.5426464109
 30
0.0
 10
4.4621617829
 20
2.5407567711
 30
0.0
 10
4.4624878396
 20
2.5386117978
 30
0.0
 10
4.4625640342
 20
2.5370984612
 30
0.0
 10
4.4625638463
 20
2.5363167912
 30
0.0
  0
LINE
  5
513
100
AcDbEntity
  8
0
100
AcDbLine
 62
7
  6
CONTINUOUS
 10
4.0172453778
 20
2.5363167825
 11
4.019191902
 21
2.5362753841
  0
SPLINE
  5
514
100
AcDbEntity
  8
0
100
AcDbSpline
 62
7
  6
CONTINUOUS
 70
0
 71
3
 72
34
 73
30
 74
0
 42
0.0000001
 43
0.0000001
 44
0.0000000001
 40
0.0
 40
0.0
 40
0.0
 40
0.0
 40
0.0174602092
 40
0.0384450687
 40
0.0903198224
 40
0.1540274269
 40
0.2276007613
 40
0.3087919851
 40
0.3951536556
 40
0.4841086915
 40
0.5730034049
 40
0.6592027745
 40
0.7401411518
 40
0.7778800966
 40
0.8134124595
 40
0.8464816355
 40
0.8768364405
 40
0.9042480227
 40
0.9285119718
 40
0.9494373731
 40
0.9668706291
 40
0.980676657
 40
0.9861909747
 40
0.9907686937
 40
0.9944069389
 40
0.9971155171
 40
0.9981314917
 40
0.9989340306
 40
1.0
 40
1.0
 40
1.0
 40
1.0
 10
4.019191902
 20
2.5362753841
 30
0.0
 10
4.0200002605
 20
2.5362451219
 30
0.0
 10
4.0217791661
 20
2.5361522141
 30
0.0
 10
4.0259535337
 20
2.5358597786
 30
0.0
 10
4.0322556109
 20
2.5352915671
 30
0.0
 10
4.0409711456
 20
2.5343744335
 30
0.0
 10
4.0510251071
 20
2.5332034947
 30
0.0
 10
4.0621098187
 20
2.5318145354
 30
0.0
 10
4.0738902421
 20
2.5302488212
 30
0.0
 10
4.0860131534
 20
2.52855332
 30
0.0
 10
4.098117117
 20
2.5267785503
 30
0.0
 10
4.1098416195
 20
2.5249778393
 30
0.0
 10
4.1192125796
 20
2.5234669789
 30
0.0
 10
4.1262581952
 20
2.5222824268
 30
0.0
 10
4.1311126211
 20
2.5214414257
 30
0.0
 10
4.1356255053
 20
2.5206334816
 30
0.0
 10
4.1397630783
 20
2.5198645734
 30
0.0
 10
4.1434939684
 20
2.5191405952
 30
0.0
 10
4.1467895357
 20
2.5184673451
 30
0.0
 10
4.1496245637
 20
2.5178502554
 30
0.0
 10
4.1519766648
 20
2.5172944553
 30
0.0
 10
4.1536237222
 20
2.5168607647
 30
0.0
 10
4.1546837627
 20
2.5165405997
 30
0.0
 10
4.1552866588
 20
2.5163373741
 30
0.0
 10
4.1557582042
 20
2.5161523232
 30
0.0
 10
4.1560660233
 20
2.5160050295
 30
0.0
 10
4.1562434574
 20
2.5158903166
 30
0.0
 10
4.1563446569
 20
2.5158068853
 30
0.0
 10
4.1564012084
 20
2.5157272642
 30
0.0
 10
4.1564012143
 20
2.5156778782
 30
0.0
  0
SPLINE
  5
515
100
AcDbEntity
  8
0
100
AcDbSpline
 62
7
  6
CONTINUOUS
 70
0
 71
3
 72
15
 73
11
 74
0
 42
0.0000001
 43
0.0000001
 44
0.0000000001
 40
0.0
 40
0.0
 40
0.0
 40
0.0
 40
0.1296860883
 40
0.252390475
 40
0.3666989781
 40
0.4766036331
 40
0.5949686901
 40
0.7226903923
 40
0.858459053
 40
1.0
 40
1.0
 40
1.0
 40
1.0
 10
4.007430345
 20
2.5480133869
 30
0.0
 10
4.0081417795
 20
2.5479112974
 30
0.0
 10
4.0095107963
 20
2.5475759942
 30
0.0
 10
4.0113671187
 20
2.546722735
 30
0.0
 10
4.0129556371
 20
2.5456235709
 30
0.0
 10
4.0143261234
 20
2.5442983558
 30
0.0
 10
4.0155089832
 20
2.5427079073
 30
0.0
 10
4.0164671529
 20
2.5408082436
 30
0.0
 10
4.0171012127
 20
2.5386421597
 30
0.0
 10
4.0172505182
 20
2.5371012103
 30
0.0
 10
4.0172502089
 20
2.5363167885
 30
0.0
  0
SPLINE
  5
516
100
AcDbEntity
  8
0
100
AcDbSpline
 62
7
  6
CONTINUOUS
 70
0
 71
3
 72
15
 73
11
 74
0
 42
0.0000001
 43
0.0000001
 44
0.0000000001
 40
0.0
 40
0.0
 40
0.0
 40
0.0
 40
0.1480235276
 40
0.2882185983
 40
0.4209055346
 40
0.5466337115
 40
0.6661991983
 40
0.7806887359
 40
0.8914344481
 40
1.0
 40
1.0
 40
1.0
 40
1.0
 10
5.7360780715
 20
2.476314934
 30
0.0
 10
5.741148413
 20
2.4693878377
 30
0.0
 10
5.7515111424
 20
2.4562476172
 30
0.0
 10
5.7681757342
 20
2.4383704869
 30
0.0
 10
5.7854521871
 20
2.4229560863
 30
0.0
 10
5.8032518357
 20
2.4100886862
 30
0.0
 10
5.8214908055
 20
2.3998525045
 30
0.0
 10
5.840070714
 20
2.3923047266
 30
0.0
 10
5.8588886717
 20
2.3875101184
 30
0.0
 10
5.8715901024
 20
2.3861679665
 30
0.0
 10
5.8778831249
 20
2.3859698083
 30
0.0
  0
LINE
  5
517
100
AcDbEntity
  8
0
100
AcDbLine
 62
7
  6
CONTINUOUS
 10
3.9820691051
 20
2.5363169014
 11
4.0146191526
 21
2.5317099997
  0
ELLIPSE
  5
518
100
AcDbEntity
  8
ALL_FEATURES
100
AcDbEllipse
 62
7
  6
CONTINUOUS
 10
4.958113354
 20
5.4509110359
 30
0.0
 11
0.4525
 21
0.0
 31
0.0
 40
1.0
 41
7.5749622205
 42
8.1330010474
  0
ELLIPSE
  5
519
100
AcDbEntity
  8
0
100
AcDbEllipse
 62
7
  6
CONTINUOUS
 10
2.893113354
 20
2.8103912069
 30
0.0
 11
0.0774596669
 21
-0.0626280198
 31
0.0
 40
0.5588552877
 41
-2.6343512294
 42
-0.6564492919
  0
ELLIPSE
  5
51A
100
AcDbEntity
  8
0
100
AcDbEllipse
 62
7
  6
CONTINUOUS
 10
7.023113354
 20
2.8103912069
 30
0.0
 11
0.0774596669
 21
0.0626280198
 31
0.0
 40
0.5588552877
 41
-2.4851433616
 42
-0.5072414241
  0
ENDSEC
  0
SECTION
  2
OBJECTS
  0
DICTIONARY
  5
C
100
AcDbDictionary
280
0
281
1
  3
ACAD_GROUP
350
D
  3
ACAD_MLINESTYLE
350
17
  3
ACAD_LAYOUT
350
1A
  3
ACAD_PLOTSETTINGS
350
19
  3
ACAD_PLOTSTYLENAME
350
E
  0
DICTIONARY
  5
D
102
{ACAD_REACTORS
330
C
102
}
100
AcDbDictionary
280
0
281
1
  0
ACDBDICTIONARYWDFLT
  5
E
102
{ACAD_REACTORS
330
C
102
}
100
AcDbDictionary
281
1
  3
Normal
350
F
100
AcDbDictionaryWithDefault
340
F
  0
DICTIONARY
  5
17
102
{ACAD_REACTORS
330
C
102
}
100
AcDbDictionary
280
0
281
1
  3
Standard
350
18
  0
DICTIONARY
  5
19
102
{ACAD_REACTORS
330
C
102
}
100
AcDbDictionary
281
1
  0
DICTIONARY
  5
1A
102
{ACAD_REACTORS
330
C
102
}
100
AcDbDictionary
281
1
  3
Model
350
51B
  3
Layout1
350
51C
  0
ACDBPLACEHOLDER
  5
F
102
{ACAD_REACTORS
330
E
102
}
  0
MLINESTYLE
  5
18
102
{ACAD_REACTORS
330
17
102
}
100
AcDbMlineStyle
  2
STANDARD
 70
0
  3

 62
256
 51
90.0
 52
90.0
 71
2
 49
0.5
 62
256
  6
BYLAYER
 49
-0.5
 62
256
  6
BYLAYER
  0
LAYOUT
  5
51B
102
{ACAD_REACTORS
330
1A
102
}
100
AcDbPlotSettings
  1

  2
none_device
  4
ANSI_A_(11.00_x_8.50_Inches)
  6

 40
0.0
 41
0.0
 42
0.0
 43
0.0
 44
279.4
 45
215.9
 46
0.0
 47
0.0
 48
0.0
 49
0.0
140
0.0
141
0.0
142
1.0
143
1.0
 70
1024
 72
0
 73
0
 74
0
  7

 75
0
147
1.0
148
0.0
149
0.0
100
AcDbLayout
  1
Model
 70
0
 71
0
 10
0.0
 20
0.0
 11
11.0
 21
8.5
 12
0.0
 22
0.0
 32
0.0
 14
0.0
 24
0.0
 34
0.0
 15
0.0
 25
0.0
 35
0.0
146
0.0
 13
0.0
 23
0.0
 33
0.0
 16
1.0
 26
0.0
 36
0.0
 17
0.0
 27
1.0
 37
0.0
 76
0
330
243
345
0
346
0
  0
LAYOUT
  5
51C
102
{ACAD_REACTORS
330
1A
102
}
100
AcDbPlotSettings
  1

  2
none_device
  4
ANSI_A_(11.00_x_8.50_Inches)
  6

 40
0.0
 41
0.0
 42
0.0
 43
0.0
 44
279.4
 45
215.9
 46
0.0
 47
0.0
 48
0.0
 49
0.0
140
0.0
141
0.0
142
1.0
143
1.0
 70
0
 72
0
 73
0
 74
0
  7

 75
0
147
1.0
148
0.0
149
0.0
100
AcDbLayout
  1
Layout1
 70
0
 71
1
 10
0.0
 20
0.0
 11
11.0
 21
8.5
 12
0.0
 22
0.0
 32
0.0
 14
0.0
 24
0.0
 34
0.0
 15
0.0
 25
0.0
 35
0.0
146
0.0
 13
0.0
 23
0.0
 33
0.0
 16
1.0
 26
0.0
 36
0.0
 17
0.0
 27
1.0
 37
0.0
 76
0
330
244
345
0
346
0
  0
ENDSEC
  0
EOF
