999
DXF file: 2157_front.dxf
999
Pro/ENGINEER 2018400 by Parametric Technology Corporation
  0
SECTION
  2
HEADER
  9
$ACADVER
  1
AC1027
  9
$DWGCODEPAGE
  3
ANSI_1252
  9
$EXTMAX
 10
11.0
 20
8.5
 30
0.0
  9
$EXTMIN
 10
0.0
 20
0.0
 30
0.0
  9
$LIMMIN
 10
0.0
 20
0.0
  9
$LIMMAX
 10
11.0
 20
8.5
  9
$VIEWCTR
 10
5.5
 20
4.25
  9
$VIEWSIZE
 40
8.5
  9
$CLAYER
  8
0
  9
$LTSCALE
 40
0.605
  9
$CELTYPE
  6
BYLAYER
  9
$DIMSCALE
 40
1.0
  9
$DIMASZ
 40
0.1
  9
$DIMEXO
 40
0.0625
  9
$DIMDLI
 40
0.418
  9
$DIMEXE
 40
0.125
  9
$DIMCEN
 40
0.099
  9
$DIMLFAC
 40
1.0
  9
$DIMBLK
  1
_FILLED
  9
$DIMALT
 70
1
  9
$DIMALTD
 70
1
  9
$DIMALTTD
 70
2
  9
$DIMALTF
 40
25.4
  9
$DIMTXT
 40
0.08
  9
$DIMTOL
 70
1
  9
$DIMLIM
 70
0
  9
$DIMTFAC
 40
1.0
  9
$DIMTP
 40
0.01
  9
$DIMTM
 40
0.01
  9
$DIMGAP
 40
0.09
  9
$DIMDSEP
 70
46
  9
$AUNITS
 70
0
  9
$PDMODE
 70
3
  9
$PDSIZE
 40
0.3125
  9
$HANDSEED
  5
42C
  9
$TILEMODE
 70
1
  9
$MEASUREMENT
 70
0
  9
$INSUNITS
 70
1
  0
ENDSEC
  0
SECTION
  2
CLASSES
  0
CLASS
  1
ACDBDICTIONARYWDFLT
  2
AcDbDictionaryWithDefault
  3
AutoCAD 2000
 90
0
 91
1
280
0
281
0
  0
CLASS
  1
ACDBPLACEHOLDER
  2
AcDbPlaceHolder
  3
AutoCAD 2000
 90
0
 91
1
280
0
281
0
  0
CLASS
  1
LAYOUT
  2
AcDbLayout
  3
AutoCAD 2000
 90
0
 91
0
280
0
281
0
  0
ENDSEC
  0
SECTION
  2
TABLES
  0
TABLE
  2
VPORT
  5
8
100
AcDbSymbolTable
 70
2
  0
VPORT
  5
1F4
100
AcDbSymbolTableRecord
100
AcDbViewportTableRecord
  2
*ACTIVE
 70
0
 10
0.0
 20
0.0
 11
1.0
 21
1.0
 12
5.5
 22
4.25
 13
0.0
 23
0.0
 14
1.0
 24
1.0
 15
0.0
 25
0.0
 16
0.0
 26
0.0
 36
1.0
 17
0.0
 27
0.0
 37
0.0
 40
8.5
 41
1.2941176471
 42
50.0
 43
0.0
 44
0.0
 50
0.0
 51
0.0
 71
0
 72
100
 73
1
 74
1
 75
0
 76
0
 77
0
 78
0
  0
ENDTAB
  0
TABLE
  2
LTYPE
  5
5
100
AcDbSymbolTable
 70
6
  0
LTYPE
  5
14
100
AcDbSymbolTableRecord
100
AcDbLinetypeTableRecord
  2
BYBLOCK
 70
0
  3

 72
65
 73
0
 40
0.0
  0
LTYPE
  5
15
100
AcDbSymbolTableRecord
100
AcDbLinetypeTableRecord
  2
BYLAYER
 70
0
  3

 72
65
 73
0
 40
0.0
  0
LTYPE
  5
16
100
AcDbSymbolTableRecord
100
AcDbLinetypeTableRecord
  2
CONTINUOUS
 70
64
  3
Solid line
 72
65
 73
0
 40
0.0
  0
LTYPE
  5
1F5
100
AcDbSymbolTableRecord
100
AcDbLinetypeTableRecord
  2
CENTER
 70
64
  3
____ _ ____ _ ____ _ ____ _ ____ _ ____ _ ____
 72
65
 73
4
 40
0.6
 49
0.375
 74
0
 49
-0.075
 74
0
 49
0.075
 74
0
 49
-0.075
 74
0
  0
LTYPE
  5
1F6
100
AcDbSymbolTableRecord
100
AcDbLinetypeTableRecord
  2
HIDDEN
 70
64
  3
- - - - - - - - - - - - - - - - - - - -
 72
65
 73
2
 40
0.2
 49
0.1
 74
0
 49
-0.1
 74
0
  0
LTYPE
  5
1F7
100
AcDbSymbolTableRecord
100
AcDbLinetypeTableRecord
  2
PHANTOM
 70
64
  3
_____ _ _ _____ _ _ _____ _ _ _____
 72
65
 73
6
 40
0.8
 49
0.45
 74
0
 49
-0.05
 74
0
 49
0.1
 74
0
 49
-0.05
 74
0
 49
0.1
 74
0
 49
-0.05
 74
0
  0
LTYPE
  5
1F8
100
AcDbSymbolTableRecord
100
AcDbLinetypeTableRecord
  2
DOT
 70
64
  3
. . . . . . . . . . . . . . . . . . . .
 72
65
 73
2
 40
0.2
 49
0.1
 74
0
 49
-0.1
 74
0
  0
LTYPE
  5
1F9
100
AcDbSymbolTableRecord
100
AcDbLinetypeTableRecord
  2
DASHED
 70
64
  3
- - - - - - - - - - - - - - - - - - - -
 72
65
 73
2
 40
0.2
 49
0.1
 74
0
 49
-0.1
 74
0
  0
ENDTAB
  0
TABLE
  2
LAYER
  5
2
100
AcDbSymbolTable
 70
36
  0
LAYER
  5
10
100
AcDbSymbolTableRecord
100
AcDbLayerTableRecord
  2
0
 70
0
 62
7
  6
CONTINUOUS
370
-3
390
F
  0
LAYER
  5
1FA
100
AcDbSymbolTableRecord
100
AcDbLayerTableRecord
  2
DEFAULT_1
 70
0
 62
7
  6
CENTER
370
-3
390
F
  0
LAYER
  5
1FB
100
AcDbSymbolTableRecord
100
AcDbLayerTableRecord
  2
DEFAULT_2
 70
0
 62
8
  6
HIDDEN
370
-3
390
F
  0
LAYER
  5
1FC
100
AcDbSymbolTableRecord
100
AcDbLayerTableRecord
  2
DEFAULT_3
 70
0
 62
7
  6
PHANTOM
370
-3
390
F
  0
LAYER
  5
1FD
100
AcDbSymbolTableRecord
100
AcDbLayerTableRecord
  2
ALL_FEATURES
 70
0
 62
7
  6
CONTINUOUS
370
-3
390
F
  0
LAYER
  5
1FE
100
AcDbSymbolTableRecord
100
AcDbLayerTableRecord
  2
AXES_FEATURES
 70
0
 62
7
  6
CONTINUOUS
370
-3
390
F
  0
LAYER
  5
1FF
100
AcDbSymbolTableRecord
100
AcDbLayerTableRecord
  2
CHAMFER_FEATURES
 70
0
 62
7
  6
CONTINUOUS
370
-3
390
F
  0
LAYER
  5
200
100
AcDbSymbolTableRecord
100
AcDbLayerTableRecord
  2
CUT_FEATURES
 70
0
 62
7
  6
CONTINUOUS
370
-3
390
F
  0
LAYER
  5
201
100
AcDbSymbolTableRecord
100
AcDbLayerTableRecord
  2
DATUM_CURVES
 70
0
 62
7
  6
CONTINUOUS
370
-3
390
F
  0
LAYER
  5
202
100
AcDbSymbolTableRecord
100
AcDbLayerTableRecord
  2
DATUM_PLANES
 70
0
 62
7
  6
CONTINUOUS
370
-3
390
F
  0
LAYER
  5
203
100
AcDbSymbolTableRecord
100
AcDbLayerTableRecord
  2
DATUM_POINTS
 70
0
 62
7
  6
CONTINUOUS
370
-3
390
F
  0
LAYER
  5
204
100
AcDbSymbolTableRecord
100
AcDbLayerTableRecord
  2
DEFAULT_COORDINATE_SYSTEM
 70
0
 62
7
  6
CONTINUOUS
370
-3
390
F
  0
LAYER
  5
205
100
AcDbSymbolTableRecord
100
AcDbLayerTableRecord
  2
DEFAULT_DATUM_AXES
 70
0
 62
7
  6
CONTINUOUS
370
-3
390
F
  0
LAYER
  5
206
100
AcDbSymbolTableRecord
100
AcDbLayerTableRecord
  2
DEFAULT_DATUM_CURVES
 70
0
 62
7
  6
CONTINUOUS
370
-3
390
F
  0
LAYER
  5
207
100
AcDbSymbolTableRecord
100
AcDbLayerTableRecord
  2
DEFAULT_DATUM_PLANES
 70
0
 62
7
  6
CONTINUOUS
370
-3
390
F
  0
LAYER
  5
208
100
AcDbSymbolTableRecord
100
AcDbLayerTableRecord
  2
DEFAULT_SURFACES
 70
0
 62
7
  6
CONTINUOUS
370
-3
390
F
  0
LAYER
  5
209
100
AcDbSymbolTableRecord
100
AcDbLayerTableRecord
  2
DIMENSIONS
 70
0
 62
7
  6
CONTINUOUS
370
-3
390
F
  0
LAYER
  5
20A
100
AcDbSymbolTableRecord
100
AcDbLayerTableRecord
  2
HOLE_FEATURES
 70
0
 62
7
  6
CONTINUOUS
370
-3
390
F
  0
LAYER
  5
20B
100
AcDbSymbolTableRecord
100
AcDbLayerTableRecord
  2
NOTES
 70
0
 62
7
  6
CONTINUOUS
370
-3
390
F
  0
LAYER
  5
20C
100
AcDbSymbolTableRecord
100
AcDbLayerTableRecord
  2
PART_REFERENCE_DIMENSIONS
 70
0
 62
7
  6
CONTINUOUS
370
-3
390
F
  0
LAYER
  5
20D
100
AcDbSymbolTableRecord
100
AcDbLayerTableRecord
  2
POINTS
 70
0
 62
7
  6
CONTINUOUS
370
-3
390
F
  0
LAYER
  5
20E
100
AcDbSymbolTableRecord
100
AcDbLayerTableRecord
  2
PROTRUSION_FEATURES
 70
0
 62
7
  6
CONTINUOUS
370
-3
390
F
  0
LAYER
  5
20F
100
AcDbSymbolTableRecord
100
AcDbLayerTableRecord
  2
REFERENCE_DIMENSIONS
 70
0
 62
7
  6
CONTINUOUS
370
-3
390
F
  0
LAYER
  5
210
100
AcDbSymbolTableRecord
100
AcDbLayerTableRecord
  2
ROUND_FEATURES
 70
0
 62
7
  6
CONTINUOUS
370
-3
390
F
  0
ENDTAB
  0
TABLE
  2
STYLE
  5
3
100
AcDbSymbolTable
 70
1
  0
STYLE
  5
11
100
AcDbSymbolTableRecord
100
AcDbTextStyleTableRecord
  2
STANDARD
 70
0
 40
0.0
 41
0.8
 50
0.0
 71
0
 42
0.2
  3
txt
  4

  0
STYLE
  5
211
100
AcDbSymbolTableRecord
100
AcDbTextStyleTableRecord
  2
TEXTSTYLE_1
 70
0
 40
0.0
 41
0.8
 50
0.0
 71
0
 42
0.2
  3
gdt
  4

  0
ENDTAB
  0
TABLE
  2
VIEW
  5
6
100
AcDbSymbolTable
 70
0
  0
ENDTAB
  0
TABLE
  2
UCS
  5
7
100
AcDbSymbolTable
 70
0
  0
ENDTAB
  0
TABLE
  2
APPID
  5
9
100
AcDbSymbolTable
 70
1
  0
APPID
  5
212
100
AcDbSymbolTableRecord
100
AcDbRegAppTableRecord
  2
ACAD
 70
0
  0
ENDTAB
  0
TABLE
  2
BLOCK_RECORD
  5
1
100
AcDbSymbolTable
 70
0
  0
BLOCK_RECORD
  5
213
100
AcDbSymbolTableRecord
100
AcDbBlockTableRecord
  2
*Model_Space
  0
BLOCK_RECORD
  5
214
100
AcDbSymbolTableRecord
100
AcDbBlockTableRecord
  2
*Paper_Space
  0
BLOCK_RECORD
  5
215
100
AcDbSymbolTableRecord
100
AcDbBlockTableRecord
  2
_FILLED
  0
ENDTAB
  0
TABLE
  2
DIMSTYLE
  5
A
100
AcDbSymbolTable
 70
1
100
AcDbDimStyleTable
 71
0
  0
DIMSTYLE
105
216
100
AcDbSymbolTableRecord
100
AcDbDimStyleTableRecord
  2
STANDARD
 70
0
  3

  4

 40
1.0
 41
0.1
 42
0.0625
 43
0.38
 44
0.125
 45
0.0
 46
0.0
 47
0.01
 48
0.01
140
0.08
141
0.09
142
0.0
143
25.4
144
1.0
145
0.0
146
1.0
147
0.09
 71
1.0
 72
0.0
 73
1
 74
1
 75
0
 76
0
 77
0
 78
4
 79
1
170
1
171
1
172
0
173
0
174
0
175
0
176
0
177
0
178
0
270
2
179
2
271
2
272
2
273
2
274
2
275
0
280
0
281
0
282
0
283
1
284
4
285
0
286
0
287
3
288
0
340
11
278
46
341
215
342
215
343
215
344
215
  0
ENDTAB
  0
ENDSEC
  0
SECTION
  2
BLOCKS
  0
BLOCK
  5
20
100
AcDbEntity
  8
0
100
AcDbBlockBegin
  2
*Model_Space
 70
0
 10
0.0
 20
0.0
 30
0.0
  3
*Model_Space
  1

  0
ENDBLK
  5
21
100
AcDbEntity
  8
0
100
AcDbBlockEnd
  0
BLOCK
  5
1C
100
AcDbEntity
  8
0
100
AcDbBlockBegin
  2
*Paper_Space
 70
0
 10
0.0
 20
0.0
 30
0.0
  3
*Paper_Space
  1

  0
ENDBLK
  5
1D
100
AcDbEntity
  8
0
100
AcDbBlockEnd
  0
BLOCK
  5
217
100
AcDbEntity
  8
0
100
AcDbBlockBegin
  2
_FILLED
 70
64
 10
0.0
 20
0.0
  3
_FILLED
  1

  0
SOLID
  5
218
100
AcDbEntity
  8
0
  6
BYBLOCK
 62
0
100
AcDbTrace
 10
0.0
 20
0.0
 11
-1.0
 21
0.2
 12
-1.0
 22
-0.2
 13
-1.0
 23
-0.2
  0
ENDBLK
  5
219
100
AcDbEntity
  8
0
  6
BYBLOCK
 62
0
100
AcDbBlockEnd
  0
ENDSEC
  0
SECTION
  2
ENTITIES
  0
MTEXT
  5
21A
100
AcDbEntity
  8
0
100
AcDbMText
 62
2
  6
CONTINUOUS
  7
STANDARD
 71
3
 72
1
 10
5.7421195652
 20
1.5781862972
 30
0.0
 11
1.0
 21
0.0
 31
0.0
 73
2
 44
0.9
  1
SCALE  1.000
 40
0.08
 41
0.768
  0
LINE
  5
21B
100
AcDbEntity
  8
0
100
AcDbLine
 62
7
  6
CONTINUOUS
 10
0.0
 20
0.0
 11
0.0
 21
8.5
  0
LINE
  5
21C
100
AcDbEntity
  8
0
100
AcDbLine
 62
7
  6
CONTINUOUS
 10
0.0
 20
0.0
 11
11.0
 21
0.0
  0
LINE
  5
21D
100
AcDbEntity
  8
0
100
AcDbLine
 62
7
  6
CONTINUOUS
 10
0.0
 20
8.5
 11
11.0
 21
8.5
  0
LINE
  5
21E
100
AcDbEntity
  8
0
100
AcDbLine
 62
7
  6
CONTINUOUS
 10
11.0
 20
0.0
 11
11.0
 21
8.5
  0
LINE
  5
21F
100
AcDbEntity
  8
0
100
AcDbLine
 62
7
  6
CONTINUOUS
 10
1.2549697593
 20
2.764654755
 11
1.2549708162
 21
2.6931236923
  0
LINE
  5
220
100
AcDbEntity
  8
0
100
AcDbLine
 62
7
  6
CONTINUOUS
 10
1.6798373448
 20
3.9493791909
 11
1.679836686
 21
3.9693808901
  0
LINE
  5
221
100
AcDbEntity
  8
0
100
AcDbLine
 62
7
  6
CONTINUOUS
 10
1.6798419618
 20
3.61230947
 11
1.6798420296
 21
3.6323077706
  0
LINE
  5
222
100
AcDbEntity
  8
0
100
AcDbLine
 62
7
  6
CONTINUOUS
 10
1.6653413531
 20
3.9631927291
 11
1.6653469852
 21
3.96316639
  0
LINE
  5
223
100
AcDbEntity
  8
0
100
AcDbLine
 62
7
  6
CONTINUOUS
 10
2.2488785839
 20
2.5763169207
 11
2.2450781984
 21
2.6501429151
  0
LINE
  5
224
100
AcDbEntity
  8
0
100
AcDbLine
 62
7
  6
CONTINUOUS
 10
2.1748179094
 20
2.6501506968
 11
2.1785555806
 21
2.5763895489
  0
LINE
  5
225
100
AcDbEntity
  8
0
100
AcDbLine
 62
7
  6
CONTINUOUS
 10
2.4567494963
 20
2.5762186112
 11
2.4527691918
 21
2.6501230146
  0
LINE
  5
226
100
AcDbEntity
  8
0
100
AcDbLine
 62
7
  6
CONTINUOUS
 10
2.47442198
 20
3.4776842713
 11
2.4744190296
 21
3.5983241852
  0
LINE
  5
227
100
AcDbEntity
  8
0
100
AcDbLine
 62
7
  6
CONTINUOUS
 10
2.7930141042
 20
2.5764197416
 11
2.7887622461
 21
2.6500978383
  0
LINE
  5
228
100
AcDbEntity
  8
0
100
AcDbLine
 62
7
  6
CONTINUOUS
 10
2.793082816
 20
2.5760984692
 11
2.7888123754
 21
2.6500978351
  0
LINE
  5
229
100
AcDbEntity
  8
0
100
AcDbLine
 62
7
  6
CONTINUOUS
 10
2.5264693009
 20
3.9693934006
 11
2.5264746445
 21
3.6323202812
  0
LINE
  5
22A
100
AcDbEntity
  8
0
100
AcDbLine
 62
7
  6
CONTINUOUS
 10
2.5334770986
 20
3.4776662804
 11
2.5334739409
 21
3.612322084
  0
LINE
  5
22B
100
AcDbEntity
  8
0
100
AcDbLine
 62
7
  6
CONTINUOUS
 10
2.5459592238
 20
3.4776632562
 11
2.5459589646
 21
3.4952082469
  0
LINE
  5
22C
100
AcDbEntity
  8
0
100
AcDbLine
 62
7
  6
CONTINUOUS
 10
2.5464695964
 20
3.9493936962
 11
2.5464745767
 21
3.6123222761
  0
LINE
  5
22D
100
AcDbEntity
  8
0
100
AcDbLine
 62
7
  6
CONTINUOUS
 10
2.4339161427
 20
2.5749129598
 11
2.4432220898
 21
2.6501238559
  0
LINE
  5
22E
100
AcDbEntity
  8
0
100
AcDbLine
 62
7
  6
CONTINUOUS
 10
1.6653469852
 20
3.96316639
 11
1.6798373448
 21
3.9493791909
  0
LINE
  5
22F
100
AcDbEntity
  8
0
100
AcDbLine
 62
7
  6
CONTINUOUS
 10
3.0518731624
 20
2.564242681
 11
3.0463331782
 21
2.650082858
  0
LINE
  5
230
100
AcDbEntity
  8
0
100
AcDbLine
 62
7
  6
CONTINUOUS
 10
2.9214854456
 20
3.4901345448
 11
2.9214853724
 21
3.4950915828
  0
LINE
  5
231
100
AcDbEntity
  8
0
100
AcDbLine
 62
7
  6
CONTINUOUS
 10
2.6417781032
 20
2.5749072346
 11
2.6509026422
 21
2.6501072596
  0
LINE
  5
232
100
AcDbEntity
  8
0
100
AcDbLine
 62
7
  6
CONTINUOUS
 10
1.66551381
 20
3.9633396422
 11
1.6653469852
 21
3.96316639
  0
LINE
  5
233
100
AcDbEntity
  8
0
100
AcDbLine
 62
7
  6
CONTINUOUS
 10
2.5282934096
 20
3.6305176732
 11
2.5264746445
 21
3.6323202812
  0
LINE
  5
234
100
AcDbEntity
  8
0
100
AcDbLine
 62
7
  6
CONTINUOUS
 10
2.5464745767
 20
3.6123222761
 11
2.5264746445
 21
3.6323202812
  0
LWPOLYLINE
  5
235
100
AcDbEntity
  8
0
100
AcDbPolyline
 62
7
  6
CONTINUOUS
 90
3
 70
0
 10
2.5464745767
 20
3.6123222761
 10
2.5464381358
 20
3.6123632752
 10
2.5460946108
 20
3.6127019715
  0
LINE
  5
236
100
AcDbEntity
  8
0
100
AcDbLine
 62
7
  6
CONTINUOUS
 10
3.2430914506
 20
2.5763679433
 11
3.2384579357
 21
2.6500737635
  0
LINE
  5
237
100
AcDbEntity
  8
0
100
AcDbLine
 62
7
  6
CONTINUOUS
 10
3.2431783256
 20
2.5759617123
 11
3.2385192211
 21
2.6500737609
  0
LINE
  5
238
100
AcDbEntity
  8
0
100
AcDbLine
 62
7
  6
CONTINUOUS
 10
3.2169417127
 20
2.5633492634
 11
3.2265280666
 21
2.6500742733
  0
LINE
  5
239
100
AcDbEntity
  8
0
100
AcDbLine
 62
7
  6
CONTINUOUS
 10
2.9780983397
 20
2.5749372544
 11
2.9869256105
 21
2.6500861103
  0
LINE
  5
23A
100
AcDbEntity
  8
0
100
AcDbLine
 62
7
  6
CONTINUOUS
 10
1.6798420296
 20
3.6323077706
 11
1.6653520773
 21
3.6185235419
  0
LINE
  5
23B
100
AcDbEntity
  8
0
100
AcDbLine
 62
7
  6
CONTINUOUS
 10
4.0616186337
 20
2.6399030744
 11
4.0851871762
 21
2.6163345319
  0
LINE
  5
23C
100
AcDbEntity
  8
0
100
AcDbLine
 62
7
  6
CONTINUOUS
 10
3.7160205859
 20
2.556129716
 11
3.7087062589
 21
2.6500569927
  0
LINE
  5
23D
100
AcDbEntity
  8
0
100
AcDbLine
 62
7
  6
CONTINUOUS
 10
3.5949637674
 20
2.5561730286
 11
3.5877164809
 21
2.6500606401
  0
LINE
  5
23E
100
AcDbEntity
  8
0
100
AcDbLine
 62
7
  6
CONTINUOUS
 10
3.5467872487
 20
2.6500619342
 11
3.5540101589
 21
2.5562099669
  0
LINE
  5
23F
100
AcDbEntity
  8
0
100
AcDbLine
 62
7
  6
CONTINUOUS
 10
3.7381403271
 20
2.5640373599
 11
3.7320126871
 21
2.6500563752
  0
LINE
  5
240
100
AcDbEntity
  8
0
100
AcDbLine
 62
7
  6
CONTINUOUS
 10
3.7873637279
 20
2.5758142899
 11
3.7822334479
 21
2.6500550445
  0
LINE
  5
241
100
AcDbEntity
  8
0
100
AcDbLine
 62
7
  6
CONTINUOUS
 10
3.4998849947
 20
2.5633611876
 11
3.5092285152
 21
2.6500631217
  0
LINE
  5
242
100
AcDbEntity
  8
0
100
AcDbLine
 62
7
  6
CONTINUOUS
 10
3.428178872
 20
2.575001646
 11
3.4366072788
 21
2.6500658058
  0
LINE
  5
243
100
AcDbEntity
  8
0
100
AcDbLine
 62
7
  6
CONTINUOUS
 10
3.911889814
 20
2.5560821523
 11
3.9117791642
 21
2.5574832365
  0
LINE
  5
244
100
AcDbEntity
  8
0
100
AcDbLine
 62
7
  6
CONTINUOUS
 10
9.6935358096
 20
2.6632889156
 11
9.4484662428
 21
2.6504417499
  0
LINE
  5
245
100
AcDbEntity
  8
0
100
AcDbLine
 62
7
  6
CONTINUOUS
 10
3.7163535171
 20
2.5561368464
 11
3.7160205931
 21
2.5561296225
  0
LINE
  5
246
100
AcDbEntity
  8
0
100
AcDbLine
 62
7
  6
CONTINUOUS
 10
3.5952966653
 20
2.556175961
 11
3.594963766
 21
2.5561730465
  0
LINE
  5
247
100
AcDbEntity
  8
0
100
AcDbLine
 62
7
  6
CONTINUOUS
 10
8.7985175127
 20
2.5764873708
 11
8.7281751354
 21
2.575930439
  0
LINE
  5
248
100
AcDbEntity
  8
0
100
AcDbLine
 62
7
  6
CONTINUOUS
 10
8.0041126615
 20
2.5640511576
 11
7.9275302491
 21
2.563592608
  0
LINE
  5
249
100
AcDbEntity
  8
0
100
AcDbLine
 62
7
  6
CONTINUOUS
 10
7.4230635314
 20
2.5562671401
 11
7.3821224897
 21
2.5561228567
  0
LINE
  5
24A
100
AcDbEntity
  8
0
100
AcDbLine
 62
7
  6
CONTINUOUS
 10
5.4221980034
 20
2.5461503573
 11
5.4251470255
 21
2.5461520404
  0
LINE
  5
24B
100
AcDbEntity
  8
0
100
AcDbLine
 62
7
  6
CONTINUOUS
 10
9.4484662428
 20
2.6504417499
 11
9.368471952
 21
2.6503741426
  0
LINE
  5
24C
100
AcDbEntity
  8
0
100
AcDbLine
 62
7
  6
CONTINUOUS
 10
9.368471952
 20
2.6503741426
 11
8.8074716396
 21
2.6502493675
  0
LINE
  5
24D
100
AcDbEntity
  8
0
100
AcDbLine
 62
7
  6
CONTINUOUS
 10
9.3684689644
 20
2.6631470229
 11
9.6935358103
 21
2.6632889157
  0
LINE
  5
24E
100
AcDbEntity
  8
0
100
AcDbLine
 62
7
  6
CONTINUOUS
 10
9.3514725454
 20
2.6930963393
 11
9.7219708139
 21
2.6932488075
  0
LINE
  5
24F
100
AcDbEntity
  8
0
100
AcDbLine
 62
7
  6
CONTINUOUS
 10
7.3244972266
 20
2.538054341
 11
7.3624812849
 21
2.5380583862
  0
LINE
  5
250
100
AcDbEntity
  8
0
100
AcDbLine
 62
7
  6
CONTINUOUS
 10
7.2414491395
 20
2.538024944
 11
7.1592230492
 21
2.5380235877
  0
LINE
  5
251
100
AcDbEntity
  8
0
100
AcDbLine
 62
7
  6
CONTINUOUS
 10
7.3645382545
 20
2.5380880281
 11
7.4034367821
 21
2.5380920919
  0
LINE
  5
252
100
AcDbEntity
  8
0
100
AcDbLine
 62
7
  6
CONTINUOUS
 10
7.9927778207
 20
2.5459439649
 11
8.0524779575
 21
2.5459501841
  0
LINE
  5
253
100
AcDbEntity
  8
0
100
AcDbLine
 62
7
  6
CONTINUOUS
 10
7.6264824335
 20
2.5458480575
 11
7.5007548898
 21
2.5458460576
  0
LINE
  5
254
100
AcDbEntity
  8
0
100
AcDbLine
 62
7
  6
CONTINUOUS
 10
7.9079846051
 20
2.5458979355
 11
7.7830467133
 21
2.5458952497
  0
LINE
  5
255
100
AcDbEntity
  8
0
100
AcDbLine
 62
7
  6
CONTINUOUS
 10
8.4352658251
 20
2.55767503
 11
8.5007009234
 21
2.5576821492
  0
LINE
  5
256
100
AcDbEntity
  8
0
100
AcDbLine
 62
7
  6
CONTINUOUS
 10
8.1006536688
 20
2.5576206102
 11
8.1643878092
 21
2.5576276958
  0
LINE
  5
257
100
AcDbEntity
  8
0
100
AcDbLine
 62
7
  6
CONTINUOUS
 10
8.6414366792
 20
2.5577324177
 11
8.7085318388
 21
2.5577395913
  0
LINE
  5
258
100
AcDbEntity
  8
0
100
AcDbLine
 62
7
  6
CONTINUOUS
 10
8.1504921723
 20
2.5576245229
 11
8.0187713107
 21
2.557625154
  0
LINE
  5
259
100
AcDbEntity
  8
0
100
AcDbLine
 62
7
  6
CONTINUOUS
 10
8.7101879124
 20
2.5577902609
 11
8.7788637207
 21
2.5577974557
  0
LINE
  5
25A
100
AcDbEntity
  8
0
100
AcDbLine
 62
7
  6
CONTINUOUS
 10
4.1134714474
 20
2.6046188032
 11
4.1701022435
 21
2.6046188032
  0
LINE
  5
25B
100
AcDbEntity
  8
0
100
AcDbLine
 62
7
  6
CONTINUOUS
 10
4.6169595144
 20
2.6046188032
 11
4.8031616954
 21
2.6046188032
  0
LINE
  5
25C
100
AcDbEntity
  8
0
100
AcDbLine
 62
7
  6
CONTINUOUS
 10
4.9753741187
 20
2.6046188032
 11
5.0573578093
 21
2.6046188032
  0
LINE
  5
25D
100
AcDbEntity
  8
0
100
AcDbLine
 62
7
  6
CONTINUOUS
 10
5.3577781145
 20
2.6046188032
 11
5.4058578115
 21
2.6046188032
  0
LINE
  5
25E
100
AcDbEntity
  8
0
100
AcDbLine
 62
7
  6
CONTINUOUS
 10
5.5780668318
 20
2.6046188032
 11
5.6193621763
 21
2.6046188032
  0
LINE
  5
25F
100
AcDbEntity
  8
0
100
AcDbLine
 62
7
  6
CONTINUOUS
 10
5.9198296039
 20
2.6046188032
 11
6.0024182095
 21
2.6046188032
  0
LINE
  5
260
100
AcDbEntity
  8
0
100
AcDbLine
 62
7
  6
CONTINUOUS
 10
6.180562407
 20
2.6046188032
 11
6.360174078
 21
2.6046188032
  0
LINE
  5
261
100
AcDbEntity
  8
0
100
AcDbLine
 62
7
  6
CONTINUOUS
 10
6.8070174619
 20
2.6046188032
 11
6.8634714474
 21
2.6046188032
  0
LINE
  5
262
100
AcDbEntity
  8
0
100
AcDbLine
 62
7
  6
CONTINUOUS
 10
4.0851871762
 20
2.6163345319
 11
4.1691597178
 21
2.6163345319
  0
LINE
  5
263
100
AcDbEntity
  8
0
100
AcDbLine
 62
7
  6
CONTINUOUS
 10
4.6180462165
 20
2.6163345319
 11
4.8022048697
 21
2.6163345319
  0
LINE
  5
264
100
AcDbEntity
  8
0
100
AcDbLine
 62
7
  6
CONTINUOUS
 10
4.9764679271
 20
2.6163345319
 11
5.0563771842
 21
2.6163345319
  0
LINE
  5
265
100
AcDbEntity
  8
0
100
AcDbLine
 62
7
  6
CONTINUOUS
 10
5.3588159105
 20
2.6163345319
 11
5.4048319448
 21
2.6163345319
  0
LINE
  5
266
100
AcDbEntity
  8
0
100
AcDbLine
 62
7
  6
CONTINUOUS
 10
5.5790915645
 20
2.6163345319
 11
5.6183240269
 21
2.6163345319
  0
LINE
  5
267
100
AcDbEntity
  8
0
100
AcDbLine
 62
7
  6
CONTINUOUS
 10
5.9208098646
 20
2.6163345319
 11
6.0013547743
 21
2.6163345319
  0
LINE
  5
268
100
AcDbEntity
  8
0
100
AcDbLine
 62
7
  6
CONTINUOUS
 10
6.1815181222
 20
2.6163345319
 11
6.3590870228
 21
2.6163345319
  0
LINE
  5
269
100
AcDbEntity
  8
0
100
AcDbLine
 62
7
  6
CONTINUOUS
 10
6.8079596359
 20
2.6163345319
 11
6.8917557187
 21
2.6163345319
  0
LINE
  5
26A
100
AcDbEntity
  8
0
100
AcDbLine
 62
7
  6
CONTINUOUS
 10
4.0616186337
 20
2.6399030744
 11
4.1672636379
 21
2.6399030744
  0
LINE
  5
26B
100
AcDbEntity
  8
0
100
AcDbLine
 62
7
  6
CONTINUOUS
 10
4.6202323362
 20
2.6399030744
 11
4.8002800224
 21
2.6399030744
  0
LINE
  5
26C
100
AcDbEntity
  8
0
100
AcDbLine
 62
7
  6
CONTINUOUS
 10
4.9786683425
 20
2.6399030744
 11
5.0544044599
 21
2.6399030744
  0
LINE
  5
26D
100
AcDbEntity
  8
0
100
AcDbLine
 62
7
  6
CONTINUOUS
 10
5.3609036457
 20
2.6399030744
 11
5.4027682077
 21
2.6399030744
  0
LINE
  5
26E
100
AcDbEntity
  8
0
100
AcDbLine
 62
7
  6
CONTINUOUS
 10
5.5811530203
 20
2.6399030744
 11
5.6162355808
 21
2.6399030744
  0
LINE
  5
26F
100
AcDbEntity
  8
0
100
AcDbLine
 62
7
  6
CONTINUOUS
 10
5.9227818561
 20
2.6399030744
 11
5.9992154608
 21
2.6399030744
  0
LINE
  5
270
100
AcDbEntity
  8
0
100
AcDbLine
 62
7
  6
CONTINUOUS
 10
6.1834407355
 20
2.6399030744
 11
6.3569001928
 21
2.6399030744
  0
LINE
  5
271
100
AcDbEntity
  8
0
100
AcDbLine
 62
7
  6
CONTINUOUS
 10
6.8098550081
 20
2.6399030744
 11
6.9153242612
 21
2.6399030744
  0
LINE
  5
272
100
AcDbEntity
  8
0
100
AcDbLine
 62
7
  6
CONTINUOUS
 10
8.8074716396
 20
2.6502493675
 11
7.6294696075
 21
2.6501323727
  0
LINE
  5
273
100
AcDbEntity
  8
0
100
AcDbLine
 62
7
  6
CONTINUOUS
 10
7.6294696075
 20
2.6501323727
 11
5.9266257828
 21
2.6500559479
  0
LINE
  5
274
100
AcDbEntity
  8
0
100
AcDbLine
 62
7
  6
CONTINUOUS
 10
4.9800267948
 20
2.6500426757
 11
5.9266257828
 21
2.6500559479
  0
LINE
  5
275
100
AcDbEntity
  8
0
100
AcDbLine
 62
7
  6
CONTINUOUS
 10
8.0893366713
 20
2.6629851226
 11
9.3684689644
 21
2.6631470229
  0
LINE
  5
276
100
AcDbEntity
  8
0
100
AcDbLine
 62
7
  6
CONTINUOUS
 10
5.582957013
 20
2.6628715754
 11
8.0893366713
 21
2.6629851226
  0
LINE
  5
277
100
AcDbEntity
  8
0
100
AcDbLine
 62
7
  6
CONTINUOUS
 10
4.8167647168
 20
2.6928211818
 11
9.3514725454
 21
2.6930963393
  0
LINE
  5
278
100
AcDbEntity
  8
0
100
AcDbLine
 62
7
  6
CONTINUOUS
 10
4.0137832409
 20
2.5379484259
 11
3.931515859
 21
2.5379472123
  0
LINE
  5
279
100
AcDbEntity
  8
0
100
AcDbLine
 62
7
  6
CONTINUOUS
 10
4.8684071186
 20
2.5379028671
 11
4.9506708522
 21
2.5379044358
  0
LINE
  5
27A
100
AcDbEntity
  8
0
100
AcDbLine
 62
7
  6
CONTINUOUS
 10
3.5736374451
 20
2.5380354997
 11
3.612202875
 21
2.5380325822
  0
LINE
  5
27B
100
AcDbEntity
  8
0
100
AcDbLine
 62
7
  6
CONTINUOUS
 10
3.4802854064
 20
2.5457863192
 11
3.3544864665
 21
2.5457845921
  0
LINE
  5
27C
100
AcDbEntity
  8
0
100
AcDbLine
 62
7
  6
CONTINUOUS
 10
3.4079313648
 20
2.5457797197
 11
3.3656485984
 21
2.5457821188
  0
LINE
  5
27D
100
AcDbEntity
  8
0
100
AcDbLine
 62
7
  6
CONTINUOUS
 10
5.4290533702
 20
2.54572241
 11
5.4920503118
 21
2.5457184891
  0
LINE
  5
27E
100
AcDbEntity
  8
0
100
AcDbLine
 62
7
  6
CONTINUOUS
 10
5.5548539214
 20
2.5457247642
 11
5.4290533702
 21
2.54572241
  0
LINE
  5
27F
100
AcDbEntity
  8
0
100
AcDbLine
 62
7
  6
CONTINUOUS
 10
7.224420278
 20
2.5458034503
 11
7.0986295559
 21
2.5458015272
  0
LINE
  5
280
100
AcDbEntity
  8
0
100
AcDbLine
 62
7
  6
CONTINUOUS
 10
7.926688913
 20
2.5459483282
 11
7.9927778207
 21
2.5459439649
  0
LINE
  5
281
100
AcDbEntity
  8
0
100
AcDbLine
 62
7
  6
CONTINUOUS
 10
2.9585289316
 20
2.5575507675
 11
2.8127510668
 21
2.557548628
  0
LINE
  5
282
100
AcDbEntity
  8
0
100
AcDbLine
 62
7
  6
CONTINUOUS
 10
4.4214871505
 20
2.557472676
 11
4.5672203286
 21
2.557475233
  0
LINE
  5
283
100
AcDbEntity
  8
0
100
AcDbLine
 62
7
  6
CONTINUOUS
 10
2.1982099326
 20
2.5577002146
 11
2.2668822839
 21
2.5576950494
  0
LINE
  5
284
100
AcDbEntity
  8
0
100
AcDbLine
 62
7
  6
CONTINUOUS
 10
2.8763263754
 20
2.5575431671
 11
2.826651624
 21
2.5575457213
  0
LINE
  5
285
100
AcDbEntity
  8
0
100
AcDbLine
 62
7
  6
CONTINUOUS
 10
7.7143098043
 20
2.5575785689
 11
7.5685759797
 21
2.5575764134
  0
LINE
  5
286
100
AcDbEntity
  8
0
100
AcDbLine
 62
7
  6
CONTINUOUS
 10
2.1694712849
 20
2.6501512889
 11
4.9800267948
 21
2.6500426757
  0
LINE
  5
287
100
AcDbEntity
  8
0
100
AcDbLine
 62
7
  6
CONTINUOUS
 10
2.3960039022
 20
2.6629396398
 11
1.6084735113
 21
2.6630324364
  0
LINE
  5
288
100
AcDbEntity
  8
0
100
AcDbLine
 62
7
  6
CONTINUOUS
 10
2.9310436166
 20
2.6629060724
 11
2.3960039022
 21
2.6629396398
  0
LINE
  5
289
100
AcDbEntity
  8
0
100
AcDbLine
 62
7
  6
CONTINUOUS
 10
5.582957013
 20
2.6628715754
 11
2.9310436166
 21
2.6629060724
  0
LINE
  5
28A
100
AcDbEntity
  8
0
100
AcDbLine
 62
7
  6
CONTINUOUS
 10
1.6254704935
 20
2.6929821849
 11
2.8260199841
 21
2.6928673683
  0
LINE
  5
28B
100
AcDbEntity
  8
0
100
AcDbLine
 62
7
  6
CONTINUOUS
 10
2.8260199841
 20
2.6928673683
 11
4.8167647168
 21
2.6928211818
  0
LINE
  5
28C
100
AcDbEntity
  8
0
100
AcDbLine
 62
7
  6
CONTINUOUS
 10
3.7356550873
 20
2.5379731397
 11
3.8179221086
 21
2.5379743554
  0
LINE
  5
28D
100
AcDbEntity
  8
0
100
AcDbLine
 62
7
  6
CONTINUOUS
 10
3.7392052801
 20
2.5379722882
 11
3.7358739969
 21
2.5379730285
  0
LINE
  5
28E
100
AcDbEntity
  8
0
100
AcDbLine
 62
7
  6
CONTINUOUS
 10
2.4764204091
 20
2.5575931298
 11
2.622222797
 21
2.5575952996
  0
LINE
  5
28F
100
AcDbEntity
  8
0
100
AcDbLine
 62
7
  6
CONTINUOUS
 10
2.6159338019
 20
2.5575984087
 11
2.6218236596
 21
2.5575962765
  0
LINE
  5
290
100
AcDbEntity
  8
0
100
AcDbLine
 62
7
  6
CONTINUOUS
 10
2.4827094206
 20
2.5575913882
 11
2.4768195553
 21
2.5575928261
  0
LINE
  5
291
100
AcDbEntity
  8
0
100
AcDbLine
 62
7
  6
CONTINUOUS
 10
1.6000474229
 20
2.6502626511
 11
2.1694712849
 21
2.6501512889
  0
LINE
  5
292
100
AcDbEntity
  8
0
100
AcDbLine
 62
7
  6
CONTINUOUS
 10
1.2549708162
 20
2.6931236923
 11
1.6254704935
 21
2.6929821849
  0
LINE
  5
293
100
AcDbEntity
  8
0
100
AcDbLine
 62
7
  6
CONTINUOUS
 10
3.0715211186
 20
2.5458259309
 11
3.1973726972
 21
2.5458277929
  0
LINE
  5
294
100
AcDbEntity
  8
0
100
AcDbLine
 62
7
  6
CONTINUOUS
 10
8.5627456807
 20
2.5577374149
 11
8.6415752596
 21
2.5577319977
  0
LINE
  5
295
100
AcDbEntity
  8
0
100
AcDbLine
 62
7
  6
CONTINUOUS
 10
1.6084735113
 20
2.6630324364
 11
1.2834067057
 21
2.6631646538
  0
LINE
  5
296
100
AcDbEntity
  8
0
100
AcDbLine
 62
7
  6
CONTINUOUS
 10
7.2802292802
 20
2.5380571711
 11
7.3247032252
 21
2.5380539869
  0
LINE
  5
297
100
AcDbEntity
  8
0
100
AcDbLine
 62
7
  6
CONTINUOUS
 10
8.702233467
 20
2.5577418791
 11
8.7069624688
 21
2.5577387868
  0
LINE
  5
298
100
AcDbEntity
  8
0
100
AcDbLine
 62
7
  6
CONTINUOUS
 10
3.6146028442
 20
2.5380030047
 11
3.6968633559
 21
2.5380042202
  0
LINE
  5
299
100
AcDbEntity
  8
0
100
AcDbLine
 62
7
  6
CONTINUOUS
 10
7.7821314537
 20
2.5458960785
 11
7.7843710538
 21
2.5458946118
  0
LINE
  5
29A
100
AcDbEntity
  8
0
100
AcDbLine
 62
7
  6
CONTINUOUS
 10
3.5979374072
 20
2.5561750845
 11
3.5949668578
 21
2.5561728307
  0
LINE
  5
29B
100
AcDbEntity
  8
0
100
AcDbLine
 62
7
  6
CONTINUOUS
 10
2.2685663277
 20
2.5576444294
 11
2.4143520708
 21
2.5576465611
  0
LINE
  5
29C
100
AcDbEntity
  8
0
100
AcDbLine
 62
7
  6
CONTINUOUS
 10
1.5284766521
 20
2.65032473
 11
1.6000474229
 21
2.6502626511
  0
LINE
  5
29D
100
AcDbEntity
  8
0
100
AcDbLine
 62
7
  6
CONTINUOUS
 10
8.3548982743
 20
2.5576800104
 11
8.4354292659
 21
2.5576747223
  0
LINE
  5
29E
100
AcDbEntity
  8
0
100
AcDbLine
 62
7
  6
CONTINUOUS
 10
3.7276233911
 20
2.5561404583
 11
3.7160204202
 21
2.55612964
  0
LINE
  5
29F
100
AcDbEntity
  8
0
100
AcDbLine
 62
7
  6
CONTINUOUS
 10
6.3843070009
 20
2.5379391578
 11
6.4665833696
 21
2.5379403734
  0
LINE
  5
2A0
100
AcDbEntity
  8
0
100
AcDbLine
 62
7
  6
CONTINUOUS
 10
3.8070038021
 20
2.5574872435
 11
3.9527734441
 21
2.5574894005
  0
LINE
  5
2A1
100
AcDbEntity
  8
0
100
AcDbLine
 62
7
  6
CONTINUOUS
 10
7.0244013605
 20
2.5575347895
 11
7.1701711756
 21
2.5575369401
  0
LINE
  5
2A2
100
AcDbEntity
  8
0
100
AcDbLine
 62
7
  6
CONTINUOUS
 10
4.5105496057
 20
2.5379114696
 11
4.5928264022
 21
2.5379126853
  0
LINE
  5
2A3
100
AcDbEntity
  8
0
100
AcDbLine
 62
7
  6
CONTINUOUS
 10
2.9254154145
 20
2.5458738522
 11
3.051218348
 21
2.5458757136
  0
LINE
  5
2A4
100
AcDbEntity
  8
0
100
AcDbLine
 62
7
  6
CONTINUOUS
 10
3.051218348
 20
2.5458757136
 11
3.0507814731
 21
2.5458763576
  0
LINE
  5
2A5
100
AcDbEntity
  8
0
100
AcDbLine
 62
7
  6
CONTINUOUS
 10
3.7404647328
 20
2.5561174198
 11
3.7212730635
 21
2.5561457258
  0
LINE
  5
2A6
100
AcDbEntity
  8
0
100
AcDbLine
 62
7
  6
CONTINUOUS
 10
6.026470179
 20
2.5379203328
 11
6.108714424
 21
2.5379215479
  0
LINE
  5
2A7
100
AcDbEntity
  8
0
100
AcDbLine
 62
7
  6
CONTINUOUS
 10
6.7012152031
 20
2.5379634038
 11
6.7834861777
 21
2.5379646193
  0
LINE
  5
2A8
100
AcDbEntity
  8
0
100
AcDbLine
 62
7
  6
CONTINUOUS
 10
3.3505915628
 20
2.5460275656
 11
3.3506529993
 21
2.5460274511
  0
LINE
  5
2A9
100
AcDbEntity
  8
0
100
AcDbLine
 62
7
  6
CONTINUOUS
 10
7.5006779401
 20
2.545846201
 11
7.5042591874
 21
2.5458441548
  0
LINE
  5
2AA
100
AcDbEntity
  8
0
100
AcDbLine
 62
7
  6
CONTINUOUS
 10
5.6433009885
 20
2.5379077509
 11
5.7255628666
 21
2.5379089663
  0
LINE
  5
2AB
100
AcDbEntity
  8
0
100
AcDbLine
 62
7
  6
CONTINUOUS
 10
6.5993027935
 20
2.5457648477
 11
6.7251163022
 21
2.5457667054
  0
LINE
  5
2AC
100
AcDbEntity
  8
0
100
AcDbLine
 62
7
  6
CONTINUOUS
 10
4.1936401983
 20
2.5379263497
 11
4.2759080669
 21
2.5379275654
  0
LINE
  5
2AD
100
AcDbEntity
  8
0
100
AcDbLine
 62
7
  6
CONTINUOUS
 10
6.4099644402
 20
2.5575024631
 11
6.5556814915
 21
2.5575046177
  0
LINE
  5
2AE
100
AcDbEntity
  8
0
100
AcDbLine
 62
7
  6
CONTINUOUS
 10
4.258024001
 20
2.5457299828
 11
4.383845119
 21
2.5457318431
  0
LINE
  5
2AF
100
AcDbEntity
  8
0
100
AcDbLine
 62
7
  6
CONTINUOUS
 10
4.8261254678
 20
2.5457201463
 11
4.9519325403
 21
2.5457220058
  0
LINE
  5
2B0
100
AcDbEntity
  8
0
100
AcDbLine
 62
7
  6
CONTINUOUS
 10
6.5932288728
 20
2.54614378
 11
6.5956483816
 21
2.5461448053
  0
LINE
  5
2B1
100
AcDbEntity
  8
0
100
AcDbLine
 62
7
  6
CONTINUOUS
 10
5.7520356145
 20
2.5574808644
 11
5.8977735617
 21
2.5574830085
  0
LINE
  5
2B2
100
AcDbEntity
  8
0
100
AcDbLine
 62
7
  6
CONTINUOUS
 10
8.0186132904
 20
2.5576255396
 11
8.0221831979
 21
2.5576233996
  0
LINE
  5
2B3
100
AcDbEntity
  8
0
100
AcDbLine
 62
7
  6
CONTINUOUS
 10
6.9633280547
 20
2.5379920109
 11
7.0455889969
 21
2.5379932262
  0
LINE
  5
2B4
100
AcDbEntity
  8
0
100
AcDbLine
 62
7
  6
CONTINUOUS
 10
5.0794163499
 20
2.5574709161
 11
5.2251543001
 21
2.5574730785
  0
LINE
  5
2B5
100
AcDbEntity
  8
0
100
AcDbLine
 62
7
  6
CONTINUOUS
 10
5.251578006
 20
2.5379019625
 11
5.3338420142
 21
2.537903178
  0
LINE
  5
2B6
100
AcDbEntity
  8
0
100
AcDbLine
 62
7
  6
CONTINUOUS
 10
3.7577879664
 20
2.5457518436
 11
3.8836058846
 21
2.5457537044
  0
LINE
  5
2B7
100
AcDbEntity
  8
0
100
AcDbLine
 62
7
  6
CONTINUOUS
 10
4.8194695226
 20
2.5461356645
 11
4.8222761148
 21
2.546136896
  0
LINE
  5
2B8
100
AcDbEntity
  8
0
100
AcDbLine
 62
7
  6
CONTINUOUS
 10
5.5547881226
 20
2.5457245735
 11
5.5548759846
 21
2.5457243277
  0
LINE
  5
2B9
100
AcDbEntity
  8
0
100
AcDbLine
 62
7
  6
CONTINUOUS
 10
6.0317978091
 20
2.5457381005
 11
6.1576044688
 21
2.5457399586
  0
LINE
  5
2BA
100
AcDbEntity
  8
0
100
AcDbLine
 62
7
  6
CONTINUOUS
 10
7.0934681076
 20
2.5461219187
 11
7.0952534877
 21
2.5461228555
  0
LINE
  5
2BB
100
AcDbEntity
  8
0
100
AcDbLine
 62
7
  6
CONTINUOUS
 10
7.3821209951
 20
2.5562289414
 11
7.3807967996
 21
2.5562324813
  0
LINE
  5
2BC
100
AcDbEntity
  8
0
100
AcDbLine
 62
7
  6
CONTINUOUS
 10
3.2628508295
 20
2.5575127908
 11
3.4085912223
 21
2.5575149539
  0
LINE
  5
2BD
100
AcDbEntity
  8
0
100
AcDbLine
 62
7
  6
CONTINUOUS
 10
7.2610809717
 20
2.5561821367
 11
7.2417567461
 21
2.5561793825
  0
LINE
  5
2BE
100
AcDbEntity
  8
0
100
AcDbLine
 62
7
  6
CONTINUOUS
 10
7.1591775031
 20
2.5380237286
 11
7.1600724071
 21
2.5380228783
  0
LINE
  5
2BF
100
AcDbEntity
  8
0
100
AcDbLine
 62
7
  6
CONTINUOUS
 10
5.4290754257
 20
2.5457229058
 11
5.4291441763
 21
2.5457226875
  0
LINE
  5
2C0
100
AcDbEntity
  8
0
100
AcDbLine
 62
7
  6
CONTINUOUS
 10
5.42222007
 20
2.5461508589
 11
5.4222897987
 21
2.5461506374
  0
LINE
  5
2C1
100
AcDbEntity
  8
0
100
AcDbLine
 62
7
  6
CONTINUOUS
 10
3.7160915217
 20
2.5557783011
 11
3.5962915051
 21
2.5561765593
  0
LINE
  5
2C2
100
AcDbEntity
  8
0
100
AcDbLine
 62
7
  6
CONTINUOUS
 10
3.6620659292
 20
2.5559892309
 11
3.6557154583
 21
2.5560100264
  0
LINE
  5
2C3
100
AcDbEntity
  8
0
100
AcDbLine
 62
7
  6
CONTINUOUS
 10
3.6493650816
 20
2.5560308815
 11
3.6430843969
 21
2.5560511395
  0
LINE
  5
2C4
100
AcDbEntity
  8
0
100
AcDbLine
 62
7
  6
CONTINUOUS
 10
3.5900521231
 20
2.55608379
 11
3.554010148
 21
2.5562101086
  0
LINE
  5
2C5
100
AcDbEntity
  8
0
100
AcDbLine
 62
7
  6
CONTINUOUS
 10
3.5949809935
 20
2.5560668761
 11
3.5790532622
 21
2.5561212083
  0
LINE
  5
2C6
100
AcDbEntity
  8
0
100
AcDbLine
 62
7
  6
CONTINUOUS
 10
3.5741114725
 20
2.5561383857
 11
3.5696150556
 21
2.5561537073
  0
LINE
  5
2C7
100
AcDbEntity
  8
0
100
AcDbLine
 62
7
  6
CONTINUOUS
 10
5.6435178337
 20
2.537906967
 11
5.6433914121
 21
2.5379075641
  0
LINE
  5
2C8
100
AcDbEntity
  8
0
100
AcDbLine
 62
7
  6
CONTINUOUS
 10
3.0519742693
 20
2.5635100512
 11
2.9730340396
 21
2.5639818188
  0
LINE
  5
2C9
100
AcDbEntity
  8
0
100
AcDbLine
 62
7
  6
CONTINUOUS
 10
3.0520401469
 20
2.5635101145
 11
3.0379466689
 21
2.5635994833
  0
LINE
  5
2CA
100
AcDbEntity
  8
0
100
AcDbLine
 62
7
  6
CONTINUOUS
 10
2.2489481541
 20
2.5758336728
 11
2.1785555861
 21
2.5763893845
  0
LINE
  5
2CB
100
AcDbEntity
  8
0
100
AcDbLine
 62
7
  6
CONTINUOUS
 10
2.248922574
 20
2.575834492
 11
2.2424801716
 21
2.575884541
  0
LINE
  5
2CC
100
AcDbEntity
  8
0
100
AcDbLine
 62
7
  6
CONTINUOUS
 10
2.1909485188
 20
2.5762887293
 11
2.1865527061
 21
2.5763228426
  0
LWPOLYLINE
  5
2CD
100
AcDbEntity
  8
0
100
AcDbPolyline
 62
7
  6
CONTINUOUS
 90
3
 70
0
 10
7.3821240904
 20
2.5562291462
 10
7.3817914353
 20
2.5562320523
 10
7.2610061718
 20
2.5558309014
  0
LINE
  5
2CE
100
AcDbEntity
  8
0
100
AcDbLine
 62
7
  6
CONTINUOUS
 10
4.8262885849
 20
2.5457193425
 11
4.826237383
 21
2.5457198735
  0
LINE
  5
2CF
100
AcDbEntity
  8
0
100
AcDbLine
 62
7
  6
CONTINUOUS
 10
7.2812437432
 20
2.5380564364
 11
7.2811136346
 21
2.538058258
  0
LWPOLYLINE
  5
2D0
100
AcDbEntity
  8
0
100
AcDbPolyline
 62
7
  6
CONTINUOUS
 90
3
 70
0
 10
7.2610808
 20
2.5561821359
 10
7.2607481482
 20
2.5561893526
 10
7.2597535698
 20
2.5561946117
  0
LINE
  5
2D1
100
AcDbEntity
  8
0
100
AcDbLine
 62
7
  6
CONTINUOUS
 10
1.2834067057
 20
2.6631646538
 11
1.5284766521
 21
2.65032473
  0
LINE
  5
2D2
100
AcDbEntity
  8
0
100
AcDbLine
 62
7
  6
CONTINUOUS
 10
4.1740109993
 20
2.5560324141
 11
4.1664475514
 21
2.6500471458
  0
LINE
  5
2D3
100
AcDbEntity
  8
0
100
AcDbLine
 62
7
  6
CONTINUOUS
 10
4.2383892261
 20
2.5639200992
 11
4.2318332655
 21
2.6500462143
  0
LINE
  5
2D4
100
AcDbEntity
  8
0
100
AcDbLine
 62
7
  6
CONTINUOUS
 10
4.4018545884
 20
2.5756626084
 11
4.3961903601
 21
2.6500442814
  0
LINE
  5
2D5
100
AcDbEntity
  8
0
100
AcDbLine
 62
7
  6
CONTINUOUS
 10
4.0333920162
 20
2.5557516441
 11
4.0424463547
 21
2.6500492431
  0
LINE
  5
2D6
100
AcDbEntity
  8
0
100
AcDbLine
 62
7
  6
CONTINUOUS
 10
3.9723499729
 20
2.5750975273
 11
3.9802966047
 21
2.6500504654
  0
LINE
  5
2D7
100
AcDbEntity
  8
0
100
AcDbLine
 62
7
  6
CONTINUOUS
 10
9.721969757
 20
2.7647798702
 11
7.5639186647
 21
2.7644345209
  0
LINE
  5
2D8
100
AcDbEntity
  8
0
100
AcDbLine
 62
7
  6
CONTINUOUS
 10
3.8034946418
 20
2.7643624875
 11
3.4131488741
 21
2.7643731861
  0
LINE
  5
2D9
100
AcDbEntity
  8
0
100
AcDbLine
 62
7
  6
CONTINUOUS
 10
7.5639186647
 20
2.7644345209
 11
3.8034946418
 21
2.7643624875
  0
LINE
  5
2DA
100
AcDbEntity
  8
0
100
AcDbLine
 62
7
  6
CONTINUOUS
 10
9.641968575
 20
2.8447786878
 11
5.4330710243
 21
2.8443636413
  0
LINE
  5
2DB
100
AcDbEntity
  8
0
100
AcDbLine
 62
7
  6
CONTINUOUS
 10
3.4131488741
 20
2.7643731861
 11
1.2549697593
 21
2.764654755
  0
LINE
  5
2DC
100
AcDbEntity
  8
0
100
AcDbLine
 62
7
  6
CONTINUOUS
 10
5.4330710243
 20
2.8443636413
 11
1.3349685772
 21
2.8446559369
  0
LINE
  5
2DD
100
AcDbEntity
  8
0
100
AcDbLine
 62
7
  6
CONTINUOUS
 10
4.6134652858
 20
4.6847173167
 11
4.6134652854
 21
5.1097173152
  0
LINE
  5
2DE
100
AcDbEntity
  8
0
100
AcDbLine
 62
7
  6
CONTINUOUS
 10
4.4034404563
 20
2.5634781467
 11
4.403921504
 21
2.5683411231
  0
LINE
  5
2DF
100
AcDbEntity
  8
0
100
AcDbLine
 62
7
  6
CONTINUOUS
 10
9.5146497606
 20
3.0975894302
 11
1.4622799209
 21
3.0974704419
  0
LINE
  5
2E0
100
AcDbEntity
  8
0
100
AcDbLine
 62
7
  6
CONTINUOUS
 10
9.4863995341
 20
3.1251603175
 11
1.4905293326
 21
3.1250421641
  0
LINE
  5
2E1
100
AcDbEntity
  8
0
100
AcDbLine
 62
7
  6
CONTINUOUS
 10
4.8064952094
 20
2.5638020236
 11
4.7994519451
 21
2.6500423601
  0
LINE
  5
2E2
100
AcDbEntity
  8
0
100
AcDbLine
 62
7
  6
CONTINUOUS
 10
4.799838935
 20
2.5642187656
 11
4.7965420707
 21
2.6046188032
  0
LINE
  5
2E3
100
AcDbEntity
  8
0
100
AcDbLine
 62
7
  6
CONTINUOUS
 10
4.6124293487
 20
2.5557791155
 11
4.6211728519
 21
2.6500427676
  0
LINE
  5
2E4
100
AcDbEntity
  8
0
100
AcDbLine
 62
7
  6
CONTINUOUS
 10
4.5868296654
 20
2.5752206389
 11
4.594233752
 21
2.6500428675
  0
LINE
  5
2E5
100
AcDbEntity
  8
0
100
AcDbLine
 62
7
  6
CONTINUOUS
 10
9.109602935
 20
3.4247708191
 11
9.0728382392
 21
3.4247265393
  0
LINE
  5
2E6
100
AcDbEntity
  8
0
100
AcDbLine
 62
7
  6
CONTINUOUS
 10
9.0164820347
 20
3.4698514302
 11
8.8527911555
 21
3.4697590309
  0
LINE
  5
2E7
100
AcDbEntity
  8
0
100
AcDbLine
 62
7
  6
CONTINUOUS
 10
2.1241252112
 20
3.4698395631
 11
2.2759872402
 21
3.4698757081
  0
LINE
  5
2E8
100
AcDbEntity
  8
0
100
AcDbLine
 62
7
  6
CONTINUOUS
 10
9.1866772504
 20
3.3662121839
 11
1.790244493
 21
3.3661028883
  0
LINE
  5
2E9
100
AcDbEntity
  8
0
100
AcDbLine
 62
7
  6
CONTINUOUS
 10
8.8527911555
 20
3.4697590309
 11
2.7906281531
 21
3.4695663804
  0
LINE
  5
2EA
100
AcDbEntity
  8
0
100
AcDbLine
 62
7
  6
CONTINUOUS
 10
2.5334742215
 20
3.5933250578
 11
2.4744191035
 21
3.5933241852
  0
LINE
  5
2EB
100
AcDbEntity
  8
0
100
AcDbLine
 62
7
  6
CONTINUOUS
 10
9.0728382392
 20
3.4247265393
 11
2.4744234636
 21
3.4245023891
  0
LINE
  5
2EC
100
AcDbEntity
  8
0
100
AcDbLine
 62
7
  6
CONTINUOUS
 10
2.395958078
 20
3.469609505
 11
2.1241275278
 21
3.469659613
  0
LINE
  5
2ED
100
AcDbEntity
  8
0
100
AcDbLine
 62
7
  6
CONTINUOUS
 10
2.7906281531
 20
3.4695663804
 11
2.395958078
 21
3.469609505
  0
LINE
  5
2EE
100
AcDbEntity
  8
0
100
AcDbLine
 62
7
  6
CONTINUOUS
 10
8.6999672877
 20
3.4699708148
 11
8.8527934667
 21
3.4699389811
  0
LINE
  5
2EF
100
AcDbEntity
  8
0
100
AcDbLine
 62
7
  6
CONTINUOUS
 10
2.47442198
 20
3.4776842713
 11
2.7906288628
 21
3.4776190964
  0
LINE
  5
2F0
100
AcDbEntity
  8
0
100
AcDbLine
 62
7
  6
CONTINUOUS
 10
2.5459589651
 20
3.4952082424
 11
2.9214853724
 21
3.4950915828
  0
LINE
  5
2F1
100
AcDbEntity
  8
0
100
AcDbLine
 62
7
  6
CONTINUOUS
 10
2.1241275278
 20
3.469659613
 11
1.960436646
 21
3.4697471644
  0
LINE
  5
2F2
100
AcDbEntity
  8
0
100
AcDbLine
 62
7
  6
CONTINUOUS
 10
2.3959592232
 20
3.4777417029
 11
2.47442198
 21
3.4776842713
  0
LINE
  5
2F3
100
AcDbEntity
  8
0
100
AcDbLine
 62
7
  6
CONTINUOUS
 10
2.4744234636
 20
3.4245023891
 11
1.8673170779
 21
3.4246638012
  0
LINE
  5
2F4
100
AcDbEntity
  8
0
100
AcDbLine
 62
7
  6
CONTINUOUS
 10
5.2318898592
 20
2.5562084523
 11
5.231681414
 21
2.5586208643
  0
LINE
  5
2F5
100
AcDbEntity
  8
0
100
AcDbLine
 62
7
  6
CONTINUOUS
 10
5.2319575689
 20
2.5558918054
 11
5.2317206605
 21
2.5586336262
  0
LINE
  5
2F6
100
AcDbEntity
  8
0
100
AcDbLine
 62
7
  6
CONTINUOUS
 10
5.0596777257
 20
2.5760569692
 11
5.0572870782
 21
2.6046188032
  0
LINE
  5
2F7
100
AcDbEntity
  8
0
100
AcDbLine
 62
7
  6
CONTINUOUS
 10
5.0597939884
 20
2.575513271
 11
5.0535557308
 21
2.6500430153
  0
LINE
  5
2F8
100
AcDbEntity
  8
ALL_FEATURES
100
AcDbLine
 62
7
  6
CONTINUOUS
 10
5.0359503345
 20
5.8121717244
 11
5.035955094
 21
5.4900438753
  0
LINE
  5
2F9
100
AcDbEntity
  8
0
100
AcDbLine
 62
7
  6
CONTINUOUS
 10
5.1969095645
 20
4.8096472208
 11
5.1969095643
 21
5.1096472197
  0
LINE
  5
2FA
100
AcDbEntity
  8
0
100
AcDbLine
 62
7
  6
CONTINUOUS
 10
4.970291263
 20
2.5558100115
 11
4.9705945754
 21
2.5591526759
  0
LINE
  5
2FB
100
AcDbEntity
  8
0
100
AcDbLine
 62
7
  6
CONTINUOUS
 10
4.9715422939
 20
2.5635763137
 11
4.9796149997
 21
2.6500426738
  0
LINE
  5
2FC
100
AcDbEntity
  8
ALL_FEATURES
100
AcDbLine
 62
7
  6
CONTINUOUS
 10
5.8858931315
 20
5.3571203561
 11
5.8340515404
 21
5.3052772334
  0
LINE
  5
2FD
100
AcDbEntity
  8
0
100
AcDbLine
 62
7
  6
CONTINUOUS
 10
1.6798419618
 20
3.61230947
 11
2.5464745767
 21
3.6123222761
  0
LINE
  5
2FE
100
AcDbEntity
  8
0
100
AcDbLine
 62
7
  6
CONTINUOUS
 10
1.6798455412
 20
3.6323077707
 11
2.5264746445
 21
3.6323202812
  0
LINE
  5
2FF
100
AcDbEntity
  8
0
100
AcDbLine
 62
7
  6
CONTINUOUS
 10
5.6236155337
 20
2.5561713212
 11
5.619322536
 21
2.6046188032
  0
LINE
  5
300
100
AcDbEntity
  8
0
100
AcDbLine
 62
7
  6
CONTINUOUS
 10
5.6236832463
 20
2.555854642
 11
5.6153364939
 21
2.6500494546
  0
LINE
  5
301
100
AcDbEntity
  8
0
100
AcDbLine
 62
7
  6
CONTINUOUS
 10
5.4025862022
 20
2.5641192289
 11
5.3990426292
 21
2.6046188032
  0
LINE
  5
302
100
AcDbEntity
  8
0
100
AcDbLine
 62
7
  6
CONTINUOUS
 10
5.40944167
 20
2.5636899837
 11
5.4018800414
 21
2.6500462192
  0
LINE
  5
303
100
AcDbEntity
  8
ALL_FEATURES
100
AcDbLine
 62
7
  6
CONTINUOUS
 10
5.3638277456
 20
5.6871396095
 11
5.3638306582
 21
5.4900117599
  0
LINE
  5
304
100
AcDbEntity
  8
0
100
AcDbLine
 62
7
  6
CONTINUOUS
 10
5.3534581669
 20
2.555850707
 11
5.3618020947
 21
2.650045708
  0
LINE
  5
305
100
AcDbEntity
  8
0
100
AcDbLine
 62
7
  6
CONTINUOUS
 10
5.2447629527
 20
2.575365547
 11
5.2515882333
 21
2.6500444991
  0
LINE
  5
306
100
AcDbEntity
  8
0
100
AcDbLine
 62
7
  6
CONTINUOUS
 10
1.6798398616
 20
3.9493791909
 11
2.5264699597
 21
3.9493917014
  0
LINE
  5
307
100
AcDbEntity
  8
0
100
AcDbLine
 62
7
  6
CONTINUOUS
 10
2.5264699597
 20
3.9493917014
 11
2.5464695964
 21
3.9493936962
  0
LINE
  5
308
100
AcDbEntity
  8
0
100
AcDbLine
 62
7
  6
CONTINUOUS
 10
1.679836686
 20
3.9693808901
 11
2.5264693009
 21
3.9693934006
  0
LINE
  5
309
100
AcDbEntity
  8
0
100
AcDbLine
 62
7
  6
CONTINUOUS
 10
1.679836686
 20
3.9693808901
 11
1.6798354548
 21
3.9693808901
  0
LINE
  5
30A
100
AcDbEntity
  8
0
100
AcDbLine
 62
7
  6
CONTINUOUS
 10
2.5267296304
 20
3.9693917101
 11
2.5264693009
 21
3.9693934006
  0
LINE
  5
30B
100
AcDbEntity
  8
0
100
AcDbLine
 62
7
  6
CONTINUOUS
 10
5.732426426
 20
2.5753727904
 11
5.7255988422
 21
2.6500515041
  0
LINE
  5
30C
100
AcDbEntity
  8
ALL_FEATURES
100
AcDbLine
 62
7
  6
CONTINUOUS
 10
5.6130766172
 20
5.6871432922
 11
5.6130795298
 21
5.4900154426
  0
LINE
  5
30D
100
AcDbEntity
  8
0
100
AcDbLine
 62
7
  6
CONTINUOUS
 10
5.780004754
 20
4.8096472208
 11
5.7800047537
 21
5.1096472197
  0
LINE
  5
30E
100
AcDbEntity
  8
0
100
AcDbLine
 62
7
  6
CONTINUOUS
 10
5.5744872676
 20
2.5636937854
 11
5.5820404387
 21
2.6500488952
  0
LINE
  5
30F
100
AcDbEntity
  8
0
100
AcDbLine
 62
7
  6
CONTINUOUS
 10
6.0121874249
 20
2.5635904888
 11
6.0041064159
 21
2.6500578799
  0
LINE
  5
310
100
AcDbEntity
  8
0
100
AcDbLine
 62
7
  6
CONTINUOUS
 10
6.0055311782
 20
2.5640072904
 11
6.0017383644
 21
2.6046188032
  0
LINE
  5
311
100
AcDbEntity
  8
0
100
AcDbLine
 62
7
  6
CONTINUOUS
 10
6.0067824381
 20
2.5561281198
 11
6.0023809551
 21
2.6046188032
  0
LINE
  5
312
100
AcDbEntity
  8
0
100
AcDbLine
 62
7
  6
CONTINUOUS
 10
6.0068471942
 20
2.5558252489
 11
5.9982937235
 21
2.650057735
  0
LINE
  5
313
100
AcDbEntity
  8
ALL_FEATURES
100
AcDbLine
 62
7
  6
CONTINUOUS
 10
5.9409503344
 20
5.812185096
 11
5.9409550939
 21
5.4900572469
  0
LINE
  5
314
100
AcDbEntity
  8
0
100
AcDbLine
 62
7
  6
CONTINUOUS
 10
5.9173953855
 20
2.5755258893
 11
5.9236313458
 21
2.6500558732
  0
LINE
  5
315
100
AcDbEntity
  8
0
100
AcDbLine
 62
7
  6
CONTINUOUS
 10
5.7451838408
 20
2.5558994232
 11
5.7454220932
 21
2.5586577606
  0
LINE
  5
316
100
AcDbEntity
  8
0
100
AcDbLine
 62
7
  6
CONTINUOUS
 10
6.4533127206
 20
4.6647435171
 11
4.5235706493
 21
4.6647150017
  0
LINE
  5
317
100
AcDbEntity
  8
0
100
AcDbLine
 62
7
  6
CONTINUOUS
 10
6.4133213935
 20
4.6847309723
 11
5.7933086768
 21
4.6846476541
  0
LINE
  5
318
100
AcDbEntity
  8
0
100
AcDbLine
 62
7
  6
CONTINUOUS
 10
5.7933086768
 20
4.6846476541
 11
4.6280441314
 21
4.6846757693
  0
LINE
  5
319
100
AcDbEntity
  8
0
100
AcDbLine
 62
7
  6
CONTINUOUS
 10
5.1969095645
 20
4.8096472208
 11
5.780004754
 21
4.8096472208
  0
LINE
  5
31A
100
AcDbEntity
  8
0
100
AcDbLine
 62
7
  6
CONTINUOUS
 10
4.6280441314
 20
4.6846757693
 11
4.5635613858
 21
4.6847036387
  0
LINE
  5
31B
100
AcDbEntity
  8
ALL_FEATURES
100
AcDbLine
 62
7
  6
CONTINUOUS
 10
5.0910209848
 20
5.3571086117
 11
5.1428641078
 21
5.3052670209
  0
LINE
  5
31C
100
AcDbEntity
  8
0
100
AcDbLine
 62
7
  6
CONTINUOUS
 10
6.3903546368
 20
2.5752473112
 11
6.3829482455
 21
2.6500693008
  0
LINE
  5
31D
100
AcDbEntity
  8
0
100
AcDbLine
 62
7
  6
CONTINUOUS
 10
6.5736330176
 20
2.5638894658
 11
6.5732008432
 21
2.5682570417
  0
LINE
  5
31E
100
AcDbEntity
  8
0
100
AcDbLine
 62
7
  6
CONTINUOUS
 10
6.5797032095
 20
2.5635093315
 11
6.5767062522
 21
2.593778668
  0
LINE
  5
31F
100
AcDbEntity
  8
0
100
AcDbLine
 62
7
  6
CONTINUOUS
 10
6.3647033221
 20
2.5558049111
 11
6.355956993
 21
2.6500684031
  0
LINE
  5
320
100
AcDbEntity
  8
0
100
AcDbLine
 62
7
  6
CONTINUOUS
 10
6.3634652858
 20
4.6847173182
 11
6.3634652854
 21
5.1097173167
  0
LINE
  5
321
100
AcDbEntity
  8
0
100
AcDbLine
 62
7
  6
CONTINUOUS
 10
6.1772345322
 20
2.5638237247
 11
6.1842695288
 21
2.6500629181
  0
LINE
  5
322
100
AcDbEntity
  8
0
100
AcDbLine
 62
7
  6
CONTINUOUS
 10
5.7800047537
 20
5.1096472197
 11
6.3634652854
 21
5.1097173167
  0
LINE
  5
323
100
AcDbEntity
  8
0
100
AcDbLine
 62
7
  6
CONTINUOUS
 10
5.1969095643
 20
5.1096472197
 11
5.7800047537
 21
5.1096472197
  0
LINE
  5
324
100
AcDbEntity
  8
0
100
AcDbLine
 62
7
  6
CONTINUOUS
 10
4.6134652854
 20
5.1097173152
 11
5.1969095643
 21
5.1096472197
  0
LINE
  5
325
100
AcDbEntity
  8
0
100
AcDbLine
 62
7
  6
CONTINUOUS
 10
6.5753296995
 20
2.5756946532
 11
6.5809916406
 21
2.6500765681
  0
LINE
  5
326
100
AcDbEntity
  8
ALL_FEATURES
100
AcDbLine
 62
7
  6
CONTINUOUS
 10
5.8340787319
 20
5.192114645
 11
5.4884594961
 21
5.1920801728
  0
LINE
  5
327
100
AcDbEntity
  8
ALL_FEATURES
100
AcDbLine
 62
7
  6
CONTINUOUS
 10
5.8340515404
 20
5.3052772334
 11
5.4884578241
 21
5.3052427662
  0
LINE
  5
328
100
AcDbEntity
  8
ALL_FEATURES
100
AcDbLine
 62
7
  6
CONTINUOUS
 10
5.4884570581
 20
5.3570807185
 11
5.8858931316
 21
5.3571203562
  0
LINE
  5
329
100
AcDbEntity
  8
ALL_FEATURES
100
AcDbLine
 62
7
  6
CONTINUOUS
 10
5.1428402604
 20
5.1921044317
 11
5.4884594961
 21
5.1920801728
  0
LINE
  5
32A
100
AcDbEntity
  8
ALL_FEATURES
100
AcDbLine
 62
7
  6
CONTINUOUS
 10
5.1428641078
 20
5.3052670209
 11
5.4884578241
 21
5.3052427662
  0
LINE
  5
32B
100
AcDbEntity
  8
ALL_FEATURES
100
AcDbLine
 62
7
  6
CONTINUOUS
 10
5.0910209847
 20
5.3571086117
 11
5.4884570581
 21
5.3570807185
  0
LINE
  5
32C
100
AcDbEntity
  8
0
100
AcDbLine
 62
7
  6
CONTINUOUS
 10
7.0048243934
 20
2.5751423466
 11
6.9968754601
 21
2.6500950443
  0
LINE
  5
32D
100
AcDbEntity
  8
0
100
AcDbLine
 62
7
  6
CONTINUOUS
 10
6.9437217158
 20
2.5557945237
 11
6.9346645573
 21
2.6500919819
  0
LINE
  5
32E
100
AcDbEntity
  8
0
100
AcDbLine
 62
7
  6
CONTINUOUS
 10
6.7447544783
 20
2.563958582
 11
6.7513026903
 21
2.6500836085
  0
LINE
  5
32F
100
AcDbEntity
  8
0
100
AcDbLine
 62
7
  6
CONTINUOUS
 10
6.8031132857
 20
2.5560712195
 11
6.8106739324
 21
2.6500862204
  0
LINE
  5
330
100
AcDbEntity
  8
ALL_FEATURES
100
AcDbLine
 62
7
  6
CONTINUOUS
 10
5.6130795298
 20
5.4900154426
 11
5.9409550939
 21
5.4900572469
  0
LINE
  5
331
100
AcDbEntity
  8
ALL_FEATURES
100
AcDbLine
 62
7
  6
CONTINUOUS
 10
5.6130766172
 20
5.6871432922
 11
5.3638277456
 21
5.6871396095
  0
LINE
  5
332
100
AcDbEntity
  8
ALL_FEATURES
100
AcDbLine
 62
7
  6
CONTINUOUS
 10
5.035955094
 20
5.4900438753
 11
5.3638306582
 21
5.4900117599
  0
LINE
  5
333
100
AcDbEntity
  8
0
100
AcDbLine
 62
7
  6
CONTINUOUS
 10
7.4771884813
 20
2.563663585
 11
7.4678686382
 21
2.6501216191
  0
LINE
  5
334
100
AcDbEntity
  8
0
100
AcDbLine
 62
7
  6
CONTINUOUS
 10
7.4810828081
 20
2.5634196513
 11
7.4717333581
 21
2.6501218728
  0
LINE
  5
335
100
AcDbEntity
  8
0
100
AcDbLine
 62
7
  6
CONTINUOUS
 10
7.1898106151
 20
2.575864477
 11
7.1949386215
 21
2.6501054775
  0
LINE
  5
336
100
AcDbEntity
  8
0
100
AcDbLine
 62
7
  6
CONTINUOUS
 10
7.0652238886
 20
2.5561286516
 11
7.0653354312
 21
2.5575415761
  0
LINE
  5
337
100
AcDbEntity
  8
ALL_FEATURES
100
AcDbLine
 62
7
  6
CONTINUOUS
 10
5.9409503344
 20
5.812185096
 11
5.4884503345
 21
5.8121399635
  0
LINE
  5
338
100
AcDbEntity
  8
ALL_FEATURES
100
AcDbLine
 62
7
  6
CONTINUOUS
 10
5.0359503345
 20
5.8121717244
 11
5.4884503345
 21
5.8121399635
  0
LINE
  5
339
100
AcDbEntity
  8
0
100
AcDbLine
 62
7
  6
CONTINUOUS
 10
7.244064555
 20
2.5640905319
 11
7.250185262
 21
2.6501085741
  0
LINE
  5
33A
100
AcDbEntity
  8
0
100
AcDbLine
 62
7
  6
CONTINUOUS
 10
7.4302836682
 20
2.65011932
 11
7.4230635314
 21
2.5562671401
  0
LINE
  5
33B
100
AcDbEntity
  8
0
100
AcDbLine
 62
7
  6
CONTINUOUS
 10
7.382124069
 20
2.5562288684
 11
7.3893685831
 21
2.6501168171
  0
LINE
  5
33C
100
AcDbEntity
  8
0
100
AcDbLine
 62
7
  6
CONTINUOUS
 10
7.2610807885
 20
2.5561819884
 11
7.2683923341
 21
2.6501095946
  0
LINE
  5
33D
100
AcDbEntity
  8
0
100
AcDbLine
 62
7
  6
CONTINUOUS
 10
6.9153242612
 20
2.6399030744
 11
6.8917557187
 21
2.6163345319
  0
LINE
  5
33E
100
AcDbEntity
  8
0
100
AcDbLine
 62
7
  6
CONTINUOUS
 10
7.5489811333
 20
2.575062537
 11
7.5405504327
 21
2.6501264537
  0
LINE
  5
33F
100
AcDbEntity
  8
0
100
AcDbLine
 62
7
  6
CONTINUOUS
 10
7.7601317658
 20
2.5635687076
 11
7.7505596752
 21
2.6501411255
  0
LINE
  5
340
100
AcDbEntity
  8
0
100
AcDbLine
 62
7
  6
CONTINUOUS
 10
7.7625627357
 20
2.5634163975
 11
7.7529717343
 21
2.6501412999
  0
LINE
  5
341
100
AcDbEntity
  8
0
100
AcDbLine
 62
7
  6
CONTINUOUS
 10
7.733981648
 20
2.5760279647
 11
7.7386384958
 21
2.6501402638
  0
LINE
  5
342
100
AcDbEntity
  8
0
100
AcDbLine
 62
7
  6
CONTINUOUS
 10
7.9990435126
 20
2.5750113928
 11
7.9902139544
 21
2.6501600488
  0
LINE
  5
343
100
AcDbEntity
  8
0
100
AcDbLine
 62
7
  6
CONTINUOUS
 10
7.9276312944
 20
2.5643157307
 11
7.9331666514
 21
2.6501552252
  0
LINE
  5
344
100
AcDbEntity
  8
0
100
AcDbLine
 62
7
  6
CONTINUOUS
 10
8.3353425865
 20
2.5749913098
 11
8.3262157763
 21
2.650191129
  0
LINE
  5
345
100
AcDbEntity
  8
0
100
AcDbLine
 62
7
  6
CONTINUOUS
 10
8.1840589916
 20
2.5761780075
 11
8.1883271949
 21
2.6501776298
  0
LINE
  5
346
100
AcDbEntity
  8
0
100
AcDbLine
 62
7
  6
CONTINUOUS
 10
8.543181305
 20
2.5750031791
 11
8.5338731067
 21
2.6502138625
  0
LINE
  5
347
100
AcDbEntity
  8
0
100
AcDbLine
 62
7
  6
CONTINUOUS
 10
8.728218809
 20
2.5764125136
 11
8.7320170005
 21
2.65023878
  0
LINE
  5
348
100
AcDbEntity
  8
0
100
AcDbLine
 62
7
  6
CONTINUOUS
 10
8.5203711427
 20
2.5763080726
 11
8.5243492309
 21
2.6502127417
  0
LINE
  5
349
100
AcDbEntity
  8
0
100
AcDbLine
 62
7
  6
CONTINUOUS
 10
8.8022530045
 20
2.6502486353
 11
8.7985175127
 21
2.5764873708
  0
LINE
  5
34A
100
AcDbEntity
  8
0
100
AcDbLine
 62
7
  6
CONTINUOUS
 10
9.721969757
 20
2.7647798702
 11
9.7219708139
 21
2.6932488075
  0
ARC
  5
34B
100
AcDbEntity
  8
0
100
AcDbCircle
 62
7
  6
CONTINUOUS
 10
4.1856584327
 20
-19.215603657
 40
21.7717027165
100
AcDbArc
 50
89.8549837936
 51
89.977753214
  0
ARC
  5
34C
100
AcDbEntity
  8
0
100
AcDbCircle
 62
7
  6
CONTINUOUS
 10
1.0884644018
 20
3.1272522756
 40
0.375
100
AcDbArc
 50
311.097660038
 51
355.4448740188
  0
ARC
  5
34D
100
AcDbEntity
  8
0
100
AcDbCircle
 62
7
  6
CONTINUOUS
 10
1.4723152044
 20
3.4545391212
 40
0.33
100
AcDbArc
 50
273.1640099221
 51
344.4553890905
  0
ARC
  5
34E
100
AcDbEntity
  8
0
100
AcDbCircle
 62
7
  6
CONTINUOUS
 10
1.846471939
 20
3.7908476424
 40
0.25
100
AcDbArc
 50
136.4272544037
 51
223.5744388093
  0
ARC
  5
34F
100
AcDbEntity
  8
0
100
AcDbCircle
 62
7
  6
CONTINUOUS
 10
1.8464723023
 20
3.7908459431
 40
0.23
100
AcDbArc
 50
136.426822244
 51
223.575041793
  0
ARC
  5
350
100
AcDbEntity
  8
0
100
AcDbCircle
 62
7
  6
CONTINUOUS
 10
1.3349697593
 20
2.7646559372
 40
0.08
100
AcDbArc
 50
90.0008465601
 51
180.0008466485
  0
ARC
  5
351
100
AcDbEntity
  8
0
100
AcDbCircle
 62
7
  6
CONTINUOUS
 10
1.9604378275
 20
3.3897471702
 40
0.08
100
AcDbArc
 50
90.0008465601
 51
154.1216487418
  0
ARC
  5
352
100
AcDbEntity
  8
0
100
AcDbCircle
 62
7
  6
CONTINUOUS
 10
1.8673182599
 20
3.3446638015
 40
0.08
100
AcDbArc
 50
90.0008465601
 51
164.4553890904
  0
ARC
  5
353
100
AcDbEntity
  8
0
100
AcDbCircle
 62
7
  6
CONTINUOUS
 10
1.2849708155
 20
2.6931241421
 40
0.03
100
AcDbArc
 50
180.0008465601
 51
267.0008465493
  0
ARC
  5
354
100
AcDbEntity
  8
0
100
AcDbCircle
 62
7
  6
CONTINUOUS
 10
1.4921851624
 20
3.0950878953
 40
0.03
100
AcDbArc
 50
93.164009922
 51
175.4448740186
  0
ARC
  5
355
100
AcDbEntity
  8
0
100
AcDbCircle
 62
7
  6
CONTINUOUS
 10
2.5264639644
 20
3.9494197398
 40
0.02
100
AcDbArc
 50
0.0008466485
 51
90.0008465601
  0
ARC
  5
356
100
AcDbEntity
  8
0
100
AcDbCircle
 62
7
  6
CONTINUOUS
 10
1.6798416663
 20
3.6323094699
 40
0.02
100
AcDbArc
 50
223.5744388093
 51
270.0008465601
  0
ARC
  5
357
100
AcDbEntity
  8
0
100
AcDbCircle
 62
7
  6
CONTINUOUS
 10
1.6798313494
 20
3.9494072293
 40
0.02
100
AcDbArc
 50
90.0008465601
 51
136.4272544037
  0
ARC
  5
358
100
AcDbEntity
  8
0
100
AcDbCircle
 62
7
  6
CONTINUOUS
 10
2.2685513301
 20
2.5773296621
 40
0.019684802
100
AcDbArc
 50
182.946742494
 51
269.9631625822
  0
ARC
  5
359
100
AcDbEntity
  8
0
100
AcDbCircle
 62
7
  6
CONTINUOUS
 10
2.4764224552
 20
2.5772781574
 40
0.019684802
100
AcDbArc
 50
183.0827999992
 51
269.9565552276
  0
ARC
  5
35A
100
AcDbEntity
  8
0
100
AcDbCircle
 62
7
  6
CONTINUOUS
 10
2.8127506063
 20
2.5772334286
 40
0.019684802
100
AcDbArc
 50
183.302987038
 51
269.9618706176
  0
ARC
  5
35B
100
AcDbEntity
  8
0
100
AcDbCircle
 62
7
  6
CONTINUOUS
 10
2.1982220296
 20
2.5773855565
 40
0.019684799
100
AcDbArc
 50
182.8997554177
 51
269.9645454109
  0
ARC
  5
35C
100
AcDbEntity
  8
0
100
AcDbCircle
 62
7
  6
CONTINUOUS
 10
2.4143664793
 20
2.577331832
 40
0.019684799
100
AcDbArc
 50
269.9849946789
 51
352.9464511827
  0
ARC
  5
35D
100
AcDbEntity
  8
0
100
AcDbCircle
 62
7
  6
CONTINUOUS
 10
2.6222201646
 20
2.5772803245
 40
0.019684799
100
AcDbArc
 50
270.0569118188
 51
353.0816858592
  0
ARC
  5
35E
100
AcDbEntity
  8
0
100
AcDbCircle
 62
7
  6
CONTINUOUS
 10
2.9585324428
 20
2.5772355914
 40
0.019684799
100
AcDbArc
 50
270.0430706754
 51
353.3006592812
  0
ARC
  5
35F
100
AcDbEntity
  8
0
100
AcDbCircle
 62
7
  6
CONTINUOUS
 10
3.0715249593
 20
2.5655109794
 40
0.0196847838
100
AcDbArc
 50
183.6926453419
 51
269.9999546114
  0
ARC
  5
360
100
AcDbEntity
  8
0
100
AcDbCircle
 62
7
  6
CONTINUOUS
 10
2.9253912956
 20
2.5655591558
 40
0.0196847838
100
AcDbArc
 50
204.0524488779
 51
269.9997220429
  0
ARC
  5
361
100
AcDbEntity
  8
0
100
AcDbCircle
 62
7
  6
CONTINUOUS
 10
3.1973682783
 20
2.5655128557
 40
0.0196847692
100
AcDbArc
 50
270.0017437454
 51
353.6922662786
  0
ARC
  5
362
100
AcDbEntity
  8
0
100
AcDbCircle
 62
7
  6
CONTINUOUS
 10
2.9245647579
 20
2.5656106139
 40
0.0196847692
100
AcDbArc
 50
204.2137588001
 51
269.9998469881
  0
ARC
  5
363
100
AcDbEntity
  8
0
100
AcDbCircle
 62
7
  6
CONTINUOUS
 10
3.0690938118
 20
2.5656626078
 40
0.0196847692
100
AcDbArc
 50
241.2002789925
 51
270.0000793674
  0
ARC
  5
364
100
AcDbEntity
  8
0
100
AcDbCircle
 62
7
  6
CONTINUOUS
 10
3.0512418866
 20
2.565561041
 40
0.0196847692
100
AcDbArc
 50
270.0019841656
 51
300.934877028
  0
ARC
  5
365
100
AcDbEntity
  8
0
100
AcDbCircle
 62
7
  6
CONTINUOUS
 10
2.4594190296
 20
3.5983239635
 40
0.015
100
AcDbArc
 50
0.0008466485
 51
69.0327850426
  0
ARC
  5
366
100
AcDbEntity
  8
0
100
AcDbCircle
 62
7
  6
CONTINUOUS
 10
2.1240821325
 20
6.4653967668
 40
3.0
100
AcDbArc
 50
278.0840492881
 51
323.1138245833
  0
ARC
  5
367
100
AcDbEntity
  8
0
100
AcDbCircle
 62
7
  6
CONTINUOUS
 10
2.124082132
 20
6.465396772
 40
3.0
100
AcDbArc
 50
272.8310153203
 51
275.1996040143
  0
ARC
  5
368
100
AcDbEntity
  8
0
100
AcDbCircle
 62
7
  6
CONTINUOUS
 10
3.9315153614
 20
2.5576320651
 40
0.0196848528
100
AcDbArc
 50
184.5155419286
 51
270.0008465601
  0
ARC
  5
369
100
AcDbEntity
  8
0
100
AcDbCircle
 62
7
  6
CONTINUOUS
 10
3.6145925653
 20
2.5576881965
 40
0.0196848528
100
AcDbArc
 50
184.4139720586
 51
270.0008465601
  0
ARC
  5
36A
100
AcDbEntity
  8
0
100
AcDbCircle
 62
7
  6
CONTINUOUS
 10
4.1936338376
 20
2.5576110586
 40
0.0196848528
100
AcDbArc
 50
184.599534474
 51
270.0008465601
  0
ARC
  5
36B
100
AcDbEntity
  8
0
100
AcDbCircle
 62
7
  6
CONTINUOUS
 10
3.7356481579
 20
2.5576581572
 40
0.0196848528
100
AcDbArc
 50
184.4527708141
 51
270.0008465601
  0
ARC
  5
36C
100
AcDbEntity
  8
0
100
AcDbCircle
 62
7
  6
CONTINUOUS
 10
3.573639089
 20
2.5577206929
 40
0.0196848512
100
AcDbArc
 50
184.4006380957
 51
269.9952154266
  0
ARC
  5
36D
100
AcDbEntity
  8
0
100
AcDbCircle
 62
7
  6
CONTINUOUS
 10
4.0137954874
 20
2.5576332821
 40
0.0196848512
100
AcDbArc
 50
270.0008465601
 51
354.5153520542
  0
ARC
  5
36E
100
AcDbEntity
  8
0
100
AcDbCircle
 62
7
  6
CONTINUOUS
 10
3.6968730421
 20
2.557689415
 40
0.0196848512
100
AcDbArc
 50
270.0008465601
 51
350.4503485482
  0
ARC
  5
36F
100
AcDbEntity
  8
0
100
AcDbCircle
 62
7
  6
CONTINUOUS
 10
4.2759138341
 20
2.5576122805
 40
0.0196848512
100
AcDbArc
 50
270.0008465601
 51
322.7745721725
  0
ARC
  5
370
100
AcDbEntity
  8
0
100
AcDbCircle
 62
7
  6
CONTINUOUS
 10
3.8179284461
 20
2.557659375
 40
0.0196848512
100
AcDbArc
 50
270.0008465601
 51
322.7215058179
  0
ARC
  5
371
100
AcDbEntity
  8
0
100
AcDbCircle
 62
7
  6
CONTINUOUS
 10
3.2628366379
 20
2.5771974318
 40
0.0196848108
100
AcDbArc
 50
183.5975471054
 51
269.9705660931
  0
ARC
  5
372
100
AcDbEntity
  8
0
100
AcDbCircle
 62
7
  6
CONTINUOUS
 10
3.8070096139
 20
2.577171745
 40
0.0196848108
100
AcDbArc
 50
183.9534639572
 51
269.9813980005
  0
ARC
  5
373
100
AcDbEntity
  8
0
100
AcDbCircle
 62
7
  6
CONTINUOUS
 10
3.4086048483
 20
2.5771995841
 40
0.0196847946
100
AcDbArc
 50
270.0311013389
 51
353.5938255762
  0
ARC
  5
374
100
AcDbEntity
  8
0
100
AcDbCircle
 62
7
  6
CONTINUOUS
 10
3.9527670693
 20
2.5771738787
 40
0.0196847946
100
AcDbArc
 50
270.0202532358
 51
353.9484097941
  0
ARC
  5
375
100
AcDbEntity
  8
0
100
AcDbCircle
 62
7
  6
CONTINUOUS
 10
3.8836121938
 20
2.5654383241
 40
0.0196847843
100
AcDbArc
 50
270.0013222731
 51
336.1338057283
  0
ARC
  5
376
100
AcDbEntity
  8
0
100
AcDbCircle
 62
7
  6
CONTINUOUS
 10
3.3544694569
 20
2.5654692735
 40
0.0196847838
100
AcDbArc
 50
203.86151716
 51
270.0001668732
  0
ARC
  5
377
100
AcDbEntity
  8
0
100
AcDbCircle
 62
7
  6
CONTINUOUS
 10
3.3505749878
 20
2.5657122573
 40
0.0196847692
100
AcDbArc
 50
204.6228969656
 51
270.0002871793
  0
ARC
  5
378
100
AcDbEntity
  8
0
100
AcDbCircle
 62
7
  6
CONTINUOUS
 10
3.4803061558
 20
2.5654711372
 40
0.0196847692
100
AcDbArc
 50
270.0015203766
 51
353.8492409983
  0
ARC
  5
379
100
AcDbEntity
  8
0
100
AcDbCircle
 62
7
  6
CONTINUOUS
 10
3.7577810782
 20
2.565436449
 40
0.0196847686
100
AcDbArc
 50
184.0747470843
 51
270.0003380107
  0
ARC
  5
37A
100
AcDbEntity
  8
0
100
AcDbCircle
 62
7
  6
CONTINUOUS
 10
4.258020824
 20
2.5654144225
 40
0.0196847686
100
AcDbArc
 50
184.3531216953
 51
270.0004888786
  0
ARC
  5
37B
100
AcDbEntity
  8
0
100
AcDbCircle
 62
7
  6
CONTINUOUS
 10
4.0333343624
 20
2.6116188032
 40
0.04
100
AcDbArc
 50
45.0
 51
74.0154407019
  0
ARC
  5
37C
100
AcDbEntity
  8
0
100
AcDbCircle
 62
7
  6
CONTINUOUS
 10
4.1134714474
 20
2.6446188032
 40
0.04
100
AcDbArc
 50
225.0
 51
270.0
  0
ARC
  5
37D
100
AcDbEntity
  8
0
100
AcDbCircle
 62
7
  6
CONTINUOUS
 10
5.2515697841
 20
2.5575864071
 40
0.0196848528
100
AcDbArc
 50
184.9384150206
 51
270.0008465601
  0
ARC
  5
37E
100
AcDbEntity
  8
0
100
AcDbCircle
 62
7
  6
CONTINUOUS
 10
4.5105477536
 20
2.5575960585
 40
0.0196848528
100
AcDbArc
 50
184.7010692074
 51
270.0008465601
  0
ARC
  5
37F
100
AcDbEntity
  8
0
100
AcDbCircle
 62
7
  6
CONTINUOUS
 10
4.8684064499
 20
2.5575877199
 40
0.0196848528
100
AcDbArc
 50
217.1711417983
 51
270.0008465601
  0
ARC
  5
380
100
AcDbEntity
  8
0
100
AcDbCircle
 62
7
  6
CONTINUOUS
 10
5.333849633
 20
2.5575876607
 40
0.0196848512
100
AcDbArc
 50
270.0008465601
 51
354.9378711181
  0
ARC
  5
381
100
AcDbEntity
  8
0
100
AcDbCircle
 62
7
  6
CONTINUOUS
 10
4.592827657
 20
2.5575972919
 40
0.0196848512
100
AcDbArc
 50
270.0008465601
 51
354.7006567451
  0
ARC
  5
382
100
AcDbEntity
  8
0
100
AcDbCircle
 62
7
  6
CONTINUOUS
 10
4.9506863033
 20
2.557588964
 40
0.0196848512
100
AcDbArc
 50
270.0008465601
 51
354.8152037025
  0
ARC
  5
383
100
AcDbEntity
  8
0
100
AcDbCircle
 62
7
  6
CONTINUOUS
 10
4.4214865727
 20
2.5771574863
 40
0.0196848108
100
AcDbArc
 50
184.3550668566
 51
269.9917976992
  0
ARC
  5
384
100
AcDbEntity
  8
0
100
AcDbCircle
 62
7
  6
CONTINUOUS
 10
5.0794119226
 20
2.5771552787
 40
0.0196848108
100
AcDbArc
 50
184.7847397388
 51
269.9981366976
  0
ARC
  5
385
100
AcDbEntity
  8
0
100
AcDbCircle
 62
7
  6
CONTINUOUS
 10
4.5672365988
 20
2.5771595993
 40
0.0196847946
100
AcDbArc
 50
270.0098389424
 51
354.3489717464
  0
ARC
  5
386
100
AcDbEntity
  8
0
100
AcDbCircle
 62
7
  6
CONTINUOUS
 10
5.2251581698
 20
2.57715737
 40
0.0196847946
100
AcDbArc
 50
270.0034905591
 51
354.7780750675
  0
ARC
  5
387
100
AcDbEntity
  8
0
100
AcDbCircle
 62
7
  6
CONTINUOUS
 10
4.9519408514
 20
2.5654063799
 40
0.0196847843
100
AcDbArc
 50
270.0010986481
 51
354.6662639493
  0
ARC
  5
388
100
AcDbEntity
  8
0
100
AcDbCircle
 62
7
  6
CONTINUOUS
 10
4.3838477161
 20
2.5654163121
 40
0.0196847843
100
AcDbArc
 50
270.0011851481
 51
354.3507707227
  0
ARC
  5
389
100
AcDbEntity
  8
0
100
AcDbCircle
 62
7
  6
CONTINUOUS
 10
5.4221973075
 20
2.5658351333
 40
0.0196847689
100
AcDbArc
 50
185.0004373659
 51
270.0006595616
  0
ARC
  5
38A
100
AcDbEntity
  8
0
100
AcDbCircle
 62
7
  6
CONTINUOUS
 10
4.819460364
 20
2.5658199526
 40
0.0196847689
100
AcDbArc
 50
184.6653850332
 51
270.00064718
  0
ARC
  5
38B
100
AcDbEntity
  8
0
100
AcDbCircle
 62
7
  6
CONTINUOUS
 10
4.8261165762
 20
2.5654044754
 40
0.0196847686
100
AcDbArc
 50
184.6690886285
 51
270.0005895435
  0
ARC
  5
38C
100
AcDbEntity
  8
0
100
AcDbCircle
 62
7
  6
CONTINUOUS
 10
5.4290526744
 20
2.5654071857
 40
0.0196847686
100
AcDbArc
 50
185.0042498386
 51
270.0006341611
  0
ARC
  5
38D
100
AcDbEntity
  8
ALL_FEATURES
100
AcDbCircle
 62
7
  6
CONTINUOUS
 10
5.223955094
 20
5.4900466531
 40
0.188
100
AcDbArc
 50
180.0008465601
 51
225.0008464567
  0
ARC
  5
38E
100
AcDbEntity
  8
ALL_FEATURES
100
AcDbCircle
 62
7
  6
CONTINUOUS
 10
5.0862963999
 20
5.2486976453
 40
0.08
100
AcDbArc
 50
314.9750061991
 51
45.0008464567
  0
ARC
  5
38F
100
AcDbEntity
  8
0
100
AcDbCircle
 62
7
  6
CONTINUOUS
 10
4.5635621246
 20
4.6347036389
 40
0.05
100
AcDbArc
 50
90.0008465601
 51
143.1138245833
  0
ARC
  5
390
100
AcDbEntity
  8
0
100
AcDbCircle
 62
7
  6
CONTINUOUS
 10
6.7872384225
 20
-15.580844358
 40
18.1369803825
100
AcDbArc
 50
90.0133452661
 51
90.1416780976
  0
ARC
  5
391
100
AcDbEntity
  8
0
100
AcDbCircle
 62
7
  6
CONTINUOUS
 10
7.2189198181
 20
-9.287762804
 40
11.8520103465
100
AcDbArc
 50
90.0124161868
 51
90.1566130229
  0
ARC
  5
392
100
AcDbEntity
  8
0
100
AcDbCircle
 62
7
  6
CONTINUOUS
 10
6.026452011
 20
2.5576047791
 40
0.0196848528
100
AcDbArc
 50
185.1865118135
 51
270.0008465601
  0
ARC
  5
393
100
AcDbEntity
  8
0
100
AcDbCircle
 62
7
  6
CONTINUOUS
 10
6.384304832
 20
2.5576236609
 40
0.0196848528
100
AcDbArc
 50
185.3010566011
 51
270.0008465601
  0
ARC
  5
394
100
AcDbEntity
  8
0
100
AcDbCircle
 62
7
  6
CONTINUOUS
 10
5.64329168
 20
2.5575921776
 40
0.0196848528
100
AcDbArc
 50
185.063845537
 51
270.0008465601
  0
ARC
  5
395
100
AcDbEntity
  8
0
100
AcDbCircle
 62
7
  6
CONTINUOUS
 10
6.108731986
 20
2.5576060463
 40
0.0196848512
100
AcDbArc
 50
270.0008465601
 51
322.8297954057
  0
ARC
  5
396
100
AcDbEntity
  8
0
100
AcDbCircle
 62
7
  6
CONTINUOUS
 10
6.4665849321
 20
2.5576249316
 40
0.0196848512
100
AcDbArc
 50
270.0008465601
 51
355.3006442828
  0
ARC
  5
397
100
AcDbEntity
  8
0
100
AcDbCircle
 62
7
  6
CONTINUOUS
 10
5.72557157
 20
2.557593439
 40
0.0196848512
100
AcDbArc
 50
270.0008465601
 51
355.0633016686
  0
ARC
  5
398
100
AcDbEntity
  8
0
100
AcDbCircle
 62
7
  6
CONTINUOUS
 10
5.7520311687
 20
2.5771652187
 40
0.0196848108
100
AcDbArc
 50
185.223697691
 51
269.9984231188
  0
ARC
  5
399
100
AcDbEntity
  8
0
100
AcDbCircle
 62
7
  6
CONTINUOUS
 10
6.4099476224
 20
2.577186872
 40
0.0196848108
100
AcDbArc
 50
185.6527973581
 51
269.9924335428
  0
ARC
  5
39A
100
AcDbEntity
  8
0
100
AcDbCircle
 62
7
  6
CONTINUOUS
 10
5.8977774524
 20
2.5771672883
 40
0.0196847946
100
AcDbArc
 50
270.0032024703
 51
355.2170330421
  0
ARC
  5
39B
100
AcDbEntity
  8
0
100
AcDbCircle
 62
7
  6
CONTINUOUS
 10
6.5556977565
 20
2.5771889206
 40
0.0196847946
100
AcDbArc
 50
270.0091803611
 51
355.6467023141
  0
ARC
  5
39C
100
AcDbEntity
  8
0
100
AcDbCircle
 62
7
  6
CONTINUOUS
 10
6.1576130319
 20
2.5654243281
 40
0.0196847843
100
AcDbArc
 50
270.0010943766
 51
355.3363079501
  0
ARC
  5
39D
100
AcDbEntity
  8
0
100
AcDbCircle
 62
7
  6
CONTINUOUS
 10
5.5548760915
 20
2.5654091047
 40
0.0196847843
100
AcDbArc
 50
270.001067794
 51
355.001255587
  0
ARC
  5
39E
100
AcDbEntity
  8
0
100
AcDbCircle
 62
7
  6
CONTINUOUS
 10
6.025132551
 20
2.5658379428
 40
0.0196847689
100
AcDbArc
 50
185.3354289919
 51
198.8138865333
  0
ARC
  5
39F
100
AcDbEntity
  8
0
100
AcDbCircle
 62
7
  6
CONTINUOUS
 10
6.0317886644
 20
2.5654223959
 40
0.0196847686
100
AcDbArc
 50
185.3391288289
 51
270.0006201212
  0
ARC
  5
3A0
100
AcDbEntity
  8
0
100
AcDbCircle
 62
7
  6
CONTINUOUS
 10
7.1591726934
 20
2.5577085897
 40
0.0196848528
100
AcDbArc
 50
217.3157364609
 51
270.0008465601
  0
ARC
  5
3A1
100
AcDbEntity
  8
0
100
AcDbCircle
 62
7
  6
CONTINUOUS
 10
6.7012102576
 20
2.5576479978
 40
0.0196848528
100
AcDbArc
 50
217.1912781812
 51
270.0008465601
  0
ARC
  5
3A2
100
AcDbEntity
  8
0
100
AcDbCircle
 62
7
  6
CONTINUOUS
 10
7.2802145468
 20
2.5577421957
 40
0.0196848528
100
AcDbArc
 50
189.6920038451
 51
270.0008465601
  0
ARC
  5
3A3
100
AcDbEntity
  8
0
100
AcDbCircle
 62
7
  6
CONTINUOUS
 10
6.9633180006
 20
2.5576767268
 40
0.0196848528
100
AcDbArc
 50
185.4863545746
 51
270.0008465601
  0
ARC
  5
3A4
100
AcDbEntity
  8
0
100
AcDbCircle
 62
7
  6
CONTINUOUS
 10
7.2414533392
 20
2.5577098335
 40
0.0196848512
100
AcDbArc
 50
270.0008465601
 51
355.5489314799
  0
ARC
  5
3A5
100
AcDbEntity
  8
0
100
AcDbCircle
 62
7
  6
CONTINUOUS
 10
6.7834905175
 20
2.5576492696
 40
0.0196848512
100
AcDbArc
 50
270.0008465601
 51
355.4021759748
  0
ARC
  5
3A6
100
AcDbEntity
  8
0
100
AcDbCircle
 62
7
  6
CONTINUOUS
 10
7.4034345275
 20
2.5577773216
 40
0.0196848512
100
AcDbArc
 50
270.0065622777
 51
355.6009530942
  0
ARC
  5
3A7
100
AcDbEntity
  8
0
100
AcDbCircle
 62
7
  6
CONTINUOUS
 10
7.3624954074
 20
2.5577434408
 40
0.0196848512
100
AcDbArc
 50
270.0008465601
 51
355.587725676
  0
ARC
  5
3A8
100
AcDbEntity
  8
0
100
AcDbCircle
 62
7
  6
CONTINUOUS
 10
7.0455984423
 20
2.5576779686
 40
0.0196848512
100
AcDbArc
 50
270.0008465601
 51
355.4861646414
  0
ARC
  5
3A9
100
AcDbEntity
  8
0
100
AcDbCircle
 62
7
  6
CONTINUOUS
 10
7.0244071777
 20
2.5772192922
 40
0.0196848108
100
AcDbArc
 50
186.0533522233
 51
269.982239579
  0
ARC
  5
3AA
100
AcDbEntity
  8
0
100
AcDbCircle
 62
7
  6
CONTINUOUS
 10
7.5685550033
 20
2.5772610624
 40
0.0196848108
100
AcDbArc
 50
186.4079263036
 51
269.9717104966
  0
ARC
  5
3AB
100
AcDbEntity
  8
0
100
AcDbCircle
 62
7
  6
CONTINUOUS
 10
7.1701648078
 20
2.5772213216
 40
0.0196847946
100
AcDbArc
 50
270.0193574682
 51
356.0482981657
  0
ARC
  5
3AC
100
AcDbEntity
  8
0
100
AcDbCircle
 62
7
  6
CONTINUOUS
 10
7.4967672576
 20
2.5657741189
 40
0.0196847852
100
AcDbArc
 50
186.1524522004
 51
270.0001889905
  0
ARC
  5
3AD
100
AcDbEntity
  8
0
100
AcDbCircle
 62
7
  6
CONTINUOUS
 10
7.626498402
 20
2.5655328635
 40
0.0196847852
100
AcDbArc
 50
270.0014953965
 51
336.1536604626
  0
ARC
  5
3AE
100
AcDbEntity
  8
0
100
AcDbCircle
 62
7
  6
CONTINUOUS
 10
7.2244237686
 20
2.565488057
 40
0.0196847843
100
AcDbArc
 50
270.0013104458
 51
355.9298036973
  0
ARC
  5
3AF
100
AcDbEntity
  8
0
100
AcDbCircle
 62
7
  6
CONTINUOUS
 10
6.7251227924
 20
2.5654511654
 40
0.0196847843
100
AcDbArc
 50
270.0011768607
 51
355.651950501
  0
ARC
  5
3B0
100
AcDbEntity
  8
0
100
AcDbCircle
 62
7
  6
CONTINUOUS
 10
7.5006613856
 20
2.5655309041
 40
0.0196847689
100
AcDbArc
 50
186.154613871
 51
270.0002563321
  0
ARC
  5
3B1
100
AcDbEntity
  8
0
100
AcDbCircle
 62
7
  6
CONTINUOUS
 10
6.5932256897
 20
2.5658282179
 40
0.0196847689
100
AcDbArc
 50
185.6509222309
 51
270.0005109741
  0
ARC
  5
3B2
100
AcDbEntity
  8
0
100
AcDbCircle
 62
7
  6
CONTINUOUS
 10
7.0934612154
 20
2.5658065238
 40
0.0196847689
100
AcDbArc
 50
204.8342832315
 51
270.000358658
  0
ARC
  5
3B3
100
AcDbEntity
  8
0
100
AcDbCircle
 62
7
  6
CONTINUOUS
 10
7.0985923973
 20
2.5654861053
 40
0.0196847686
100
AcDbArc
 50
203.8302288147
 51
270.0004227446
  0
ARC
  5
3B4
100
AcDbEntity
  8
0
100
AcDbCircle
 62
7
  6
CONTINUOUS
 10
6.5992957211
 20
2.5654492221
 40
0.0196847686
100
AcDbArc
 50
185.6542947396
 51
270.0005482625
  0
ARC
  5
3B5
100
AcDbEntity
  8
0
100
AcDbCircle
 62
7
  6
CONTINUOUS
 10
6.9436085324
 20
2.6116188032
 40
0.04
100
AcDbArc
 50
105.7811850535
 51
135.0
  0
ARC
  5
3B6
100
AcDbEntity
  8
0
100
AcDbCircle
 62
7
  6
CONTINUOUS
 10
6.8634714474
 20
2.6446188032
 40
0.04
100
AcDbArc
 50
270.0
 51
315.0
  0
ARC
  5
3B7
100
AcDbEntity
  8
ALL_FEATURES
100
AcDbCircle
 62
7
  6
CONTINUOUS
 10
5.4884646074
 20
4.8461784138
 40
0.489
100
AcDbArc
 50
134.9750061991
 51
147.3873231408
  0
ARC
  5
3B8
100
AcDbEntity
  8
ALL_FEATURES
100
AcDbCircle
 62
7
  6
CONTINUOUS
 10
5.4884646074
 20
4.8461784138
 40
0.489
100
AcDbArc
 50
32.6126780473
 51
45.026686921
  0
ARC
  5
3B9
100
AcDbEntity
  8
ALL_FEATURES
100
AcDbCircle
 62
7
  6
CONTINUOUS
 10
5.752955094
 20
5.4900544692
 40
0.188
100
AcDbArc
 50
315.0008466635
 51
0.0008465601
  0
ARC
  5
3BA
100
AcDbEntity
  8
ALL_FEATURES
100
AcDbCircle
 62
7
  6
CONTINUOUS
 10
5.89062092
 20
5.2487095294
 40
0.08
100
AcDbArc
 50
135.0008466635
 51
225.026686921
  0
ARC
  5
3BB
100
AcDbEntity
  8
0
100
AcDbCircle
 62
7
  6
CONTINUOUS
 10
6.4133221322
 20
4.6347309724
 40
0.05
100
AcDbArc
 50
36.88786865
 51
90.0008465601
  0
ARC
  5
3BC
100
AcDbEntity
  8
0
100
AcDbCircle
 62
7
  6
CONTINUOUS
 10
9.8884643994
 20
3.1273823115
 40
0.375
100
AcDbArc
 50
184.5568192771
 51
228.9040331586
  0
ARC
  5
3BD
100
AcDbEntity
  8
0
100
AcDbCircle
 62
7
  6
CONTINUOUS
 10
9.5046039255
 20
3.4546578127
 40
0.33
100
AcDbArc
 50
195.5463041938
 51
266.8376831985
  0
ARC
  5
3BE
100
AcDbEntity
  8
0
100
AcDbCircle
 62
7
  6
CONTINUOUS
 10
9.641969757
 20
2.7647786881
 40
0.08
100
AcDbArc
 50
0.0008466485
 51
90.0008465601
  0
ARC
  5
3BF
100
AcDbEntity
  8
0
100
AcDbCircle
 62
7
  6
CONTINUOUS
 10
9.0164832173
 20
3.3898514251
 40
0.08
100
AcDbArc
 50
25.8800443783
 51
90.0008465601
  0
ARC
  5
3C0
100
AcDbEntity
  8
0
100
AcDbCircle
 62
7
  6
CONTINUOUS
 10
9.1096041171
 20
3.3447708194
 40
0.08
100
AcDbArc
 50
15.5463041938
 51
90.0008465601
  0
ARC
  5
3C1
100
AcDbEntity
  8
0
100
AcDbCircle
 62
7
  6
CONTINUOUS
 10
9.4847445895
 20
3.0952059997
 40
0.03
100
AcDbArc
 50
4.5568192773
 51
86.8376831986
  0
ARC
  5
3C2
100
AcDbEntity
  8
0
100
AcDbCircle
 62
7
  6
CONTINUOUS
 10
9.6919708139
 20
2.6932483642
 40
0.03
100
AcDbArc
 50
273.0008465706
 51
0.0008466485
  0
ARC
  5
3C3
100
AcDbEntity
  8
0
100
AcDbCircle
 62
7
  6
CONTINUOUS
 10
8.0186092229
 20
2.5773103091
 40
0.0196848049
100
AcDbArc
 50
186.7010798014
 51
269.9632518702
  0
ARC
  5
3C4
100
AcDbEntity
  8
0
100
AcDbCircle
 62
7
  6
CONTINUOUS
 10
8.354900319
 20
2.5773649716
 40
0.0196848049
100
AcDbArc
 50
186.920038784
 51
269.9581789421
  0
ARC
  5
3C5
100
AcDbEntity
  8
0
100
AcDbCircle
 62
7
  6
CONTINUOUS
 10
8.5627307504
 20
2.5774226163
 40
0.0196848049
100
AcDbArc
 50
187.0552578821
 51
269.9586438791
  0
ARC
  5
3C6
100
AcDbEntity
  8
0
100
AcDbCircle
 62
7
  6
CONTINUOUS
 10
8.7788510411
 20
2.5774827685
 40
0.0196847953
100
AcDbArc
 50
270.0371326082
 51
357.1020200846
  0
ARC
  5
3C7
100
AcDbEntity
  8
0
100
AcDbCircle
 62
7
  6
CONTINUOUS
 10
8.1643913311
 20
2.5773123612
 40
0.0196847953
100
AcDbArc
 50
270.0383093642
 51
356.6987523029
  0
ARC
  5
3C8
100
AcDbEntity
  8
0
100
AcDbCircle
 62
7
  6
CONTINUOUS
 10
8.5006983338
 20
2.5773670172
 40
0.0196847953
100
AcDbArc
 50
270.0433586331
 51
356.9189248309
  0
ARC
  5
3C9
100
AcDbEntity
  8
0
100
AcDbCircle
 62
7
  6
CONTINUOUS
 10
8.7085462253
 20
2.5774246583
 40
0.0196847953
100
AcDbArc
 50
270.0429023795
 51
357.0549666663
  0
ARC
  5
3CA
100
AcDbEntity
  8
0
100
AcDbCircle
 62
7
  6
CONTINUOUS
 10
7.7143234476
 20
2.5772630751
 40
0.0196847946
100
AcDbArc
 50
270.0298749464
 51
356.4042049089
  0
ARC
  5
3CB
100
AcDbEntity
  8
0
100
AcDbCircle
 62
7
  6
CONTINUOUS
 10
7.9258315245
 20
2.5656852172
 40
0.0196847852
100
AcDbArc
 50
243.3433602168
 51
269.999740379
  0
ARC
  5
3CC
100
AcDbEntity
  8
0
100
AcDbCircle
 62
7
  6
CONTINUOUS
 10
7.9079795764
 20
2.5655829751
 40
0.0196847852
100
AcDbArc
 50
270.0017083482
 51
356.3104018516
  0
ARC
  5
3CD
100
AcDbEntity
  8
0
100
AcDbCircle
 62
7
  6
CONTINUOUS
 10
7.7797051335
 20
2.5657328808
 40
0.0196847852
100
AcDbArc
 50
186.3094268814
 51
269.9999748391
  0
ARC
  5
3CE
100
AcDbEntity
  8
0
100
AcDbCircle
 62
7
  6
CONTINUOUS
 10
8.0525086295
 20
2.565635481
 40
0.0196847852
100
AcDbArc
 50
270.0019422129
 51
335.9845164873
  0
ARC
  5
3CF
100
AcDbEntity
  8
0
100
AcDbCircle
 62
7
  6
CONTINUOUS
 10
7.7821358969
 20
2.5655810109
 40
0.0196847689
100
AcDbArc
 50
186.3107755743
 51
270.0000478987
  0
ARC
  5
3D0
100
AcDbEntity
  8
0
100
AcDbCircle
 62
7
  6
CONTINUOUS
 10
7.9266576561
 20
2.5656335156
 40
0.0196847689
100
AcDbArc
 50
241.8368879729
 51
269.9998152593
  0
ARC
  5
3D1
100
AcDbEntity
  8
0
100
AcDbCircle
 62
7
  6
CONTINUOUS
 10
8.8527480258
 20
6.4654961898
 40
3.0
100
AcDbArc
 50
216.887868587
 51
267.1546178521
  0
SPLINE
  5
3D2
100
AcDbEntity
  8
ALL_FEATURES
100
AcDbSpline
 62
7
  6
CONTINUOUS
 70
0
 71
3
 72
25
 73
21
 74
0
 42
0.0000001
 43
0.0000001
 44
0.0000000001
 40
0.0
 40
0.0
 40
0.0
 40
0.0
 40
0.124954895
 40
0.2498961632
 40
0.3123866454
 40
0.3748764338
 40
0.4373638278
 40
0.4998507293
 40
0.562336973
 40
0.6248219024
 40
0.6873059249
 40
0.749790982
 40
0.7810523617
 40
0.8123215808
 40
0.843592767
 40
0.8748643921
 40
0.9061426277
 40
0.937432057
 40
0.9687361442
 40
1.0
 40
1.0
 40
1.0
 40
1.0
 10
5.4884562643
 20
5.4108065943
 30
0.0
 10
5.4816965209
 20
5.4108064944
 30
0.0
 10
5.4681686751
 20
5.4114824072
 30
0.0
 10
5.4514323187
 20
5.4140584446
 30
0.0
 10
5.4382826952
 20
5.4172304819
 30
0.0
 10
5.4285775269
 20
5.4201962635
 30
0.0
 10
5.419083682
 20
5.4237835614
 30
0.0
 10
5.4098661922
 20
5.4280345749
 30
0.0
 10
5.401009688
 20
5.432998319
 30
0.0
 10
5.3926245277
 20
5.4387285268
 30
0.0
 10
5.3848568484
 20
5.4452769103
 30
0.0
 10
5.3790537451
 20
5.4514552283
 30
0.0
 10
5.3749398073
 20
5.4568292181
 30
0.0
 10
5.3721521103
 20
5.4610751552
 30
0.0
 10
5.3696997612
 20
5.4655244295
 30
0.0
 10
5.3676226649
 20
5.4701621783
 30
0.0
 10
5.3659578664
 20
5.4749650495
 30
0.0
 10
5.3647395406
 20
5.4799028138
 30
0.0
 10
5.3639991057
 20
5.4849335065
 30
0.0
 10
5.3638306832
 20
5.4883204645
 30
0.0
 10
5.3638306582
 20
5.4900117599
 30
0.0
  0
SPLINE
  5
3D3
100
AcDbEntity
  8
ALL_FEATURES
100
AcDbSpline
 62
7
  6
CONTINUOUS
 70
0
 71
3
 72
30
 73
26
 74
0
 42
0.0000001
 43
0.0000001
 44
0.0000000001
 40
0.0
 40
0.0
 40
0.0
 40
0.0
 40
0.0312455435
 40
0.0625571966
 40
0.0938734201
 40
0.1251621537
 40
0.1564497023
 40
0.1877311137
 40
0.2502274399
 40
0.2815022035
 40
0.3127592233
 40
0.375249626
 40
0.4065041592
 40
0.4377483597
 40
0.5002302829
 40
0.5314773932
 40
0.5627168373
 40
0.6251867047
 40
0.6564269858
 40
0.6876617561
 40
0.7501192028
 40
0.812591926
 40
0.8750775319
 40
0.9375565457
 40
1.0
 40
1.0
 40
1.0
 40
1.0
 10
5.6130795298
 20
5.4900154426
 30
0.0
 10
5.6130795548
 20
5.4883249515
 30
0.0
 10
5.6129100386
 20
5.4849381831
 30
0.0
 10
5.612167967
 20
5.4799064729
 30
0.0
 10
5.6109532453
 20
5.4749646908
 30
0.0
 10
5.6092849482
 20
5.4701592957
 30
0.0
 10
5.6072058519
 20
5.4655195459
 30
0.0
 10
5.6039381206
 20
5.4595874765
 30
0.0
 10
5.5999899815
 20
5.4540582774
 30
0.0
 10
5.595523815
 20
5.4489737272
 30
0.0
 10
5.590749025
 20
5.4441771134
 30
0.0
 10
5.5855648256
 20
5.4398094451
 30
0.0
 10
5.5800774118
 20
5.4358545066
 30
0.0
 10
5.5744098685
 20
5.4321623807
 30
0.0
 10
5.5685024786
 20
5.4288536891
 30
0.0
 10
5.5624180146
 20
5.4259026354
 30
0.0
 10
5.5562286591
 20
5.4231795169
 30
0.0
 10
5.5498986978
 20
5.4207888038
 30
0.0
 10
5.5434653975
 20
5.4187102552
 30
0.0
 10
5.5369715304
 20
5.4168312896
 30
0.0
 10
5.5287532285
 20
5.4148477954
 30
0.0
 10
5.5187730277
 20
5.4130282008
 30
0.0
 10
5.5087093355
 20
5.4117408988
 30
0.0
 10
5.4985946561
 20
5.4109751122
 30
0.0
 10
5.4918346694
 20
5.4108066442
 30
0.0
 10
5.4884562643
 20
5.4108065943
 30
0.0
  0
LINE
  5
3D4
100
AcDbEntity
  8
0
100
AcDbLine
 62
7
  6
CONTINUOUS
 10
5.3534569122
 20
2.5558509627
 11
5.2863586958
 21
2.5560722401
  0
LINE
  5
3D5
100
AcDbEntity
  8
0
100
AcDbLine
 62
7
  6
CONTINUOUS
 10
5.6907849003
 20
2.5560780747
 11
5.6236844949
 21
2.5558549675
  0
LINE
  5
3D6
100
AcDbEntity
  8
0
100
AcDbLine
 62
7
  6
CONTINUOUS
 10
7.0536224687
 20
2.5561650682
 11
7.040183193
 21
2.5561535028
  0
LINE
  5
3D7
100
AcDbEntity
  8
0
100
AcDbLine
 62
7
  6
CONTINUOUS
 10
7.040183193
 20
2.5561535028
 11
7.0108254719
 21
2.5560940254
  0
LINE
  5
3D8
100
AcDbEntity
  8
0
100
AcDbLine
 62
7
  6
CONTINUOUS
 10
7.0108254719
 20
2.5560940254
 11
6.9437216853
 21
2.5557948228
  0
LINE
  5
3D9
100
AcDbEntity
  8
0
100
AcDbLine
 62
7
  6
CONTINUOUS
 10
7.0652239024
 20
2.5561288427
 11
7.0536224774
 21
2.5561652079
  0
LINE
  5
3DA
100
AcDbEntity
  8
0
100
AcDbLine
 62
7
  6
CONTINUOUS
 10
6.4862034821
 20
2.5560123747
 11
6.455830631
 21
2.5561106418
  0
LINE
  5
3DB
100
AcDbEntity
  8
0
100
AcDbLine
 62
7
  6
CONTINUOUS
 10
5.7451825928
 20
2.5558996855
 11
5.6907849014
 21
2.5560782162
  0
LINE
  5
3DC
100
AcDbEntity
  8
0
100
AcDbLine
 62
7
  6
CONTINUOUS
 10
4.6124283368
 20
2.5557793101
 11
4.5820534326
 21
2.5559798052
  0
LINE
  5
3DD
100
AcDbEntity
  8
0
100
AcDbLine
 62
7
  6
CONTINUOUS
 10
4.5820534326
 20
2.5559798052
 11
4.5516792119
 21
2.5560540126
  0
LINE
  5
3DE
100
AcDbEntity
  8
0
100
AcDbLine
 62
7
  6
CONTINUOUS
 10
4.5516792119
 20
2.5560540126
 11
4.521303934
 21
2.5560820556
  0
LINE
  5
3DF
100
AcDbEntity
  8
0
100
AcDbLine
 62
7
  6
CONTINUOUS
 10
4.9702912844
 20
2.5558102444
 11
4.9691435952
 21
2.5558482284
  0
LINE
  5
3E0
100
AcDbEntity
  8
0
100
AcDbLine
 62
7
  6
CONTINUOUS
 10
3.9234925382
 20
2.556118814
 11
3.9118898174
 21
2.5560821323
  0
LINE
  5
3E1
100
AcDbEntity
  8
0
100
AcDbLine
 62
7
  6
CONTINUOUS
 10
4.1941119492
 20
2.5560972769
 11
4.1740127065
 21
2.5560324717
  0
LINE
  5
3E2
100
AcDbEntity
  8
0
100
AcDbLine
 62
7
  6
CONTINUOUS
 10
4.5213039394
 20
2.5560819142
 11
4.4909291806
 21
2.5559828185
  0
LINE
  5
3E3
100
AcDbEntity
  8
0
100
AcDbLine
 62
7
  6
CONTINUOUS
 10
6.4558306256
 20
2.5561105003
 11
6.4318064346
 21
2.5560915092
  0
LINE
  5
3E4
100
AcDbEntity
  8
0
100
AcDbLine
 62
7
  6
CONTINUOUS
 10
6.4318064346
 20
2.5560915092
 11
6.4254564031
 21
2.5560815831
  0
LINE
  5
3E5
100
AcDbEntity
  8
0
100
AcDbLine
 62
7
  6
CONTINUOUS
 10
6.4254564031
 20
2.5560815831
 11
6.400746682
 21
2.5560244102
  0
LINE
  5
3E6
100
AcDbEntity
  8
0
100
AcDbLine
 62
7
  6
CONTINUOUS
 10
6.400746682
 20
2.5560244102
 11
6.3950810838
 21
2.5560065297
  0
LINE
  5
3E7
100
AcDbEntity
  8
0
100
AcDbLine
 62
7
  6
CONTINUOUS
 10
6.3950810838
 20
2.5560065297
 11
6.364704319
 21
2.5558052699
  0
LINE
  5
3E8
100
AcDbEntity
  8
0
100
AcDbLine
 62
7
  6
CONTINUOUS
 10
5.286358697
 20
2.5560720986
 11
5.231958815
 21
2.5558920843
  0
LINE
  5
3E9
100
AcDbEntity
  8
0
100
AcDbLine
 62
7
  6
CONTINUOUS
 10
6.0145569759
 20
2.555926443
 11
6.0068471619
 21
2.5558256012
  0
LINE
  5
3EA
100
AcDbEntity
  8
0
100
AcDbLine
 62
7
  6
CONTINUOUS
 10
4.0333920238
 20
2.5557517059
 11
3.9662909591
 21
2.556049125
  0
LINE
  5
3EB
100
AcDbEntity
  8
0
100
AcDbLine
 62
7
  6
CONTINUOUS
 10
3.9662909591
 20
2.556049125
 11
3.9369326165
 21
2.556107778
  0
LINE
  5
3EC
100
AcDbEntity
  8
0
100
AcDbLine
 62
7
  6
CONTINUOUS
 10
3.9369326165
 20
2.556107778
 11
3.9234925294
 21
2.5561189555
  0
LINE
  5
3ED
100
AcDbEntity
  8
0
100
AcDbLine
 62
7
  6
CONTINUOUS
 10
6.8031115893
 20
2.5560714175
 11
6.7830139856
 21
2.556135674
  0
SPLINE
  5
3EE
100
AcDbEntity
  8
0
100
AcDbSpline
 62
7
  6
CONTINUOUS
 70
0
 71
3
 72
27
 73
23
 74
0
 42
0.0000001
 43
0.0000001
 44
0.0000000001
 40
0.0
 40
0.0
 40
0.0
 40
0.0
 40
0.0705241154
 40
0.1973744811
 40
0.3636822365
 40
0.4548482002
 40
0.5473426381
 40
0.638062368
 40
0.7239820351
 40
0.802211989
 40
0.8701561047
 40
0.8995258149
 40
0.9255038997
 40
0.9478785468
 40
0.9664412078
 40
0.9810382879
 40
0.9868159309
 40
0.9915618947
 40
0.9952628755
 40
0.997905656
 40
0.9994832423
 40
1.0
 40
1.0
 40
1.0
 40
1.0
 10
8.7261989898
 20
2.5764278305
 30
0.0
 10
8.7218965838
 20
2.576425513
 30
0.0
 10
8.7098556469
 20
2.5763565318
 30
0.0
 10
8.6876692161
 20
2.576225618
 30
0.0
 10
8.6642236327
 20
2.576060573
 30
0.0
 10
8.6428739898
 20
2.5759041088
 30
0.0
 10
8.6261355938
 20
2.5757763685
 30
0.0
 10
8.6097172792
 20
2.5756465754
 30
0.0
 10
8.5941692027
 20
2.5755189272
 30
0.0
 10
8.5800105551
 20
2.5753977318
 30
0.0
 10
8.5693017703
 20
2.5753014695
 30
0.0
 10
8.5617804732
 20
2.5752303515
 30
0.0
 10
8.5570393127
 20
2.5751835931
 30
0.0
 10
8.5529568011
 20
2.5751417043
 30
0.0
 10
8.5495704105
 20
2.5751036258
 30
0.0
 10
8.5471920374
 20
2.5750769375
 30
0.0
 10
8.5456644657
 20
2.575053685
 30
0.0
 10
8.5447866103
 20
2.5750468218
 30
0.0
 10
8.5441364718
 20
2.5750205396
 30
0.0
 10
8.5435938271
 20
2.5750451688
 30
0.0
 10
8.5434086383
 20
2.5749780962
 30
0.0
 10
8.5431747706
 20
2.5750336655
 30
0.0
 10
8.5431866081
 20
2.5750044469
 30
0.0
  0
SPLINE
  5
3EF
100
AcDbEntity
  8
0
100
AcDbSpline
 62
7
  6
CONTINUOUS
 70
0
 71
3
 72
27
 73
23
 74
0
 42
0.0000001
 43
0.0000001
 44
0.0000000001
 40
0.0
 40
0.0
 40
0.0
 40
0.0
 40
0.0983636191
 40
0.2402243203
 40
0.4092983345
 40
0.4980339716
 40
0.5861640623
 40
0.6711581796
 40
0.7505441535
 40
0.8220555465
 40
0.8835957135
 40
0.9100748363
 40
0.9334211353
 40
0.9534534883
 40
0.9700485851
 40
0.9830920848
 40
0.9882462739
 40
0.9924712422
 40
0.9957617084
 40
0.9981147395
 40
0.9995276512
 40
1.0
 40
1.0
 40
1.0
 40
1.0
 10
8.5123790822
 20
2.5763687548
 30
0.0
 10
8.5065741586
 20
2.576367192
 30
0.0
 10
8.4923973755
 20
2.5763186527
 30
0.0
 10
8.468242962
 20
2.5761992008
 30
0.0
 10
8.444656885
 20
2.5760520352
 30
0.0
 10
8.4242417646
 20
2.5759098814
 30
0.0
 10
8.4087885521
 20
2.5757941887
 30
0.0
 10
8.3938871549
 20
2.575674644
 30
0.0
 10
8.3799665511
 20
2.5755546047
 30
0.0
 10
8.3674300954
 20
2.5754376856
 30
0.0
 10
8.3580159161
 20
2.5753414558
 30
0.0
 10
8.3514440505
 20
2.5752677569
 30
0.0
 10
8.3473218023
 20
2.5752180725
 30
0.0
 10
8.343782439
 20
2.5751719216
 30
0.0
 10
8.3408523169
 20
2.575128594
 30
0.0
 10
8.3387972279
 20
2.57509569
 30
0.0
 10
8.337477407
 20
2.5750674301
 30
0.0
 10
8.3367231715
 20
2.5750550091
 30
0.0
 10
8.3361583897
 20
2.5750278529
 30
0.0
 10
8.3357027754
 20
2.5750398658
 30
0.0
 10
8.3355221345
 20
2.57498197
 30
0.0
 10
8.3353394547
 20
2.5750202669
 30
0.0
 10
8.3353418989
 20
2.5749924987
 30
0.0
  0
SPLINE
  5
3F0
100
AcDbEntity
  8
0
100
AcDbSpline
 62
7
  6
CONTINUOUS
 70
0
 71
3
 72
26
 73
22
 74
0
 42
0.0000001
 43
0.0000001
 44
0.0000000001
 40
0.0
 40
0.0
 40
0.0
 40
0.0
 40
0.12232217
 40
0.276466694
 40
0.4473202122
 40
0.5338002942
 40
0.6181461839
 40
0.6982719537
 40
0.7722273252
 40
0.8381624057
 40
0.894492157
 40
0.9185915866
 40
0.9397872823
 40
0.9579563266
 40
0.97297583
 40
0.9847369684
 40
0.9931861968
 40
0.9961564995
 40
0.9982841987
 40
0.9995651015
 40
1.0
 40
1.0
 40
1.0
 40
1.0
 10
8.1664027457
 20
2.5763127256
 30
0.0
 10
8.1595784301
 20
2.576311526
 30
0.0
 10
8.1441544545
 20
2.5762757732
 30
0.0
 10
8.1191988108
 20
2.5761722374
 30
0.0
 10
8.0962429288
 20
2.5760428518
 30
0.0
 10
8.0771811572
 20
2.5759161521
 30
0.0
 10
8.0631810144
 20
2.575813164
 30
0.0
 10
8.0498796855
 20
2.5757050647
 30
0.0
 10
8.0376055339
 20
2.5755947122
 30
0.0
 10
8.0266590506
 20
2.5754846506
 30
0.0
 10
8.0184938834
 20
2.5753917056
 30
0.0
 10
8.0128248653
 20
2.5753182332
 30
0.0
 10
8.0092842683
 20
2.575268079
 30
0.0
 10
8.0062514841
 20
2.5752194057
 30
0.0
 10
8.0037415964
 20
2.5751753768
 30
0.0
 10
8.00178324
 20
2.5751289997
 30
0.0
 10
8.0004765825
 20
2.5751017308
 30
0.0
 10
7.9997400395
 20
2.5750629802
 30
0.0
 10
7.9993536199
 20
2.5750629251
 30
0.0
 10
7.9991946591
 20
2.575017038
 30
0.0
 10
7.9990420865
 20
2.5750370212
 30
0.0
 10
7.9990433407
 20
2.5750127908
 30
0.0
  0
LINE
  5
3F1
100
AcDbEntity
  8
0
100
AcDbLine
 62
7
  6
CONTINUOUS
 10
7.5540180868
 20
2.5640328746
 11
7.5485314227
 21
2.5640038973
  0
LINE
  5
3F2
100
AcDbEntity
  8
0
100
AcDbLine
 62
7
  6
CONTINUOUS
 10
7.5485314227
 20
2.5640038973
 11
7.4810825152
 21
2.5634203874
  0
SPLINE
  5
3F3
100
AcDbEntity
  8
0
100
AcDbSpline
 62
7
  6
CONTINUOUS
 70
0
 71
3
 72
26
 73
22
 74
0
 42
0.0000001
 43
0.0000001
 44
0.0000000001
 40
0.0
 40
0.0
 40
0.0
 40
0.0
 40
0.1429880668
 40
0.3072640477
 40
0.4792097163
 40
0.5636420331
 40
0.6446989997
 40
0.7207062948
 40
0.7900849294
 40
0.8514214881
 40
0.9034113875
 40
0.9255766929
 40
0.9450261531
 40
0.9616436508
 40
0.9753534347
 40
0.9860966878
 40
0.993814919
 40
0.9965216392
 40
0.9984520229
 40
0.9996074044
 40
1.0
 40
1.0
 40
1.0
 40
1.0
 10
7.7033908065
 20
2.5762621915
 30
0.0
 10
7.6960307809
 20
2.5762612638
 30
0.0
 10
7.6802149808
 20
2.5762344126
 30
0.0
 10
7.6555487622
 20
2.5761470677
 30
0.0
 10
7.6338967141
 20
2.5760354722
 30
0.0
 10
7.6165282738
 20
2.5759248
 30
0.0
 10
7.6040980426
 20
2.5758347218
 30
0.0
 10
7.592442739
 20
2.5757390553
 30
0.0
 10
7.5818025634
 20
2.5756397238
 30
0.0
 10
7.5723987451
 20
2.5755389876
 30
0.0
 10
7.5654250506
 20
2.5754517113
 30
0.0
 10
7.5606075597
 20
2.5753812868
 30
0.0
 10
7.5576103039
 20
2.5753324518
 30
0.0
 10
7.5550493689
 20
2.575284449
 30
0.0
 10
7.5529336507
 20
2.5752392963
 30
0.0
 10
7.5512839466
 20
2.5751930852
 30
0.0
 10
7.550183136
 20
2.5751604675
 30
0.0
 10
7.5495638207
 20
2.575123784
 30
0.0
 10
7.5492401189
 20
2.575114378
 30
0.0
 10
7.5491079914
 20
2.5750800939
 30
0.0
 10
7.5489811588
 20
2.5750841413
 30
0.0
 10
7.5489836287
 20
2.5750640847
 30
0.0
  0
SPLINE
  5
3F4
100
AcDbEntity
  8
0
100
AcDbSpline
 62
7
  6
CONTINUOUS
 70
0
 71
3
 72
23
 73
19
 74
0
 42
0.0000001
 43
0.0000001
 44
0.0000000001
 40
0.0
 40
0.0
 40
0.0
 40
0.0
 40
0.1638151228
 40
0.3378542249
 40
0.5104668836
 40
0.5927425898
 40
0.6704703283
 40
0.7423844535
 40
0.8073022758
 40
0.8641346846
 40
0.9119864985
 40
0.9500186284
 40
0.9651613311
 40
0.9776439737
 40
0.9874084905
 40
0.994399723
 40
0.9985949264
 40
1.0
 40
1.0
 40
1.0
 40
1.0
 10
6.7006846083
 20
2.5642093146
 30
0.0
 10
6.694078173
 20
2.5642087734
 30
0.0
 10
6.6804529837
 20
2.5641959972
 30
0.0
 10
6.6598666128
 20
2.5641497339
 30
0.0
 10
6.6425686707
 20
2.5640890705
 30
0.0
 10
6.6291548587
 20
2.5640280212
 30
0.0
 10
6.6198020962
 20
2.5639782522
 30
0.0
 10
6.6111493073
 20
2.5639247252
 30
0.0
 10
6.6033394902
 20
2.5638681729
 30
0.0
 10
6.5964993303
 20
2.563810227
 30
0.0
 10
6.5907457827
 20
2.5637500223
 30
0.0
 10
6.5866678331
 20
2.5637007719
 30
0.0
 10
6.5840265238
 20
2.5636538157
 30
0.0
 10
6.582505685
 20
2.5636334035
 30
0.0
 10
6.5813612968
 20
2.5635825002
 30
0.0
 10
6.5804386373
 20
2.5636070231
 30
0.0
 10
6.5800686067
 20
2.5634926992
 30
0.0
 10
6.5797010991
 20
2.5635667962
 30
0.0
 10
6.5797049349
 20
2.5635102616
 30
0.0
  0
SPLINE
  5
3F5
100
AcDbEntity
  8
0
100
AcDbSpline
 62
7
  6
CONTINUOUS
 70
0
 71
3
 72
26
 73
22
 74
0
 42
0.0000001
 43
0.0000001
 44
0.0000000001
 40
0.0
 40
0.0
 40
0.0
 40
0.0
 40
0.1608041795
 40
0.3334646772
 40
0.5060122235
 40
0.5886071233
 40
0.666812132
 40
0.7393131814
 40
0.8048592708
 40
0.8623285929
 40
0.9107648204
 40
0.9313088553
 40
0.9492916812
 40
0.9646462759
 40
0.9773056916
 40
0.9872032276
 40
0.9942888912
 40
0.9967728339
 40
0.9985499218
 40
0.9996210702
 40
1.0
 40
1.0
 40
1.0
 40
1.0
 10
7.1435791082
 20
2.5762193612
 30
0.0
 10
7.1361410119
 20
2.5762186645
 30
0.0
 10
7.1207163983
 20
2.5761984141
 30
0.0
 10
7.0973105934
 20
2.576126326
 30
0.0
 10
7.0775225175
 20
2.5760321415
 30
0.0
 10
7.0621036144
 20
2.5759375192
 30
0.0
 10
7.051312408
 20
2.5758603924
 30
0.0
 10
7.0413098745
 20
2.5757775341
 30
0.0
 10
7.0322665501
 20
2.5756904215
 30
0.0
 10
7.0243364736
 20
2.5756004948
 30
0.0
 10
7.0184879513
 20
2.5755212518
 30
0.0
 10
7.0144660249
 20
2.5754560166
 30
0.0
 10
7.0119739377
 20
2.5754102191
 30
0.0
 10
7.0098473566
 20
2.5753647678
 30
0.0
 10
7.0080927418
 20
2.575320977
 30
0.0
 10
7.0067262591
 20
2.5752766269
 30
0.0
 10
7.0058182379
 20
2.5752421481
 30
0.0
 10
7.0053054297
 20
2.5752075732
 30
0.0
 10
7.0050412008
 20
2.575193353
 30
0.0
 10
7.0049256664
 20
2.5751657822
 30
0.0
 10
7.0048249824
 20
2.5751614793
 30
0.0
 10
7.004825771
 20
2.5751439695
 30
0.0
  0
LINE
  5
3F6
100
AcDbEntity
  8
0
100
AcDbLine
 62
7
  6
CONTINUOUS
 10
7.2440623941
 20
2.5640908764
 11
7.2163514479
 21
2.5642472644
  0
SPLINE
  5
3F7
100
AcDbEntity
  8
0
100
AcDbSpline
 62
7
  6
CONTINUOUS
 70
0
 71
3
 72
22
 73
18
 74
0
 42
0.0000001
 43
0.0000001
 44
0.0000000001
 40
0.0
 40
0.0
 40
0.0
 40
0.0
 40
0.1949167457
 40
0.3827402048
 40
0.555628125
 40
0.7071481272
 40
0.7730813021
 40
0.8315510881
 40
0.881982972
 40
0.9239389062
 40
0.9569901552
 40
0.9700586717
 40
0.9807900403
 40
0.9891657539
 40
0.9951677576
 40
0.9987796595
 40
1.0
 40
1.0
 40
1.0
 40
1.0
 10
5.4920767682
 20
2.5641659982
 30
0.0
 10
5.4867073651
 20
2.5641658117
 30
0.0
 10
5.4761639576
 20
2.5641595225
 30
0.0
 10
5.4608580027
 20
2.564132997
 30
0.0
 10
5.4467475318
 20
2.5640904032
 30
0.0
 10
5.4359948763
 20
2.5640411937
 30
0.0
 10
5.4283940804
 20
2.5639936198
 30
0.0
 10
5.4235781344
 20
2.5639567904
 30
0.0
 10
5.4194222581
 20
2.563917915
 30
0.0
 10
5.4159680194
 20
2.563876492
 30
0.0
 10
5.4135397019
 20
2.5638405851
 30
0.0
 10
5.4119775612
 20
2.5638067957
 30
0.0
 10
5.4110838295
 20
2.5637887291
 30
0.0
 10
5.4104123451
 20
2.5637562553
 30
0.0
 10
5.4098721153
 20
2.5637586024
 30
0.0
 10
5.4096537592
 20
2.563696965
 30
0.0
 10
5.4094385791
 20
2.5637242764
 30
0.0
 10
5.4094416001
 20
2.5636907955
 30
0.0
  0
SPLINE
  5
3F8
100
AcDbEntity
  8
0
100
AcDbSpline
 62
7
  6
CONTINUOUS
 70
0
 71
3
 72
27
 73
23
 74
0
 42
0.0000001
 43
0.0000001
 44
0.0000000001
 40
0.0
 40
0.0
 40
0.0
 40
0.0
 40
0.0005167442
 40
0.0020943006
 40
0.0047370356
 40
0.0084379525
 40
0.0131838329
 40
0.018961372
 40
0.0335581788
 40
0.0521204764
 40
0.0744946906
 40
0.1004722715
 40
0.1298413994
 40
0.1977841665
 40
0.2760127609
 40
0.3619312012
 40
0.452649911
 40
0.5451435556
 40
0.6363089796
 40
0.8026171534
 40
0.929470569
 40
1.0
 40
1.0
 40
1.0
 40
1.0
 10
2.4339108516
 20
2.5749143245
 30
0.0
 10
2.4339226913
 20
2.5749435412
 30
0.0
 10
2.4336888225
 20
2.57488797
 30
0.0
 10
2.4335036444
 20
2.5749550316
 30
0.0
 10
2.4329610071
 20
2.5749303882
 30
0.0
 10
2.4323108838
 20
2.5749566486
 30
0.0
 10
2.431433046
 20
2.5749634847
 30
0.0
 10
2.4299055078
 20
2.5749866888
 30
0.0
 10
2.4275271879
 20
2.5750133024
 30
0.0
 10
2.4241408742
 20
2.5750512741
 30
0.0
 10
2.4200584561
 20
2.5750930344
 30
0.0
 10
2.4153174047
 20
2.5751396436
 30
0.0
 10
2.4077962823
 20
2.5752105248
 30
0.0
 10
2.3970877358
 20
2.5753064502
 30
0.0
 10
2.3829293779
 20
2.5754272004
 30
0.0
 10
2.3673815762
 20
2.57555436
 30
0.0
 10
2.3509635051
 20
2.5756836376
 30
0.0
 10
2.3342253119
 20
2.5758108527
 30
0.0
 10
2.3128758007
 20
2.5759666485
 30
0.0
 10
2.2894301221
 20
2.5761309599
 30
0.0
 10
2.2672432352
 20
2.5762611861
 30
0.0
 10
2.2552018314
 20
2.5763297908
 30
0.0
 10
2.2508991173
 20
2.5763319793
 30
0.0
  0
SPLINE
  5
3F9
100
AcDbEntity
  8
0
100
AcDbSpline
 62
7
  6
CONTINUOUS
 70
0
 71
3
 72
23
 73
19
 74
0
 42
0.0000001
 43
0.0000001
 44
0.0000000001
 40
0.0
 40
0.0
 40
0.0
 40
0.0
 40
0.1761253646
 40
0.3557410056
 40
0.528568208
 40
0.6095051508
 40
0.6852734217
 40
0.7547824189
 40
0.8171089222
 40
0.8713729469
 40
0.916811273
 40
0.9528390696
 40
0.9671464403
 40
0.9789061656
 40
0.9880920923
 40
0.9946808334
 40
0.9986510733
 40
1.0
 40
1.0
 40
1.0
 40
1.0
 10
6.511434108
 20
2.5761861065
 30
0.0
 10
6.5043249475
 20
2.5761856121
 30
0.0
 10
6.4899657431
 20
2.576170442
 30
0.0
 10
6.4686305766
 20
2.5761122605
 30
0.0
 10
6.4511377093
 20
2.576034747
 30
0.0
 10
6.4378366211
 20
2.5759557157
 30
0.0
 10
6.4287059061
 20
2.5758913292
 30
0.0
 10
6.420326377
 20
2.5758213822
 30
0.0
 10
6.4128151629
 20
2.5757468658
 30
0.0
 10
6.4062749058
 20
2.5756694721
 30
0.0
 10
6.4007984021
 20
2.5755887322
 30
0.0
 10
6.3969295602
 20
2.575519542
 30
0.0
 10
6.3944295047
 20
2.5754570286
 30
0.0
 10
6.3929951492
 20
2.5754222719
 30
0.0
 10
6.3919155498
 20
2.5753661752
 30
0.0
 10
6.3910487325
 20
2.5753638739
 30
0.0
 10
6.3906941369
 20
2.575264879
 30
0.0
 10
6.3903503765
 20
2.5753031916
 30
0.0
 10
6.3903544799
 20
2.5752488981
 30
0.0
  0
SPLINE
  5
3FA
100
AcDbEntity
  8
0
100
AcDbSpline
 62
7
  6
CONTINUOUS
 70
0
 71
3
 72
21
 73
17
 74
0
 42
0.0000001
 43
0.0000001
 44
0.0000000001
 40
0.0
 40
0.0
 40
0.0
 40
0.0
 40
0.2158030639
 40
0.4122862794
 40
0.5850084854
 40
0.7307160019
 40
0.7926450868
 40
0.8468796978
 40
0.8931966503
 40
0.9314130367
 40
0.96134647
 40
0.9828153575
 40
0.9903282502
 40
0.9956898421
 40
0.9989048798
 40
1.0
 40
1.0
 40
1.0
 40
1.0
 10
4.2826579468
 20
2.5641733081
 30
0.0
 10
4.2794733124
 20
2.5641733313
 30
0.0
 10
4.2733891504
 20
2.564170776
 30
0.0
 10
4.2647561028
 20
2.5641584523
 30
0.0
 10
4.2571575105
 20
2.5641379683
 30
0.0
 10
4.2515445016
 20
2.5641135764
 30
0.0
 10
4.2476801959
 20
2.5640892234
 30
0.0
 10
4.2452823135
 20
2.5640703542
 30
0.0
 10
4.243235213
 20
2.5640495268
 30
0.0
 10
4.241544428
 20
2.5640284069
 30
0.0
 10
4.2402265646
 20
2.5640033356
 30
0.0
 10
4.2393481106
 20
2.5639861055
 30
0.0
 10
4.2388541257
 20
2.5639614744
 30
0.0
 10
4.2385965407
 20
2.5639576907
 30
0.0
 10
4.2384904658
 20
2.5639304039
 30
0.0
 10
4.2383896299
 20
2.5639367228
 30
0.0
 10
4.2383910205
 20
2.5639206219
 30
0.0
  0
SPLINE
  5
3FB
100
AcDbEntity
  8
0
100
AcDbSpline
 62
7
  6
CONTINUOUS
 70
0
 71
3
 72
22
 73
18
 74
0
 42
0.0000001
 43
0.0000001
 44
0.0000000001
 40
0.0
 40
0.0
 40
0.0
 40
0.0
 40
0.0011845465
 40
0.00472486
 40
0.0106086114
 40
0.0188176994
 40
0.0293334531
 40
0.0421370466
 40
0.0745297912
 40
0.1157350607
 40
0.1653435963
 40
0.222935211
 40
0.2880534609
 40
0.438430512
 40
0.6113030171
 40
0.8006604991
 40
1.0
 40
1.0
 40
1.0
 40
1.0
 10
3.499885267
 20
2.5633618205
 30
0.0
 10
3.4998875722
 20
2.5633916584
 30
0.0
 10
3.4996920673
 20
2.5633487501
 30
0.0
 10
3.499497928
 20
2.5634107732
 30
0.0
 10
3.4990108008
 20
2.5633957539
 30
0.0
 10
3.4984076638
 20
2.5634230087
 30
0.0
 10
3.4976041723
 20
2.5634337491
 30
0.0
 10
3.4962002022
 20
2.5634597772
 30
0.0
 10
3.4940153443
 20
2.5634885954
 30
0.0
 10
3.4909037686
 20
2.5635260198
 30
0.0
 10
3.4871542703
 20
2.5635647397
 30
0.0
 10
3.4828010593
 20
2.5636055538
 30
0.0
 10
3.475901902
 20
2.563664505
 30
0.0
 10
3.4660903476
 20
2.563738766
 30
0.0
 10
3.4531399414
 20
2.5638251576
 30
0.0
 10
3.4389525071
 20
2.5639095644
 30
0.0
 10
3.4291324682
 20
2.5639617572
 30
0.0
 10
3.4240963491
 20
2.5639870563
 30
0.0
  0
SPLINE
  5
3FC
100
AcDbEntity
  8
0
100
AcDbSpline
 62
7
  6
CONTINUOUS
 70
0
 71
3
 72
27
 73
23
 74
0
 42
0.0000001
 43
0.0000001
 44
0.0000000001
 40
0.0
 40
0.0
 40
0.0
 40
0.0
 40
0.0004723437
 40
0.0018852334
 40
0.0042382243
 40
0.0075286313
 40
0.0117535206
 40
0.0169076147
 40
0.0299508816
 40
0.04654568
 40
0.0665776579
 40
0.0899235021
 40
0.1164021145
 40
0.1779412059
 40
0.2494515322
 40
0.3288365188
 40
0.4138297713
 40
0.5019591163
 40
0.5906942112
 40
0.7597684961
 40
0.9016317691
 40
1.0
 40
1.0
 40
1.0
 40
1.0
 10
2.6417788004
 20
2.5749085159
 30
0.0
 10
2.641781242
 20
2.5749362839
 30
0.0
 10
2.6415985709
 20
2.5748979787
 30
0.0
 10
2.641417929
 20
2.5749558688
 30
0.0
 10
2.6409623283
 20
2.5749438394
 30
0.0
 10
2.6403975593
 20
2.5749709767
 30
0.0
 10
2.6396433434
 20
2.5749833724
 30
0.0
 10
2.6383235556
 20
2.5750115887
 30
0.0
 10
2.6362685184
 20
2.5750444255
 30
0.0
 10
2.633338471
 20
2.5750876581
 30
0.0
 10
2.6297992
 20
2.575133695
 30
0.0
 10
2.625677061
 20
2.5751832473
 30
0.0
 10
2.6191053642
 20
2.5752567362
 30
0.0
 10
2.6096914109
 20
2.5753526667
 30
0.0
 10
2.5971552328
 20
2.5754691887
 30
0.0
 10
2.5832349047
 20
2.5755887885
 30
0.0
 10
2.5683337718
 20
2.5757078643
 30
0.0
 10
2.5528808017
 20
2.5758230722
 30
0.0
 10
2.5324658942
 20
2.575964588
 30
0.0
 10
2.5088798586
 20
2.5761110198
 30
0.0
 10
2.4847251875
 20
2.5762297272
 30
0.0
 10
2.4705480881
 20
2.576277833
 30
0.0
 10
2.4647429371
 20
2.5762792231
 30
0.0
  0
SPLINE
  5
3FD
100
AcDbEntity
  8
0
100
AcDbSpline
 62
7
  6
CONTINUOUS
 70
0
 71
3
 72
22
 73
18
 74
0
 42
0.0000001
 43
0.0000001
 44
0.0000000001
 40
0.0
 40
0.0
 40
0.0
 40
0.0
 40
0.1892332633
 40
0.3746192906
 40
0.5475310023
 40
0.7006431832
 40
0.7676620612
 40
0.8272673881
 40
0.878852436
 40
0.9218531999
 40
0.9557558279
 40
0.969193079
 40
0.9802428317
 40
0.9888718206
 40
0.9950475275
 40
0.9987472632
 40
1.0
 40
1.0
 40
1.0
 40
1.0
 10
5.8345835761
 20
2.576163881
 30
0.0
 10
5.8281390192
 20
2.5761635607
 30
0.0
 10
5.815380925
 20
2.5761523647
 30
0.0
 10
5.7967341773
 20
2.5761066742
 30
0.0
 10
5.7793176526
 20
2.5760340849
 30
0.0
 10
5.7659324058
 20
2.575950879
 30
0.0
 10
5.7564059321
 20
2.5758710165
 30
0.0
 10
5.7503372665
 20
2.575809322
 30
0.0
 10
5.745086063
 20
2.5757444548
 30
0.0
 10
5.7407120145
 20
2.575676259
 30
0.0
 10
5.7376330202
 20
2.5756162267
 30
0.0
 10
5.7356496847
 20
2.5755622116
 30
0.0
 10
5.7345128892
 20
2.5755302026
 30
0.0
 10
5.7336578989
 20
2.5754840971
 30
0.0
 10
5.7329723746
 20
2.5754730795
 30
0.0
 10
5.7326933921
 20
2.5753998783
 30
0.0
 10
5.7324235465
 20
2.5754166218
 30
0.0
 10
5.7324282421
 20
2.5753742176
 30
0.0
  0
SPLINE
  5
3FE
100
AcDbEntity
  8
0
100
AcDbSpline
 62
7
  6
CONTINUOUS
 70
0
 71
3
 72
26
 73
22
 74
0
 42
0.0000001
 43
0.0000001
 44
0.0000000001
 40
0.0
 40
0.0
 40
0.0
 40
0.0
 40
0.0004349053
 40
0.0017158063
 40
0.0038434913
 40
0.0068137655
 40
0.0152628888
 40
0.027023847
 40
0.0420430919
 40
0.0602118173
 40
0.0814071547
 40
0.105506207
 40
0.1618351395
 40
0.2277693701
 40
0.3017239271
 40
0.3818489038
 40
0.4661940511
 40
0.5526735942
 40
0.7235272128
 40
0.8776738704
 40
1.0
 40
1.0
 40
1.0
 40
1.0
 10
2.9780985219
 20
2.5749387373
 30
0.0
 10
2.9780997716
 20
2.5749629681
 30
0.0
 10
2.9779472082
 20
2.5749429732
 30
0.0
 10
2.9777882407
 20
2.5749888574
 30
0.0
 10
2.9774018325
 20
2.5749888954
 30
0.0
 10
2.9766653023
 20
2.5750276203
 30
0.0
 10
2.9753586789
 20
2.5750548426
 30
0.0
 10
2.9734003734
 20
2.5751011536
 30
0.0
 10
2.9708905564
 20
2.5751450987
 30
0.0
 10
2.9678578585
 20
2.5751936721
 30
0.0
 10
2.9643173605
 20
2.5752437107
 30
0.0
 10
2.9586484935
 20
2.5753169992
 30
0.0
 10
2.9504835338
 20
2.5754096818
 30
0.0
 10
2.9395373145
 20
2.5755193941
 30
0.0
 10
2.9272634412
 20
2.5756293574
 30
0.0
 10
2.9139623967
 20
2.5757370373
 30
0.0
 10
2.8999625315
 20
2.5758395861
 30
0.0
 10
2.8809010465
 20
2.5759656908
 30
0.0
 10
2.8579453365
 20
2.5760943649
 30
0.0
 10
2.8329896383
 20
2.5761971358
 30
0.0
 10
2.8175655035
 20
2.5762324221
 30
0.0
 10
2.8107410474
 20
2.576233419
 30
0.0
  0
SPLINE
  5
3FF
100
AcDbEntity
  8
0
100
AcDbSpline
 62
7
  6
CONTINUOUS
 70
0
 71
3
 72
27
 73
23
 74
0
 42
0.0000001
 43
0.0000001
 44
0.0000000001
 40
0.0
 40
0.0
 40
0.0
 40
0.0
 40
0.0004859916
 40
0.00194456
 40
0.0043714345
 40
0.0077614245
 40
0.0121092381
 40
0.0174095555
 40
0.0308328139
 40
0.0479120146
 40
0.0685096933
 40
0.0924878197
 40
0.1196747847
 40
0.1827752297
 40
0.25593323
 40
0.3369251863
 40
0.423339029
 40
0.5125601155
 40
0.6019180524
 40
0.7703646513
 40
0.9085541886
 40
1.0
 40
1.0
 40
1.0
 40
1.0
 10
3.2169424105
 20
2.5633497445
 30
0.0
 10
3.2169453215
 20
2.5633754465
 30
0.0
 10
3.2167725911
 20
2.5633301634
 30
0.0
 10
3.2166070169
 20
2.5633864801
 30
0.0
 10
3.216181764
 20
2.5633671816
 30
0.0
 10
3.2156576505
 20
2.5633891353
 30
0.0
 10
3.2149573048
 20
2.5633949025
 30
0.0
 10
3.213732548
 20
2.5634135917
 30
0.0
 10
3.2118251124
 20
2.56343392
 30
0.0
 10
3.2091063762
 20
2.5634620273
 30
0.0
 10
3.2058246999
 20
2.5634918941
 30
0.0
 10
3.2020054603
 20
2.5635244333
 30
0.0
 10
3.195923977
 20
2.5635729261
 30
0.0
 10
3.187225067
 20
2.5636368622
 30
0.0
 10
3.1756624533
 20
2.563715249
 30
0.0
 10
3.1628590177
 20
2.5637963027
 30
0.0
 10
3.1492006263
 20
2.563877479
 30
0.0
 10
3.135096947
 20
2.5639564112
 30
0.0
 10
3.1166272154
 20
2.5640533885
 30
0.0
 10
3.0955511818
 20
2.5641541502
 30
0.0
 10
3.0743639557
 20
2.5642361637
 30
0.0
 10
3.0621419412
 20
2.5642711174
 30
0.0
 10
3.0572748573
 20
2.5642724026
 30
0.0
  0
SPLINE
  5
400
100
AcDbEntity
  8
0
100
AcDbSpline
 62
7
  6
CONTINUOUS
 70
0
 71
3
 72
22
 73
18
 74
0
 42
0.0000001
 43
0.0000001
 44
0.0000000001
 40
0.0
 40
0.0
 40
0.0
 40
0.0
 40
0.2003330993
 40
0.3904718689
 40
0.5633374305
 40
0.7133515812
 40
0.7782346747
 40
0.8356257174
 40
0.884986633
 40
0.9259285381
 40
0.9581458801
 40
0.9708878989
 40
0.9813361483
 40
0.9894715208
 40
0.9952895745
 40
0.9987895822
 40
1.0
 40
1.0
 40
1.0
 40
1.0
 10
5.1426091284
 20
2.5761536558
 30
0.0
 10
5.1370782279
 20
2.5761534797
 30
0.0
 10
5.1262978751
 20
2.5761454276
 30
0.0
 10
5.1107449971
 20
2.5761107071
 30
0.0
 10
5.0965814093
 20
2.5760547641
 30
0.0
 10
5.0858760609
 20
2.5759897576
 30
0.0
 10
5.0783588044
 20
2.5759263568
 30
0.0
 10
5.0736205705
 20
2.5758772949
 30
0.0
 10
5.0695429738
 20
2.5758250995
 30
0.0
 10
5.0661617091
 20
2.5757696027
 30
0.0
 10
5.0637885441
 20
2.5757200302
 30
0.0
 10
5.0622626174
 20
2.5756753647
 30
0.0
 10
5.0613915651
 20
2.5756478075
 30
0.0
 10
5.0607359012
 20
2.5756107126
 30
0.0
 10
5.0602155485
 20
2.5755967196
 30
0.0
 10
5.0599955492
 20
2.5755418129
 30
0.0
 10
5.0597939102
 20
2.5755478558
 30
0.0
 10
5.0597958088
 20
2.5755144919
 30
0.0
  0
SPLINE
  5
401
100
AcDbEntity
  8
0
100
AcDbSpline
 62
7
  6
CONTINUOUS
 70
0
 71
3
 72
26
 73
22
 74
0
 42
0.0000001
 43
0.0000001
 44
0.0000000001
 40
0.0
 40
0.0
 40
0.0
 40
0.0
 40
0.0003926158
 40
0.001548007
 40
0.0034783833
 40
0.0061850781
 40
0.0139032105
 40
0.0246463121
 40
0.038355906
 40
0.0549731886
 40
0.0744223935
 40
0.0965874037
 40
0.1485766585
 40
0.2099125484
 40
0.2792904641
 40
0.3552970029
 40
0.4363532682
 40
0.5207850993
 40
0.6927307695
 40
0.857008541
 40
1.0
 40
1.0
 40
1.0
 40
1.0
 10
3.4281763907
 20
2.5750033159
 30
0.0
 10
3.4281788546
 20
2.5750233739
 30
0.0
 10
3.4280520309
 20
2.5750193108
 30
0.0
 10
3.4279198936
 20
2.5750535961
 30
0.0
 10
3.4275962035
 20
2.575062984
 30
0.0
 10
3.4269768999
 20
2.5750996456
 30
0.0
 10
3.4258761229
 20
2.575132221
 30
0.0
 10
3.4242264653
 20
2.5751783747
 30
0.0
 10
3.4221108089
 20
2.5752234544
 30
0.0
 10
3.4195499476
 20
2.5752713709
 30
0.0
 10
3.4165527781
 20
2.5753201062
 30
0.0
 10
3.4117354244
 20
2.5753903721
 30
0.0
 10
3.4047619227
 20
2.5754774218
 30
0.0
 10
3.3953583579
 20
2.5755778558
 30
0.0
 10
3.3847184616
 20
2.5756768484
 30
0.0
 10
3.3730634557
 20
2.5757721466
 30
0.0
 10
3.3606335227
 20
2.5758618346
 30
0.0
 10
3.343265421
 20
2.5759719651
 30
0.0
 10
3.3216136525
 20
2.5760828915
 30
0.0
 10
3.2969475635
 20
2.5761694846
 30
0.0
 10
3.2811317517
 20
2.576195858
 30
0.0
 10
3.2737716705
 20
2.5761965688
 30
0.0
  0
SPLINE
  5
402
100
AcDbEntity
  8
0
100
AcDbSpline
 62
7
  6
CONTINUOUS
 70
0
 71
3
 72
21
 73
17
 74
0
 42
0.0000001
 43
0.0000001
 44
0.0000000001
 40
0.0
 40
0.0
 40
0.0
 40
0.0
 40
0.2095985087
 40
0.4035937304
 40
0.5763581816
 40
0.7237904793
 40
0.7868674555
 40
0.8423541081
 40
0.8899227754
 40
0.9292459933
 40
0.9600343419
 40
0.9821467377
 40
0.9899176665
 40
0.9954827844
 40
0.9988345989
 40
1.0
 40
1.0
 40
1.0
 40
1.0
 10
4.4657533689
 20
2.5761558779
 30
0.0
 10
4.4612882576
 20
2.5761558139
 30
0.0
 10
4.4526904356
 20
2.5761502416
 30
0.0
 10
4.4404121951
 20
2.5761249683
 30
0.0
 10
4.4294583796
 20
2.5760836345
 30
0.0
 10
4.4212934991
 20
2.5760351523
 30
0.0
 10
4.4156272632
 20
2.5759871112
 30
0.0
 10
4.4120880283
 20
2.5759499409
 30
0.0
 10
4.4090560232
 20
2.5759095403
 30
0.0
 10
4.4065470341
 20
2.5758679647
 30
0.0
 10
4.4045890188
 20
2.5758212871
 30
0.0
 10
4.4032842923
 20
2.5757848295
 30
0.0
 10
4.4025472854
 20
2.5757425779
 30
0.0
 10
4.4021639738
 20
2.5757282365
 30
0.0
 10
4.4020011248
 20
2.5756893181
 30
0.0
 10
4.4018525521
 20
2.5756883633
 30
0.0
 10
4.4018545128
 20
2.5756636141
 30
0.0
  0
SPLINE
  5
403
100
AcDbEntity
  8
0
100
AcDbSpline
 62
7
  6
CONTINUOUS
 70
0
 71
3
 72
26
 73
22
 74
0
 42
0.0000001
 43
0.0000001
 44
0.0000000001
 40
0.0
 40
0.0
 40
0.0
 40
0.0
 40
0.0003789429
 40
0.0014501018
 40
0.0032271916
 40
0.0057111277
 40
0.0127967563
 40
0.0226942201
 40
0.0353535072
 40
0.0507079308
 40
0.0686905581
 40
0.0892343823
 40
0.1376701306
 40
0.1951388721
 40
0.2606842895
 40
0.3331846258
 40
0.4113890221
 40
0.493983471
 40
0.6665309705
 40
0.8391929519
 40
1.0
 40
1.0
 40
1.0
 40
1.0
 10
3.9723486097
 20
2.5750992606
 30
0.0
 10
3.9723493941
 20
2.5751167709
 30
0.0
 10
3.9722487146
 20
2.57512106
 30
0.0
 10
3.9721331757
 20
2.5751486306
 30
0.0
 10
3.9718689541
 20
2.5751628347
 30
0.0
 10
3.9713561555
 20
2.5751973899
 30
0.0
 10
3.9704481586
 20
2.5752318319
 30
0.0
 10
3.9690817131
 20
2.5752761326
 30
0.0
 10
3.9673271511
 20
2.5753198611
 30
0.0
 10
3.9652006361
 20
2.5753652391
 30
0.0
 10
3.9627086265
 20
2.5754109521
 30
0.0
 10
3.9586868234
 20
2.5754760528
 30
0.0
 10
3.95283848
 20
2.5755551035
 30
0.0
 10
3.9449086472
 20
2.5756447736
 30
0.0
 10
3.9358656006
 20
2.575731597
 30
0.0
 10
3.9258633669
 20
2.5758141385
 30
0.0
 10
3.9150724666
 20
2.5758909262
 30
0.0
 10
3.8996539354
 20
2.575985068
 30
0.0
 10
3.8798662263
 20
2.5760786426
 30
0.0
 10
3.8564607111
 20
2.5761500191
 30
0.0
 10
3.8410362192
 20
2.5761698057
 30
0.0
 10
3.8335981463
 20
2.5761702832
 30
0.0
  0
SPLINE
  5
404
100
AcDbEntity
  8
0
100
AcDbSpline
 62
7
  6
CONTINUOUS
 70
0
 71
3
 72
23
 73
19
 74
0
 42
0.0000001
 43
0.0000001
 44
0.0000000001
 40
0.0
 40
0.0
 40
0.0
 40
0.0
 40
0.0013489946
 40
0.0053192559
 40
0.0119079743
 40
0.021093846
 40
0.0328534969
 40
0.0471607785
 40
0.0831882949
 40
0.1286262115
 40
0.1828897024
 40
0.245215578
 40
0.3147239718
 40
0.390491706
 40
0.4714282277
 40
0.6442553903
 40
0.8238722476
 40
1.0
 40
1.0
 40
1.0
 40
1.0
 10
4.5868298317
 20
2.5752223223
 30
0.0
 10
4.5868339145
 20
2.5752766186
 30
0.0
 10
4.5864901977
 20
2.5752382689
 30
0.0
 10
4.5861355662
 20
2.5753372634
 30
0.0
 10
4.5852687967
 20
2.5753395203
 30
0.0
 10
4.5841892198
 20
2.5753955797
 30
0.0
 10
4.5827549137
 20
2.5754302826
 30
0.0
 10
4.5802549382
 20
2.5754927083
 30
0.0
 10
4.5763862288
 20
2.575561766
 30
0.0
 10
4.5709099162
 20
2.5756423241
 30
0.0
 10
4.5643698931
 20
2.5757195045
 30
0.0
 10
4.5568589465
 20
2.5757937796
 30
0.0
 10
4.5484797081
 20
2.5758634605
 30
0.0
 10
4.5393492955
 20
2.5759275598
 30
0.0
 10
4.5260485968
 20
2.5760061768
 30
0.0
 10
4.5085561592
 20
2.5760831524
 30
0.0
 10
4.4872214111
 20
2.5761406862
 30
0.0
 10
4.4728624405
 20
2.576155426
 30
0.0
 10
4.4657533715
 20
2.5761557109
 30
0.0
  0
SPLINE
  5
405
100
AcDbEntity
  8
0
100
AcDbSpline
 62
7
  6
CONTINUOUS
 70
0
 71
3
 72
20
 73
16
 74
0
 42
0.0000001
 43
0.0000001
 44
0.0000000001
 40
0.0
 40
0.0
 40
0.0
 40
0.0
 40
0.2172008402
 40
0.4142440662
 40
0.5869695236
 40
0.7322821606
 40
0.7939453618
 40
0.8479050895
 40
0.8939355174
 40
0.9318809829
 40
0.9615908555
 40
0.9829157352
 40
0.9903883667
 40
0.9957184995
 40
1.0
 40
1.0
 40
1.0
 40
1.0
 10
3.8335981421
 20
2.5761704502
 30
0.0
 10
3.8302503437
 20
2.5761704651
 30
0.0
 10
3.8238654385
 20
2.5761668402
 30
0.0
 10
3.8148182869
 20
2.5761494288
 30
0.0
 10
3.8068791391
 20
2.57612074
 30
0.0
 10
3.801026885
 20
2.5760864507
 30
0.0
 10
3.797004905
 20
2.5760524941
 30
0.0
 10
3.7945139521
 20
2.5760256225
 30
0.0
 10
3.7923865147
 20
2.5759976874
 30
0.0
 10
3.7906389
 20
2.5759643967
 30
0.0
 10
3.7892563927
 20
2.5759384694
 30
0.0
 10
3.7883788318
 20
2.5758946851
 30
0.0
 10
3.7878214493
 20
2.5758862499
 30
0.0
 10
3.7876149615
 20
2.5758344899
 30
0.0
 10
3.7873588464
 20
2.5758807379
 30
0.0
 10
3.7873652407
 20
2.575815056
 30
0.0
  0
LINE
  5
406
100
AcDbEntity
  8
0
100
AcDbLine
 62
7
  6
CONTINUOUS
 10
4.8063747326
 20
2.5640266632
 11
4.7998400061
 21
2.564219455
  0
SPLINE
  5
407
100
AcDbEntity
  8
0
100
AcDbSpline
 62
7
  6
CONTINUOUS
 70
0
 71
3
 72
22
 73
18
 74
0
 42
0.0000001
 43
0.0000001
 44
0.0000000001
 40
0.0
 40
0.0
 40
0.0
 40
0.0
 40
0.0012527812
 40
0.0049525657
 40
0.0111283028
 40
0.0197572856
 40
0.0308069968
 40
0.0442441726
 40
0.078146555
 40
0.1211469293
 40
0.1727314824
 40
0.2323363044
 40
0.2993546704
 40
0.4524660191
 40
0.6253777331
 40
0.8107647659
 40
1.0
 40
1.0
 40
1.0
 40
1.0
 10
5.2447611438
 20
2.5753670552
 30
0.0
 10
5.24476583
 20
2.5754094605
 30
0.0
 10
5.2444960017
 20
2.5753926859
 30
0.0
 10
5.2442170085
 20
2.5754658865
 30
0.0
 10
5.2435315114
 20
2.5754768668
 30
0.0
 10
5.2426765444
 20
2.5755229418
 30
0.0
 10
5.2415397906
 20
2.5755549067
 30
0.0
 10
5.2395565299
 20
2.5756088507
 30
0.0
 10
5.2364776592
 20
2.5756687757
 30
0.0
 10
5.2321037901
 20
2.5757368247
 30
0.0
 10
5.226852804
 20
2.5758015195
 30
0.0
 10
5.2207843869
 20
2.5758630179
 30
0.0
 10
5.2112582859
 20
2.5759425771
 30
0.0
 10
5.197873521
 20
2.5760253644
 30
0.0
 10
5.180457559
 20
2.576097419
 30
0.0
 10
5.1618113198
 20
2.5761425439
 30
0.0
 10
5.1490535421
 20
2.5761533585
 30
0.0
 10
5.1426091293
 20
2.5761534888
 30
0.0
  0
SPLINE
  5
408
100
AcDbEntity
  8
0
100
AcDbSpline
 62
7
  6
CONTINUOUS
 70
0
 71
3
 72
18
 73
14
 74
0
 42
0.0000001
 43
0.0000001
 44
0.0000000001
 40
0.0
 40
0.0
 40
0.0
 40
0.0
 40
0.223236383
 40
0.4225596377
 40
0.5952836656
 40
0.7389857844
 40
0.8522909659
 40
0.8971967801
 40
0.9340861673
 40
0.9628399723
 40
0.9834156059
 40
0.9957939159
 40
1.0
 40
1.0
 40
1.0
 40
1.0
 10
3.2737716648
 20
2.5761967359
 30
0.0
 10
3.271494965
 20
2.5761967972
 30
0.0
 10
3.2671854083
 20
2.5761946705
 30
0.0
 10
3.2611144976
 20
2.5761835446
 30
0.0
 10
3.255854175
 20
2.5761655156
 30
0.0
 10
3.2514727891
 20
2.5761394044
 30
0.0
 10
3.2483910066
 20
2.576113153
 30
0.0
 10
3.2464057643
 20
2.5760831672
 30
0.0
 10
3.2452693531
 20
2.5760683617
 30
0.0
 10
3.2444139784
 20
2.5760324852
 30
0.0
 10
3.243731306
 20
2.5760427241
 30
0.0
 10
3.2434475235
 20
2.575963997
 30
0.0
 10
3.2431802472
 20
2.5760051599
 30
0.0
 10
3.243180932
 20
2.5759622692
 30
0.0
  0
LINE
  5
409
100
AcDbEntity
  8
0
100
AcDbLine
 62
7
  6
CONTINUOUS
 10
6.0060106059
 20
2.5639582393
 11
6.005532261
 21
2.5640081412
  0
SPLINE
  5
40A
100
AcDbEntity
  8
0
100
AcDbSpline
 62
7
  6
CONTINUOUS
 70
0
 71
3
 72
22
 73
18
 74
0
 42
0.0000001
 43
0.0000001
 44
0.0000000001
 40
0.0
 40
0.0
 40
0.0
 40
0.0
 40
0.0012103879
 40
0.0047103584
 40
0.0105283549
 40
0.0186636496
 40
0.0291117995
 40
0.0418536839
 40
0.0740706738
 40
0.1150121721
 40
0.1643726858
 40
0.221763261
 40
0.2866458824
 40
0.436659507
 40
0.6095252511
 40
0.7996650549
 40
1.0
 40
1.0
 40
1.0
 40
1.0
 10
5.9173935683
 20
2.5755271736
 30
0.0
 10
5.9173954653
 20
2.5755605354
 30
0.0
 10
5.9171938339
 20
2.575554473
 30
0.0
 10
5.9169738471
 20
2.5756093735
 30
0.0
 10
5.916453518
 20
2.5756233392
 30
0.0
 10
5.9157978863
 20
2.5756604088
 30
0.0
 10
5.9149268766
 20
2.5756879315
 30
0.0
 10
5.9134010264
 20
2.5757325408
 30
0.0
 10
5.9110279802
 20
2.5757820295
 30
0.0
 10
5.9076468827
 20
2.5758374115
 30
0.0
 10
5.9035694845
 20
2.5758894719
 30
0.0
 10
5.8988314777
 20
2.5759383802
 30
0.0
 10
5.8913145639
 20
2.5760015412
 30
0.0
 10
5.8806096691
 20
2.5760662128
 30
0.0
 10
5.8664466336
 20
2.5761217214
 30
0.0
 10
5.8508942993
 20
2.5761559704
 30
0.0
 10
5.8401143029
 20
2.5761637009
 30
0.0
 10
5.8345835752
 20
2.5761637139
 30
0.0
  0
LINE
  5
40B
100
AcDbEntity
  8
0
100
AcDbLine
 62
7
  6
CONTINUOUS
 10
2.8107410405
 20
2.576233586
 11
2.793082797
 21
2.5760988757
  0
SPLINE
  5
40C
100
AcDbEntity
  8
0
100
AcDbSpline
 62
7
  6
CONTINUOUS
 70
0
 71
3
 72
23
 73
19
 74
0
 42
0.0000001
 43
0.0000001
 44
0.0000000001
 40
0.0
 40
0.0
 40
0.0
 40
0.0
 40
0.0014033481
 40
0.0055943283
 40
0.0125792482
 40
0.022334342
 40
0.0348046112
 40
0.0499325965
 40
0.0879305084
 40
0.1357414671
 40
0.1925295715
 40
0.2574035382
 40
0.3292766687
 40
0.4069711309
 40
0.4892245156
 40
0.6618417454
 40
0.835976489
 40
1.0
 40
1.0
 40
1.0
 40
1.0
 10
4.4034387103
 20
2.563478984
 30
0.0
 10
4.4034426333
 20
2.5635353496
 30
0.0
 10
4.4030759141
 20
2.5634616431
 30
0.0
 10
4.4027070634
 20
2.5635755727
 30
0.0
 10
4.4017866748
 20
2.5635512158
 30
0.0
 10
4.4006453208
 20
2.5636019734
 30
0.0
 10
4.399128445
 20
2.5636223515
 30
0.0
 10
4.3964939503
 20
2.5636691698
 30
0.0
 10
4.392426317
 20
2.563718242
 30
0.0
 10
4.3866870355
 20
2.5637781831
 30
0.0
 10
4.3798633145
 20
2.5638358269
 30
0.0
 10
4.3720715368
 20
2.5638920384
 30
0.0
 10
4.363437729
 20
2.5639451993
 30
0.0
 10
4.3541042317
 20
2.5639945808
 30
0.0
 10
4.340714527
 20
2.5640550984
 30
0.0
 10
4.3234418878
 20
2.5641151042
 30
0.0
 10
4.3028769382
 20
2.5641606362
 30
0.0
 10
4.2892619101
 20
2.5641729665
 30
0.0
 10
4.2826579468
 20
2.5641733083
 30
0.0
  0
SPLINE
  5
40D
100
AcDbEntity
  8
0
100
AcDbSpline
 62
7
  6
CONTINUOUS
 70
0
 71
3
 72
21
 73
17
 74
0
 42
0.0000001
 43
0.0000001
 44
0.0000000001
 40
0.0
 40
0.0
 40
0.0
 40
0.0
 40
0.00116536
 40
0.0045171215
 40
0.0100821638
 40
0.0178529974
 40
0.0399651642
 40
0.0707532686
 40
0.1100761618
 40
0.1576443968
 40
0.2131306163
 40
0.2762072653
 40
0.4236392276
 40
0.5964039011
 40
0.7903999691
 40
1.0
 40
1.0
 40
1.0
 40
1.0
 10
6.5753297787
 20
2.5756957063
 30
0.0
 10
6.5753317384
 20
2.5757204534
 30
0.0
 10
6.5751831723
 20
2.5757213928
 30
0.0
 10
6.5750203361
 20
2.575760306
 30
0.0
 10
6.5746370461
 20
2.5757746264
 30
0.0
 10
6.573900084
 20
2.5758168481
 30
0.0
 10
6.5725954329
 20
2.5758532543
 30
0.0
 10
6.5706375315
 20
2.5758998622
 30
0.0
 10
6.5681286879
 20
2.5759413513
 30
0.0
 10
6.5650968589
 20
2.5759816509
 30
0.0
 10
6.5615578254
 20
2.5760187059
 30
0.0
 10
6.5558918953
 20
2.5760665655
 30
0.0
 10
6.5477274319
 20
2.5761147923
 30
0.0
 10
6.5367741484
 20
2.5761557898
 30
0.0
 10
6.5244964672
 20
2.576180691
 30
0.0
 10
6.5158990254
 20
2.5761860071
 30
0.0
 10
6.5114341054
 20
2.5761859395
 30
0.0
  0
LINE
  5
40E
100
AcDbEntity
  8
0
100
AcDbLine
 62
7
  6
CONTINUOUS
 10
2.4647429293
 20
2.5762793901
 11
2.4567489423
 21
2.5762189223
  0
LINE
  5
40F
100
AcDbEntity
  8
0
100
AcDbLine
 62
7
  6
CONTINUOUS
 10
3.7922442007
 20
2.5641615151
 11
3.7878054579
 21
2.564171022
  0
LINE
  5
410
100
AcDbEntity
  8
0
100
AcDbLine
 62
7
  6
CONTINUOUS
 10
3.7878054579
 20
2.564171022
 11
3.7660215226
 21
2.564195886
  0
LINE
  5
411
100
AcDbEntity
  8
0
100
AcDbLine
 62
7
  6
CONTINUOUS
 10
7.7624857391
 20
2.5635404367
 11
7.7601310669
 21
2.5635691984
  0
SPLINE
  5
412
100
AcDbEntity
  8
0
100
AcDbSpline
 62
7
  6
CONTINUOUS
 70
0
 71
3
 72
20
 73
16
 74
0
 42
0.0000001
 43
0.0000001
 44
0.0000000001
 40
0.0
 40
0.0
 40
0.0
 40
0.0
 40
0.0042814723
 40
0.0096115982
 40
0.0170842069
 40
0.0384088959
 40
0.0681184503
 40
0.1060635559
 40
0.1520936689
 40
0.206053175
 40
0.2677161584
 40
0.413028526
 40
0.5857542184
 40
0.7827980188
 40
1.0
 40
1.0
 40
1.0
 40
1.0
 10
7.1898091088
 20
2.5758652752
 30
0.0
 10
7.1898155003
 20
2.5759309528
 30
0.0
 10
7.1895594016
 20
2.5758846877
 30
0.0
 10
7.1893529267
 20
2.5759364384
 30
0.0
 10
7.1887955817
 20
2.5759448477
 30
0.0
 10
7.1879180829
 20
2.5759885982
 30
0.0
 10
7.1865356751
 20
2.5760144745
 30
0.0
 10
7.1847881846
 20
2.5760477046
 30
0.0
 10
7.182660894
 20
2.576075568
 30
0.0
 10
7.1801701087
 20
2.5761023579
 30
0.0
 10
7.1761483917
 20
2.5761361853
 30
0.0
 10
7.1702965088
 20
2.5761702911
 30
0.0
 10
7.1623578517
 20
2.5761987355
 30
0.0
 10
7.153311239
 20
2.5762158728
 30
0.0
 10
7.1469267092
 20
2.5762193077
 30
0.0
 10
7.1435791039
 20
2.5762191942
 30
0.0
  0
LINE
  5
413
100
AcDbEntity
  8
0
100
AcDbLine
 62
7
  6
CONTINUOUS
 10
7.9276319449
 20
2.5643158606
 11
7.9223092256
 21
2.5643448471
  0
LINE
  5
414
100
AcDbEntity
  8
0
100
AcDbLine
 62
7
  6
CONTINUOUS
 10
2.250899109
 20
2.5763321463
 11
2.2488840167
 21
2.5763173166
  0
SPLINE
  5
415
100
AcDbEntity
  8
0
100
AcDbSpline
 62
7
  6
CONTINUOUS
 70
0
 71
3
 72
23
 73
19
 74
0
 42
0.0000001
 43
0.0000001
 44
0.0000000001
 40
0.0
 40
0.0
 40
0.0
 40
0.0
 40
0.0013068508
 40
0.0051713004
 40
0.0115944801
 40
0.0205662087
 40
0.0320719221
 40
0.0460692526
 40
0.0813114002
 40
0.1258368553
 40
0.1791216515
 40
0.2404394545
 40
0.309024791
 40
0.3840187671
 40
0.4644137044
 40
0.6372788934
 40
0.8190358949
 40
1.0
 40
1.0
 40
1.0
 40
1.0
 10
4.9715412073
 20
2.563577141
 30
0.0
 10
4.9715428688
 20
2.5636216179
 30
0.0
 10
4.9712614225
 20
2.5635744885
 30
0.0
 10
4.9709688728
 20
2.5636600406
 30
0.0
 10
4.9702556494
 20
2.5636490921
 30
0.0
 10
4.9693652888
 20
2.5636905622
 30
0.0
 10
4.9681816343
 20
2.5637105446
 30
0.0
 10
4.9661177962
 20
2.5637513139
 30
0.0
 10
4.9629217201
 20
2.5637944235
 30
0.0
 10
4.9583918663
 20
2.5638454422
 30
0.0
 10
4.9529721524
 20
2.5638936963
 30
0.0
 10
4.9467335782
 20
2.5639401149
 30
0.0
 10
4.9397554135
 20
2.563983402
 30
0.0
 10
4.9321275633
 20
2.564023117
 30
0.0
 10
4.9209482017
 20
2.5640717942
 30
0.0
 10
4.9061327494
 20
2.5641192121
 30
0.0
 10
4.8878921344
 20
2.5641543037
 30
0.0
 10
4.8755388181
 20
2.5641629875
 30
0.0
 10
4.8693756623
 20
2.5641631489
 30
0.0
  0
SPLINE
  5
416
100
AcDbEntity
  8
0
100
AcDbSpline
 62
7
  6
CONTINUOUS
 70
0
 71
3
 72
18
 73
14
 74
0
 42
0.0000001
 43
0.0000001
 44
0.0000000001
 40
0.0
 40
0.0
 40
0.0
 40
0.0
 40
0.0042059331
 40
0.0165840553
 40
0.037159507
 40
0.0659131974
 40
0.1028024791
 40
0.147708124
 40
0.2610129555
 40
0.4047150103
 40
0.5774392185
 40
0.7767628138
 40
1.0
 40
1.0
 40
1.0
 40
1.0
 10
7.7339790406
 20
2.5760285396
 30
0.0
 10
7.7339797269
 20
2.5760714252
 30
0.0
 10
7.7337124699
 20
2.5760302467
 30
0.0
 10
7.7334287211
 20
2.576108961
 30
0.0
 10
7.7327461047
 20
2.5760986931
 30
0.0
 10
7.7318908052
 20
2.5761345382
 30
0.0
 10
7.7307544895
 20
2.5761493032
 30
0.0
 10
7.7287694154
 20
2.5761792218
 30
0.0
 10
7.7256878899
 20
2.5762053729
 30
0.0
 10
7.7213068641
 20
2.5762313458
 30
0.0
 10
7.7160469665
 20
2.5762492123
 30
0.0
 10
7.7099765385
 20
2.5762601543
 30
0.0
 10
7.7056673227
 20
2.5762621529
 30
0.0
 10
7.7033908009
 20
2.5762620245
 30
0.0
  0
LINE
  5
417
100
AcDbEntity
  8
0
100
AcDbLine
 62
7
  6
CONTINUOUS
 10
8.1840590131
 20
2.5761784202
 11
8.1664027389
 21
2.5763125585
  0
LINE
  5
418
100
AcDbEntity
  8
0
100
AcDbLine
 62
7
  6
CONTINUOUS
 10
8.5203716962
 20
2.576308384
 11
8.5123790745
 21
2.5763685878
  0
SPLINE
  5
419
100
AcDbEntity
  8
0
100
AcDbSpline
 62
7
  6
CONTINUOUS
 70
0
 71
3
 72
21
 73
17
 74
0
 42
0.0000001
 43
0.0000001
 44
0.0000000001
 40
0.0
 40
0.0
 40
0.0
 40
0.0
 40
0.001136619
 40
0.0045203344
 40
0.0101715393
 40
0.0180742123
 40
0.0405533976
 40
0.0717932418
 40
0.1116249433
 40
0.1597904517
 40
0.2159009174
 40
0.2795569204
 40
0.4278199451
 40
0.6006140089
 40
0.7933759377
 40
1.0
 40
1.0
 40
1.0
 40
1.0
 10
6.1772334582
 20
2.5638243594
 30
0.0
 10
6.1772364748
 20
2.5638479098
 30
0.0
 10
6.1770832933
 20
2.5638346802
 30
0.0
 10
6.1769287121
 20
2.5638761355
 30
0.0
 10
6.1765428148
 20
2.5638787295
 30
0.0
 10
6.1758102818
 20
2.563913895
 30
0.0
 10
6.1745087861
 20
2.5639368138
 30
0.0
 10
6.1725618529
 20
2.5639723597
 30
0.0
 10
6.1700686075
 20
2.5640020254
 30
0.0
 10
6.1670594435
 20
2.564031692
 30
0.0
 10
6.1635512988
 20
2.5640587639
 30
0.0
 10
6.1579526781
 20
2.5640939025
 30
0.0
 10
6.1499164084
 20
2.5641293741
 30
0.0
 10
6.1391833241
 20
2.5641595856
 30
0.0
 10
6.1272310687
 20
2.5641778621
 30
0.0
 10
6.1188883051
 20
2.5641817587
 30
0.0
 10
6.1145721396
 20
2.564181691
 30
0.0
  0
SPLINE
  5
41A
100
AcDbEntity
  8
0
100
AcDbSpline
 62
7
  6
CONTINUOUS
 70
0
 71
3
 72
22
 73
18
 74
0
 42
0.0000001
 43
0.0000001
 44
0.0000000001
 40
0.0
 40
0.0
 40
0.0
 40
0.0
 40
0.0012201645
 40
0.0048293841
 40
0.0108265871
 40
0.0191957467
 40
0.029919169
 40
0.0429787066
 40
0.0760084455
 40
0.1179374681
 40
0.1683402941
 40
0.2267814941
 40
0.2926868258
 40
0.4441664821
 40
0.6170538582
 40
0.8049391256
 40
1.0
 40
1.0
 40
1.0
 40
1.0
 10
5.5744873325
 20
2.5636945303
 30
0.0
 10
5.57449021
 20
2.5637279273
 30
0.0
 10
5.5742760727
 20
2.563700724
 30
0.0
 10
5.5740581339
 20
2.563762168
 30
0.0
 10
5.573519983
 20
2.5637598491
 30
0.0
 10
5.5728507554
 20
2.5637922172
 30
0.0
 10
5.5719601353
 20
2.563810222
 30
0.0
 10
5.5704032785
 20
2.563843883
 30
0.0
 10
5.5679831486
 20
2.5638796282
 30
0.0
 10
5.5645404215
 20
2.5639208397
 30
0.0
 10
5.5603981646
 20
2.5639594832
 30
0.0
 10
5.5555976554
 20
2.5639960613
 30
0.0
 10
5.5480201764
 20
2.5640432695
 30
0.0
 10
5.5372986338
 20
2.5640920049
 30
0.0
 10
5.52322594
 20
2.5641340385
 30
0.0
 10
5.5079559441
 20
2.5641600209
 30
0.0
 10
5.4974355364
 20
2.5641659733
 30
0.0
 10
5.4920767682
 20
2.5641659983
 30
0.0
  0
LINE
  5
41B
100
AcDbEntity
  8
0
100
AcDbLine
 62
7
  6
CONTINUOUS
 10
8.7282133718
 20
2.576412903
 11
8.7261989816
 21
2.5764276635
  0
SPLINE
  5
41C
100
AcDbEntity
  8
0
100
AcDbSpline
 62
7
  6
CONTINUOUS
 70
0
 71
3
 72
21
 73
17
 74
0
 42
0.0000001
 43
0.0000001
 44
0.0000000001
 40
0.0
 40
0.0
 40
0.0
 40
0.0
 40
0.00109409
 40
0.0043072259
 40
0.0096663042
 40
0.0171762757
 40
0.0386364575
 40
0.0685557505
 40
0.1067546238
 40
0.1530528168
 40
0.2072694557
 40
0.2691813459
 40
0.4148629754
 40
0.5875849831
 40
0.7841046157
 40
1.0
 40
1.0
 40
1.0
 40
1.0
 10
6.7447526965
 20
2.5639590732
 30
0.0
 10
6.7447541111
 20
2.5639750839
 30
0.0
 10
6.7446537363
 20
2.5639688502
 30
0.0
 10
6.7445482604
 20
2.5639959668
 30
0.0
 10
6.7442919131
 20
2.5639997569
 30
0.0
 10
6.7438003722
 20
2.5640242521
 30
0.0
 10
6.7429262292
 20
2.5640413945
 30
0.0
 10
6.7416148837
 20
2.5640663125
 30
0.0
 10
6.7399324312
 20
2.5640872904
 30
0.0
 10
6.7378953231
 20
2.5641079617
 30
0.0
 10
6.7355090029
 20
2.5641266717
 30
0.0
 10
6.7316629513
 20
2.5641507961
 30
0.0
 10
6.7260757899
 20
2.5641749054
 30
0.0
 10
6.7185111768
 20
2.5641950642
 30
0.0
 10
6.7099150185
 20
2.5642070728
 30
0.0
 10
6.7038562941
 20
2.5642094334
 30
0.0
 10
6.7006846083
 20
2.5642093148
 30
0.0
  0
LINE
  5
41D
100
AcDbEntity
  8
0
100
AcDbLine
 62
7
  6
CONTINUOUS
 10
7.4810130109
 20
2.563598782
 11
7.4771882098
 21
2.5636642072
  0
SPLINE
  5
41E
100
AcDbEntity
  8
0
100
AcDbSpline
 62
7
  6
CONTINUOUS
 70
0
 71
3
 72
27
 73
23
 74
0
 42
0.0000001
 43
0.0000001
 44
0.0000000001
 40
0.0
 40
0.0
 40
0.0
 40
0.0
 40
0.0910967809
 40
0.2291004461
 40
0.3975147599
 40
0.486903866
 40
0.5761798325
 40
0.6626651504
 40
0.7437382857
 40
0.8169795559
 40
0.8801593312
 40
0.9073821518
 40
0.9313924499
 40
0.952019009
 40
0.9691227394
 40
0.9825650092
 40
0.9878728104
 40
0.9922269738
 40
0.9956220579
 40
0.9980526487
 40
0.9995134321
 40
1.0
 40
1.0
 40
1.0
 40
1.0
 10
7.9223092256
 20
2.5643448472
 30
0.0
 10
7.9174582994
 20
2.5643434122
 30
0.0
 10
7.9052586723
 20
2.5643079472
 30
0.0
 10
7.8840910816
 20
2.5642251876
 30
0.0
 10
7.8630144936
 20
2.5641236511
 30
0.0
 10
7.8445326876
 20
2.5640260002
 30
0.0
 10
7.8304135862
 20
2.563946545
 30
0.0
 10
7.8167373316
 20
2.5638648731
 30
0.0
 10
7.8039149476
 20
2.5637833704
 30
0.0
 10
7.7923335858
 20
2.5637045988
 30
0.0
 10
7.7836197696
 20
2.5636403984
 30
0.0
 10
7.7775274059
 20
2.563591742
 30
0.0
 10
7.7737011017
 20
2.56355911
 30
0.0
 10
7.7704132289
 20
2.5635291778
 30
0.0
 10
7.7676892862
 20
2.56350103
 30
0.0
 10
7.7657781672
 20
2.5634806947
 30
0.0
 10
7.7645510724
 20
2.5634620071
 30
0.0
 10
7.7638493214
 20
2.5634562662
 30
0.0
 10
7.7633242628
 20
2.5634342956
 30
0.0
 10
7.7628979269
 20
2.5634537021
 30
0.0
 10
7.7627324171
 20
2.5633972701
 30
0.0
 10
7.76255895
 20
2.563442722
 30
0.0
 10
7.7625620271
 20
2.5634169955
 30
0.0
  0
LINE
  5
41F
100
AcDbEntity
  8
0
100
AcDbLine
 62
7
  6
CONTINUOUS
 10
6.5796015362
 20
2.5637456371
 11
6.5736347635
 21
2.5638902955
  0
LINE
  5
420
100
AcDbEntity
  8
0
100
AcDbLine
 62
7
  6
CONTINUOUS
 10
5.4093809866
 20
2.5639272412
 11
5.4025861316
 21
2.5641200386
  0
LINE
  5
421
100
AcDbEntity
  8
0
100
AcDbLine
 62
7
  6
CONTINUOUS
 10
7.1865234205
 20
2.5642032662
 11
7.1849015356
 21
2.564199077
  0
SPLINE
  5
422
100
AcDbEntity
  8
0
100
AcDbSpline
 62
7
  6
CONTINUOUS
 70
0
 71
3
 72
23
 73
19
 74
0
 42
0.0000001
 43
0.0000001
 44
0.0000000001
 40
0.0
 40
0.0
 40
0.0
 40
0.0
 40
0.1807898133
 40
0.3624697104
 40
0.5353335497
 40
0.6157481562
 40
0.6907702668
 40
0.7593888357
 40
0.8207430973
 40
0.8740634663
 40
0.9186214813
 40
0.9538920802
 40
0.9679008503
 40
0.9794155485
 40
0.9883946391
 40
0.9948236129
 40
0.9986918495
 40
1.0
 40
1.0
 40
1.0
 40
1.0
 10
6.1145721396
 20
2.5641816908
 30
0.0
 10
6.1084017724
 20
2.5641813436
 30
0.0
 10
6.0960306588
 20
2.5641722614
 30
0.0
 10
6.0777597223
 20
2.5641365231
 30
0.0
 10
6.0629146428
 20
2.5640885308
 30
0.0
 10
6.0517098263
 20
2.5640393932
 30
0.0
 10
6.0440629241
 20
2.5639993475
 30
0.0
 10
6.0370665216
 20
2.5639557433
 30
0.0
 10
6.0308110351
 20
2.5639090294
 30
0.0
 10
6.02537618
 20
2.5638605072
 30
0.0
 10
6.0208333597
 20
2.563809246
 30
0.0
 10
6.0176279846
 20
2.563765967
 30
0.0
 10
6.0155580762
 20
2.5637250619
 30
0.0
 10
6.0143709374
 20
2.563705029
 30
0.0
 10
6.0134779439
 20
2.5636634272
 30
0.0
 10
6.0127625589
 20
2.5636744813
 30
0.0
 10
6.0124691264
 20
2.563588611
 30
0.0
 10
6.01218678
 20
2.5636360134
 30
0.0
 10
6.012188445
 20
2.5635913972
 30
0.0
  0
SPLINE
  5
423
100
AcDbEntity
  8
0
100
AcDbSpline
 62
7
  6
CONTINUOUS
 70
0
 71
3
 72
21
 73
17
 74
0
 42
0.0000001
 43
0.0000001
 44
0.0000000001
 40
0.0
 40
0.0
 40
0.0
 40
0.0
 40
0.2065071625
 40
0.3992205763
 40
0.5720159015
 40
0.7203114293
 40
0.7839902932
 40
0.8401250916
 40
0.8883135181
 40
0.9281650455
 40
0.9594229591
 40
0.9819163046
 40
0.9898238196
 40
0.9954779616
 40
0.9988629153
 40
1.0
 40
1.0
 40
1.0
 40
1.0
 10
4.8693756623
 20
2.5641631487
 30
0.0
 10
4.8650469304
 20
2.5641630865
 30
0.0
 10
4.8566786083
 20
2.5641589231
 30
0.0
 10
4.8446882104
 20
2.5641402172
 30
0.0
 10
4.8339180939
 20
2.5641095653
 30
0.0
 10
4.8258526787
 20
2.5640737165
 30
0.0
 10
4.8202329099
 20
2.5640382808
 30
0.0
 10
4.8167110908
 20
2.5640110059
 30
0.0
 10
4.8136900525
 20
2.563981144
 30
0.0
 10
4.8111868575
 20
2.5639513024
 30
0.0
 10
4.8092320639
 20
2.5639155738
 30
0.0
 10
4.8079252547
 20
2.5638925601
 30
0.0
 10
4.8071897251
 20
2.5638572433
 30
0.0
 10
4.8068022808
 20
2.5638546676
 30
0.0
 10
4.8066470828
 20
2.5638130234
 30
0.0
 10
4.8064933148
 20
2.5638263512
 30
0.0
 10
4.8064963361
 20
2.5638027082
 30
0.0
  0
LINE
  5
424
100
AcDbEntity
  8
0
100
AcDbLine
 62
7
  6
CONTINUOUS
 10
3.0572748573
 20
2.5642724024
 11
3.0518725094
 21
2.5642428111
  0
LINE
  5
425
100
AcDbEntity
  8
0
100
AcDbLine
 62
7
  6
CONTINUOUS
 10
3.7660215226
 20
2.5641958858
 11
3.7381424216
 21
2.5640377175
  0
SPLINE
  5
426
100
AcDbEntity
  8
0
100
AcDbSpline
 62
7
  6
CONTINUOUS
 70
0
 71
3
 72
28
 73
24
 74
0
 42
0.0000001
 43
0.0000001
 44
0.0000000001
 40
0.0
 40
0.0
 40
0.0
 40
0.0
 40
0.0036795952
 40
0.0065132168
 40
0.010130788
 40
0.0145686942
 40
0.0198391497
 40
0.0259411384
 40
0.0328688771
 40
0.049165607
 40
0.0686479765
 40
0.1167306468
 40
0.1758575804
 40
0.2445242451
 40
0.3209314444
 40
0.4030860047
 40
0.4888437631
 40
0.5759217297
 40
0.7447406079
 40
0.8218881307
 40
0.8914114781
 40
0.9513675851
 40
1.0
 40
1.0
 40
1.0
 40
1.0
 10
2.9310565799
 20
3.4937132236
 30
0.0
 10
2.9310563537
 20
3.4935390375
 30
0.0
 10
2.930838936
 20
3.4932612207
 30
0.0
 10
2.9304627274
 20
3.4929813424
 30
0.0
 10
2.9300129524
 20
3.4927200387
 30
0.0
 10
2.9294436818
 20
3.4924503842
 30
0.0
 10
2.928750137
 20
3.4921670879
 30
0.0
 10
2.9279352428
 20
3.4918730056
 30
0.0
 10
2.9266149409
 20
3.491443182
 30
0.0
 10
2.924669081
 20
3.4908923567
 30
0.0
 10
2.9208147211
 20
3.4899396858
 30
0.0
 10
2.9149383283
 20
3.4887312033
 30
0.0
 10
2.9067357965
 20
3.4873006274
 30
0.0
 10
2.8971758073
 20
3.4858639924
 30
0.0
 10
2.8865107516
 20
3.4844598519
 30
0.0
 10
2.8750215013
 20
3.4831286865
 30
0.0
 10
2.863012915
 20
3.481901052
 30
0.0
 10
2.8469044708
 20
3.4804501982
 30
0.0
 10
2.8311799331
 20
3.4792902477
 30
0.0
 10
2.8162697403
 20
3.4784300844
 30
0.0
 10
2.8064985361
 20
3.4779774578
 30
0.0
 10
2.7980713788
 20
3.4776998
 30
0.0
 10
2.7929310439
 20
3.4776187813
 30
0.0
 10
2.7906288628
 20
3.4776190964
 30
0.0
  0
SPLINE
  5
427
100
AcDbEntity
  8
0
100
AcDbSpline
 62
7
  6
CONTINUOUS
 70
0
 71
3
 72
16
 73
12
 74
0
 42
0.0000001
 43
0.0000001
 44
0.0000000001
 40
0.0
 40
0.0
 40
0.0
 40
0.0
 40
0.2224979502
 40
0.417698111
 40
0.5849222499
 40
0.7235806601
 40
0.7820704494
 40
0.8332994086
 40
0.8772966811
 40
0.9142034045
 40
1.0
 40
1.0
 40
1.0
 40
1.0
 10
2.9214853724
 20
3.4950915828
 30
0.0
 10
2.9222180546
 20
3.4950914825
 30
0.0
 10
2.9235935993
 20
3.4950788581
 30
0.0
 10
2.925518877
 20
3.4950152266
 30
0.0
 10
2.9271659813
 20
3.4949090244
 30
0.0
 10
2.9283592335
 20
3.4947811838
 30
0.0
 10
2.9291678151
 20
3.4946515249
 30
0.0
 10
2.9296620938
 20
3.4945509335
 30
0.0
 10
2.9300885286
 20
3.4944369208
 30
0.0
 10
2.9305836233
 20
3.494266693
 30
0.0
 10
2.9310569467
 20
3.4939957502
 30
0.0
 10
2.9310565799
 20
3.4937132236
 30
0.0
  0
ELLIPSE
  5
428
100
AcDbEntity
  8
0
100
AcDbEllipse
 62
7
  6
CONTINUOUS
 10
5.488465285
 20
5.634717314
 30
0.0
 11
0.050471036
 21
0.8736178873
 31
0.0
 40
0.9999144767
 41
2.8596034454
 42
3.5389885977
  0
ELLIPSE
  5
429
100
AcDbEntity
  8
ALL_FEATURES
100
AcDbEllipse
 62
7
  6
CONTINUOUS
 10
5.4884586086
 20
5.2521784123
 30
0.0
 11
0.4525
 21
0.0000033429
 31
0.0
 40
0.9999150312
 41
7.5749696088
 42
8.1330084357
  0
ENDSEC
  0
SECTION
  2
OBJECTS
  0
DICTIONARY
  5
C
100
AcDbDictionary
280
0
281
1
  3
ACAD_GROUP
350
D
  3
ACAD_MLINESTYLE
350
17
  3
ACAD_LAYOUT
350
1A
  3
ACAD_PLOTSETTINGS
350
19
  3
ACAD_PLOTSTYLENAME
350
E
  0
DICTIONARY
  5
D
102
{ACAD_REACTORS
330
C
102
}
100
AcDbDictionary
280
0
281
1
  0
ACDBDICTIONARYWDFLT
  5
E
102
{ACAD_REACTORS
330
C
102
}
100
AcDbDictionary
281
1
  3
Normal
350
F
100
AcDbDictionaryWithDefault
340
F
  0
DICTIONARY
  5
17
102
{ACAD_REACTORS
330
C
102
}
100
AcDbDictionary
280
0
281
1
  3
Standard
350
18
  0
DICTIONARY
  5
19
102
{ACAD_REACTORS
330
C
102
}
100
AcDbDictionary
281
1
  0
DICTIONARY
  5
1A
102
{ACAD_REACTORS
330
C
102
}
100
AcDbDictionary
281
1
  3
Model
350
42A
  3
Layout1
350
42B
  0
ACDBPLACEHOLDER
  5
F
102
{ACAD_REACTORS
330
E
102
}
  0
MLINESTYLE
  5
18
102
{ACAD_REACTORS
330
17
102
}
100
AcDbMlineStyle
  2
STANDARD
 70
0
  3

 62
256
 51
90.0
 52
90.0
 71
2
 49
0.5
 62
256
  6
BYLAYER
 49
-0.5
 62
256
  6
BYLAYER
  0
LAYOUT
  5
42A
102
{ACAD_REACTORS
330
1A
102
}
100
AcDbPlotSettings
  1

  2
none_device
  4
ANSI_A_(11.00_x_8.50_Inches)
  6

 40
0.0
 41
0.0
 42
0.0
 43
0.0
 44
279.4
 45
215.9
 46
0.0
 47
0.0
 48
0.0
 49
0.0
140
0.0
141
0.0
142
1.0
143
1.0
 70
1024
 72
0
 73
0
 74
0
  7

 75
0
147
1.0
148
0.0
149
0.0
100
AcDbLayout
  1
Model
 70
0
 71
0
 10
0.0
 20
0.0
 11
11.0
 21
8.5
 12
0.0
 22
0.0
 32
0.0
 14
0.0
 24
0.0
 34
0.0
 15
0.0
 25
0.0
 35
0.0
146
0.0
 13
0.0
 23
0.0
 33
0.0
 16
1.0
 26
0.0
 36
0.0
 17
0.0
 27
1.0
 37
0.0
 76
0
330
213
345
0
346
0
  0
LAYOUT
  5
42B
102
{ACAD_REACTORS
330
1A
102
}
100
AcDbPlotSettings
  1

  2
none_device
  4
ANSI_A_(11.00_x_8.50_Inches)
  6

 40
0.0
 41
0.0
 42
0.0
 43
0.0
 44
279.4
 45
215.9
 46
0.0
 47
0.0
 48
0.0
 49
0.0
140
0.0
141
0.0
142
1.0
143
1.0
 70
0
 72
0
 73
0
 74
0
  7

 75
0
147
1.0
148
0.0
149
0.0
100
AcDbLayout
  1
Layout1
 70
0
 71
1
 10
0.0
 20
0.0
 11
11.0
 21
8.5
 12
0.0
 22
0.0
 32
0.0
 14
0.0
 24
0.0
 34
0.0
 15
0.0
 25
0.0
 35
0.0
146
0.0
 13
0.0
 23
0.0
 33
0.0
 16
1.0
 26
0.0
 36
0.0
 17
0.0
 27
1.0
 37
0.0
 76
0
330
214
345
0
346
0
  0
ENDSEC
  0
EOF
