999
DXF file: 2157_right.dxf
999
Pro/ENGINEER 2018400 by Parametric Technology Corporation
  0
SECTION
  2
HEADER
  9
$ACADVER
  1
AC1027
  9
$DWGCODEPAGE
  3
ANSI_1252
  9
$EXTMAX
 10
11.0
 20
8.5
 30
0.0
  9
$EXTMIN
 10
0.0
 20
0.0
 30
0.0
  9
$LIMMIN
 10
0.0
 20
0.0
  9
$LIMMAX
 10
11.0
 20
8.5
  9
$VIEWCTR
 10
5.5
 20
4.25
  9
$VIEWSIZE
 40
8.5
  9
$CLAYER
  8
0
  9
$LTSCALE
 40
0.605
  9
$CELTYPE
  6
BYLAYER
  9
$DIMSCALE
 40
1.0
  9
$DIMASZ
 40
0.1
  9
$DIMEXO
 40
0.0625
  9
$DIMDLI
 40
0.418
  9
$DIMEXE
 40
0.125
  9
$DIMCEN
 40
0.099
  9
$DIMLFAC
 40
1.0
  9
$DIMBLK
  1
_FILLED
  9
$DIMALT
 70
1
  9
$DIMALTD
 70
1
  9
$DIMALTTD
 70
2
  9
$DIMALTF
 40
25.4
  9
$DIMTXT
 40
0.08
  9
$DIMTOL
 70
1
  9
$DIMLIM
 70
0
  9
$DIMTFAC
 40
1.0
  9
$DIMTP
 40
0.01
  9
$DIMTM
 40
0.01
  9
$DIMGAP
 40
0.09
  9
$DIMDSEP
 70
46
  9
$AUNITS
 70
0
  9
$PDMODE
 70
3
  9
$PDSIZE
 40
0.3125
  9
$HANDSEED
  5
3D1
  9
$TILEMODE
 70
1
  9
$MEASUREMENT
 70
0
  9
$INSUNITS
 70
1
  0
ENDSEC
  0
SECTION
  2
CLASSES
  0
CLASS
  1
ACDBDICTIONARYWDFLT
  2
AcDbDictionaryWithDefault
  3
AutoCAD 2000
 90
0
 91
1
280
0
281
0
  0
CLASS
  1
ACDBPLACEHOLDER
  2
AcDbPlaceHolder
  3
AutoCAD 2000
 90
0
 91
1
280
0
281
0
  0
CLASS
  1
LAYOUT
  2
AcDbLayout
  3
AutoCAD 2000
 90
0
 91
0
280
0
281
0
  0
ENDSEC
  0
SECTION
  2
TABLES
  0
TABLE
  2
VPORT
  5
8
100
AcDbSymbolTable
 70
2
  0
VPORT
  5
1F4
100
AcDbSymbolTableRecord
100
AcDbViewportTableRecord
  2
*ACTIVE
 70
0
 10
0.0
 20
0.0
 11
1.0
 21
1.0
 12
5.5
 22
4.25
 13
0.0
 23
0.0
 14
1.0
 24
1.0
 15
0.0
 25
0.0
 16
0.0
 26
0.0
 36
1.0
 17
0.0
 27
0.0
 37
0.0
 40
8.5
 41
1.2941176471
 42
50.0
 43
0.0
 44
0.0
 50
0.0
 51
0.0
 71
0
 72
100
 73
1
 74
1
 75
0
 76
0
 77
0
 78
0
  0
ENDTAB
  0
TABLE
  2
LTYPE
  5
5
100
AcDbSymbolTable
 70
6
  0
LTYPE
  5
14
100
AcDbSymbolTableRecord
100
AcDbLinetypeTableRecord
  2
BYBLOCK
 70
0
  3

 72
65
 73
0
 40
0.0
  0
LTYPE
  5
15
100
AcDbSymbolTableRecord
100
AcDbLinetypeTableRecord
  2
BYLAYER
 70
0
  3

 72
65
 73
0
 40
0.0
  0
LTYPE
  5
16
100
AcDbSymbolTableRecord
100
AcDbLinetypeTableRecord
  2
CONTINUOUS
 70
64
  3
Solid line
 72
65
 73
0
 40
0.0
  0
LTYPE
  5
1F5
100
AcDbSymbolTableRecord
100
AcDbLinetypeTableRecord
  2
CENTER
 70
64
  3
____ _ ____ _ ____ _ ____ _ ____ _ ____ _ ____
 72
65
 73
4
 40
0.6
 49
0.375
 74
0
 49
-0.075
 74
0
 49
0.075
 74
0
 49
-0.075
 74
0
  0
LTYPE
  5
1F6
100
AcDbSymbolTableRecord
100
AcDbLinetypeTableRecord
  2
HIDDEN
 70
64
  3
- - - - - - - - - - - - - - - - - - - -
 72
65
 73
2
 40
0.2
 49
0.1
 74
0
 49
-0.1
 74
0
  0
LTYPE
  5
1F7
100
AcDbSymbolTableRecord
100
AcDbLinetypeTableRecord
  2
PHANTOM
 70
64
  3
_____ _ _ _____ _ _ _____ _ _ _____
 72
65
 73
6
 40
0.8
 49
0.45
 74
0
 49
-0.05
 74
0
 49
0.1
 74
0
 49
-0.05
 74
0
 49
0.1
 74
0
 49
-0.05
 74
0
  0
LTYPE
  5
1F8
100
AcDbSymbolTableRecord
100
AcDbLinetypeTableRecord
  2
DOT
 70
64
  3
. . . . . . . . . . . . . . . . . . . .
 72
65
 73
2
 40
0.2
 49
0.1
 74
0
 49
-0.1
 74
0
  0
LTYPE
  5
1F9
100
AcDbSymbolTableRecord
100
AcDbLinetypeTableRecord
  2
DASHED
 70
64
  3
- - - - - - - - - - - - - - - - - - - -
 72
65
 73
2
 40
0.2
 49
0.1
 74
0
 49
-0.1
 74
0
  0
ENDTAB
  0
TABLE
  2
LAYER
  5
2
100
AcDbSymbolTable
 70
36
  0
LAYER
  5
10
100
AcDbSymbolTableRecord
100
AcDbLayerTableRecord
  2
0
 70
0
 62
7
  6
CONTINUOUS
370
-3
390
F
  0
LAYER
  5
1FA
100
AcDbSymbolTableRecord
100
AcDbLayerTableRecord
  2
DEFAULT_1
 70
0
 62
7
  6
CENTER
370
-3
390
F
  0
LAYER
  5
1FB
100
AcDbSymbolTableRecord
100
AcDbLayerTableRecord
  2
DEFAULT_2
 70
0
 62
8
  6
HIDDEN
370
-3
390
F
  0
LAYER
  5
1FC
100
AcDbSymbolTableRecord
100
AcDbLayerTableRecord
  2
DEFAULT_3
 70
0
 62
7
  6
PHANTOM
370
-3
390
F
  0
LAYER
  5
1FD
100
AcDbSymbolTableRecord
100
AcDbLayerTableRecord
  2
ALL_FEATURES
 70
0
 62
7
  6
CONTINUOUS
370
-3
390
F
  0
LAYER
  5
1FE
100
AcDbSymbolTableRecord
100
AcDbLayerTableRecord
  2
AXES_FEATURES
 70
0
 62
7
  6
CONTINUOUS
370
-3
390
F
  0
LAYER
  5
1FF
100
AcDbSymbolTableRecord
100
AcDbLayerTableRecord
  2
CHAMFER_FEATURES
 70
0
 62
7
  6
CONTINUOUS
370
-3
390
F
  0
LAYER
  5
200
100
AcDbSymbolTableRecord
100
AcDbLayerTableRecord
  2
CUT_FEATURES
 70
0
 62
7
  6
CONTINUOUS
370
-3
390
F
  0
LAYER
  5
201
100
AcDbSymbolTableRecord
100
AcDbLayerTableRecord
  2
DATUM_CURVES
 70
0
 62
7
  6
CONTINUOUS
370
-3
390
F
  0
LAYER
  5
202
100
AcDbSymbolTableRecord
100
AcDbLayerTableRecord
  2
DATUM_PLANES
 70
0
 62
7
  6
CONTINUOUS
370
-3
390
F
  0
LAYER
  5
203
100
AcDbSymbolTableRecord
100
AcDbLayerTableRecord
  2
DATUM_POINTS
 70
0
 62
7
  6
CONTINUOUS
370
-3
390
F
  0
LAYER
  5
204
100
AcDbSymbolTableRecord
100
AcDbLayerTableRecord
  2
DEFAULT_COORDINATE_SYSTEM
 70
0
 62
7
  6
CONTINUOUS
370
-3
390
F
  0
LAYER
  5
205
100
AcDbSymbolTableRecord
100
AcDbLayerTableRecord
  2
DEFAULT_DATUM_AXES
 70
0
 62
7
  6
CONTINUOUS
370
-3
390
F
  0
LAYER
  5
206
100
AcDbSymbolTableRecord
100
AcDbLayerTableRecord
  2
DEFAULT_DATUM_CURVES
 70
0
 62
7
  6
CONTINUOUS
370
-3
390
F
  0
LAYER
  5
207
100
AcDbSymbolTableRecord
100
AcDbLayerTableRecord
  2
DEFAULT_DATUM_PLANES
 70
0
 62
7
  6
CONTINUOUS
370
-3
390
F
  0
LAYER
  5
208
100
AcDbSymbolTableRecord
100
AcDbLayerTableRecord
  2
DEFAULT_SURFACES
 70
0
 62
7
  6
CONTINUOUS
370
-3
390
F
  0
LAYER
  5
209
100
AcDbSymbolTableRecord
100
AcDbLayerTableRecord
  2
DIMENSIONS
 70
0
 62
7
  6
CONTINUOUS
370
-3
390
F
  0
LAYER
  5
20A
100
AcDbSymbolTableRecord
100
AcDbLayerTableRecord
  2
HOLE_FEATURES
 70
0
 62
7
  6
CONTINUOUS
370
-3
390
F
  0
LAYER
  5
20B
100
AcDbSymbolTableRecord
100
AcDbLayerTableRecord
  2
NOTES
 70
0
 62
7
  6
CONTINUOUS
370
-3
390
F
  0
LAYER
  5
20C
100
AcDbSymbolTableRecord
100
AcDbLayerTableRecord
  2
PART_REFERENCE_DIMENSIONS
 70
0
 62
7
  6
CONTINUOUS
370
-3
390
F
  0
LAYER
  5
20D
100
AcDbSymbolTableRecord
100
AcDbLayerTableRecord
  2
POINTS
 70
0
 62
7
  6
CONTINUOUS
370
-3
390
F
  0
LAYER
  5
20E
100
AcDbSymbolTableRecord
100
AcDbLayerTableRecord
  2
PROTRUSION_FEATURES
 70
0
 62
7
  6
CONTINUOUS
370
-3
390
F
  0
LAYER
  5
20F
100
AcDbSymbolTableRecord
100
AcDbLayerTableRecord
  2
REFERENCE_DIMENSIONS
 70
0
 62
7
  6
CONTINUOUS
370
-3
390
F
  0
LAYER
  5
210
100
AcDbSymbolTableRecord
100
AcDbLayerTableRecord
  2
ROUND_FEATURES
 70
0
 62
7
  6
CONTINUOUS
370
-3
390
F
  0
ENDTAB
  0
TABLE
  2
STYLE
  5
3
100
AcDbSymbolTable
 70
1
  0
STYLE
  5
11
100
AcDbSymbolTableRecord
100
AcDbTextStyleTableRecord
  2
STANDARD
 70
0
 40
0.0
 41
0.8
 50
0.0
 71
0
 42
0.2
  3
txt
  4

  0
STYLE
  5
211
100
AcDbSymbolTableRecord
100
AcDbTextStyleTableRecord
  2
TEXTSTYLE_1
 70
0
 40
0.0
 41
0.8
 50
0.0
 71
0
 42
0.2
  3
gdt
  4

  0
ENDTAB
  0
TABLE
  2
VIEW
  5
6
100
AcDbSymbolTable
 70
0
  0
ENDTAB
  0
TABLE
  2
UCS
  5
7
100
AcDbSymbolTable
 70
0
  0
ENDTAB
  0
TABLE
  2
APPID
  5
9
100
AcDbSymbolTable
 70
1
  0
APPID
  5
212
100
AcDbSymbolTableRecord
100
AcDbRegAppTableRecord
  2
ACAD
 70
0
  0
ENDTAB
  0
TABLE
  2
BLOCK_RECORD
  5
1
100
AcDbSymbolTable
 70
0
  0
BLOCK_RECORD
  5
213
100
AcDbSymbolTableRecord
100
AcDbBlockTableRecord
  2
*Model_Space
  0
BLOCK_RECORD
  5
214
100
AcDbSymbolTableRecord
100
AcDbBlockTableRecord
  2
*Paper_Space
  0
BLOCK_RECORD
  5
215
100
AcDbSymbolTableRecord
100
AcDbBlockTableRecord
  2
_FILLED
  0
ENDTAB
  0
TABLE
  2
DIMSTYLE
  5
A
100
AcDbSymbolTable
 70
1
100
AcDbDimStyleTable
 71
0
  0
DIMSTYLE
105
216
100
AcDbSymbolTableRecord
100
AcDbDimStyleTableRecord
  2
STANDARD
 70
0
  3

  4

 40
1.0
 41
0.1
 42
0.0625
 43
0.38
 44
0.125
 45
0.0
 46
0.0
 47
0.01
 48
0.01
140
0.08
141
0.09
142
0.0
143
25.4
144
1.0
145
0.0
146
1.0
147
0.09
 71
1.0
 72
0.0
 73
1
 74
1
 75
0
 76
0
 77
0
 78
4
 79
1
170
1
171
1
172
0
173
0
174
0
175
0
176
0
177
0
178
0
270
2
179
2
271
2
272
2
273
2
274
2
275
0
280
0
281
0
282
0
283
1
284
4
285
0
286
0
287
3
288
0
340
11
278
46
341
215
342
215
343
215
344
215
  0
ENDTAB
  0
ENDSEC
  0
SECTION
  2
BLOCKS
  0
BLOCK
  5
20
100
AcDbEntity
  8
0
100
AcDbBlockBegin
  2
*Model_Space
 70
0
 10
0.0
 20
0.0
 30
0.0
  3
*Model_Space
  1

  0
ENDBLK
  5
21
100
AcDbEntity
  8
0
100
AcDbBlockEnd
  0
BLOCK
  5
1C
100
AcDbEntity
  8
0
100
AcDbBlockBegin
  2
*Paper_Space
 70
0
 10
0.0
 20
0.0
 30
0.0
  3
*Paper_Space
  1

  0
ENDBLK
  5
1D
100
AcDbEntity
  8
0
100
AcDbBlockEnd
  0
BLOCK
  5
217
100
AcDbEntity
  8
0
100
AcDbBlockBegin
  2
_FILLED
 70
64
 10
0.0
 20
0.0
  3
_FILLED
  1

  0
SOLID
  5
218
100
AcDbEntity
  8
0
  6
BYBLOCK
 62
0
100
AcDbTrace
 10
0.0
 20
0.0
 11
-1.0
 21
0.2
 12
-1.0
 22
-0.2
 13
-1.0
 23
-0.2
  0
ENDBLK
  5
219
100
AcDbEntity
  8
0
  6
BYBLOCK
 62
0
100
AcDbBlockEnd
  0
ENDSEC
  0
SECTION
  2
ENTITIES
  0
MTEXT
  5
21A
100
AcDbEntity
  8
0
100
AcDbMText
 62
2
  6
CONTINUOUS
  7
STANDARD
 71
3
 72
1
 10
5.7419570405
 20
1.5781862972
 30
0.0
 11
1.0
 21
0.0
 31
0.0
 73
2
 44
0.9
  1
SCALE  1.000
 40
0.08
 41
0.768
  0
LINE
  5
21B
100
AcDbEntity
  8
0
100
AcDbLine
 62
7
  6
CONTINUOUS
 10
0.0
 20
0.0
 11
0.0
 21
8.5
  0
LINE
  5
21C
100
AcDbEntity
  8
0
100
AcDbLine
 62
7
  6
CONTINUOUS
 10
0.0
 20
0.0
 11
11.0
 21
0.0
  0
LINE
  5
21D
100
AcDbEntity
  8
0
100
AcDbLine
 62
7
  6
CONTINUOUS
 10
0.0
 20
8.5
 11
11.0
 21
8.5
  0
LINE
  5
21E
100
AcDbEntity
  8
0
100
AcDbLine
 62
7
  6
CONTINUOUS
 10
11.0
 20
0.0
 11
11.0
 21
8.5
  0
LINE
  5
21F
100
AcDbEntity
  8
0
100
AcDbLine
 62
7
  6
CONTINUOUS
 10
1.2522525876
 20
2.7643576127
 11
1.2522586652
 21
2.69282655
  0
LINE
  5
220
100
AcDbEntity
  8
0
100
AcDbLine
 62
7
  6
CONTINUOUS
 10
2.1936985415
 20
2.576148874
 11
2.1899292818
 21
2.6501361631
  0
LINE
  5
221
100
AcDbEntity
  8
0
100
AcDbLine
 62
7
  6
CONTINUOUS
 10
2.3335739363
 20
2.5761486749
 11
2.3296854131
 21
2.6501509426
  0
LINE
  5
222
100
AcDbEntity
  8
0
100
AcDbLine
 62
7
  6
CONTINUOUS
 10
2.879062614
 20
2.650206345
 11
2.8844831482
 21
2.5641659982
  0
LINE
  5
223
100
AcDbEntity
  8
0
100
AcDbLine
 62
7
  6
CONTINUOUS
 10
2.6071165175
 20
2.5760716739
 11
2.602990361
 21
2.650178954
  0
LINE
  5
224
100
AcDbEntity
  8
0
100
AcDbLine
 62
7
  6
CONTINUOUS
 10
2.6071749609
 20
2.5761193467
 11
2.6030514066
 21
2.6501789602
  0
LINE
  5
225
100
AcDbEntity
  8
0
100
AcDbLine
 62
7
  6
CONTINUOUS
 10
2.5186077464
 20
2.5747964902
 11
2.5278529297
 21
2.6501713487
  0
LINE
  5
226
100
AcDbEntity
  8
0
100
AcDbLine
 62
7
  6
CONTINUOUS
 10
2.9585029404
 20
2.5641665773
 11
2.9530198463
 21
2.6502135477
  0
LINE
  5
227
100
AcDbEntity
  8
0
100
AcDbLine
 62
7
  6
CONTINUOUS
 10
3.0025554318
 20
2.5760722242
 11
2.9980912927
 21
2.650217927
  0
LINE
  5
228
100
AcDbEntity
  8
0
100
AcDbLine
 62
7
  6
CONTINUOUS
 10
2.7921975014
 20
2.5748891939
 11
2.8011973622
 21
2.6501986834
  0
LINE
  5
229
100
AcDbEntity
  8
0
100
AcDbLine
 62
7
  6
CONTINUOUS
 10
3.5023398347
 20
2.5759323405
 11
3.4974386921
 21
2.6502654434
  0
LINE
  5
22A
100
AcDbEntity
  8
0
100
AcDbLine
 62
7
  6
CONTINUOUS
 10
3.5024344049
 20
2.5760093281
 11
3.497538253
 21
2.6502654528
  0
LINE
  5
22B
100
AcDbEntity
  8
0
100
AcDbLine
 62
7
  6
CONTINUOUS
 10
3.1875636191
 20
2.5750186893
 11
3.1962101812
 21
2.6502369889
  0
LINE
  5
22C
100
AcDbEntity
  8
0
100
AcDbLine
 62
7
  6
CONTINUOUS
 10
3.8025561864
 20
2.5560538565
 11
3.7951637112
 21
2.6502930391
  0
LINE
  5
22D
100
AcDbEntity
  8
0
100
AcDbLine
 62
7
  6
CONTINUOUS
 10
3.80259022
 20
2.5560816236
 11
3.7951999034
 21
2.6502930424
  0
LINE
  5
22E
100
AcDbEntity
  8
0
100
AcDbLine
 62
7
  6
CONTINUOUS
 10
3.3396861584
 20
2.5633175483
 11
3.349182813
 21
2.6502515117
  0
LINE
  5
22F
100
AcDbEntity
  8
0
100
AcDbLine
 62
7
  6
CONTINUOUS
 10
8.6153337861
 20
2.5580289732
 11
8.615354654
 21
2.558030281
  0
LINE
  5
230
100
AcDbEntity
  8
0
100
AcDbLine
 62
7
  6
CONTINUOUS
 10
3.9697338988
 20
2.5640194458
 11
3.9633837347
 21
2.650308435
  0
LINE
  5
231
100
AcDbEntity
  8
0
100
AcDbLine
 62
7
  6
CONTINUOUS
 10
3.9753758613
 20
2.5640801921
 11
3.9690253756
 21
2.65030895
  0
LINE
  5
232
100
AcDbEntity
  8
0
100
AcDbLine
 62
7
  6
CONTINUOUS
 10
4.0849638069
 20
2.5759333782
 11
4.0795622873
 21
2.6503189877
  0
LINE
  5
233
100
AcDbEntity
  8
0
100
AcDbLine
 62
7
  6
CONTINUOUS
 10
3.7647572021
 20
2.555700091
 11
3.773974914
 21
2.6502910867
  0
LINE
  5
234
100
AcDbEntity
  8
0
100
AcDbLine
 62
7
  6
CONTINUOUS
 10
3.6853341054
 20
2.5634196967
 11
3.6860109637
 21
2.5698139061
  0
LINE
  5
235
100
AcDbEntity
  8
0
100
AcDbLine
 62
7
  6
CONTINUOUS
 10
3.6874276122
 20
2.5751792502
 11
3.6956290535
 21
2.6502838677
  0
LINE
  5
236
100
AcDbEntity
  8
0
100
AcDbLine
 62
7
  6
CONTINUOUS
 10
9.6908312582
 20
2.6635846472
 11
9.4457622717
 21
2.6507202463
  0
LINE
  5
237
100
AcDbEntity
  8
0
100
AcDbLine
 62
7
  6
CONTINUOUS
 10
7.207719367
 20
2.5560004662
 11
7.2073864827
 21
2.5559926852
  0
LINE
  5
238
100
AcDbEntity
  8
0
100
AcDbLine
 62
7
  6
CONTINUOUS
 10
8.7779143956
 20
2.5767232639
 11
8.6384191444
 21
2.5756896973
  0
LINE
  5
239
100
AcDbEntity
  8
0
100
AcDbLine
 62
7
  6
CONTINUOUS
 10
8.7478245742
 20
2.5765348457
 11
8.6384507569
 21
2.5756890247
  0
LINE
  5
23A
100
AcDbEntity
  8
0
100
AcDbLine
 62
7
  6
CONTINUOUS
 10
2.1942173306
 20
2.576163881
 11
2.1937106722
 21
2.5761606757
  0
LINE
  5
23B
100
AcDbEntity
  8
0
100
AcDbLine
 62
7
  6
CONTINUOUS
 10
7.2126389252
 20
2.5560360804
 11
7.207719367
 21
2.5560004662
  0
LINE
  5
23C
100
AcDbEntity
  8
0
100
AcDbLine
 62
7
  6
CONTINUOUS
 10
8.0876380552
 20
2.5646079805
 11
8.0152062461
 21
2.5641809115
  0
LINE
  5
23D
100
AcDbEntity
  8
0
100
AcDbLine
 62
7
  6
CONTINUOUS
 10
7.2377632005
 20
2.5561484663
 11
7.232430049
 21
2.5561270742
  0
LINE
  5
23E
100
AcDbEntity
  8
0
100
AcDbLine
 62
7
  6
CONTINUOUS
 10
8.0128881296
 20
2.5646108299
 11
7.9644715113
 21
2.5644116175
  0
LINE
  5
23F
100
AcDbEntity
  8
0
100
AcDbLine
 62
7
  6
CONTINUOUS
 10
7.2937000166
 20
2.5563356273
 11
7.2073864794
 21
2.5559927122
  0
LINE
  5
240
100
AcDbEntity
  8
0
100
AcDbLine
 62
7
  6
CONTINUOUS
 10
8.7779143956
 20
2.5767232639
 11
8.7764005849
 21
2.5767202335
  0
LINE
  5
241
100
AcDbEntity
  8
0
100
AcDbLine
 62
7
  6
CONTINUOUS
 10
7.6520354138
 20
2.5461045027
 11
7.6529238984
 21
2.5461050832
  0
LINE
  5
242
100
AcDbEntity
  8
0
100
AcDbLine
 62
7
  6
CONTINUOUS
 10
3.191759706
 20
2.5457257538
 11
3.1919071815
 21
2.5457257756
  0
LINE
  5
243
100
AcDbEntity
  8
0
100
AcDbLine
 62
7
  6
CONTINUOUS
 10
3.1911022011
 20
2.5457255681
 11
3.1919071815
 21
2.5457257756
  0
LINE
  5
244
100
AcDbEntity
  8
0
100
AcDbLine
 62
7
  6
CONTINUOUS
 10
4.4258565649
 20
2.5379961134
 11
4.3435838701
 21
2.5379889184
  0
LINE
  5
245
100
AcDbEntity
  8
0
100
AcDbLine
 62
7
  6
CONTINUOUS
 10
5.4449740161
 20
2.53808799
 11
5.5272197389
 21
2.538094978
  0
LINE
  5
246
100
AcDbEntity
  8
0
100
AcDbLine
 62
7
  6
CONTINUOUS
 10
3.5814515876
 20
2.5379048647
 11
3.7451644803
 21
2.5379246676
  0
LINE
  5
247
100
AcDbEntity
  8
0
100
AcDbLine
 62
7
  6
CONTINUOUS
 10
5.055384526
 20
2.5380542836
 11
5.1376556965
 21
2.5380612737
  0
LINE
  5
248
100
AcDbEntity
  8
0
100
AcDbLine
 62
7
  6
CONTINUOUS
 10
5.8345359906
 20
2.5381204841
 11
5.9168083216
 21
2.5381274743
  0
LINE
  5
249
100
AcDbEntity
  8
0
100
AcDbLine
 62
7
  6
CONTINUOUS
 10
6.2070962506
 20
2.5381503501
 11
6.2893430251
 21
2.5381573382
  0
LINE
  5
24A
100
AcDbEntity
  8
0
100
AcDbLine
 62
7
  6
CONTINUOUS
 10
4.6828404667
 20
2.5380208419
 11
4.7650959963
 21
2.5380278307
  0
LINE
  5
24B
100
AcDbEntity
  8
0
100
AcDbLine
 62
7
  6
CONTINUOUS
 10
6.5463205661
 20
2.5381762783
 11
6.6285938544
 21
2.5381832687
  0
LINE
  5
24C
100
AcDbEntity
  8
0
100
AcDbLine
 62
7
  6
CONTINUOUS
 10
4.0524720549
 20
2.537960516
 11
4.1347532778
 21
2.537967507
  0
LINE
  5
24D
100
AcDbEntity
  8
0
100
AcDbLine
 62
7
  6
CONTINUOUS
 10
6.8374181561
 20
2.5381971386
 11
6.919698971
 21
2.5382041296
  0
LINE
  5
24E
100
AcDbEntity
  8
0
100
AcDbLine
 62
7
  6
CONTINUOUS
 10
6.9187992398
 20
2.538203615
 11
6.9091324198
 21
2.5382039845
  0
LINE
  5
24F
100
AcDbEntity
  8
0
100
AcDbLine
 62
7
  6
CONTINUOUS
 10
3.1014900648
 20
2.5457444153
 11
3.1039979454
 21
2.5457443751
  0
LINE
  5
250
100
AcDbEntity
  8
0
100
AcDbLine
 62
7
  6
CONTINUOUS
 10
7.9938037465
 20
2.5461604965
 11
7.8697729407
 21
2.5461492015
  0
LINE
  5
251
100
AcDbEntity
  8
0
100
AcDbLine
 62
7
  6
CONTINUOUS
 10
3.1038439452
 20
2.5457447448
 11
2.9781628634
 21
2.545733684
  0
LINE
  5
252
100
AcDbEntity
  8
0
100
AcDbLine
 62
7
  6
CONTINUOUS
 10
3.6657580683
 20
2.5458078676
 11
3.539915638
 21
2.5457971757
  0
LINE
  5
253
100
AcDbEntity
  8
0
100
AcDbLine
 62
7
  6
CONTINUOUS
 10
4.1208219619
 20
2.5458522142
 11
3.9950344589
 21
2.5458415746
  0
LINE
  5
254
100
AcDbEntity
  8
0
100
AcDbLine
 62
7
  6
CONTINUOUS
 10
5.1229268029
 20
2.5459439113
 11
5.2487392034
 21
2.545954601
  0
LINE
  5
255
100
AcDbEntity
  8
0
100
AcDbLine
 62
7
  6
CONTINUOUS
 10
5.7301915305
 20
2.5459954954
 11
5.8560018788
 21
2.546006185
  0
LINE
  5
256
100
AcDbEntity
  8
0
100
AcDbLine
 62
7
  6
CONTINUOUS
 10
7.9941175636
 20
2.5461517734
 11
8.0679955525
 21
2.546157134
  0
LINE
  5
257
100
AcDbEntity
  8
0
100
AcDbLine
 62
7
  6
CONTINUOUS
 10
2.904128786
 20
2.5457184891
 11
2.9763655994
 21
2.5457255437
  0
LINE
  5
258
100
AcDbEntity
  8
0
100
AcDbLine
 62
7
  6
CONTINUOUS
 10
4.5331265059
 20
2.5458916635
 11
4.6589085531
 21
2.5459023505
  0
LINE
  5
259
100
AcDbEntity
  8
0
100
AcDbLine
 62
7
  6
CONTINUOUS
 10
6.3196310765
 20
2.5460434181
 11
6.4454022733
 21
2.5460541044
  0
LINE
  5
25A
100
AcDbEntity
  8
0
100
AcDbLine
 62
7
  6
CONTINUOUS
 10
6.8569232785
 20
2.5460848886
 11
6.982752657
 21
2.54609558
  0
LINE
  5
25B
100
AcDbEntity
  8
0
100
AcDbLine
 62
7
  6
CONTINUOUS
 10
7.310912372
 20
2.5461175028
 11
7.4367544736
 21
2.5461281953
  0
LINE
  5
25C
100
AcDbEntity
  8
0
100
AcDbLine
 62
7
  6
CONTINUOUS
 10
7.8726761073
 20
2.546149801
 11
7.8715653261
 21
2.5461497675
  0
LINE
  5
25D
100
AcDbEntity
  8
0
100
AcDbLine
 62
7
  6
CONTINUOUS
 10
7.4352481547
 20
2.5461275365
 11
7.4209919482
 21
2.5461280066
  0
LINE
  5
25E
100
AcDbEntity
  8
0
100
AcDbLine
 62
7
  6
CONTINUOUS
 10
7.9938100508
 20
2.5461599619
 11
7.9955961125
 21
2.5461598926
  0
LINE
  5
25F
100
AcDbEntity
  8
0
100
AcDbLine
 62
7
  6
CONTINUOUS
 10
2.3532492164
 20
2.5574976587
 11
2.3593189495
 21
2.5574973555
  0
LINE
  5
260
100
AcDbEntity
  8
0
100
AcDbLine
 62
7
  6
CONTINUOUS
 10
2.7726219972
 20
2.5575420564
 11
2.6268626155
 21
2.5575296732
  0
LINE
  5
261
100
AcDbEntity
  8
0
100
AcDbLine
 62
7
  6
CONTINUOUS
 10
7.9312812102
 20
2.557989787
 11
7.8041991291
 21
2.5579776035
  0
LINE
  5
262
100
AcDbEntity
  8
0
100
AcDbLine
 62
7
  6
CONTINUOUS
 10
3.6678391137
 20
2.5576328093
 11
3.5220885884
 21
2.5576201801
  0
LINE
  5
263
100
AcDbEntity
  8
0
100
AcDbLine
 62
7
  6
CONTINUOUS
 10
5.4132651091
 20
2.5577901879
 11
5.5589741124
 21
2.5578025681
  0
LINE
  5
264
100
AcDbEntity
  8
0
100
AcDbLine
 62
7
  6
CONTINUOUS
 10
2.213412238
 20
2.557475742
 11
2.4990620119
 21
2.5575097353
  0
LINE
  5
265
100
AcDbEntity
  8
0
100
AcDbLine
 62
7
  6
CONTINUOUS
 10
6.0821772043
 20
2.5578459835
 11
6.227928627
 21
2.5578583665
  0
LINE
  5
266
100
AcDbEntity
  8
0
100
AcDbLine
 62
7
  6
CONTINUOUS
 10
4.7443080901
 20
2.5577323108
 11
4.8900594127
 21
2.5577446954
  0
LINE
  5
267
100
AcDbEntity
  8
0
100
AcDbLine
 62
7
  6
CONTINUOUS
 10
4.104614108
 20
2.5576748896
 11
4.2503479812
 21
2.55768727
  0
LINE
  5
268
100
AcDbEntity
  8
0
100
AcDbLine
 62
7
  6
CONTINUOUS
 10
6.7218810805
 20
2.5578972635
 11
6.867615061
 21
2.5579096476
  0
LINE
  5
269
100
AcDbEntity
  8
0
100
AcDbLine
 62
7
  6
CONTINUOUS
 10
7.3043776666
 20
2.5579417873
 11
7.4501169897
 21
2.5579541696
  0
LINE
  5
26A
100
AcDbEntity
  8
0
100
AcDbLine
 62
7
  6
CONTINUOUS
 10
3.0222144475
 20
2.5575713047
 11
3.1680013002
 21
2.5575836895
  0
LINE
  5
26B
100
AcDbEntity
  8
0
100
AcDbLine
 62
7
  6
CONTINUOUS
 10
7.9312908589
 20
2.5579891238
 11
7.9499862129
 21
2.5579899923
  0
LINE
  5
26C
100
AcDbEntity
  8
0
100
AcDbLine
 62
7
  6
CONTINUOUS
 10
7.9483833933
 20
2.5579893036
 11
7.931281333
 21
2.5579896658
  0
LINE
  5
26D
100
AcDbEntity
  8
0
100
AcDbLine
 62
7
  6
CONTINUOUS
 10
6.6992996615
 20
2.6046188032
 11
6.6521428389
 21
2.6046188032
  0
LINE
  5
26E
100
AcDbEntity
  8
0
100
AcDbLine
 62
7
  6
CONTINUOUS
 10
6.5221580317
 20
2.6046188032
 11
6.4682346554
 21
2.6046188032
  0
LINE
  5
26F
100
AcDbEntity
  8
0
100
AcDbLine
 62
7
  6
CONTINUOUS
 10
6.0598187355
 20
2.6046188032
 11
5.9405557259
 21
2.6046188032
  0
LINE
  5
270
100
AcDbEntity
  8
0
100
AcDbLine
 62
7
  6
CONTINUOUS
 10
5.7068883816
 20
2.6046188032
 11
5.5811251954
 21
2.6046188032
  0
LINE
  5
271
100
AcDbEntity
  8
0
100
AcDbLine
 62
7
  6
CONTINUOUS
 10
5.3911046251
 20
2.6046188032
 11
5.2720319756
 21
2.6046188032
  0
LINE
  5
272
100
AcDbEntity
  8
0
100
AcDbLine
 62
7
  6
CONTINUOUS
 10
5.0316186314
 20
2.6046188032
 11
4.9124192278
 21
2.6046188032
  0
LINE
  5
273
100
AcDbEntity
  8
0
100
AcDbLine
 62
7
  6
CONTINUOUS
 10
4.5102739732
 20
2.6046188032
 11
4.4500278972
 21
2.6046188032
  0
LINE
  5
274
100
AcDbEntity
  8
0
100
AcDbLine
 62
7
  6
CONTINUOUS
 10
4.320010486
 20
2.6046188032
 11
4.2729426158
 21
2.6046188032
  0
LINE
  5
275
100
AcDbEntity
  8
0
100
AcDbLine
 62
7
  6
CONTINUOUS
 10
6.6980967734
 20
2.6163345319
 11
6.6530942367
 21
2.6163345319
  0
LINE
  5
276
100
AcDbEntity
  8
0
100
AcDbLine
 62
7
  6
CONTINUOUS
 10
6.5210592878
 20
2.6163345319
 11
6.4691563178
 21
2.6163345319
  0
LINE
  5
277
100
AcDbEntity
  8
0
100
AcDbLine
 62
7
  6
CONTINUOUS
 10
6.0587020025
 20
2.6163345319
 11
5.9415540695
 21
2.6163345319
  0
LINE
  5
278
100
AcDbEntity
  8
0
100
AcDbLine
 62
7
  6
CONTINUOUS
 10
5.7058269043
 20
2.6163345319
 11
5.5821498727
 21
2.6163345319
  0
LINE
  5
279
100
AcDbEntity
  8
0
100
AcDbLine
 62
7
  6
CONTINUOUS
 10
4.2741434777
 20
2.6163345319
 11
4.3190570806
 21
2.6163345319
  0
LINE
  5
27A
100
AcDbEntity
  8
0
100
AcDbLine
 62
7
  6
CONTINUOUS
 10
4.4511246293
 20
2.6163345319
 11
4.509349574
 21
2.6163345319
  0
LINE
  5
27B
100
AcDbEntity
  8
0
100
AcDbLine
 62
7
  6
CONTINUOUS
 10
4.9135339366
 20
2.6163345319
 11
5.0306182781
 21
2.6163345319
  0
LINE
  5
27C
100
AcDbEntity
  8
0
100
AcDbLine
 62
7
  6
CONTINUOUS
 10
5.2730906661
 20
2.6163345319
 11
5.390077926
 21
2.6163345319
  0
LINE
  5
27D
100
AcDbEntity
  8
0
100
AcDbLine
 62
7
  6
CONTINUOUS
 10
6.6956769224
 20
2.6399030744
 11
6.6550081644
 21
2.6399030744
  0
LINE
  5
27E
100
AcDbEntity
  8
0
100
AcDbLine
 62
7
  6
CONTINUOUS
 10
6.5188489435
 20
2.6399030744
 11
6.4710104268
 21
2.6399030744
  0
LINE
  5
27F
100
AcDbEntity
  8
0
100
AcDbLine
 62
7
  6
CONTINUOUS
 10
6.0564554696
 20
2.6399030744
 11
5.9435624383
 21
2.6399030744
  0
LINE
  5
280
100
AcDbEntity
  8
0
100
AcDbLine
 62
7
  6
CONTINUOUS
 10
5.7036915295
 20
2.6399030744
 11
5.5842112168
 21
2.6399030744
  0
LINE
  5
281
100
AcDbEntity
  8
0
100
AcDbLine
 62
7
  6
CONTINUOUS
 10
4.2765592526
 20
2.6399030744
 11
4.317139114
 21
2.6399030744
  0
LINE
  5
282
100
AcDbEntity
  8
0
100
AcDbLine
 62
7
  6
CONTINUOUS
 10
4.4533309261
 20
2.6399030744
 11
4.5074899593
 21
2.6399030744
  0
LINE
  5
283
100
AcDbEntity
  8
0
100
AcDbLine
 62
7
  6
CONTINUOUS
 10
4.9157763972
 20
2.6399030744
 11
5.0286058663
 21
2.6399030744
  0
LINE
  5
284
100
AcDbEntity
  8
0
100
AcDbLine
 62
7
  6
CONTINUOUS
 10
5.2752204346
 20
2.6399030744
 11
5.3880125146
 21
2.6399030744
  0
LINE
  5
285
100
AcDbEntity
  8
0
100
AcDbLine
 62
7
  6
CONTINUOUS
 10
3.5058245956
 20
2.6502662314
 11
1.5257623016
 21
2.6500473245
  0
LINE
  5
286
100
AcDbEntity
  8
0
100
AcDbLine
 62
7
  6
CONTINUOUS
 10
1.2806911326
 20
2.6628700807
 11
7.608022759
 21
2.663461319
  0
LINE
  5
287
100
AcDbEntity
  8
0
100
AcDbLine
 62
7
  6
CONTINUOUS
 10
7.608022759
 20
2.663461319
 11
9.3735447217
 21
2.6635813651
  0
LINE
  5
288
100
AcDbEntity
  8
0
100
AcDbLine
 62
7
  6
CONTINUOUS
 10
9.3735447217
 20
2.6635813651
 11
9.6908312582
 21
2.6635846472
  0
LINE
  5
289
100
AcDbEntity
  8
0
100
AcDbLine
 62
7
  6
CONTINUOUS
 10
7.7699634583
 20
2.6934329844
 11
9.355499429
 21
2.6935404101
  0
LINE
  5
28A
100
AcDbEntity
  8
0
100
AcDbLine
 62
7
  6
CONTINUOUS
 10
1.2522586652
 20
2.69282655
 11
7.7699634583
 21
2.6934329844
  0
LINE
  5
28B
100
AcDbEntity
  8
0
100
AcDbLine
 62
7
  6
CONTINUOUS
 10
9.355499429
 20
2.6935404101
 11
9.7192586347
 21
2.6935459498
  0
LINE
  5
28C
100
AcDbEntity
  8
0
100
AcDbLine
 62
7
  6
CONTINUOUS
 10
3.8222388408
 20
2.5379362719
 11
3.9044782473
 21
2.5379432593
  0
LINE
  5
28D
100
AcDbEntity
  8
0
100
AcDbLine
 62
7
  6
CONTINUOUS
 10
7.1499251536
 20
2.5382190083
 11
7.0676771898
 21
2.5382120201
  0
LINE
  5
28E
100
AcDbEntity
  8
0
100
AcDbLine
 62
7
  6
CONTINUOUS
 10
3.1942944843
 20
2.5457604327
 11
3.3200889232
 21
2.5457711204
  0
LINE
  5
28F
100
AcDbEntity
  8
0
100
AcDbLine
 62
7
  6
CONTINUOUS
 10
7.7810221386
 20
2.546150055
 11
7.6552148101
 21
2.5461393653
  0
LINE
  5
290
100
AcDbEntity
  8
0
100
AcDbLine
 62
7
  6
CONTINUOUS
 10
8.3453182886
 20
2.5580155411
 11
8.1995586452
 21
2.5580031554
  0
LINE
  5
291
100
AcDbEntity
  8
0
100
AcDbLine
 62
7
  6
CONTINUOUS
 10
9.4457622717
 20
2.6507202463
 11
3.5058245956
 21
2.6502662314
  0
LINE
  5
292
100
AcDbEntity
  8
0
100
AcDbLine
 62
7
  6
CONTINUOUS
 10
7.2269836092
 20
2.5382202681
 11
7.3906769439
 21
2.538228515
  0
LINE
  5
293
100
AcDbEntity
  8
0
100
AcDbLine
 62
7
  6
CONTINUOUS
 10
8.4730962591
 20
2.5580173184
 11
8.758722478
 21
2.5580318634
  0
LINE
  5
294
100
AcDbEntity
  8
0
100
AcDbLine
 62
7
  6
CONTINUOUS
 10
3.7647571967
 20
2.5557000513
 11
3.682934306
 21
2.5560163607
  0
LINE
  5
295
100
AcDbEntity
  8
0
100
AcDbLine
 62
7
  6
CONTINUOUS
 10
3.0077197988
 20
2.5639995524
 11
2.9609274478
 21
2.564181691
  0
LINE
  5
296
100
AcDbEntity
  8
0
100
AcDbLine
 62
7
  6
CONTINUOUS
 10
2.9585640311
 20
2.5637437126
 11
2.8844831481
 21
2.5641659983
  0
LINE
  5
297
100
AcDbEntity
  8
0
100
AcDbLine
 62
7
  6
CONTINUOUS
 10
2.2061020828
 20
2.5761018022
 11
2.1942173391
 21
2.5761637139
  0
LINE
  5
298
100
AcDbEntity
  8
0
100
AcDbLine
 62
7
  6
CONTINUOUS
 10
8.778420695
 20
2.5767199819
 11
8.7779143872
 21
2.5767230969
  0
LINE
  5
299
100
AcDbEntity
  8
0
100
AcDbLine
 62
7
  6
CONTINUOUS
 10
2.2576302409
 20
2.5757432538
 11
2.2485889316
 21
2.5758076166
  0
LINE
  5
29A
100
AcDbEntity
  8
0
100
AcDbLine
 62
7
  6
CONTINUOUS
 10
2.333736852
 20
2.5751539095
 11
2.1942173391
 21
2.5761637139
  0
LWPOLYLINE
  5
29B
100
AcDbEntity
  8
0
100
AcDbPolyline
 62
7
  6
CONTINUOUS
 90
3
 70
0
 10
3.7647571982
 20
2.5557000512
 10
3.764424454
 20
2.5557077788
 10
3.7634297132
 20
2.5557173605
  0
LINE
  5
29C
100
AcDbEntity
  8
0
100
AcDbLine
 62
7
  6
CONTINUOUS
 10
1.280691299
 20
2.6628700621
 11
1.5257624583
 21
2.650047307
  0
LINE
  5
29D
100
AcDbEntity
  8
0
100
AcDbLine
 62
7
  6
CONTINUOUS
 10
7.3083348399
 20
2.5382269895
 11
7.3083255982
 21
2.5382275644
  0
LINE
  5
29E
100
AcDbEntity
  8
0
100
AcDbLine
 62
7
  6
CONTINUOUS
 10
4.3239056591
 20
2.5560321505
 11
4.3199517788
 21
2.6046188032
  0
LINE
  5
29F
100
AcDbEntity
  8
0
100
AcDbLine
 62
7
  6
CONTINUOUS
 10
4.3239607292
 20
2.556077041
 11
4.3162897504
 21
2.6503403068
  0
LINE
  5
2A0
100
AcDbEntity
  8
0
100
AcDbLine
 62
7
  6
CONTINUOUS
 10
4.1543487666
 20
2.5557855495
 11
4.1545292318
 21
2.5576801507
  0
LINE
  5
2A1
100
AcDbEntity
  8
0
100
AcDbLine
 62
7
  6
CONTINUOUS
 10
3.9240926871
 20
2.5557362143
 11
3.9332233722
 21
2.6503056816
  0
LINE
  5
2A2
100
AcDbEntity
  8
0
100
AcDbLine
 62
7
  6
CONTINUOUS
 10
3.4106583145
 20
2.7645955178
 11
7.5614288374
 21
2.7649481837
  0
LINE
  5
2A3
100
AcDbEntity
  8
0
100
AcDbLine
 62
7
  6
CONTINUOUS
 10
7.5614288374
 20
2.7649481837
 11
9.719252557
 21
2.7650770126
  0
LINE
  5
2A4
100
AcDbEntity
  8
0
100
AcDbLine
 62
7
  6
CONTINUOUS
 10
3.4106583145
 20
2.7645955178
 11
1.2522525876
 21
2.7643576127
  0
LINE
  5
2A5
100
AcDbEntity
  8
0
100
AcDbLine
 62
7
  6
CONTINUOUS
 10
9.6392457594
 20
2.8450702139
 11
5.4299333685
 21
2.8447739205
  0
LINE
  5
2A6
100
AcDbEntity
  8
0
100
AcDbLine
 62
7
  6
CONTINUOUS
 10
5.4299333685
 20
2.8447739205
 11
1.3322457908
 21
2.8443644107
  0
LINE
  5
2A7
100
AcDbEntity
  8
0
100
AcDbLine
 62
7
  6
CONTINUOUS
 10
4.7246834686
 20
2.5758476652
 11
4.7187245941
 21
2.65037601
  0
LINE
  5
2A8
100
AcDbEntity
  8
0
100
AcDbLine
 62
7
  6
CONTINUOUS
 10
4.5070667358
 20
2.5639585284
 11
4.5038610906
 21
2.6046188032
  0
LINE
  5
2A9
100
AcDbEntity
  8
0
100
AcDbLine
 62
7
  6
CONTINUOUS
 10
4.5134767243
 20
2.5640275048
 11
4.5066650976
 21
2.6503572769
  0
LINE
  5
2AA
100
AcDbEntity
  8
0
100
AcDbLine
 62
7
  6
CONTINUOUS
 10
4.6107261797
 20
4.684642973
 11
4.6107198073
 21
4.7596429727
  0
LINE
  5
2AB
100
AcDbEntity
  8
0
100
AcDbLine
 62
7
  6
CONTINUOUS
 10
4.4454621742
 20
2.5558459293
 11
4.4543091283
 21
2.6503526212
  0
LINE
  5
2AC
100
AcDbEntity
  8
0
100
AcDbLine
 62
7
  6
CONTINUOUS
 10
4.2699439776
 20
2.575363788
 11
4.2776287132
 21
2.6503368394
  0
LINE
  5
2AD
100
AcDbEntity
  8
0
100
AcDbLine
 62
7
  6
CONTINUOUS
 10
4.6107198073
 20
4.7596429727
 11
4.6607126871
 21
4.8096472208
  0
LINE
  5
2AE
100
AcDbEntity
  8
0
100
AcDbLine
 62
7
  6
CONTINUOUS
 10
9.5119092012
 20
3.0978720217
 11
5.4857974367
 21
3.0975894302
  0
LINE
  5
2AF
100
AcDbEntity
  8
0
100
AcDbLine
 62
7
  6
CONTINUOUS
 10
5.4857974367
 20
3.0975894302
 11
1.4595393884
 21
3.097187851
  0
LINE
  5
2B0
100
AcDbEntity
  8
0
100
AcDbLine
 62
7
  6
CONTINUOUS
 10
9.4836570369
 20
3.1254409261
 11
5.4857945809
 21
3.1251603175
  0
LINE
  5
2B1
100
AcDbEntity
  8
0
100
AcDbLine
 62
7
  6
CONTINUOUS
 10
5.4857945809
 20
3.1251603175
 11
1.4877868676
 21
3.1247615558
  0
LINE
  5
2B2
100
AcDbEntity
  8
0
100
AcDbLine
 62
7
  6
CONTINUOUS
 10
5.0356979176
 20
2.5560098117
 11
5.0315474342
 21
2.6046188032
  0
LINE
  5
2B3
100
AcDbEntity
  8
0
100
AcDbLine
 62
7
  6
CONTINUOUS
 10
5.0357645069
 20
2.5560640066
 11
5.0277093277
 21
2.6504029678
  0
LINE
  5
2B4
100
AcDbEntity
  8
0
100
AcDbLine
 62
7
  6
CONTINUOUS
 10
4.6607126871
 20
4.8096472208
 11
4.6606871975
 21
5.1096472197
  0
LINE
  5
2B5
100
AcDbEntity
  8
0
100
AcDbLine
 62
7
  6
CONTINUOUS
 10
4.6785256181
 20
2.5637027785
 11
4.6868575878
 21
2.6503732
  0
LINE
  5
2B6
100
AcDbEntity
  8
ALL_FEATURES
100
AcDbLine
 62
7
  6
CONTINUOUS
 10
5.9381500086
 20
5.7047168573
 11
5.9206514954
 21
5.6872172119
  0
LINE
  5
2B7
100
AcDbEntity
  8
0
100
AcDbLine
 62
7
  6
CONTINUOUS
 10
9.1839178372
 20
3.3664717556
 11
5.4857686546
 21
3.3662121839
  0
LINE
  5
2B8
100
AcDbEntity
  8
0
100
AcDbLine
 62
7
  6
CONTINUOUS
 10
5.4857686546
 20
3.3662121839
 11
1.7874851044
 21
3.3658433166
  0
LINE
  5
2B9
100
AcDbEntity
  8
0
100
AcDbLine
 62
7
  6
CONTINUOUS
 10
9.0699822876
 20
3.4250294637
 11
5.4857622789
 21
3.4247708191
  0
LINE
  5
2BA
100
AcDbEntity
  8
0
100
AcDbLine
 62
7
  6
CONTINUOUS
 10
5.4857622789
 20
3.4247708191
 11
1.8645535788
 21
3.4244096392
  0
LINE
  5
2BB
100
AcDbEntity
  8
0
100
AcDbLine
 62
7
  6
CONTINUOUS
 10
5.4857622789
 20
3.4247708191
 11
1.8729997886
 21
3.424414009
  0
LINE
  5
2BC
100
AcDbEntity
  8
0
100
AcDbLine
 62
7
  6
CONTINUOUS
 10
8.8500258006
 20
3.4701007948
 11
5.4857567569
 21
3.4698514302
  0
LINE
  5
2BD
100
AcDbEntity
  8
0
100
AcDbLine
 62
7
  6
CONTINUOUS
 10
5.4857567569
 20
3.4698514302
 11
1.9616629863
 21
3.4694973983
  0
LINE
  5
2BE
100
AcDbEntity
  8
0
100
AcDbLine
 62
7
  6
CONTINUOUS
 10
9.0097223435
 20
3.4701011964
 11
8.8500258006
 21
3.4701007948
  0
LINE
  5
2BF
100
AcDbEntity
  8
0
100
AcDbLine
 62
7
  6
CONTINUOUS
 10
9.1027410146
 20
3.4250271777
 11
9.0699907596
 21
3.4250294636
  0
LINE
  5
2C0
100
AcDbEntity
  8
0
100
AcDbLine
 62
7
  6
CONTINUOUS
 10
9.1068394118
 20
3.4250249811
 11
9.0856933803
 21
3.4250288547
  0
LINE
  5
2C1
100
AcDbEntity
  8
0
100
AcDbLine
 62
7
  6
CONTINUOUS
 10
5.1033034844
 20
2.5639674168
 11
5.0959848463
 21
2.6504088894
  0
LINE
  5
2C2
100
AcDbEntity
  8
ALL_FEATURES
100
AcDbLine
 62
7
  6
CONTINUOUS
 10
5.0331500118
 20
5.7046399639
 11
5.0331408781
 21
5.8121399635
  0
LINE
  5
2C3
100
AcDbEntity
  8
ALL_FEATURES
100
AcDbLine
 62
7
  6
CONTINUOUS
 10
5.0506514985
 20
5.6871432922
 11
5.0506749775
 21
5.4108065943
  0
LINE
  5
2C4
100
AcDbEntity
  8
0
100
AcDbLine
 62
7
  6
CONTINUOUS
 10
4.7847098905
 20
2.5559147294
 11
4.7848769683
 21
2.5577367229
  0
LINE
  5
2C5
100
AcDbEntity
  8
0
100
AcDbLine
 62
7
  6
CONTINUOUS
 10
4.9096547862
 20
2.5755641746
 11
4.9167745078
 21
2.6503933423
  0
LINE
  5
2C6
100
AcDbEntity
  8
ALL_FEATURES
100
AcDbLine
 62
7
  6
CONTINUOUS
 10
5.8312776621
 20
5.3053014931
 11
5.8831156145
 21
5.357148255
  0
LINE
  5
2C7
100
AcDbEntity
  8
0
100
AcDbLine
 62
7
  6
CONTINUOUS
 10
5.3935171046
 20
2.5756608302
 11
5.390979436
 21
2.6046188032
  0
LINE
  5
2C8
100
AcDbEntity
  8
0
100
AcDbLine
 62
7
  6
CONTINUOUS
 10
5.3936340027
 20
2.5757559144
 11
5.3870896556
 21
2.650433877
  0
LINE
  5
2C9
100
AcDbEntity
  8
0
100
AcDbLine
 62
7
  6
CONTINUOUS
 10
5.4252769888
 20
2.5559996042
 11
5.4251200319
 21
2.557791781
  0
LINE
  5
2CA
100
AcDbEntity
  8
0
100
AcDbLine
 62
7
  6
CONTINUOUS
 10
5.4253450685
 20
2.5560549763
 11
5.4251929597
 21
2.5577917889
  0
LINE
  5
2CB
100
AcDbEntity
  8
0
100
AcDbLine
 62
7
  6
CONTINUOUS
 10
5.2683494625
 20
2.5638672074
 11
5.2761711928
 21
2.6504243988
  0
LINE
  5
2CC
100
AcDbEntity
  8
0
100
AcDbLine
 62
7
  6
CONTINUOUS
 10
5.7037718367
 20
2.5638302469
 11
5.7000789984
 21
2.6046188032
  0
LINE
  5
2CD
100
AcDbEntity
  8
0
100
AcDbLine
 62
7
  6
CONTINUOUS
 10
5.7105773079
 20
2.5639034133
 11
5.7027349855
 21
2.6504606341
  0
LINE
  5
2CE
100
AcDbEntity
  8
0
100
AcDbLine
 62
7
  6
CONTINUOUS
 10
5.5468456352
 20
2.5560653148
 11
5.546997447
 21
2.5578021391
  0
LINE
  5
2CF
100
AcDbEntity
  8
0
100
AcDbLine
 62
7
  6
CONTINUOUS
 10
5.5786021717
 20
2.5757716103
 11
5.5851337301
 21
2.6504507036
  0
LINE
  5
2D0
100
AcDbEntity
  8
0
100
AcDbLine
 62
7
  6
CONTINUOUS
 10
6.0624645157
 20
2.5755691429
 11
6.0596955686
 21
2.6046188032
  0
LINE
  5
2D1
100
AcDbEntity
  8
0
100
AcDbLine
 62
7
  6
CONTINUOUS
 10
6.0625788603
 20
2.5756621307
 11
6.0554463246
 21
2.650490088
  0
LINE
  5
2D2
100
AcDbEntity
  8
0
100
AcDbLine
 62
7
  6
CONTINUOUS
 10
6.1874127469
 20
2.5559833247
 11
6.1872407121
 21
2.5578558755
  0
LINE
  5
2D3
100
AcDbEntity
  8
0
100
AcDbLine
 62
7
  6
CONTINUOUS
 10
6.1874749466
 20
2.5560338465
 11
6.1873075522
 21
2.5578558807
  0
LINE
  5
2D4
100
AcDbEntity
  8
ALL_FEATURES
100
AcDbLine
 62
7
  6
CONTINUOUS
 10
5.9206749744
 20
5.410880514
 11
5.9206514954
 21
5.6872172119
  0
LINE
  5
2D5
100
AcDbEntity
  8
ALL_FEATURES
100
AcDbLine
 62
7
  6
CONTINUOUS
 10
5.9381500086
 20
5.7047168573
 11
5.9381408748
 21
5.8122168569
  0
LINE
  5
2D6
100
AcDbEntity
  8
0
100
AcDbLine
 62
7
  6
CONTINUOUS
 10
5.8756232818
 20
2.5640343662
 11
5.8829213678
 21
2.6504757386
  0
LINE
  5
2D7
100
AcDbEntity
  8
0
100
AcDbLine
 62
7
  6
CONTINUOUS
 10
5.9364246995
 20
2.5561405182
 11
5.9444638131
 21
2.6504808588
  0
LINE
  5
2D8
100
AcDbEntity
  8
0
100
AcDbLine
 62
7
  6
CONTINUOUS
 10
6.4504621698
 20
4.66481124
 11
4.5207201052
 21
4.6646472792
  0
LINE
  5
2D9
100
AcDbEntity
  8
0
100
AcDbLine
 62
7
  6
CONTINUOUS
 10
6.4103327195
 20
4.6847958764
 11
4.560846159
 21
4.6846387345
  0
LINE
  5
2DA
100
AcDbEntity
  8
ALL_FEATURES
100
AcDbLine
 62
7
  6
CONTINUOUS
 10
5.1400902295
 20
5.3052427662
 11
5.0882434676
 21
5.3570807185
  0
LINE
  5
2DB
100
AcDbEntity
  8
0
100
AcDbLine
 62
7
  6
CONTINUOUS
 10
6.3000056484
 20
2.5638392181
 11
6.2916533895
 21
2.6505095293
  0
LINE
  5
2DC
100
AcDbEntity
  8
0
100
AcDbLine
 62
7
  6
CONTINUOUS
 10
6.526660469
 20
2.5559779647
 11
6.5220987692
 21
2.6046188032
  0
LINE
  5
2DD
100
AcDbEntity
  8
0
100
AcDbLine
 62
7
  6
CONTINUOUS
 10
6.5267155551
 20
2.556022671
 11
6.5178525039
 21
2.6505279479
  0
LINE
  5
2DE
100
AcDbEntity
  8
0
100
AcDbLine
 62
7
  6
CONTINUOUS
 10
6.310712681
 20
4.8097874132
 11
6.3106871915
 21
5.1097874122
  0
LINE
  5
2DF
100
AcDbEntity
  8
0
100
AcDbLine
 62
7
  6
CONTINUOUS
 10
6.3607261733
 20
4.684791662
 11
6.3607198009
 21
4.7597916617
  0
LINE
  5
2E0
100
AcDbEntity
  8
0
100
AcDbLine
 62
7
  6
CONTINUOUS
 10
6.2475501248
 20
2.5759770121
 11
6.2534962401
 21
2.6505064099
  0
LINE
  5
2E1
100
AcDbEntity
  8
0
100
AcDbLine
 62
7
  6
CONTINUOUS
 10
4.6606871975
 20
5.1096472197
 11
6.3106871915
 21
5.1097874122
  0
LINE
  5
2E2
100
AcDbEntity
  8
ALL_FEATURES
100
AcDbLine
 62
7
  6
CONTINUOUS
 10
5.0506514985
 20
5.6871432922
 11
5.0331500118
 21
5.7046399639
  0
LINE
  5
2E3
100
AcDbEntity
  8
0
100
AcDbLine
 62
7
  6
CONTINUOUS
 10
6.7021753489
 20
2.5754836004
 11
6.6991839914
 21
2.6046188032
  0
LINE
  5
2E4
100
AcDbEntity
  8
0
100
AcDbLine
 62
7
  6
CONTINUOUS
 10
6.7022821427
 20
2.5755704299
 11
6.6945845731
 21
2.6505421931
  0
LINE
  5
2E5
100
AcDbEntity
  8
0
100
AcDbLine
 62
7
  6
CONTINUOUS
 10
6.8177738823
 20
2.5559747974
 11
6.817589762
 21
2.5579042983
  0
LINE
  5
2E6
100
AcDbEntity
  8
0
100
AcDbLine
 62
7
  6
CONTINUOUS
 10
6.8178194469
 20
2.5560117397
 11
6.8176388508
 21
2.5579043021
  0
LINE
  5
2E7
100
AcDbEntity
  8
0
100
AcDbLine
 62
7
  6
CONTINUOUS
 10
6.4650545267
 20
2.5641945359
 11
6.4718459797
 21
2.6505242211
  0
LINE
  5
2E8
100
AcDbEntity
  8
ALL_FEATURES
100
AcDbLine
 62
7
  6
CONTINUOUS
 10
5.8313127953
 20
5.192138904
 11
5.1400743261
 21
5.1920801728
  0
LINE
  5
2E9
100
AcDbEntity
  8
ALL_FEATURES
100
AcDbLine
 62
7
  6
CONTINUOUS
 10
5.8312776621
 20
5.3053014931
 11
5.1400902295
 21
5.3052427662
  0
LINE
  5
2EA
100
AcDbEntity
  8
ALL_FEATURES
100
AcDbLine
 62
7
  6
CONTINUOUS
 10
5.0882434676
 20
5.3570807185
 11
5.8831156145
 21
5.357148255
  0
LINE
  5
2EB
100
AcDbEntity
  8
0
100
AcDbLine
 62
7
  6
CONTINUOUS
 10
6.310712681
 20
4.8097874132
 11
6.3607198009
 21
4.7597916617
  0
LINE
  5
2EC
100
AcDbEntity
  8
0
100
AcDbLine
 62
7
  6
CONTINUOUS
 10
7.0480299649
 20
2.5559739661
 11
7.0388805348
 21
2.6505695505
  0
LINE
  5
2ED
100
AcDbEntity
  8
0
100
AcDbLine
 62
7
  6
CONTINUOUS
 10
7.0480640171
 20
2.5560015243
 11
7.0389172326
 21
2.6505695534
  0
LINE
  5
2EE
100
AcDbEntity
  8
0
100
AcDbLine
 62
7
  6
CONTINUOUS
 10
6.8872622096
 20
2.5761714081
 11
6.8926510023
 21
2.6505579984
  0
LINE
  5
2EF
100
AcDbEntity
  8
0
100
AcDbLine
 62
7
  6
CONTINUOUS
 10
6.6482169454
 20
2.5562744556
 11
6.6558718818
 21
2.6505390867
  0
LINE
  5
2F0
100
AcDbEntity
  8
ALL_FEATURES
100
AcDbLine
 62
7
  6
CONTINUOUS
 10
5.0506682475
 20
5.4900154426
 11
5.9206682444
 21
5.4900893623
  0
LINE
  5
2F1
100
AcDbEntity
  8
0
100
AcDbLine
 62
7
  6
CONTINUOUS
 10
7.2847863126
 20
2.5754848616
 11
7.2765720234
 21
2.6505881182
  0
LINE
  5
2F2
100
AcDbEntity
  8
0
100
AcDbLine
 62
7
  6
CONTINUOUS
 10
7.2073654518
 20
2.5559755045
 11
7.1981299992
 21
2.6505820164
  0
LINE
  5
2F3
100
AcDbEntity
  8
0
100
AcDbLine
 62
7
  6
CONTINUOUS
 10
7.0023873469
 20
2.5643384154
 11
7.0087183506
 21
2.6505671787
  0
LINE
  5
2F4
100
AcDbEntity
  8
0
100
AcDbLine
 62
7
  6
CONTINUOUS
 10
7.1695664018
 20
2.5563675619
 11
7.1769407012
 21
2.6505803681
  0
LINE
  5
2F5
100
AcDbEntity
  8
ALL_FEATURES
100
AcDbLine
 62
7
  6
CONTINUOUS
 10
5.9381408748
 20
5.8122168569
 11
5.0331408781
 21
5.8121399635
  0
LINE
  5
2F6
100
AcDbEntity
  8
0
100
AcDbLine
 62
7
  6
CONTINUOUS
 10
7.6324351978
 20
2.563647608
 11
7.6229199806
 21
2.6506146251
  0
LINE
  5
2F7
100
AcDbEntity
  8
0
100
AcDbLine
 62
7
  6
CONTINUOUS
 10
7.6356210618
 20
2.5636818572
 11
7.6261068495
 21
2.6506148672
  0
LINE
  5
2F8
100
AcDbEntity
  8
0
100
AcDbLine
 62
7
  6
CONTINUOUS
 10
7.4697793695
 20
2.576346323
 11
7.4746628281
 21
2.6506033637
  0
LINE
  5
2F9
100
AcDbEntity
  8
0
100
AcDbLine
 62
7
  6
CONTINUOUS
 10
7.7846339717
 20
2.575409247
 11
7.775974557
 21
2.6506261026
  0
LINE
  5
2FA
100
AcDbEntity
  8
0
100
AcDbLine
 62
7
  6
CONTINUOUS
 10
7.9696419724
 20
2.5764941727
 11
7.9740934498
 21
2.6506407057
  0
LINE
  5
2FB
100
AcDbEntity
  8
0
100
AcDbLine
 62
7
  6
CONTINUOUS
 10
8.0930439745
 20
2.6506493439
 11
8.0876380552
 21
2.5646079805
  0
LINE
  5
2FC
100
AcDbEntity
  8
0
100
AcDbLine
 62
7
  6
CONTINUOUS
 10
8.0152588928
 20
2.564596304
 11
8.0207259809
 21
2.6506440989
  0
LINE
  5
2FD
100
AcDbEntity
  8
0
100
AcDbLine
 62
7
  6
CONTINUOUS
 10
8.4535116483
 20
2.5752713649
 11
8.4442500516
 21
2.6506740268
  0
LINE
  5
2FE
100
AcDbEntity
  8
0
100
AcDbLine
 62
7
  6
CONTINUOUS
 10
8.4535477757
 20
2.5753007061
 11
8.4442897482
 21
2.6506740296
  0
LINE
  5
2FF
100
AcDbEntity
  8
0
100
AcDbLine
 62
7
  6
CONTINUOUS
 10
8.1799218825
 20
2.5752994241
 11
8.170903541
 21
2.6506549135
  0
LINE
  5
300
100
AcDbEntity
  8
0
100
AcDbLine
 62
7
  6
CONTINUOUS
 10
8.1799803347
 20
2.5753469256
 11
8.1709676219
 21
2.6506549181
  0
LINE
  5
301
100
AcDbEntity
  8
0
100
AcDbLine
 62
7
  6
CONTINUOUS
 10
8.3650026566
 20
2.5766084674
 11
8.369113581
 21
2.6506688641
  0
LINE
  5
302
100
AcDbEntity
  8
0
100
AcDbLine
 62
7
  6
CONTINUOUS
 10
8.7784206166
 20
2.5767183187
 11
8.7821767969
 21
2.6506962616
  0
LINE
  5
303
100
AcDbEntity
  8
0
100
AcDbLine
 62
7
  6
CONTINUOUS
 10
8.6385813444
 20
2.5766842755
 11
8.6424572666
 21
2.650687296
  0
LINE
  5
304
100
AcDbEntity
  8
0
100
AcDbLine
 62
7
  6
CONTINUOUS
 10
9.719252557
 20
2.7650770126
 11
9.7192586347
 21
2.6935459498
  0
ARC
  5
305
100
AcDbEntity
  8
0
100
AcDbCircle
 62
7
  6
CONTINUOUS
 10
4.0063165138
 20
-13.651766974
 40
16.2160610165
100
AcDbArc
 50
89.7206070933
 51
89.9830648549
  0
ARC
  5
306
100
AcDbEntity
  8
0
100
AcDbCircle
 62
7
  6
CONTINUOUS
 10
4.7082150706
 20
-12.2281567011
 40
14.7843460771
100
AcDbArc
 50
89.8006009928
 51
89.9143722438
  0
ARC
  5
307
100
AcDbEntity
  8
0
100
AcDbCircle
 62
7
  6
CONTINUOUS
 10
4.6994684055
 20
-7.7518948313
 40
10.3080926483
100
AcDbArc
 50
90.001211125
 51
90.1298193502
  0
ARC
  5
308
100
AcDbEntity
  8
0
100
AcDbCircle
 62
7
  6
CONTINUOUS
 10
1.0857217798
 20
3.126943447
 40
0.375
100
AcDbArc
 50
311.1016814891
 51
355.4488954997
  0
ARC
  5
309
100
AcDbEntity
  8
0
100
AcDbCircle
 62
7
  6
CONTINUOUS
 10
1.4695496093
 20
3.4542572347
 40
0.33
100
AcDbArc
 50
273.1680314953
 51
344.4594105431
  0
ARC
  5
30A
100
AcDbEntity
  8
0
100
AcDbCircle
 62
7
  6
CONTINUOUS
 10
1.864560376
 20
3.3444096395
 40
0.08
100
AcDbArc
 50
90.004868144
 51
164.4594105431
  0
ARC
  5
30B
100
AcDbEntity
  8
0
100
AcDbCircle
 62
7
  6
CONTINUOUS
 10
1.9576767795
 20
3.3894995387
 40
0.08
100
AcDbArc
 50
90.004868144
 51
154.1256704327
  0
ARC
  5
30C
100
AcDbEntity
  8
0
100
AcDbCircle
 62
7
  6
CONTINUOUS
 10
1.3322525873
 20
2.7643644099
 40
0.08
100
AcDbArc
 50
90.004868144
 51
180.004868144
  0
ARC
  5
30D
100
AcDbEntity
  8
0
100
AcDbCircle
 62
7
  6
CONTINUOUS
 10
1.2822586651
 20
2.6928290989
 40
0.03
100
AcDbArc
 50
180.004868144
 51
267.0048681437
  0
ARC
  5
30E
100
AcDbEntity
  8
0
100
AcDbCircle
 62
7
  6
CONTINUOUS
 10
1.4894447971
 20
3.094807403
 40
0.03
100
AcDbArc
 50
93.1680314953
 51
175.4488954997
  0
ARC
  5
30F
100
AcDbEntity
  8
0
100
AcDbCircle
 62
7
  6
CONTINUOUS
 10
2.9041336749
 20
2.5654039627
 40
0.0196848433
100
AcDbArc
 50
183.6048156653
 51
269.9857702541
  0
ARC
  5
310
100
AcDbEntity
  8
0
100
AcDbCircle
 62
7
  6
CONTINUOUS
 10
2.2133811157
 20
2.5771610938
 40
0.0196848108
100
AcDbArc
 50
182.9163239074
 51
269.9747778241
  0
ARC
  5
311
100
AcDbEntity
  8
0
100
AcDbCircle
 62
7
  6
CONTINUOUS
 10
2.3532474458
 20
2.5771824702
 40
0.0196848108
100
AcDbArc
 50
183.0078080061
 51
269.9623088523
  0
ARC
  5
312
100
AcDbEntity
  8
0
100
AcDbCircle
 62
7
  6
CONTINUOUS
 10
2.6268458829
 20
2.5772145821
 40
0.0196848108
100
AcDbArc
 50
183.1869261053
 51
269.9622694272
  0
ARC
  5
313
100
AcDbEntity
  8
0
100
AcDbCircle
 62
7
  6
CONTINUOUS
 10
3.0222188624
 20
2.5772560262
 40
0.0196848108
100
AcDbArc
 50
183.4457356536
 51
269.9697588759
  0
ARC
  5
314
100
AcDbEntity
  8
0
100
AcDbCircle
 62
7
  6
CONTINUOUS
 10
2.4990537074
 20
2.5771948812
 40
0.0196847946
100
AcDbArc
 50
270.0362889023
 51
353.0071649841
  0
ARC
  5
315
100
AcDbEntity
  8
0
100
AcDbCircle
 62
7
  6
CONTINUOUS
 10
2.7726353979
 20
2.5772269823
 40
0.0196847946
100
AcDbArc
 50
270.0594047329
 51
353.1852420688
  0
ARC
  5
316
100
AcDbEntity
  8
0
100
AcDbCircle
 62
7
  6
CONTINUOUS
 10
3.1679935552
 20
2.5772684122
 40
0.0196847946
100
AcDbArc
 50
270.0399600997
 51
353.442718691
  0
ARC
  5
317
100
AcDbEntity
  8
0
100
AcDbCircle
 62
7
  6
CONTINUOUS
 10
3.1040021849
 20
2.565429551
 40
0.0196847843
100
AcDbArc
 50
270.0058498724
 51
336.4684921037
  0
ARC
  5
318
100
AcDbEntity
  8
0
100
AcDbCircle
 62
7
  6
CONTINUOUS
 10
3.1910840706
 20
2.5654104792
 40
0.0196847843
100
AcDbArc
 50
201.5714780342
 51
270.0041257585
  0
ARC
  5
319
100
AcDbEntity
  8
0
100
AcDbCircle
 62
7
  6
CONTINUOUS
 10
2.978155283
 20
2.5654188748
 40
0.0196847686
100
AcDbArc
 50
183.6460522279
 51
270.0038260938
  0
ARC
  5
31A
100
AcDbEntity
  8
0
100
AcDbCircle
 62
7
  6
CONTINUOUS
 10
3.1942700813
 20
2.5654453663
 40
0.0196847686
100
AcDbArc
 50
198.6647963068
 51
270.0040590202
  0
ARC
  5
31B
100
AcDbEntity
  8
0
100
AcDbCircle
 62
7
  6
CONTINUOUS
 10
2.1211052042
 20
6.4651606299
 40
3.0
100
AcDbArc
 50
272.894674696
 51
323.117846019
  0
ARC
  5
31C
100
AcDbEntity
  8
0
100
AcDbCircle
 62
7
  6
CONTINUOUS
 10
4.05247096
 20
2.5576452949
 40
0.0196848528
100
AcDbArc
 50
216.9086461483
 51
270.0048681441
  0
ARC
  5
31D
100
AcDbEntity
  8
0
100
AcDbCircle
 62
7
  6
CONTINUOUS
 10
3.6628825188
 20
2.5576025506
 40
0.0196848528
100
AcDbArc
 50
216.8990379604
 51
270.004868144
  0
ARC
  5
31E
100
AcDbEntity
  8
0
100
AcDbCircle
 62
7
  6
CONTINUOUS
 10
4.3435818923
 20
2.5576737712
 40
0.0196848528
100
AcDbArc
 50
184.6523926643
 51
270.004868144
  0
ARC
  5
31F
100
AcDbEntity
  8
0
100
AcDbCircle
 62
7
  6
CONTINUOUS
 10
3.8222167647
 20
2.5576212046
 40
0.0196848528
100
AcDbArc
 50
184.4853299702
 51
270.004868144
  0
ARC
  5
320
100
AcDbEntity
  8
0
100
AcDbCircle
 62
7
  6
CONTINUOUS
 10
3.5814318933
 20
2.5575901481
 40
0.0196848528
100
AcDbArc
 50
216.8830156376
 51
270.0048681441
  0
ARC
  5
321
100
AcDbEntity
  8
0
100
AcDbCircle
 62
7
  6
CONTINUOUS
 10
4.1347510178
 20
2.557652286
 40
0.0196848512
100
AcDbArc
 50
270.004868144
 51
354.5588707711
  0
ARC
  5
322
100
AcDbEntity
  8
0
100
AcDbCircle
 62
7
  6
CONTINUOUS
 10
3.7451629063
 20
2.5576095187
 40
0.0196848512
100
AcDbArc
 50
270.0048681441
 51
354.4342119093
  0
ARC
  5
323
100
AcDbEntity
  8
0
100
AcDbCircle
 62
7
  6
CONTINUOUS
 10
4.3435266965
 20
2.5576288645
 40
0.0196848512
100
AcDbArc
 50
184.6523737132
 51
270.0048681441
  0
ARC
  5
324
100
AcDbEntity
  8
0
100
AcDbCircle
 62
7
  6
CONTINUOUS
 10
3.9044969724
 20
2.557628184
 40
0.0196848512
100
AcDbArc
 50
270.004868144
 51
354.4851924475
  0
ARC
  5
325
100
AcDbEntity
  8
0
100
AcDbCircle
 62
7
  6
CONTINUOUS
 10
4.1208409509
 20
2.5655370084
 40
0.0196847852
100
AcDbArc
 50
270.005269337
 51
336.4386328838
  0
ARC
  5
326
100
AcDbEntity
  8
0
100
AcDbCircle
 62
7
  6
CONTINUOUS
 10
3.6657520601
 20
2.5654925803
 40
0.0196847843
100
AcDbArc
 50
270.0054290149
 51
353.957546104
  0
ARC
  5
327
100
AcDbEntity
  8
0
100
AcDbCircle
 62
7
  6
CONTINUOUS
 10
3.5353722232
 20
2.5654321266
 40
0.0196847843
100
AcDbArc
 50
201.3696700301
 51
270.0043206289
  0
ARC
  5
328
100
AcDbEntity
  8
0
100
AcDbCircle
 62
7
  6
CONTINUOUS
 10
3.320109985
 20
2.5654560522
 40
0.0196847843
100
AcDbArc
 50
270.005626326
 51
353.7657522644
  0
ARC
  5
329
100
AcDbEntity
  8
0
100
AcDbCircle
 62
7
  6
CONTINUOUS
 10
3.9893701631
 20
2.5654644718
 40
0.0196847692
100
AcDbArc
 50
184.2090377284
 51
270.0045484959
  0
ARC
  5
32A
100
AcDbEntity
  8
0
100
AcDbCircle
 62
7
  6
CONTINUOUS
 10
3.9950121329
 20
2.5655263003
 40
0.0196847689
100
AcDbArc
 50
184.2121791604
 51
270.0044481872
  0
ARC
  5
32B
100
AcDbEntity
  8
0
100
AcDbCircle
 62
7
  6
CONTINUOUS
 10
3.5399183041
 20
2.5654818821
 40
0.0196847686
100
AcDbArc
 50
203.5357167509
 51
270.0042679753
  0
ARC
  5
32C
100
AcDbEntity
  8
0
100
AcDbCircle
 62
7
  6
CONTINUOUS
 10
3.5220866743
 20
2.5773049851
 40
0.0196848049
100
AcDbArc
 50
183.7727825547
 51
269.9801329146
  0
ARC
  5
32D
100
AcDbEntity
  8
0
100
AcDbCircle
 62
7
  6
CONTINUOUS
 10
4.104602724
 20
2.5773593246
 40
0.0196848049
100
AcDbArc
 50
184.1536404191
 51
269.9906375683
  0
ARC
  5
32E
100
AcDbEntity
  8
0
100
AcDbCircle
 62
7
  6
CONTINUOUS
 10
3.5219919929
 20
2.5772279692
 40
0.019684799
100
AcDbArc
 50
183.7727184136
 51
255.6797296284
  0
ARC
  5
32F
100
AcDbEntity
  8
0
100
AcDbCircle
 62
7
  6
CONTINUOUS
 10
3.6678491317
 20
2.5773173598
 40
0.0196847953
100
AcDbArc
 50
270.0295781718
 51
353.7683719251
  0
ARC
  5
330
100
AcDbEntity
  8
0
100
AcDbCircle
 62
7
  6
CONTINUOUS
 10
4.2503560382
 20
2.5773716871
 40
0.0196847953
100
AcDbArc
 50
270.0190561016
 51
354.1480165251
  0
ARC
  5
331
100
AcDbEntity
  8
0
100
AcDbCircle
 62
7
  6
CONTINUOUS
 10
5.4449552636
 20
2.5577724234
 40
0.0196848528
100
AcDbArc
 50
185.0051549545
 51
270.0048681441
  0
ARC
  5
332
100
AcDbEntity
  8
0
100
AcDbCircle
 62
7
  6
CONTINUOUS
 10
4.6828266154
 20
2.5577053844
 40
0.0196848528
100
AcDbArc
 50
212.0202076743
 51
270.004868144
  0
ARC
  5
333
100
AcDbEntity
  8
0
100
AcDbCircle
 62
7
  6
CONTINUOUS
 10
5.0553785076
 20
2.5577387546
 40
0.0196848528
100
AcDbArc
 50
184.8803992491
 51
270.004868144
  0
ARC
  5
334
100
AcDbEntity
  8
0
100
AcDbCircle
 62
7
  6
CONTINUOUS
 10
4.7651064929
 20
2.5577123768
 40
0.0196848512
100
AcDbArc
 50
270.004868144
 51
354.7606131772
  0
ARC
  5
335
100
AcDbEntity
  8
0
100
AcDbCircle
 62
7
  6
CONTINUOUS
 10
5.0553118776
 20
2.5576845492
 40
0.0196848512
100
AcDbArc
 50
184.8803760023
 51
270.004868144
  0
ARC
  5
336
100
AcDbEntity
  8
0
100
AcDbCircle
 62
7
  6
CONTINUOUS
 10
5.1376583574
 20
2.5577457511
 40
0.0196848512
100
AcDbArc
 50
270.004868144
 51
323.093698942
  0
ARC
  5
337
100
AcDbEntity
  8
0
100
AcDbCircle
 62
7
  6
CONTINUOUS
 10
4.4258618416
 20
2.5576807598
 40
0.0196848512
100
AcDbArc
 50
270.004868144
 51
354.6520327089
  0
ARC
  5
338
100
AcDbEntity
  8
0
100
AcDbCircle
 62
7
  6
CONTINUOUS
 10
4.6827643415
 20
2.5576547213
 40
0.0196848512
100
AcDbArc
 50
211.934246165
 51
270.004868144
  0
ARC
  5
339
100
AcDbEntity
  8
0
100
AcDbCircle
 62
7
  6
CONTINUOUS
 10
5.4448871898
 20
2.5577170446
 40
0.0196848512
100
AcDbArc
 50
185.0051311424
 51
270.004868144
  0
ARC
  5
33A
100
AcDbEntity
  8
0
100
AcDbCircle
 62
7
  6
CONTINUOUS
 10
4.6589285423
 20
2.5655867617
 40
0.0196847852
100
AcDbArc
 50
270.0051561254
 51
354.508918849
  0
ARC
  5
33B
100
AcDbEntity
  8
0
100
AcDbCircle
 62
7
  6
CONTINUOUS
 10
5.2487431403
 20
2.5656389461
 40
0.0196847852
100
AcDbArc
 50
270.0050971662
 51
354.8365448577
  0
ARC
  5
33C
100
AcDbEntity
  8
0
100
AcDbCircle
 62
7
  6
CONTINUOUS
 10
4.5266932222
 20
2.5655058371
 40
0.0196847692
100
AcDbArc
 50
184.5079718986
 51
270.0046468148
  0
ARC
  5
33D
100
AcDbEntity
  8
0
100
AcDbCircle
 62
7
  6
CONTINUOUS
 10
4.5331031693
 20
2.5655760393
 40
0.0196847689
100
AcDbArc
 50
184.5115393392
 51
270.0045746154
  0
ARC
  5
33E
100
AcDbEntity
  8
0
100
AcDbCircle
 62
7
  6
CONTINUOUS
 10
5.1229195176
 20
2.5656282084
 40
0.0196847689
100
AcDbArc
 50
184.8394966218
 51
270.0046474863
  0
ARC
  5
33F
100
AcDbEntity
  8
0
100
AcDbCircle
 62
7
  6
CONTINUOUS
 10
5.4132450532
 20
2.5774745134
 40
0.0196848049
100
AcDbArc
 50
185.0082772218
 51
270.0030009348
  0
ARC
  5
340
100
AcDbEntity
  8
0
100
AcDbCircle
 62
7
  6
CONTINUOUS
 10
4.7443082507
 20
2.5774166694
 40
0.0196848049
100
AcDbArc
 50
184.571572106
 51
269.9999365593
  0
ARC
  5
341
100
AcDbEntity
  8
0
100
AcDbCircle
 62
7
  6
CONTINUOUS
 10
5.4131281404
 20
2.5773794009
 40
0.019684799
100
AcDbArc
 50
185.0081974147
 51
270.0030410613
  0
ARC
  5
342
100
AcDbEntity
  8
0
100
AcDbCircle
 62
7
  6
CONTINUOUS
 10
4.8900559287
 20
2.5774290191
 40
0.0196847953
100
AcDbArc
 50
270.0097418195
 51
354.5651250236
  0
ARC
  5
343
100
AcDbEntity
  8
ALL_FEATURES
100
AcDbCircle
 62
7
  6
CONTINUOUS
 10
5.221168247
 20
5.4900280878
 40
0.188
100
AcDbArc
 50
204.9224334588
 51
225.0048681409
  0
ARC
  5
344
100
AcDbEntity
  8
ALL_FEATURES
100
AcDbCircle
 62
7
  6
CONTINUOUS
 10
5.0835264936
 20
5.2486694176
 40
0.08
100
AcDbArc
 50
314.9790276828
 51
45.0048681409
  0
ARC
  5
345
100
AcDbEntity
  8
0
100
AcDbCircle
 62
7
  6
CONTINUOUS
 10
4.5607136867
 20
4.6346387231
 40
0.05
100
AcDbArc
 50
90.004868144
 51
143.117846019
  0
ARC
  5
346
100
AcDbEntity
  8
0
100
AcDbCircle
 62
7
  6
CONTINUOUS
 10
6.9719106241
 20
-12.7864159711
 40
15.3509612179
100
AcDbArc
 50
90.0189313905
 51
90.3259014131
  0
ARC
  5
347
100
AcDbEntity
  8
0
100
AcDbCircle
 62
7
  6
CONTINUOUS
 10
6.2789400355
 20
-3.2511598123
 40
5.807494578
100
AcDbArc
 50
89.7680884923
 51
90.0592319566
  0
ARC
  5
348
100
AcDbEntity
  8
0
100
AcDbCircle
 62
7
  6
CONTINUOUS
 10
6.2070779381
 20
2.5578348222
 40
0.0196848528
100
AcDbArc
 50
185.2491445448
 51
270.004868144
  0
ARC
  5
349
100
AcDbEntity
  8
0
100
AcDbCircle
 62
7
  6
CONTINUOUS
 10
5.8345305096
 20
2.5578049194
 40
0.0196848528
100
AcDbArc
 50
216.9157403017
 51
270.004868144
  0
ARC
  5
34A
100
AcDbEntity
  8
0
100
AcDbCircle
 62
7
  6
CONTINUOUS
 10
6.5463154388
 20
2.5578608249
 40
0.0196848528
100
AcDbArc
 50
185.3577224034
 51
270.004868144
  0
ARC
  5
34B
100
AcDbEntity
  8
0
100
AcDbCircle
 62
7
  6
CONTINUOUS
 10
5.5272351309
 20
2.5577794242
 40
0.0196848512
100
AcDbArc
 50
270.0048681441
 51
355.0046049594
  0
ARC
  5
34C
100
AcDbEntity
  8
0
100
AcDbCircle
 62
7
  6
CONTINUOUS
 10
5.8344639674
 20
2.5577507872
 40
0.0196848512
100
AcDbArc
 50
216.7196208327
 51
270.004868144
  0
ARC
  5
34D
100
AcDbEntity
  8
0
100
AcDbCircle
 62
7
  6
CONTINUOUS
 10
6.546260491
 20
2.5578161256
 40
0.0196848512
100
AcDbArc
 50
185.357703446
 51
270.004868144
  0
ARC
  5
34E
100
AcDbEntity
  8
0
100
AcDbCircle
 62
7
  6
CONTINUOUS
 10
6.2893579711
 20
2.5578418312
 40
0.0196848512
100
AcDbArc
 50
270.0048681441
 51
337.2920853847
  0
ARC
  5
34F
100
AcDbEntity
  8
0
100
AcDbCircle
 62
7
  6
CONTINUOUS
 10
5.9168104389
 20
2.5578119244
 40
0.0196848512
100
AcDbArc
 50
270.0048681441
 51
355.1293601123
  0
ARC
  5
350
100
AcDbEntity
  8
0
100
AcDbCircle
 62
7
  6
CONTINUOUS
 10
6.2070158359
 20
2.5577843025
 40
0.0196848512
100
AcDbArc
 50
185.2491229467
 51
270.004868144
  0
ARC
  5
351
100
AcDbEntity
  8
0
100
AcDbCircle
 62
7
  6
CONTINUOUS
 10
6.0821773833
 20
2.5775303284
 40
0.0196848049
100
AcDbArc
 50
185.4446893878
 51
270.0004286232
  0
ARC
  5
352
100
AcDbEntity
  8
0
100
AcDbCircle
 62
7
  6
CONTINUOUS
 10
6.0820630583
 20
2.5774373155
 40
0.019684799
100
AcDbArc
 50
185.4446114346
 51
269.999975124
  0
ARC
  5
353
100
AcDbEntity
  8
0
100
AcDbCircle
 62
7
  6
CONTINUOUS
 10
5.5589908483
 20
2.5774868501
 40
0.0196847953
100
AcDbArc
 50
270.0066706974
 51
355.001539031
  0
ARC
  5
354
100
AcDbEntity
  8
0
100
AcDbCircle
 62
7
  6
CONTINUOUS
 10
6.2279251311
 20
2.5775426526
 40
0.0196847953
100
AcDbArc
 50
270.0092353332
 51
355.4382423435
  0
ARC
  5
355
100
AcDbEntity
  8
0
100
AcDbCircle
 62
7
  6
CONTINUOUS
 10
5.8560068646
 20
2.5656905288
 40
0.0196847852
100
AcDbArc
 50
270.005095888
 51
355.1740251322
  0
ARC
  5
356
100
AcDbEntity
  8
0
100
AcDbCircle
 62
7
  6
CONTINUOUS
 10
6.4454277546
 20
2.565738512
 40
0.0196847852
100
AcDbArc
 50
270.0051523645
 51
355.5017642443
  0
ARC
  5
357
100
AcDbEntity
  8
0
100
AcDbCircle
 62
7
  6
CONTINUOUS
 10
5.723377843
 20
2.5656053146
 40
0.0196847692
100
AcDbArc
 50
185.173191252
 51
270.0046720473
  0
ARC
  5
358
100
AcDbEntity
  8
0
100
AcDbCircle
 62
7
  6
CONTINUOUS
 10
6.3131924443
 20
2.5656576456
 40
0.0196847692
100
AcDbArc
 50
248.4047473149
 51
270.0045975083
  0
ARC
  5
359
100
AcDbEntity
  8
0
100
AcDbCircle
 62
7
  6
CONTINUOUS
 10
5.7301831957
 20
2.5656797758
 40
0.0196847689
100
AcDbArc
 50
185.176974958
 51
270.0046625663
  0
ARC
  5
35A
100
AcDbEntity
  8
0
100
AcDbCircle
 62
7
  6
CONTINUOUS
 10
6.3196022458
 20
2.5657277446
 40
0.0196847689
100
AcDbArc
 50
185.5043793613
 51
270.0046189722
  0
ARC
  5
35B
100
AcDbEntity
  8
ALL_FEATURES
100
AcDbCircle
 62
7
  6
CONTINUOUS
 10
5.4857229528
 20
4.8461784138
 40
0.489
100
AcDbArc
 50
32.6226435263
 51
45.0307086053
  0
ARC
  5
35C
100
AcDbEntity
  8
ALL_FEATURES
100
AcDbCircle
 62
7
  6
CONTINUOUS
 10
5.4857229528
 20
4.8461784138
 40
0.489
100
AcDbArc
 50
134.9790276828
 51
147.3870927618
  0
ARC
  5
35D
100
AcDbEntity
  8
ALL_FEATURES
100
AcDbCircle
 62
7
  6
CONTINUOUS
 10
5.7501682451
 20
5.4900730344
 40
0.188
100
AcDbArc
 50
315.0048681472
 51
335.0873028293
  0
ARC
  5
35E
100
AcDbEntity
  8
ALL_FEATURES
100
AcDbCircle
 62
7
  6
CONTINUOUS
 10
5.8878510108
 20
5.2487377571
 40
0.08
100
AcDbArc
 50
135.0048681472
 51
225.0307086053
  0
ARC
  5
35F
100
AcDbEntity
  8
0
100
AcDbCircle
 62
7
  6
CONTINUOUS
 10
6.4104736882
 20
4.6347958882
 40
0.05
100
AcDbArc
 50
36.8918902691
 51
90.004868144
  0
ARC
  5
360
100
AcDbEntity
  8
0
100
AcDbCircle
 62
7
  6
CONTINUOUS
 10
6.8374167066
 20
2.5578817948
 40
0.0196848528
100
AcDbArc
 50
185.4508808804
 51
270.004868144
  0
ARC
  5
361
100
AcDbEntity
  8
0
100
AcDbCircle
 62
7
  6
CONTINUOUS
 10
7.2269802662
 20
2.5579052136
 40
0.0196848528
100
AcDbArc
 50
185.5755312544
 51
270.004868144
  0
ARC
  5
362
100
AcDbEntity
  8
0
100
AcDbCircle
 62
7
  6
CONTINUOUS
 10
7.067659216
 20
2.5578968087
 40
0.0196848528
100
AcDbArc
 50
185.5245551524
 51
270.0048681441
  0
ARC
  5
363
100
AcDbEntity
  8
0
100
AcDbCircle
 62
7
  6
CONTINUOUS
 10
6.9196970769
 20
2.5578887751
 40
0.0196848512
100
AcDbArc
 50
270.0048681441
 51
323.1014602632
  0
ARC
  5
364
100
AcDbEntity
  8
0
100
AcDbCircle
 62
7
  6
CONTINUOUS
 10
7.3092610455
 20
2.5579121951
 40
0.0196848512
100
AcDbArc
 50
270.0048681441
 51
323.1137978533
  0
ARC
  5
365
100
AcDbEntity
  8
0
100
AcDbCircle
 62
7
  6
CONTINUOUS
 10
6.6285956128
 20
2.5578678376
 40
0.0196848512
100
AcDbArc
 50
270.004868144
 51
355.3573624639
  0
ARC
  5
366
100
AcDbEntity
  8
0
100
AcDbCircle
 62
7
  6
CONTINUOUS
 10
7.1499397837
 20
2.5579037894
 40
0.0196848512
100
AcDbArc
 50
270.0048681441
 51
355.5244177233
  0
ARC
  5
367
100
AcDbEntity
  8
0
100
AcDbCircle
 62
7
  6
CONTINUOUS
 10
7.3906977586
 20
2.5579136248
 40
0.0196848512
100
AcDbArc
 50
270.004868144
 51
323.1270180112
  0
ARC
  5
368
100
AcDbEntity
  8
0
100
AcDbCircle
 62
7
  6
CONTINUOUS
 10
6.7218696884
 20
2.5775816751
 40
0.0196848049
100
AcDbArc
 50
185.8617924982
 51
269.9913625343
  0
ARC
  5
369
100
AcDbEntity
  8
0
100
AcDbCircle
 62
7
  6
CONTINUOUS
 10
7.3043643451
 20
2.5776263093
 40
0.0196848049
100
AcDbArc
 50
186.2414284529
 51
269.9811049542
  0
ARC
  5
36A
100
AcDbEntity
  8
0
100
AcDbCircle
 62
7
  6
CONTINUOUS
 10
6.7217629469
 20
2.5774948254
 40
0.019684799
100
AcDbArc
 50
185.8617199293
 51
269.990666263
  0
ARC
  5
36B
100
AcDbEntity
  8
0
100
AcDbCircle
 62
7
  6
CONTINUOUS
 10
6.8676231392
 20
2.5775939878
 40
0.0196847953
100
AcDbArc
 50
270.0182824718
 51
355.856168681
  0
ARC
  5
36C
100
AcDbEntity
  8
0
100
AcDbCircle
 62
7
  6
CONTINUOUS
 10
7.4501269999
 20
2.5776386122
 40
0.0196847953
100
AcDbArc
 50
270.0285233757
 51
356.2370179364
  0
ARC
  5
36D
100
AcDbEntity
  8
0
100
AcDbCircle
 62
7
  6
CONTINUOUS
 10
6.9827508107
 20
2.5657801071
 40
0.0196847852
100
AcDbArc
 50
270.0052633064
 51
355.8006984505
  0
ARC
  5
36E
100
AcDbEntity
  8
0
100
AcDbCircle
 62
7
  6
CONTINUOUS
 10
7.6551966982
 20
2.5658242792
 40
0.0196847827
100
AcDbArc
 50
186.245752005
 51
270.0040999276
  0
ARC
  5
36F
100
AcDbEntity
  8
0
100
AcDbCircle
 62
7
  6
CONTINUOUS
 10
7.3109147456
 20
2.565802204
 40
0.0196847827
100
AcDbArc
 50
186.0547140584
 51
270.0042951884
  0
ARC
  5
370
100
AcDbEntity
  8
0
100
AcDbCircle
 62
7
  6
CONTINUOUS
 10
6.8569217753
 20
2.565769327
 40
0.0196847689
100
AcDbArc
 50
203.5708225204
 51
270.0045192555
  0
ARC
  5
371
100
AcDbEntity
  8
0
100
AcDbCircle
 62
7
  6
CONTINUOUS
 10
7.6520110091
 20
2.5657894379
 40
0.0196847689
100
AcDbArc
 50
186.2439839492
 51
270.0040779728
  0
ARC
  5
372
100
AcDbEntity
  8
0
100
AcDbCircle
 62
7
  6
CONTINUOUS
 10
7.4367487926
 20
2.565812785
 40
0.0196847689
100
AcDbArc
 50
270.0053422085
 51
338.3654807052
  0
ARC
  5
373
100
AcDbEntity
  8
0
100
AcDbCircle
 62
7
  6
CONTINUOUS
 10
8.8497710744
 20
6.4657323319
 40
3.0
100
AcDbArc
 50
216.8918902691
 51
267.1150615617
  0
ARC
  5
374
100
AcDbEntity
  8
0
100
AcDbCircle
 62
7
  6
CONTINUOUS
 10
9.8857217481
 20
3.1276911402
 40
0.375
100
AcDbArc
 50
184.5608407884
 51
228.908054799
  0
ARC
  5
375
100
AcDbEntity
  8
0
100
AcDbCircle
 62
7
  6
CONTINUOUS
 10
9.5018383036
 20
3.4549396992
 40
0.33
100
AcDbArc
 50
195.550325745
 51
266.8417047928
  0
ARC
  5
376
100
AcDbEntity
  8
0
100
AcDbCircle
 62
7
  6
CONTINUOUS
 10
9.106846209
 20
3.3450249814
 40
0.08
100
AcDbArc
 50
15.550325745
 51
90.004868144
  0
ARC
  5
377
100
AcDbEntity
  8
0
100
AcDbCircle
 62
7
  6
CONTINUOUS
 10
9.0137221447
 20
3.3900990566
 40
0.08
100
AcDbArc
 50
25.8840658554
 51
90.004868144
  0
ARC
  5
378
100
AcDbEntity
  8
0
100
AcDbCircle
 62
7
  6
CONTINUOUS
 10
9.6392525573
 20
2.7650702153
 40
0.08
100
AcDbArc
 50
0.004868144
 51
90.004868144
  0
ARC
  5
379
100
AcDbEntity
  8
0
100
AcDbCircle
 62
7
  6
CONTINUOUS
 10
9.6892586341
 20
2.6935433997
 40
0.03
100
AcDbArc
 50
273.0048681438
 51
0.0048681287
  0
ARC
  5
37A
100
AcDbEntity
  8
0
100
AcDbCircle
 62
7
  6
CONTINUOUS
 10
9.4820041975
 20
3.095486492
 40
0.03
100
AcDbArc
 50
4.5608407884
 51
86.8417047928
  0
ARC
  5
37B
100
AcDbEntity
  8
0
100
AcDbCircle
 62
7
  6
CONTINUOUS
 10
8.067987342
 20
2.5658424953
 40
0.0196848269
100
AcDbArc
 50
270.0238965122
 51
356.4052363253
  0
ARC
  5
37C
100
AcDbEntity
  8
0
100
AcDbCircle
 62
7
  6
CONTINUOUS
 10
7.8042035424
 20
2.5776622996
 40
0.0196848071
100
AcDbArc
 50
186.5670703756
 51
269.9709786849
  0
ARC
  5
37D
100
AcDbEntity
  8
0
100
AcDbCircle
 62
7
  6
CONTINUOUS
 10
8.199541906
 20
2.5776880348
 40
0.0196848071
100
AcDbArc
 50
186.8245333076
 51
269.9642179566
  0
ARC
  5
37E
100
AcDbEntity
  8
0
100
AcDbCircle
 62
7
  6
CONTINUOUS
 10
8.4731012548
 20
2.5777024092
 40
0.0196848071
100
AcDbArc
 50
187.0025952066
 51
269.9617402356
  0
ARC
  5
37F
100
AcDbEntity
  8
0
100
AcDbCircle
 62
7
  6
CONTINUOUS
 10
7.9499784919
 20
2.5776746072
 40
0.0196847991
100
AcDbArc
 50
270.0386625127
 51
356.5640534445
  0
ARC
  5
380
100
AcDbEntity
  8
0
100
AcDbCircle
 62
7
  6
CONTINUOUS
 10
8.3453317206
 20
2.5777003377
 40
0.0196847991
100
AcDbArc
 50
270.0454080267
 51
356.8228493554
  0
ARC
  5
381
100
AcDbEntity
  8
0
100
AcDbCircle
 62
7
  6
CONTINUOUS
 10
8.6189078462
 20
2.5777147098
 40
0.0196847991
100
AcDbArc
 50
270.0478747193
 51
357.0019522772
  0
ARC
  5
382
100
AcDbEntity
  8
0
100
AcDbCircle
 62
7
  6
CONTINUOUS
 10
8.7587502793
 20
2.5777170952
 40
0.0196847991
100
AcDbArc
 50
270.0446877331
 51
357.0934203987
  0
ARC
  5
383
100
AcDbEntity
  8
0
100
AcDbCircle
 62
7
  6
CONTINUOUS
 10
7.8697592358
 20
2.56583436
 40
0.0196847827
100
AcDbArc
 50
203.5466659421
 51
270.0038775968
  0
ARC
  5
384
100
AcDbEntity
  8
0
100
AcDbCircle
 62
7
  6
CONTINUOUS
 10
7.781036946
 20
2.5658348557
 40
0.0196847689
100
AcDbArc
 50
270.0055328093
 51
338.3901787294
  0
ARC
  5
385
100
AcDbEntity
  8
0
100
AcDbCircle
 62
7
  6
CONTINUOUS
 10
7.9956065148
 20
2.5658449362
 40
0.0196847689
100
AcDbArc
 50
270.0057543232
 51
356.3645977023
  0
ARC
  5
386
100
AcDbEntity
  8
0
100
AcDbCircle
 62
7
  6
CONTINUOUS
 10
7.8681188114
 20
2.5658164412
 40
0.0196847689
100
AcDbArc
 50
203.4908788737
 51
270.00384433
  0
LINE
  5
387
100
AcDbEntity
  8
0
100
AcDbLine
 62
7
  6
CONTINUOUS
 10
5.4860964377
 20
2.5562671401
 11
5.4253450421
 21
2.5560552786
  0
LINE
  5
388
100
AcDbEntity
  8
0
100
AcDbLine
 62
7
  6
CONTINUOUS
 10
6.8397274909
 20
2.556175113
 11
6.8178212852
 21
2.5560120621
  0
LINE
  5
389
100
AcDbEntity
  8
0
100
AcDbLine
 62
7
  6
CONTINUOUS
 10
5.5468456603
 20
2.5560656026
 11
5.4860964376
 21
2.5562672798
  0
SPLINE
  5
38A
100
AcDbEntity
  8
0
100
AcDbSpline
 62
7
  6
CONTINUOUS
 70
0
 71
3
 72
26
 73
22
 74
0
 42
0.0000001
 43
0.0000001
 44
0.0000000001
 40
0.0
 40
0.0
 40
0.0
 40
0.0
 40
0.15219564
 40
0.3208261964
 40
0.4931003725
 40
0.5765879392
 40
0.6561689066
 40
0.7303656368
 40
0.79775057
 40
0.8570878585
 40
0.9072276033
 40
0.9285465803
 40
0.9472391356
 40
0.9632122694
 40
0.9763749001
 40
0.9866675767
 40
0.9940569241
 40
0.9966527255
 40
0.9985106269
 40
0.9996269
 40
1.0
 40
1.0
 40
1.0
 40
1.0
 10
6.6231759782
 20
2.556358293
 30
0.0
 10
6.618282274
 20
2.5563578432
 30
0.0
 10
6.607966417
 20
2.5563508295
 30
0.0
 10
6.5921112659
 20
2.5563270838
 30
0.0
 10
6.5784653727
 20
2.5562965985
 30
0.0
 10
6.5676827934
 20
2.5562662813
 30
0.0
 10
6.5600537964
 20
2.5562416118
 30
0.0
 10
6.5529425751
 20
2.5562153088
 30
0.0
 10
6.5464822721
 20
2.556187847
 30
0.0
 10
6.5407955315
 20
2.5561597917
 30
0.0
 10
6.5365899392
 20
2.5561353288
 30
0.0
 10
6.5336913518
 20
2.5561153534
 30
0.0
 10
6.5318911009
 20
2.5561015366
 30
0.0
 10
6.5303537958
 20
2.55608757
 30
0.0
 10
6.5290846602
 20
2.5560752231
 30
0.0
 10
6.528096632
 20
2.5560600988
 30
0.0
 10
6.5274370525
 20
2.5560540535
 30
0.0
 10
6.5270666834
 20
2.5560384678
 30
0.0
 10
6.5268706359
 20
2.5560434838
 30
0.0
 10
6.5267932666
 20
2.5560194399
 30
0.0
 10
6.5267142536
 20
2.5560349512
 30
0.0
 10
6.5267155232
 20
2.5560230219
 30
0.0
  0
LINE
  5
38B
100
AcDbEntity
  8
0
100
AcDbLine
 62
7
  6
CONTINUOUS
 10
5.1056848465
 20
2.5562209051
 11
5.0838849546
 21
2.5562324813
  0
LINE
  5
38C
100
AcDbEntity
  8
0
100
AcDbLine
 62
7
  6
CONTINUOUS
 10
4.3490034734
 20
2.5561650682
 11
4.32396072
 21
2.5560771425
  0
LINE
  5
38D
100
AcDbEntity
  8
0
100
AcDbLine
 62
7
  6
CONTINUOUS
 10
5.8883063825
 20
2.5563006892
 11
5.8732564336
 21
2.5562929284
  0
SPLINE
  5
38E
100
AcDbEntity
  8
0
100
AcDbSpline
 62
7
  6
CONTINUOUS
 70
0
 71
3
 72
26
 73
22
 74
0
 42
0.0000001
 43
0.0000001
 44
0.0000000001
 40
0.0
 40
0.0
 40
0.0
 40
0.0
 40
0.00037315
 40
0.0014894544
 40
0.0033473722
 40
0.0059431763
 40
0.0133324924
 40
0.0236250945
 40
0.0367876126
 40
0.0527605863
 40
0.071452939
 40
0.0927716798
 40
0.1429108821
 40
0.2022475458
 40
0.2696318142
 40
0.343827886
 40
0.4234082792
 40
0.5068954344
 40
0.679169532
 40
0.8478014101
 40
1.0
 40
1.0
 40
1.0
 40
1.0
 10
4.44546219
 20
2.5558461069
 30
0.0
 10
4.4454634465
 20
2.555858039
 30
0.0
 10
4.4453844612
 20
2.5558425178
 30
0.0
 10
4.4453070594
 20
2.5558665501
 30
0.0
 10
4.4451110306
 20
2.5558615059
 30
0.0
 10
4.4447406566
 20
2.5558770338
 30
0.0
 10
4.4440810989
 20
2.5558829748
 30
0.0
 10
4.4430930901
 20
2.5558979393
 30
0.0
 10
4.4418239885
 20
2.5559100794
 30
0.0
 10
4.4402867244
 20
2.5559237936
 30
0.0
 10
4.438486524
 20
2.5559373136
 30
0.0
 10
4.4355880185
 20
2.5559568094
 30
0.0
 10
4.4313825451
 20
2.5559805737
 30
0.0
 10
4.4256959641
 20
2.5560076809
 30
0.0
 10
4.4192358389
 20
2.5560340629
 30
0.0
 10
4.4121248059
 20
2.5560591746
 30
0.0
 10
4.4044959989
 20
2.5560825638
 30
0.0
 10
4.3937136485
 20
2.5561110688
 30
0.0
 10
4.3800679762
 20
2.5561392555
 30
0.0
 10
4.36421298
 20
2.5561603229
 30
0.0
 10
4.3538971756
 20
2.5561655898
 30
0.0
 10
4.3490034671
 20
2.5561652079
 30
0.0
  0
LINE
  5
38F
100
AcDbEntity
  8
0
100
AcDbLine
 62
7
  6
CONTINUOUS
 10
6.2729362869
 20
2.5563315227
 11
6.2418776678
 21
2.5563011798
  0
LINE
  5
390
100
AcDbEntity
  8
0
100
AcDbLine
 62
7
  6
CONTINUOUS
 10
6.2418776678
 20
2.5563011798
 11
6.2125195452
 21
2.5562232229
  0
LINE
  5
391
100
AcDbEntity
  8
0
100
AcDbLine
 62
7
  6
CONTINUOUS
 10
6.2125195452
 20
2.5562232229
 11
6.1874760133
 21
2.556034206
  0
LINE
  5
392
100
AcDbEntity
  8
0
100
AcDbLine
 62
7
  6
CONTINUOUS
 10
3.9240926235
 20
2.5557362506
 11
3.8107296077
 21
2.5561106418
  0
LINE
  5
393
100
AcDbEntity
  8
0
100
AcDbLine
 62
7
  6
CONTINUOUS
 10
5.9364234205
 20
2.5561408069
 11
5.8883063848
 21
2.5563008289
  0
LINE
  5
394
100
AcDbEntity
  8
0
100
AcDbLine
 62
7
  6
CONTINUOUS
 10
6.6482169664
 20
2.556274705
 11
6.6231759845
 21
2.5563584327
  0
LINE
  5
395
100
AcDbEntity
  8
0
100
AcDbLine
 62
7
  6
CONTINUOUS
 10
4.1543469077
 20
2.5557856584
 11
4.1380065949
 21
2.5559196189
  0
LINE
  5
396
100
AcDbEntity
  8
0
100
AcDbLine
 62
7
  6
CONTINUOUS
 10
7.1695663513
 20
2.5563677636
 11
7.1614281239
 21
2.5563953326
  0
LINE
  5
397
100
AcDbEntity
  8
0
100
AcDbLine
 62
7
  6
CONTINUOUS
 10
4.7847088131
 20
2.5559149639
 11
4.7596669926
 21
2.5560998453
  0
LINE
  5
398
100
AcDbEntity
  8
0
100
AcDbLine
 62
7
  6
CONTINUOUS
 10
4.7303100647
 20
2.5561728657
 11
4.6992505074
 21
2.5561979544
  0
LINE
  5
399
100
AcDbEntity
  8
0
100
AcDbLine
 62
7
  6
CONTINUOUS
 10
3.8107296172
 20
2.5561105003
 11
3.8025902904
 21
2.5560815667
  0
LINE
  5
39A
100
AcDbEntity
  8
0
100
AcDbLine
 62
7
  6
CONTINUOUS
 10
5.0838849568
 20
2.5562323416
 11
5.0357657894
 21
2.5560642534
  0
LINE
  5
39B
100
AcDbEntity
  8
0
100
AcDbLine
 62
7
  6
CONTINUOUS
 10
7.1614281146
 20
2.5563951928
 11
7.0480640574
 21
2.5560017983
  0
SPLINE
  5
39C
100
AcDbEntity
  8
0
100
AcDbSpline
 62
7
  6
CONTINUOUS
 70
0
 71
3
 72
22
 73
18
 74
0
 42
0.0000001
 43
0.0000001
 44
0.0000000001
 40
0.0
 40
0.0
 40
0.0
 40
0.0
 40
0.0012389121
 40
0.0048496853
 40
0.0108456374
 40
0.0192127214
 40
0.0299338062
 40
0.0429909209
 40
0.0760167612
 40
0.1179448482
 40
0.1683490304
 40
0.2267934527
 40
0.2927046945
 40
0.4441994476
 40
0.6170981
 40
0.8049775633
 40
1.0
 40
1.0
 40
1.0
 40
1.0
 10
5.5786022928
 20
2.5757729962
 30
0.0
 10
5.5786056352
 20
2.5758110476
 30
0.0
 10
5.5783698354
 20
2.5758006904
 30
0.0
 10
5.5781204534
 20
2.575864474
 30
0.0
 10
5.5775197856
 20
2.5758779753
 30
0.0
 10
5.5767679732
 20
2.5759198009
 30
0.0
 10
5.5757693848
 20
2.5759501087
 30
0.0
 10
5.5740224824
 20
2.5759999904
 30
0.0
 10
5.5713070211
 20
2.576055257
 30
0.0
 10
5.5674435512
 20
2.576117521
 30
0.0
 10
5.5627948158
 20
2.5761763453
 30
0.0
 10
5.5574070512
 20
2.5762318037
 30
0.0
 10
5.5489023158
 20
2.5763033736
 30
0.0
 10
5.5368687378
 20
2.5763770473
 30
0.0
 10
5.5210745194
 20
2.5764402887
 30
0.0
 10
5.5039381943
 20
2.5764790935
 30
0.0
 10
5.4921326131
 20
2.5764875585
 30
0.0
 10
5.4861197086
 20
2.5764872038
 30
0.0
  0
SPLINE
  5
39D
100
AcDbEntity
  8
0
100
AcDbSpline
 62
7
  6
CONTINUOUS
 70
0
 71
3
 72
27
 73
23
 74
0
 42
0.0000001
 43
0.0000001
 44
0.0000000001
 40
0.0
 40
0.0
 40
0.0
 40
0.0
 40
0.0849701061
 40
0.2197067549
 40
0.3875417146
 40
0.4774707948
 40
0.5677056866
 40
0.6554435694
 40
0.7379443297
 40
0.8126515157
 40
0.8772316564
 40
0.9050854758
 40
0.9296672548
 40
0.9508063481
 40
0.968342778
 40
0.9821194121
 40
0.9875618175
 40
0.9920294656
 40
0.995514614
 40
0.9980095607
 40
0.9995067519
 40
1.0
 40
1.0
 40
1.0
 40
1.0
 10
8.6340571147
 20
2.5767210418
 30
0.0
 10
8.6289442787
 20
2.5767204132
 30
0.0
 10
8.615724109
 20
2.5766638857
 30
0.0
 10
8.592405248
 20
2.5765379779
 30
0.0
 10
8.5687881331
 20
2.5763811435
 30
0.0
 10
8.5478488247
 20
2.5762303937
 30
0.0
 10
8.5317290566
 20
2.5761073357
 30
0.0
 10
8.5160563052
 20
2.5759810049
 30
0.0
 10
8.5013179222
 20
2.5758551977
 30
0.0
 10
8.4879729882
 20
2.5757339506
 30
0.0
 10
8.4779162542
 20
2.5756356263
 30
0.0
 10
8.4708754968
 20
2.5755614677
 30
0.0
 10
8.4664487598
 20
2.5755119589
 30
0.0
 10
8.4626422934
 20
2.5754666502
 30
0.0
 10
8.459487555
 20
2.5754247011
 30
0.0
 10
8.4572734624
 20
2.5753937646
 30
0.0
 10
8.4558524974
 20
2.5753671349
 30
0.0
 10
8.4550379558
 20
2.5753567562
 30
0.0
 10
8.4544319149
 20
2.5753297067
 30
0.0
 10
8.4539311942
 20
2.5753468793
 30
0.0
 10
8.4537508177
 20
2.5752847455
 30
0.0
 10
8.4535393361
 20
2.5753303571
 30
0.0
 10
8.4535476464
 20
2.5753018644
 30
0.0
  0
SPLINE
  5
39E
100
AcDbEntity
  8
0
100
AcDbSpline
 62
7
  6
CONTINUOUS
 70
0
 71
3
 72
27
 73
23
 74
0
 42
0.0000001
 43
0.0000001
 44
0.0000000001
 40
0.0
 40
0.0
 40
0.0
 40
0.0
 40
0.1107888544
 40
0.2590937779
 40
0.4291608733
 40
0.5167457399
 40
0.6029162985
 40
0.6853778694
 40
0.7619264571
 40
0.8305200098
 40
0.8893254842
 40
0.9145521689
 40
0.9367755849
 40
0.955834463
 40
0.9715880141
 40
0.9839520293
 40
0.9888397041
 40
0.9928521125
 40
0.995980021
 40
0.9982146291
 40
0.9995529015
 40
1.0
 40
1.0
 40
1.0
 40
1.0
 10
8.3526172358
 20
2.5767064695
 30
0.0
 10
8.3462414819
 20
2.576705762
 30
0.0
 10
8.3313309953
 20
2.5766647879
 30
0.0
 10
8.3066336031
 20
2.5765528344
 30
0.0
 10
8.2832717195
 20
2.576413398
 30
0.0
 10
8.2634856489
 20
2.576277452
 30
0.0
 10
8.2487411098
 20
2.5761667545
 30
0.0
 10
8.2346317499
 20
2.5760513118
 30
0.0
 10
8.2215339779
 20
2.5759342608
 30
0.0
 10
8.2097976165
 20
2.5758187341
 30
0.0
 10
8.2010147572
 20
2.5757222123
 30
0.0
 10
8.1949003079
 20
2.5756470211
 30
0.0
 10
8.1910732437
 20
2.5755958077
 30
0.0
 10
8.1877909634
 20
2.5755475709
 30
0.0
 10
8.1850772321
 20
2.575501725
 30
0.0
 10
8.1831762496
 20
2.5754657478
 30
0.0
 10
8.181955834
 20
2.575435233
 30
0.0
 10
8.1812576306
 20
2.5754199461
 30
0.0
 10
8.1807346151
 20
2.575393002
 30
0.0
 10
8.1803126375
 20
2.5753976608
 30
0.0
 10
8.1801459687
 20
2.5753469185
 30
0.0
 10
8.1799771993
 20
2.5753737549
 30
0.0
 10
8.1799801107
 20
2.5753481902
 30
0.0
  0
SPLINE
  5
39F
100
AcDbEntity
  8
0
100
AcDbSpline
 62
7
  6
CONTINUOUS
 70
0
 71
3
 72
22
 73
18
 74
0
 42
0.0000001
 43
0.0000001
 44
0.0000000001
 40
0.0
 40
0.0
 40
0.0
 40
0.0
 40
0.0011829144
 40
0.0046630962
 40
0.0104569568
 40
0.0185636073
 40
0.0289779653
 40
0.0416748019
 40
0.0737734581
 40
0.1145736289
 40
0.1637859297
 40
0.2210177064
 40
0.2857442525
 40
0.4355302346
 40
0.6083809837
 40
0.7988535427
 40
1.0
 40
1.0
 40
1.0
 40
1.0
 10
5.8756213636
 20
2.5640350649
 30
0.0
 10
5.8756230398
 20
2.5640635899
 30
0.0
 10
5.8754441013
 20
2.5640444362
 30
0.0
 10
5.8752563571
 20
2.5640955049
 30
0.0
 10
5.8748004375
 20
2.5640964545
 30
0.0
 10
5.874229556
 20
2.5641247544
 30
0.0
 10
5.8734694877
 20
2.5641415733
 30
0.0
 10
5.8721391179
 20
2.5641718114
 30
0.0
 10
5.8700698246
 20
2.5642041018
 30
0.0
 10
5.8671211887
 20
2.5642408395
 30
0.0
 10
5.863564263
 20
2.5642750298
 30
0.0
 10
5.8594297307
 20
2.5643071656
 30
0.0
 10
5.8528656336
 20
2.5643485249
 30
0.0
 10
5.8435086978
 20
2.5643906513
 30
0.0
 10
5.8311142014
 20
2.5644264535
 30
0.0
 10
5.8174790321
 20
2.5644480043
 30
0.0
 10
5.8080191825
 20
2.5644523915
 30
0.0
 10
5.8031603406
 20
2.5644520841
 30
0.0
  0
SPLINE
  5
3A0
100
AcDbEntity
  8
0
100
AcDbSpline
 62
7
  6
CONTINUOUS
 70
0
 71
3
 72
26
 73
22
 74
0
 42
0.0000001
 43
0.0000001
 44
0.0000000001
 40
0.0
 40
0.0
 40
0.0
 40
0.0
 40
0.133036713
 40
0.2924882897
 40
0.4639609419
 40
0.5493901097
 40
0.6320355324
 40
0.7100153521
 40
0.7815872271
 40
0.8451140044
 40
0.8991752839
 40
0.9222683729
 40
0.9425403571
 40
0.9598902021
 40
0.974229092
 40
0.9854682958
 40
0.9935256778
 40
0.9963495938
 40
0.998368908
 40
0.9995834427
 40
1.0
 40
1.0
 40
1.0
 40
1.0
 10
7.9458950319
 20
2.5766801839
 30
0.0
 10
7.9387434467
 20
2.5766794179
 30
0.0
 10
7.9230203135
 20
2.5766485624
 30
0.0
 10
7.8980795856
 20
2.5765524076
 30
0.0
 10
7.8756982135
 20
2.5764305532
 30
0.0
 10
7.8574457445
 20
2.5763102891
 30
0.0
 10
7.8442190854
 20
2.5762124305
 30
0.0
 10
7.8317374154
 20
2.5761089933
 30
0.0
 10
7.8202835516
 20
2.5760024453
 30
0.0
 10
7.8101155691
 20
2.5758951652
 30
0.0
 10
7.8025535317
 20
2.5758032929
 30
0.0
 10
7.7973168591
 20
2.5757298945
 30
0.0
 10
7.7940531609
 20
2.575679305
 30
0.0
 10
7.7912611678
 20
2.5756298776
 30
0.0
 10
7.7889517281
 20
2.5755841752
 30
0.0
 10
7.7871499841
 20
2.5755368954
 30
0.0
 10
7.7859492511
 20
2.5755059094
 30
0.0
 10
7.7852727853
 20
2.5754675058
 30
0.0
 10
7.7849207007
 20
2.5754619814
 30
0.0
 10
7.7847730031
 20
2.5754218451
 30
0.0
 10
7.7846358751
 20
2.5754331296
 30
0.0
 10
7.7846367018
 20
2.5754107523
 30
0.0
  0
SPLINE
  5
3A1
100
AcDbEntity
  8
0
100
AcDbSpline
 62
7
  6
CONTINUOUS
 70
0
 71
3
 72
26
 73
22
 74
0
 42
0.0000001
 43
0.0000001
 44
0.0000000001
 40
0.0
 40
0.0
 40
0.0
 40
0.0
 40
0.1522258549
 40
0.3208880598
 40
0.4931818738
 40
0.5766697423
 40
0.6562453035
 40
0.7304318705
 40
0.7978030835
 40
0.8571248276
 40
0.9072486752
 40
0.9285601202
 40
0.9472454917
 40
0.9632118462
 40
0.9763682525
 40
0.9866555677
 40
0.9940407171
 40
0.9966352139
 40
0.9984928787
 40
0.9996114974
 40
1.0
 40
1.0
 40
1.0
 40
1.0
 10
7.431666215
 20
2.5766433337
 30
0.0
 10
7.4242125678
 20
2.5766425415
 30
0.0
 10
7.4085004791
 20
2.5766189135
 30
0.0
 10
7.3843522515
 20
2.5765381642
 30
0.0
 10
7.3635698626
 20
2.5764337631
 30
0.0
 10
7.3471496262
 20
2.5763295607
 30
0.0
 10
7.3355331307
 20
2.5762446498
 30
0.0
 10
7.3247058494
 20
2.5761539831
 30
0.0
 10
7.3148703511
 20
2.5760591576
 30
0.0
 10
7.3062131844
 20
2.5759621656
 30
0.0
 10
7.2998112431
 20
2.5758773474
 30
0.0
 10
7.2953991719
 20
2.5758081715
 30
0.0
 10
7.2926591711
 20
2.5757598909
 30
0.0
 10
7.2903194107
 20
2.5757122363
 30
0.0
 10
7.2883884233
 20
2.5756667776
 30
0.0
 10
7.2868843101
 20
2.5756205591
 30
0.0
 10
7.2858827397
 20
2.5755859898
 30
0.0
 10
7.2853173328
 20
2.5755498289
 30
0.0
 10
7.2850232247
 20
2.575537241
 30
0.0
 10
7.2848986157
 20
2.5755063604
 30
0.0
 10
7.2847845427
 20
2.5755054546
 30
0.0
 10
7.2847861395
 20
2.5754864989
 30
0.0
  0
SPLINE
  5
3A2
100
AcDbEntity
  8
0
100
AcDbSpline
 62
7
  6
CONTINUOUS
 70
0
 71
3
 72
21
 73
17
 74
0
 42
0.0000001
 43
0.0000001
 44
0.0000000001
 40
0.0
 40
0.0
 40
0.0
 40
0.0
 40
0.2051878047
 40
0.3973638212
 40
0.5701812978
 40
0.7188438332
 40
0.7827777106
 40
0.839180597
 40
0.8876178377
 40
0.9276866748
 40
0.9591411407
 40
0.9817844225
 40
0.9897413676
 40
0.9954247366
 40
0.9988297843
 40
1.0
 40
1.0
 40
1.0
 40
1.0
 10
4.7979346578
 20
2.5764278305
 30
0.0
 10
4.7929238852
 20
2.5764272562
 30
0.0
 10
4.7832200951
 20
2.5764195455
 30
0.0
 10
4.7692960467
 20
2.5763880874
 30
0.0
 10
4.7567524763
 20
2.5763379047
 30
0.0
 10
4.7473405893
 20
2.5762798285
 30
0.0
 10
4.7407718984
 20
2.5762228823
 30
0.0
 10
4.7366502537
 20
2.576179024
 30
0.0
 10
4.7331128489
 20
2.5761316338
 30
0.0
 10
4.7301808891
 20
2.5760830477
 30
0.0
 10
4.7278893524
 20
2.576028818
 30
0.0
 10
4.7263589895
 20
2.5759870727
 30
0.0
 10
4.7254949912
 20
2.5759383643
 30
0.0
 10
4.7250448502
 20
2.5759225959
 30
0.0
 10
4.724856976
 20
2.575877381
 30
0.0
 10
4.7246823658
 20
2.5758772179
 30
0.0
 10
4.7246853633
 20
2.5758487984
 30
0.0
  0
SPLINE
  5
3A3
100
AcDbEntity
  8
0
100
AcDbSpline
 62
7
  6
CONTINUOUS
 70
0
 71
3
 72
21
 73
17
 74
0
 42
0.0000001
 43
0.0000001
 44
0.0000000001
 40
0.0
 40
0.0
 40
0.0
 40
0.0
 40
0.0011374139
 40
0.0044490829
 40
0.0099503821
 40
0.0176361567
 40
0.0395304543
 40
0.0700625379
 40
0.1090597602
 40
0.1562455625
 40
0.2113384145
 40
0.2740558775
 40
0.4209548341
 40
0.5936982851
 40
0.7884705722
 40
1.0
 40
1.0
 40
1.0
 40
1.0
 10
6.4650540663
 20
2.564195106
 30
0.0
 10
6.4650548564
 20
2.5642152442
 30
0.0
 10
6.4649315497
 20
2.5642054977
 30
0.0
 10
6.4647987375
 20
2.564240122
 30
0.0
 10
6.4644825924
 20
2.5642436551
 30
0.0
 10
6.4638760655
 20
2.5642738502
 30
0.0
 10
6.4628003605
 20
2.5642943669
 30
0.0
 10
6.4611858972
 20
2.5643249502
 30
0.0
 10
6.4591159866
 20
2.564350573
 30
0.0
 10
6.4566135818
 20
2.5643760135
 30
0.0
 10
6.4536898867
 20
2.5643991185
 30
0.0
 10
6.4489997333
 20
2.5644289656
 30
0.0
 10
6.4422247511
 20
2.5644588459
 30
0.0
 10
6.4331099626
 20
2.5644839789
 30
0.0
 10
6.4228499407
 20
2.564498895
 30
0.0
 10
6.415650737
 20
2.5645017943
 30
0.0
 10
6.4119026758
 20
2.5645015761
 30
0.0
  0
SPLINE
  5
3A4
100
AcDbEntity
  8
0
100
AcDbSpline
 62
7
  6
CONTINUOUS
 70
0
 71
3
 72
23
 73
19
 74
0
 42
0.0000001
 43
0.0000001
 44
0.0000000001
 40
0.0
 40
0.0
 40
0.0
 40
0.0
 40
0.1687596481
 40
0.3450617969
 40
0.5177825837
 40
0.5995280274
 40
0.6764682211
 40
0.7474102359
 40
0.8112848505
 40
0.8670683896
 40
0.9139432253
 40
0.9511646988
 40
0.9659591598
 40
0.9781452482
 40
0.9876790839
 40
0.9945172902
 40
0.998621286
 40
1.0
 40
1.0
 40
1.0
 40
1.0
 10
6.8324050521
 20
2.5765975296
 30
0.0
 10
6.8250845667
 20
2.576596748
 30
0.0
 10
6.810116416
 20
2.576578583
 30
0.0
 10
6.7876560406
 20
2.5765121512
 30
0.0
 10
6.7689702912
 20
2.576424737
 30
0.0
 10
6.7545947479
 20
2.5763363904
 30
0.0
 10
6.7446341966
 20
2.576264432
 30
0.0
 10
6.7354488342
 20
2.5761867222
 30
0.0
 10
6.7271815559
 20
2.576104474
 30
0.0
 10
6.7199575342
 20
2.5760195176
 30
0.0
 10
6.7138922024
 20
2.5759316808
 30
0.0
 10
6.7095989749
 20
2.5758572386
 30
0.0
 10
6.7068212272
 20
2.5757900562
 30
0.0
 10
6.705224092
 20
2.5757537946
 30
0.0
 10
6.7040218998
 20
2.5756926158
 30
0.0
 10
6.7030529555
 20
2.5756948459
 30
0.0
 10
6.7026631321
 20
2.5755834394
 30
0.0
 10
6.7022778118
 20
2.575631619
 30
0.0
 10
6.7022836455
 20
2.5755720981
 30
0.0
  0
SPLINE
  5
3A5
100
AcDbEntity
  8
0
100
AcDbSpline
 62
7
  6
CONTINUOUS
 70
0
 71
3
 72
22
 73
18
 74
0
 42
0.0000001
 43
0.0000001
 44
0.0000000001
 40
0.0
 40
0.0
 40
0.0
 40
0.0
 40
0.0012435274
 40
0.0049570612
 40
0.0111592477
 40
0.0198298953
 40
0.0309336603
 40
0.0444346389
 40
0.0784838825
 40
0.1216536273
 40
0.1734258057
 40
0.2332152969
 40
0.3004032905
 40
0.4537571154
 40
0.6266572607
 40
0.8116504383
 40
1.0
 40
1.0
 40
1.0
 40
1.0
 10
5.2683475803
 20
2.5638680103
 30
0.0
 10
5.2683518114
 20
2.5639060619
 30
0.0
 10
5.2681026675
 20
2.5638723221
 30
0.0
 10
5.2678537176
 20
2.5639437725
 30
0.0
 10
5.2672283094
 20
2.5639388811
 30
0.0
 10
5.2664525583
 20
2.5639757125
 30
0.0
 10
5.2654192332
 20
2.5639953716
 30
0.0
 10
5.2636180261
 20
2.564033086
 30
0.0
 10
5.2608224201
 20
2.5640732316
 30
0.0
 10
5.256852459
 20
2.5641197952
 30
0.0
 10
5.2520883187
 20
2.5641636507
 30
0.0
 10
5.2465852137
 20
2.5642054162
 30
0.0
 10
5.237954395
 20
2.5642592697
 30
0.0
 10
5.225841134
 20
2.5643150985
 30
0.0
 10
5.2101007538
 20
2.5643632968
 30
0.0
 10
5.1932828821
 20
2.5643927947
 30
0.0
 10
5.1817882866
 20
2.5643991968
 30
0.0
 10
5.1759893213
 20
2.5643988091
 30
0.0
  0
SPLINE
  5
3A6
100
AcDbEntity
  8
0
100
AcDbSpline
 62
7
  6
CONTINUOUS
 70
0
 71
3
 72
23
 73
19
 74
0
 42
0.0000001
 43
0.0000001
 44
0.0000000001
 40
0.0
 40
0.0
 40
0.0
 40
0.0
 40
0.1829419893
 40
0.3655793118
 40
0.5384684281
 40
0.6186431586
 40
0.6933185217
 40
0.7615262412
 40
0.822427756
 40
0.8753028244
 40
0.9194539934
 40
0.9543656619
 40
0.9682280916
 40
0.9796267335
 40
0.98851419
 40
0.9948711172
 40
0.9986937208
 40
1.0
 40
1.0
 40
1.0
 40
1.0
 10
6.1743021314
 20
2.5765447734
 30
0.0
 10
6.1674884578
 20
2.5765440353
 30
0.0
 10
6.1538724569
 20
2.5765301498
 30
0.0
 10
6.1338172645
 20
2.5764767266
 30
0.0
 10
6.1175897247
 20
2.5764054217
 30
0.0
 10
6.1053832894
 20
2.5763324188
 30
0.0
 10
6.0970757276
 20
2.5762729899
 30
0.0
 10
6.0894859944
 20
2.5762082576
 30
0.0
 10
6.0827084973
 20
2.5761389071
 30
0.0
 10
6.0768264462
 20
2.5760665452
 30
0.0
 10
6.071914335
 20
2.5759907429
 30
0.0
 10
6.0684508193
 20
2.5759248699
 30
0.0
 10
6.0662152681
 20
2.5758656207
 30
0.0
 10
6.0649336907
 20
2.5758314969
 30
0.0
 10
6.0639688176
 20
2.5757798763
 30
0.0
 10
6.0631990559
 20
2.5757719717
 30
0.0
 10
6.0628792485
 20
2.5756860309
 30
0.0
 10
6.062578068
 20
2.5757122758
 30
0.0
 10
6.0625806735
 20
2.5756636932
 30
0.0
  0
SPLINE
  5
3A7
100
AcDbEntity
  8
0
100
AcDbSpline
 62
7
  6
CONTINUOUS
 70
0
 71
3
 72
21
 73
17
 74
0
 42
0.0000001
 43
0.0000001
 44
0.0000000001
 40
0.0
 40
0.0
 40
0.0
 40
0.0
 40
0.2136014385
 40
0.4092199018
 40
0.5819547155
 40
0.7282722927
 40
0.7906019289
 40
0.8452662351
 40
0.8920236105
 40
0.9306411481
 40
0.9608864038
 40
0.9825541924
 40
0.9901477813
 40
0.995578559
 40
0.9988492539
 40
1.0
 40
1.0
 40
1.0
 40
1.0
 10
4.139823968
 20
2.5763687548
 30
0.0
 10
4.1359173038
 20
2.5763682863
 30
0.0
 10
4.1284328764
 20
2.5763628281
 30
0.0
 10
4.117789226
 20
2.5763401681
 30
0.0
 10
4.1083762395
 20
2.5763038356
 30
0.0
 10
4.1014010134
 20
2.5762613796
 30
0.0
 10
4.0965854518
 20
2.5762194202
 30
0.0
 10
4.0935904674
 20
2.576186925
 30
0.0
 10
4.0910301339
 20
2.5761515848
 30
0.0
 10
4.0889139188
 20
2.5761149987
 30
0.0
 10
4.0872635218
 20
2.5760742772
 30
0.0
 10
4.0861655131
 20
2.5760416169
 30
0.0
 10
4.0855455432
 20
2.5760049203
 30
0.0
 10
4.0852256143
 20
2.575990927
 30
0.0
 10
4.0850867341
 20
2.5759585595
 30
0.0
 10
4.0849643855
 20
2.575955295
 30
0.0
 10
4.084965396
 20
2.5759342727
 30
0.0
  0
SPLINE
  5
3A8
100
AcDbEntity
  8
0
100
AcDbSpline
 62
7
  6
CONTINUOUS
 70
0
 71
3
 72
22
 73
18
 74
0
 42
0.0000001
 43
0.0000001
 44
0.0000000001
 40
0.0
 40
0.0
 40
0.0
 40
0.0
 40
0.2010160592
 40
0.3914334356
 40
0.5642851085
 40
0.7141073028
 40
0.7788593239
 40
0.8361174307
 40
0.8853545811
 40
0.9261786827
 40
0.9582978065
 40
0.9710026637
 40
0.9814231436
 40
0.9895348402
 40
0.9953328032
 40
0.9988158388
 40
1.0
 40
1.0
 40
1.0
 40
1.0
 10
5.1759893213
 20
2.5643988092
 30
0.0
 10
5.1711186862
 20
2.5643982894
 30
0.0
 10
5.1616342219
 20
2.5643922717
 30
0.0
 10
5.1479615692
 20
2.5643683176
 30
0.0
 10
5.1355293729
 20
2.5643302737
 30
0.0
 10
5.1261421319
 20
2.5642864054
 30
0.0
 10
5.1195557086
 20
2.5642437912
 30
0.0
 10
5.1154066005
 20
2.5642108464
 30
0.0
 10
5.1118369148
 20
2.564175941
 30
0.0
 10
5.1088775321
 20
2.564138589
 30
0.0
 10
5.1068006074
 20
2.5641058564
 30
0.0
 10
5.1054653073
 20
2.5640753045
 30
0.0
 10
5.1047024426
 20
2.5640583198
 30
0.0
 10
5.1041294259
 20
2.5640298227
 30
0.0
 10
5.1036718365
 20
2.5640288558
 30
0.0
 10
5.1034832888
 20
2.563977514
 30
0.0
 10
5.10330372
 20
2.5639968138
 30
0.0
 10
5.1033053628
 20
2.5639681686
 30
0.0
  0
SPLINE
  5
3A9
100
AcDbEntity
  8
0
100
AcDbSpline
 62
7
  6
CONTINUOUS
 70
0
 71
3
 72
18
 73
14
 74
0
 42
0.0000001
 43
0.0000001
 44
0.0000000001
 40
0.0
 40
0.0
 40
0.0
 40
0.0
 40
0.220395164
 40
0.4186587954
 40
0.5913776253
 40
0.7357998238
 40
0.8501942339
 40
0.8956184829
 40
0.9329677245
 40
0.9621544547
 40
0.9830984004
 40
0.9957241657
 40
1.0
 40
1.0
 40
1.0
 40
1.0
 10
3.5405502342
 20
2.5763127256
 30
0.0
 10
3.537749583
 20
2.5763123677
 30
0.0
 10
3.5324294677
 20
2.576308761
 30
0.0
 10
3.5249147891
 20
2.5762933056
 30
0.0
 10
3.518364823
 20
2.5762691481
 30
0.0
 10
3.5128827886
 20
2.576234926
 30
0.0
 10
3.5090131645
 20
2.5762009249
 30
0.0
 10
3.5065135821
 20
2.5761625134
 30
0.0
 10
3.5050790748
 20
2.5761435171
 30
0.0
 10
3.5039989737
 20
2.5760979028
 30
0.0
 10
3.5031309239
 20
2.5761112902
 30
0.0
 10
3.502776144
 20
2.57601106
 30
0.0
 10
3.5024313185
 20
2.5760642473
 30
0.0
 10
3.5024343583
 20
2.5760099976
 30
0.0
  0
LINE
  5
3AA
100
AcDbEntity
  8
0
100
AcDbLine
 62
7
  6
CONTINUOUS
 10
4.0111095604
 20
2.5642933344
 11
3.9753759039
 21
2.564080636
  0
SPLINE
  5
3AB
100
AcDbEntity
  8
0
100
AcDbSpline
 62
7
  6
CONTINUOUS
 70
0
 71
3
 72
23
 73
19
 74
0
 42
0.0000001
 43
0.0000001
 44
0.0000000001
 40
0.0
 40
0.0
 40
0.0
 40
0.0
 40
0.0013459938
 40
0.0053786908
 40
0.0120810681
 40
0.0214218602
 40
0.0333686821
 40
0.0478888453
 40
0.0844526721
 40
0.1305286316
 40
0.1854651517
 40
0.2484798082
 40
0.3186220599
 40
0.3949091719
 40
0.4762037286
 40
0.6489799085
 40
0.8271297578
 40
1.0
 40
1.0
 40
1.0
 40
1.0
 10
4.6785252265
 20
2.5637036294
 30
0.0
 10
4.6785311435
 20
2.5637533916
 30
0.0
 10
4.6782005924
 20
2.5636960976
 30
0.0
 10
4.6778778432
 20
2.5637940432
 30
0.0
 10
4.6770590068
 20
2.5637783711
 30
0.0
 10
4.6760488392
 20
2.5638244275
 30
0.0
 10
4.6747038245
 20
2.5638454264
 30
0.0
 10
4.6723632014
 20
2.5638898399
 30
0.0
 10
4.668742454
 20
2.5639366427
 30
0.0
 10
4.6636222096
 20
2.5639927509
 30
0.0
 10
4.6575149839
 20
2.5640461247
 30
0.0
 10
4.6505124303
 20
2.5640976387
 30
0.0
 10
4.6427146937
 20
2.5641459234
 30
0.0
 10
4.6342364179
 20
2.564190311
 30
0.0
 10
4.6219369495
 20
2.5642445257
 30
0.0
 10
4.6058449933
 20
2.5642973705
 30
0.0
 10
4.5863435237
 20
2.564336147
 30
0.0
 10
4.573274664
 20
2.5643452941
 30
0.0
 10
4.5668385177
 20
2.5643448471
 30
0.0
  0
SPLINE
  5
3AC
100
AcDbEntity
  8
0
100
AcDbSpline
 62
7
  6
CONTINUOUS
 70
0
 71
3
 72
21
 73
17
 74
0
 42
0.0000001
 43
0.0000001
 44
0.0000000001
 40
0.0
 40
0.0
 40
0.0
 40
0.0
 40
0.0011701752
 40
0.0045751833
 40
0.0102584963
 40
0.0182153527
 40
0.0408583751
 40
0.0723125182
 40
0.1123810245
 40
0.1608178623
 40
0.2172202796
 40
0.2811537372
 40
0.4298158621
 40
0.6026335401
 40
0.7948105072
 40
1.0
 40
1.0
 40
1.0
 40
1.0
 10
6.2475482317
 20
2.5759781807
 30
0.0
 10
6.2475512248
 20
2.5760065984
 30
0.0
 10
6.2473766194
 20
2.5760067199
 30
0.0
 10
6.2471887536
 20
2.5760519025
 30
0.0
 10
6.2467386315
 20
2.5760675837
 30
0.0
 10
6.245874675
 20
2.5761161364
 30
0.0
 10
6.2443443887
 20
2.5761576075
 30
0.0
 10
6.2420529685
 20
2.5762114346
 30
0.0
 10
6.2391211578
 20
2.5762595086
 30
0.0
 10
6.2355839335
 20
2.5763062849
 30
0.0
 10
6.2314624982
 20
2.5763494306
 30
0.0
 10
6.2248941247
 20
2.5764052448
 30
0.0
 10
6.2154826666
 20
2.5764617054
 30
0.0
 10
6.202939634
 20
2.5765097424
 30
0.0
 10
6.1890161373
 20
2.5765388242
 30
0.0
 10
6.1793127182
 20
2.5765448834
 30
0.0
 10
6.1743021297
 20
2.5765446064
 30
0.0
  0
LINE
  5
3AD
100
AcDbEntity
  8
0
100
AcDbLine
 62
7
  6
CONTINUOUS
 10
3.184123308
 20
2.5642093146
 11
3.1825780031
 21
2.5642086408
  0
LINE
  5
3AE
100
AcDbEntity
  8
0
100
AcDbLine
 62
7
  6
CONTINUOUS
 10
3.0263045944
 20
2.5762621915
 11
3.0025583175
 21
2.5760726953
  0
LINE
  5
3AF
100
AcDbEntity
  8
0
100
AcDbLine
 62
7
  6
CONTINUOUS
 10
7.0023873281
 20
2.5643388382
 11
6.9668384348
 21
2.5645444087
  0
LINE
  5
3B0
100
AcDbEntity
  8
0
100
AcDbLine
 62
7
  6
CONTINUOUS
 10
2.6195620505
 20
2.5762193612
 11
2.6071748676
 21
2.5761196914
  0
SPLINE
  5
3B1
100
AcDbEntity
  8
0
100
AcDbSpline
 62
7
  6
CONTINUOUS
 70
0
 71
3
 72
21
 73
17
 74
0
 42
0.0000001
 43
0.0000001
 44
0.0000000001
 40
0.0
 40
0.0
 40
0.0
 40
0.0
 40
0.0011506895
 40
0.0044213321
 40
0.0098520493
 40
0.0174455713
 40
0.0391132205
 40
0.0693582256
 40
0.1079753844
 40
0.1547323497
 40
0.2093963116
 40
0.2717257129
 40
0.4180429872
 40
0.590778039
 40
0.7863972209
 40
1.0
 40
1.0
 40
1.0
 40
1.0
 10
6.8872606246
 20
2.5761723281
 30
0.0
 10
6.8872616322
 20
2.5761933483
 30
0.0
 10
6.8871392875
 20
2.576196583
 30
0.0
 10
6.8870004166
 20
2.5762289255
 30
0.0
 10
6.8866805036
 20
2.5762428561
 30
0.0
 10
6.8860605684
 20
2.5762794399
 30
0.0
 10
6.8849626226
 20
2.5763119022
 30
0.0
 10
6.8833123255
 20
2.5763523327
 30
0.0
 10
6.8811962415
 20
2.5763885484
 30
0.0
 10
6.8786360661
 20
2.5764234435
 30
0.0
 10
6.875641262
 20
2.5764554203
 30
0.0
 10
6.8708259791
 20
2.5764965492
 30
0.0
 10
6.8638511422
 20
2.5765378077
 30
0.0
 10
6.8544386649
 20
2.5765725295
 30
0.0
 10
6.8437955651
 20
2.5765933731
 30
0.0
 10
6.8363115185
 20
2.5765975578
 30
0.0
 10
6.8324050487
 20
2.5765973626
 30
0.0
  0
LINE
  5
3B2
100
AcDbEntity
  8
0
100
AcDbLine
 62
7
  6
CONTINUOUS
 10
2.3380992036
 20
2.5761861065
 11
2.3335739189
 21
2.5761490351
  0
LINE
  5
3B3
100
AcDbEntity
  8
0
100
AcDbLine
 62
7
  6
CONTINUOUS
 10
3.9753327336
 20
2.5638599363
 11
3.9697339149
 21
2.5640199223
  0
SPLINE
  5
3B4
100
AcDbEntity
  8
0
100
AcDbSpline
 62
7
  6
CONTINUOUS
 70
0
 71
3
 72
18
 73
14
 74
0
 42
0.0000001
 43
0.0000001
 44
0.0000000001
 40
0.0
 40
0.0
 40
0.0
 40
0.0
 40
0.0042758351
 40
0.0169014482
 40
0.0378451406
 40
0.0670315887
 40
0.1043805941
 40
0.1498046775
 40
0.2641986924
 40
0.4086207029
 40
0.58133977
 40
0.7796038618
 40
1.0
 40
1.0
 40
1.0
 40
1.0
 10
7.4697794165
 20
2.5763470089
 30
0.0
 10
7.4697824381
 20
2.5764012557
 30
0.0
 10
7.4694376667
 20
2.5763479953
 30
0.0
 10
7.469082881
 20
2.5764481641
 30
0.0
 10
7.4682149148
 20
2.5764346168
 30
0.0
 10
7.4671348882
 20
2.5764800411
 30
0.0
 10
7.4657004905
 20
2.5764987849
 30
0.0
 10
7.4632010894
 20
2.5765367613
 30
0.0
 10
7.459331746
 20
2.5765700937
 30
0.0
 10
7.4538501017
 20
2.576603374
 30
0.0
 10
7.4473005931
 20
2.5766264101
 30
0.0
 10
7.4397864276
 20
2.5766405831
 30
0.0
 10
7.4344666736
 20
2.5766432847
 30
0.0
 10
7.4316662101
 20
2.5766431667
 30
0.0
  0
LINE
  5
3B5
100
AcDbEntity
  8
0
100
AcDbLine
 62
7
  6
CONTINUOUS
 10
3.6853317572
 20
2.5634204163
 11
3.6819446534
 21
2.5635254542
  0
LINE
  5
3B6
100
AcDbEntity
  8
0
100
AcDbLine
 62
7
  6
CONTINUOUS
 10
7.9696390888
 20
2.5764946194
 11
7.9458950256
 21
2.5766800168
  0
SPLINE
  5
3B7
100
AcDbEntity
  8
0
100
AcDbSpline
 62
7
  6
CONTINUOUS
 70
0
 71
3
 72
27
 73
23
 74
0
 42
0.0000001
 43
0.0000001
 44
0.0000000001
 40
0.0
 40
0.0
 40
0.0
 40
0.0
 40
0.0004550069
 40
0.001819648
 40
0.0040956253
 40
0.0072825716
 40
0.0113745927
 40
0.016360839
 40
0.0289717793
 40
0.0450268755
 40
0.0644358995
 40
0.0870674218
 40
0.1127469343
 40
0.1725399081
 40
0.2421925842
 40
0.319771322
 40
0.4031557946
 40
0.4900411681
 40
0.5780482732
 40
0.747761519
 40
0.8937280377
 40
1.0
 40
1.0
 40
1.0
 40
1.0
 10
3.3396861514
 20
2.5633181087
 30
0.0
 10
3.3396883127
 20
2.5633416042
 30
0.0
 10
3.3395328237
 20
2.563306792
 30
0.0
 10
3.3393799097
 20
2.5633561967
 30
0.0
 10
3.3389921835
 20
2.5633435224
 30
0.0
 10
3.3385117867
 20
2.5633650686
 30
0.0
 10
3.3378700986
 20
2.5633732501
 30
0.0
 10
3.3367482845
 20
2.5633937083
 30
0.0
 10
3.3350016038
 20
2.5634165032
 30
0.0
 10
3.3325095829
 20
2.5634465325
 30
0.0
 10
3.3294968862
 20
2.5634779408
 30
0.0
 10
3.3259854688
 20
2.5635114752
 30
0.0
 10
3.3203798426
 20
2.5635607763
 30
0.0
 10
3.3123359967
 20
2.5636243253
 30
0.0
 10
3.3016008721
 20
2.5637006061
 30
0.0
 10
3.2896423861
 20
2.5637780949
 30
0.0
 10
3.2767902606
 20
2.5638546017
 30
0.0
 10
3.2633973396
 20
2.5639280184
 30
0.0
 10
3.2455278083
 20
2.56401792
 30
0.0
 10
3.2245945556
 20
2.5641098775
 30
0.0
 10
3.202714095
 20
2.5641831288
 30
0.0
 10
3.1896341107
 20
2.5642097062
 30
0.0
 10
3.1841233079
 20
2.5642093148
 30
0.0
  0
SPLINE
  5
3B8
100
AcDbEntity
  8
0
100
AcDbSpline
 62
7
  6
CONTINUOUS
 70
0
 71
3
 72
27
 73
23
 74
0
 42
0.0000001
 43
0.0000001
 44
0.0000000001
 40
0.0
 40
0.0
 40
0.0
 40
0.0
 40
0.0004932444
 40
0.0019904146
 40
0.0044853219
 40
0.0079704118
 40
0.0124379813
 40
0.0178802873
 40
0.03165666
 40
0.0491927635
 40
0.0703314617
 40
0.0949127675
 40
0.122766035
 40
0.1873449561
 40
0.2620509459
 40
0.3445506044
 40
0.4322875538
 40
0.5225216796
 40
0.6124502135
 40
0.7802855062
 40
0.9150249467
 40
1.0
 40
1.0
 40
1.0
 40
1.0
 10
2.5186078891
 20
2.5747977558
 30
0.0
 10
2.5186161922
 20
2.5748262501
 30
0.0
 10
2.5184047272
 20
2.5747806003
 30
0.0
 10
2.5182243387
 20
2.5748427036
 30
0.0
 10
2.5177236346
 20
2.5748254437
 30
0.0
 10
2.5171176015
 20
2.5748523884
 30
0.0
 10
2.5163030776
 20
2.5748626262
 30
0.0
 10
2.5148821424
 20
2.5748890105
 30
0.0
 10
2.5126680986
 20
2.574919565
 30
0.0
 10
2.5095134302
 20
2.5749609704
 30
0.0
 10
2.5057070497
 20
2.5750056236
 30
0.0
 10
2.5012804151
 20
2.5750543704
 30
0.0
 10
2.4942398203
 20
2.5751273174
 30
0.0
 10
2.4841833056
 20
2.5752239119
 30
0.0
 10
2.4708386389
 20
2.5753428645
 30
0.0
 10
2.4561005133
 20
2.5754661385
 30
0.0
 10
2.4404279986
 20
2.5755897766
 30
0.0
 10
2.4243084369
 20
2.5757100659
 30
0.0
 10
2.4033692816
 20
2.5758572217
 30
0.0
 10
2.37975212
 20
2.5760100025
 30
0.0
 10
2.3564328855
 20
2.5761319204
 30
0.0
 10
2.3432123162
 20
2.5761861775
 30
0.0
 10
2.3380992117
 20
2.5761859395
 30
0.0
  0
SPLINE
  5
3B9
100
AcDbEntity
  8
0
100
AcDbSpline
 62
7
  6
CONTINUOUS
 70
0
 71
3
 72
27
 73
23
 74
0
 42
0.0000001
 43
0.0000001
 44
0.0000000001
 40
0.0
 40
0.0
 40
0.0
 40
0.0
 40
0.0004471087
 40
0.0017853753
 40
0.00401996
 40
0.007147832
 40
0.0111601901
 40
0.0160477997
 40
0.0284116334
 40
0.0441649254
 40
0.0632234623
 40
0.0854464755
 40
0.1106727202
 40
0.1694772771
 40
0.2380698784
 40
0.3146175742
 40
0.3970783152
 40
0.4832481172
 40
0.5708324219
 40
0.7408996616
 40
0.8892068922
 40
1.0
 40
1.0
 40
1.0
 40
1.0
 10
2.7921977359
 20
2.5748905645
 30
0.0
 10
2.7922006369
 20
2.5749161307
 30
0.0
 10
2.7920318865
 20
2.5748892579
 30
0.0
 10
2.791865198
 20
2.5749399747
 30
0.0
 10
2.7914432371
 20
2.5749352386
 30
0.0
 10
2.7909202247
 20
2.574962092
 30
0.0
 10
2.7902220356
 20
2.5749772564
 30
0.0
 10
2.7890016429
 20
2.5750075587
 30
0.0
 10
2.7871007023
 20
2.5750432056
 30
0.0
 10
2.7843870343
 20
2.5750885814
 30
0.0
 10
2.7811048354
 20
2.5751362505
 30
0.0
 10
2.7772778678
 20
2.5751868028
 30
0.0
 10
2.7711635664
 20
2.5752609389
 30
0.0
 10
2.7623809089
 20
2.575355947
 30
0.0
 10
2.7506448008
 20
2.5754694531
 30
0.0
 10
2.7375472901
 20
2.575584251
 30
0.0
 10
2.7234381904
 20
2.5756972686
 30
0.0
 10
2.7086938995
 20
2.5758054337
 30
0.0
 10
2.6889080659
 20
2.5759379843
 30
0.0
 10
2.6655462772
 20
2.5760734149
 30
0.0
 10
2.6408487205
 20
2.5761811451
 30
0.0
 10
2.6259379946
 20
2.5762195684
 30
0.0
 10
2.6195620579
 20
2.5762191942
 30
0.0
  0
LINE
  5
3BA
100
AcDbEntity
  8
0
100
AcDbLine
 62
7
  6
CONTINUOUS
 10
8.3650027459
 20
2.5766087759
 11
8.3526172285
 21
2.5767063025
  0
SPLINE
  5
3BB
100
AcDbEntity
  8
0
100
AcDbSpline
 62
7
  6
CONTINUOUS
 70
0
 71
3
 72
26
 73
22
 74
0
 42
0.0000001
 43
0.0000001
 44
0.0000000001
 40
0.0
 40
0.0
 40
0.0
 40
0.0
 40
0.000416577
 40
0.0016311217
 40
0.0036504313
 40
0.0064743262
 40
0.0145316095
 40
0.0257706407
 40
0.0401093004
 40
0.0574588746
 40
0.0777305647
 40
0.1008233296
 40
0.1548838757
 40
0.2184099048
 40
0.2899810195
 40
0.3679600662
 40
0.4506047587
 40
0.5360334091
 40
0.7075060985
 40
0.8669596239
 40
1.0
 40
1.0
 40
1.0
 40
1.0
 10
3.187560902
 20
2.5750202952
 30
0.0
 10
3.1875617186
 20
2.5750426737
 30
0.0
 10
3.187424604
 20
2.5750313559
 30
0.0
 10
3.187276888
 20
2.5750714706
 30
0.0
 10
3.1869248153
 20
2.5750769281
 30
0.0
 10
3.1862483543
 20
2.5751152129
 30
0.0
 10
3.1850476517
 20
2.5751459859
 30
0.0
 10
3.1832459499
 20
2.5751929511
 30
0.0
 10
3.1809365713
 20
2.5752382509
 30
0.0
 10
3.1781446512
 20
2.5752871934
 30
0.0
 10
3.1748810375
 20
2.5753372171
 30
0.0
 10
3.1696444979
 20
2.5754097093
 30
0.0
 10
3.1620826472
 20
2.5755002756
 30
0.0
 10
3.1519149086
 20
2.5756058027
 30
0.0
 10
3.1404613089
 20
2.575710379
 30
0.0
 10
3.1279799168
 20
2.57581167
 30
0.0
 10
3.114753534
 20
2.5759072568
 30
0.0
 10
3.096501364
 20
2.5760243891
 30
0.0
 10
3.0741202042
 20
2.5761424088
 30
0.0
 10
3.049179504
 20
2.5762343015
 30
0.0
 10
3.0334562832
 20
2.5762624723
 30
0.0
 10
3.0263046007
 20
2.5762620245
 30
0.0
  0
SPLINE
  5
3BC
100
AcDbEntity
  8
0
100
AcDbSpline
 62
7
  6
CONTINUOUS
 70
0
 71
3
 72
26
 73
22
 74
0
 42
0.0000001
 43
0.0000001
 44
0.0000000001
 40
0.0
 40
0.0
 40
0.0
 40
0.0
 40
0.0003885148
 40
0.0015071368
 40
0.0033647916
 40
0.0059592657
 40
0.0133443368
 40
0.0236315387
 40
0.0367878036
 40
0.0527539666
 40
0.0714391042
 40
0.0927502887
 40
0.1428735861
 40
0.2021947114
 40
0.2695652351
 40
0.3437510627
 40
0.4233259636
 40
0.5068133724
 40
0.6791071651
 40
0.8477710116
 40
1.0
 40
1.0
 40
1.0
 40
1.0
 10
3.6874277933
 20
2.5751809633
 30
0.0
 10
3.6874293829
 20
2.5751999198
 30
0.0
 10
3.6873153162
 20
2.5752007954
 30
0.0
 10
3.6871906976
 20
2.5752316584
 30
0.0
 10
3.6868965976
 20
2.5752441883
 30
0.0
 10
3.6863311979
 20
2.5752802487
 30
0.0
 10
3.6853296521
 20
2.575314638
 30
0.0
 10
3.6838255742
 20
2.575360592
 30
0.0
 10
3.6818946368
 20
2.5754057119
 30
0.0
 10
3.6795549391
 20
2.5754529584
 30
0.0
 10
3.6768150144
 20
2.5755007623
 30
0.0
 10
3.6724030642
 20
2.5755691725
 30
0.0
 10
3.6660012969
 20
2.5756528827
 30
0.0
 10
3.657344365
 20
2.5757483803
 30
0.0
 10
3.647509133
 20
2.5758415111
 30
0.0
 10
3.6366821392
 20
2.5759303155
 30
0.0
 10
3.6250659355
 20
2.5760132308
 30
0.0
 10
3.6086460416
 20
2.5761146163
 30
0.0
 10
3.5878639634
 20
2.5762154588
 30
0.0
 10
3.563715937
 20
2.5762920832
 30
0.0
 10
3.5480039018
 20
2.5763130326
 30
0.0
 10
3.5405502392
 20
2.5763125585
 30
0.0
  0
LINE
  5
3BD
100
AcDbEntity
  8
0
100
AcDbLine
 62
7
  6
CONTINUOUS
 10
8.6385813566
 20
2.5766845908
 11
8.6340571067
 21
2.5767208748
  0
SPLINE
  5
3BE
100
AcDbEntity
  8
0
100
AcDbSpline
 62
7
  6
CONTINUOUS
 70
0
 71
3
 72
23
 73
19
 74
0
 42
0.0000001
 43
0.0000001
 44
0.0000000001
 40
0.0
 40
0.0
 40
0.0
 40
0.0
 40
0.1726796203
 40
0.3507437368
 40
0.5235173526
 40
0.6048330055
 40
0.6811505778
 40
0.7513300432
 40
0.8143848755
 40
0.8693606736
 40
0.9154737656
 40
0.9520683616
 40
0.9666009954
 40
0.9785587978
 40
0.9879085626
 40
0.9946173858
 40
0.9986534792
 40
1.0
 40
1.0
 40
1.0
 40
1.0
 10
6.4119026758
 20
2.5645015762
 30
0.0
 10
6.4054615393
 20
2.5645009284
 30
0.0
 10
6.392378419
 20
2.564489524
 30
0.0
 10
6.3728506959
 20
2.5644473194
 30
0.0
 10
6.3567310014
 20
2.564391598
 30
0.0
 10
6.3444065909
 20
2.5643351593
 30
0.0
 10
6.3359090717
 20
2.5642892208
 30
0.0
 10
6.3280926599
 20
2.5642394981
 30
0.0
 10
6.3210725983
 20
2.5641866823
 30
0.0
 10
6.3149495496
 20
2.5641321619
 30
0.0
 10
6.3098156934
 20
2.5640750817
 30
0.0
 10
6.3061851401
 20
2.5640275937
 30
0.0
 10
6.3038381137
 20
2.5639827132
 30
0.0
 10
6.3024893358
 20
2.5639614773
 30
0.0
 10
6.3014763656
 20
2.5639151515
 30
0.0
 10
6.3006551153
 20
2.5639308166
 30
0.0
 10
6.3003316663
 20
2.5638325374
 30
0.0
 10
6.3000000814
 20
2.5638900157
 30
0.0
 10
6.300006081
 20
2.5638401486
 30
0.0
  0
SPLINE
  5
3BF
100
AcDbEntity
  8
0
100
AcDbSpline
 62
7
  6
CONTINUOUS
 70
0
 71
3
 72
23
 73
19
 74
0
 42
0.0000001
 43
0.0000001
 44
0.0000000001
 40
0.0
 40
0.0
 40
0.0
 40
0.0
 40
0.0013787644
 40
0.0054827915
 40
0.0123209754
 40
0.021854736
 40
0.0340407103
 40
0.0488350326
 40
0.0860561805
 40
0.1329305738
 40
0.1887135599
 40
0.2525875158
 40
0.323528862
 40
0.4004684897
 40
0.482213494
 40
0.6549342323
 40
0.8312377275
 40
1.0
 40
1.0
 40
1.0
 40
1.0
 10
4.2699424854
 20
2.5753655234
 30
0.0
 10
4.2699482947
 20
2.5754250474
 30
0.0
 10
4.2695630147
 20
2.5753767767
 30
0.0
 10
4.2691731497
 20
2.5754881259
 30
0.0
 10
4.2682042487
 20
2.5754857129
 30
0.0
 10
4.2670020754
 20
2.5755466816
 30
0.0
 10
4.2654049888
 20
2.5755826603
 30
0.0
 10
4.2626273186
 20
2.5756493563
 30
0.0
 10
4.2583342199
 20
2.5757230501
 30
0.0
 10
4.252269073
 20
2.5758098352
 30
0.0
 10
4.245045279
 20
2.5758935428
 30
0.0
 10
4.2367782634
 20
2.5759743655
 30
0.0
 10
4.2275931867
 20
2.5760504945
 30
0.0
 10
4.2176329308
 20
2.5761207416
 30
0.0
 10
4.2032577575
 20
2.5762066223
 30
0.0
 10
4.1845723971
 20
2.5762908382
 30
0.0
 10
4.1621123706
 20
2.5763534349
 30
0.0
 10
4.1471443979
 20
2.5763690499
 30
0.0
 10
4.1398239714
 20
2.5763685878
 30
0.0
  0
SPLINE
  5
3C0
100
AcDbEntity
  8
0
100
AcDbSpline
 62
7
  6
CONTINUOUS
 70
0
 71
3
 72
22
 73
18
 74
0
 42
0.0000001
 43
0.0000001
 44
0.0000000001
 40
0.0
 40
0.0
 40
0.0
 40
0.0
 40
0.195020645
 40
0.3828991861
 40
0.5557978159
 40
0.7072932912
 40
0.7732050366
 40
0.831649905
 40
0.8820545255
 40
0.9239829968
 40
0.9570090877
 40
0.9700662749
 40
0.9807874026
 40
0.9891544988
 40
0.9951504314
 40
0.9987611542
 40
1.0
 40
1.0
 40
1.0
 40
1.0
 10
5.4861197086
 20
2.5764873708
 30
0.0
 10
5.4801066404
 20
2.576486704
 30
0.0
 10
5.4683007147
 20
2.5764762291
 30
0.0
 10
5.4511638568
 20
2.5764344995
 30
0.0
 10
5.4353690811
 20
2.576368556
 30
0.0
 10
5.4233350406
 20
2.5762928165
 30
0.0
 10
5.4148299564
 20
2.5762197817
 30
0.0
 10
5.4094419625
 20
2.5761633924
 30
0.0
 10
5.4047930288
 20
2.5761037621
 30
0.0
 10
5.4009293963
 20
2.5760408254
 30
0.0
 10
5.3982138234
 20
2.5759850822
 30
0.0
 10
5.3964668558
 20
2.5759348918
 30
0.0
 10
5.3954682306
 20
2.5759044043
 30
0.0
 10
5.394716402
 20
2.5758624463
 30
0.0
 10
5.3941157061
 20
2.575848826
 30
0.0
 10
5.3938663484
 20
2.5757850086
 30
0.0
 10
5.3936305261
 20
2.5757953021
 30
0.0
 10
5.3936338856
 20
2.5757572528
 30
0.0
  0
SPLINE
  5
3C1
100
AcDbEntity
  8
0
100
AcDbSpline
 62
7
  6
CONTINUOUS
 70
0
 71
3
 72
23
 73
19
 74
0
 42
0.0000001
 43
0.0000001
 44
0.0000000001
 40
0.0
 40
0.0
 40
0.0
 40
0.0
 40
0.0013063163
 40
0.0051289354
 40
0.011485857
 40
0.0203732964
 40
0.0317718936
 40
0.0456342423
 40
0.0805456468
 40
0.1246964251
 40
0.177570968
 40
0.2384719063
 40
0.3066790876
 40
0.3813539344
 40
0.4615282794
 40
0.6344173873
 40
0.8170558264
 40
1.0
 40
1.0
 40
1.0
 40
1.0
 10
4.9096529754
 20
2.5755657947
 30
0.0
 10
4.909655562
 20
2.5756143782
 30
0.0
 10
4.9093544109
 20
2.5755880602
 30
0.0
 10
4.9090345767
 20
2.5756739527
 30
0.0
 10
4.9082648477
 20
2.5756817099
 30
0.0
 10
4.9072999914
 20
2.5757331605
 30
0.0
 10
4.906018453
 20
2.5757670558
 30
0.0
 10
4.903782971
 20
2.5758259117
 30
0.0
 10
4.9003195741
 20
2.5758911789
 30
0.0
 10
4.8954076384
 20
2.5759661277
 30
0.0
 10
4.8895258042
 20
2.5760374714
 30
0.0
 10
4.8827485563
 20
2.5761056522
 30
0.0
 10
4.8751590967
 20
2.5761690776
 30
0.0
 10
4.8668518235
 20
2.576227079
 30
0.0
 10
4.85464577
 20
2.5762979882
 30
0.0
 10
4.83841867
 20
2.5763665165
 30
0.0
 10
4.8183639378
 20
2.5764165162
 30
0.0
 10
4.8047482136
 20
2.576428083
 30
0.0
 10
4.7979346596
 20
2.5764276635
 30
0.0
  0
SPLINE
  5
3C2
100
AcDbEntity
  8
0
100
AcDbSpline
 62
7
  6
CONTINUOUS
 70
0
 71
3
 72
9
 73
5
 74
0
 42
0.0000001
 43
0.0000001
 44
0.0000000001
 40
0.0
 40
0.0
 40
0.0
 40
0.0
 40
0.6770021367
 40
1.0
 40
1.0
 40
1.0
 40
1.0
 10
5.3935536615
 20
2.5756425659
 30
0.0
 10
5.393544406
 20
2.5756451034
 30
0.0
 10
5.3935319931
 20
2.575648607
 30
0.0
 10
5.3935173882
 20
2.5756576335
 30
0.0
 10
5.3935169852
 20
2.5756621945
 30
0.0
  0
SPLINE
  5
3C3
100
AcDbEntity
  8
0
100
AcDbSpline
 62
7
  6
CONTINUOUS
 70
0
 71
3
 72
9
 73
5
 74
0
 42
0.0000001
 43
0.0000001
 44
0.0000000001
 40
0.0
 40
0.0
 40
0.0
 40
0.0
 40
0.6781389492
 40
1.0
 40
1.0
 40
1.0
 40
1.0
 10
6.0625015478
 20
2.5755517112
 30
0.0
 10
6.0624926257
 20
2.5755541491
 30
0.0
 10
6.0624806896
 20
2.5755574536
 30
0.0
 10
6.0624666355
 20
2.5755662835
 30
0.0
 10
6.0624663329
 20
2.5755706629
 30
0.0
  0
LINE
  5
3C4
100
AcDbEntity
  8
0
100
AcDbLine
 62
7
  6
CONTINUOUS
 10
8.0152556371
 20
2.5645965237
 11
8.0128881296
 21
2.5646108298
  0
SPLINE
  5
3C5
100
AcDbEntity
  8
0
100
AcDbSpline
 62
7
  6
CONTINUOUS
 70
0
 71
3
 72
9
 73
5
 74
0
 42
0.0000001
 43
0.0000001
 44
0.0000000001
 40
0.0
 40
0.0
 40
0.0
 40
0.0
 40
0.678372651
 40
1.0
 40
1.0
 40
1.0
 40
1.0
 10
6.7022103951
 20
2.5754682052
 30
0.0
 10
6.702201999
 20
2.5754703889
 30
0.0
 10
6.7021908102
 20
2.5754734805
 30
0.0
 10
6.702177374
 20
2.5754811091
 30
0.0
 10
6.702176857
 20
2.5754851896
 30
0.0
  0
LINE
  5
3C6
100
AcDbEntity
  8
0
100
AcDbLine
 62
7
  6
CONTINUOUS
 10
4.0901706297
 20
2.5640769964
 11
4.0853910024
 21
2.5641012457
  0
SPLINE
  5
3C7
100
AcDbEntity
  8
0
100
AcDbSpline
 62
7
  6
CONTINUOUS
 70
0
 71
3
 72
22
 73
18
 74
0
 42
0.0000001
 43
0.0000001
 44
0.0000000001
 40
0.0
 40
0.0
 40
0.0
 40
0.0
 40
0.1881909428
 40
0.3731151577
 40
0.546015149
 40
0.6994132958
 40
0.7666314209
 40
0.826453423
 40
0.8782582297
 40
0.9214569217
 40
0.9555310894
 40
0.9690427472
 40
0.9801554276
 40
0.9888327948
 40
0.995039159
 40
0.9987553185
 40
1.0
 40
1.0
 40
1.0
 40
1.0
 10
5.8031603406
 20
2.5644520843
 30
0.0
 10
5.7973522727
 20
2.5644514852
 30
0.0
 10
5.7858369556
 20
2.5644431012
 30
0.0
 10
5.7689855214
 20
2.5644106452
 30
0.0
 10
5.7532079195
 20
2.5643596165
 30
0.0
 10
5.7410631353
 20
2.5643015645
 30
0.0
 10
5.732408191
 20
2.5642460952
 30
0.0
 10
5.7268888689
 20
2.5642032814
 30
0.0
 10
5.7221103324
 20
2.5641585065
 30
0.0
 10
5.718128126
 20
2.5641111547
 30
0.0
 10
5.7153237872
 20
2.5640704494
 30
0.0
 10
5.7135168626
 20
2.5640323468
 30
0.0
 10
5.7124802368
 20
2.5640124902
 30
0.0
 10
5.7117019984
 20
2.5639754209
 30
0.0
 10
5.7110746861
 20
2.5639803075
 30
0.0
 10
5.7108248586
 20
2.5639085295
 30
0.0
 10
5.7105750196
 20
2.5639424675
 30
0.0
 10
5.7105792167
 20
2.5639042833
 30
0.0
  0
SPLINE
  5
3C8
100
AcDbEntity
  8
0
100
AcDbSpline
 62
7
  6
CONTINUOUS
 70
0
 71
3
 72
21
 73
17
 74
0
 42
0.0000001
 43
0.0000001
 44
0.0000000001
 40
0.0
 40
0.0
 40
0.0
 40
0.0
 40
0.2114248002
 40
0.4061544875
 40
0.5788985278
 40
0.7258264645
 40
0.788563407
 40
0.8436778246
 40
0.8908849008
 40
0.9299005941
 40
0.9604466829
 40
0.9823528138
 40
0.9900433127
 40
0.9955482031
 40
0.9988620711
 40
1.0
 40
1.0
 40
1.0
 40
1.0
 10
4.5668385177
 20
2.5643448472
 30
0.0
 10
4.5630775066
 20
2.5643444269
 30
0.0
 10
4.5558524734
 20
2.5643402856
 30
0.0
 10
4.5455545184
 20
2.5643235545
 30
0.0
 10
4.5364039473
 20
2.5642967565
 30
0.0
 10
4.5296013251
 20
2.5642655939
 30
0.0
 10
4.5248913973
 20
2.5642348225
 30
0.0
 10
4.5219550437
 20
2.5642111246
 30
0.0
 10
4.5194416651
 20
2.5641851553
 30
0.0
 10
4.5173626196
 20
2.5641590819
 30
0.0
 10
4.5157410023
 20
2.5641281008
 30
0.0
 10
4.5146604863
 20
2.5641073351
 30
0.0
 10
4.5140512366
 20
2.5640769149
 30
0.0
 10
4.5137336074
 20
2.564073342
 30
0.0
 10
4.5136002479
 20
2.564038529
 30
0.0
 10
4.5134763179
 20
2.564048338
 30
0.0
 10
4.513477135
 20
2.564028112
 30
0.0
  0
LINE
  5
3C9
100
AcDbEntity
  8
0
100
AcDbLine
 62
7
  6
CONTINUOUS
 10
2.9609274478
 20
2.5641816908
 11
2.9585060811
 21
2.5641666597
  0
LINE
  5
3CA
100
AcDbEntity
  8
0
100
AcDbLine
 62
7
  6
CONTINUOUS
 10
6.8845940186
 20
2.5642969154
 11
6.8820252921
 21
2.5642821288
  0
SPLINE
  5
3CB
100
AcDbEntity
  8
0
100
AcDbSpline
 62
7
  6
CONTINUOUS
 70
0
 71
3
 72
26
 73
22
 74
0
 42
0.0000001
 43
0.0000001
 44
0.0000000001
 40
0.0
 40
0.0
 40
0.0
 40
0.0
 40
0.1108699066
 40
0.2591701735
 40
0.4292245278
 40
0.5168012695
 40
0.6029615086
 40
0.6854189205
 40
0.7619544717
 40
0.8305463628
 40
0.8893370356
 40
0.9145653717
 40
0.9367869383
 40
0.9558341473
 40
0.9715866475
 40
0.9839574241
 40
0.9928602152
 40
0.995984558
 40
0.9982158512
 40
0.9995537919
 40
1.0
 40
1.0
 40
1.0
 40
1.0
 10
7.7896177774
 20
2.5646000757
 30
0.0
 10
7.7839264197
 20
2.5645966993
 30
0.0
 10
7.770622288
 20
2.5645649642
 30
0.0
 10
7.7485887667
 20
2.5644845477
 30
0.0
 10
7.7277510414
 20
2.5643878223
 30
0.0
 10
7.710103217
 20
2.5642948063
 30
0.0
 10
7.696952033
 20
2.5642196535
 30
0.0
 10
7.6843676631
 20
2.5641418762
 30
0.0
 10
7.6726851505
 20
2.564063543
 30
0.0
 10
7.6622175973
 20
2.5639867872
 30
0.0
 10
7.6543836985
 20
2.5639231846
 30
0.0
 10
7.6489303362
 20
2.5638738402
 30
0.0
 10
7.6455166357
 20
2.5638407251
 30
0.0
 10
7.6425906533
 20
2.5638086337
 30
0.0
 10
7.6401666968
 20
2.5637812619
 30
0.0
 10
7.638273209
 20
2.5637496592
 30
0.0
 10
7.6370062989
 20
2.5637381074
 30
0.0
 10
7.6362943322
 20
2.5637076631
 30
0.0
 10
7.6359183405
 20
2.5637195676
 30
0.0
 10
7.6357698159
 20
2.5636716663
 30
0.0
 10
7.635618988
 20
2.5637052346
 30
0.0
 10
7.6356210612
 20
2.5636824231
 30
0.0
  0
LINE
  5
3CC
100
AcDbEntity
  8
0
100
AcDbLine
 62
7
  6
CONTINUOUS
 10
7.6356298594
 20
2.5636041794
 11
7.6324352059
 21
2.5636481567
  0
LINE
  5
3CD
100
AcDbEntity
  8
0
100
AcDbLine
 62
7
  6
CONTINUOUS
 10
4.5134262152
 20
2.5637749629
 11
4.5070671915
 21
2.5639591424
  0
LINE
  5
3CE
100
AcDbEntity
  8
0
100
AcDbLine
 62
7
  6
CONTINUOUS
 10
5.7105956402
 20
2.5636477674
 11
5.7037737161
 21
2.5638310835
  0
ENDSEC
  0
SECTION
  2
OBJECTS
  0
DICTIONARY
  5
C
100
AcDbDictionary
280
0
281
1
  3
ACAD_GROUP
350
D
  3
ACAD_MLINESTYLE
350
17
  3
ACAD_LAYOUT
350
1A
  3
ACAD_PLOTSETTINGS
350
19
  3
ACAD_PLOTSTYLENAME
350
E
  0
DICTIONARY
  5
D
102
{ACAD_REACTORS
330
C
102
}
100
AcDbDictionary
280
0
281
1
  0
ACDBDICTIONARYWDFLT
  5
E
102
{ACAD_REACTORS
330
C
102
}
100
AcDbDictionary
281
1
  3
Normal
350
F
100
AcDbDictionaryWithDefault
340
F
  0
DICTIONARY
  5
17
102
{ACAD_REACTORS
330
C
102
}
100
AcDbDictionary
280
0
281
1
  3
Standard
350
18
  0
DICTIONARY
  5
19
102
{ACAD_REACTORS
330
C
102
}
100
AcDbDictionary
281
1
  0
DICTIONARY
  5
1A
102
{ACAD_REACTORS
330
C
102
}
100
AcDbDictionary
281
1
  3
Model
350
3CF
  3
Layout1
350
3D0
  0
ACDBPLACEHOLDER
  5
F
102
{ACAD_REACTORS
330
E
102
}
  0
MLINESTYLE
  5
18
102
{ACAD_REACTORS
330
17
102
}
100
AcDbMlineStyle
  2
STANDARD
 70
0
  3

 62
256
 51
90.0
 52
90.0
 71
2
 49
0.5
 62
256
  6
BYLAYER
 49
-0.5
 62
256
  6
BYLAYER
  0
LAYOUT
  5
3CF
102
{ACAD_REACTORS
330
1A
102
}
100
AcDbPlotSettings
  1

  2
none_device
  4
ANSI_A_(11.00_x_8.50_Inches)
  6

 40
0.0
 41
0.0
 42
0.0
 43
0.0
 44
279.4
 45
215.9
 46
0.0
 47
0.0
 48
0.0
 49
0.0
140
0.0
141
0.0
142
1.0
143
1.0
 70
1024
 72
0
 73
0
 74
0
  7

 75
0
147
1.0
148
0.0
149
0.0
100
AcDbLayout
  1
Model
 70
0
 71
0
 10
0.0
 20
0.0
 11
11.0
 21
8.5
 12
0.0
 22
0.0
 32
0.0
 14
0.0
 24
0.0
 34
0.0
 15
0.0
 25
0.0
 35
0.0
146
0.0
 13
0.0
 23
0.0
 33
0.0
 16
1.0
 26
0.0
 36
0.0
 17
0.0
 27
1.0
 37
0.0
 76
0
330
213
345
0
346
0
  0
LAYOUT
  5
3D0
102
{ACAD_REACTORS
330
1A
102
}
100
AcDbPlotSettings
  1

  2
none_device
  4
ANSI_A_(11.00_x_8.50_Inches)
  6

 40
0.0
 41
0.0
 42
0.0
 43
0.0
 44
279.4
 45
215.9
 46
0.0
 47
0.0
 48
0.0
 49
0.0
140
0.0
141
0.0
142
1.0
143
1.0
 70
0
 72
0
 73
0
 74
0
  7

 75
0
147
1.0
148
0.0
149
0.0
100
AcDbLayout
  1
Layout1
 70
0
 71
1
 10
0.0
 20
0.0
 11
11.0
 21
8.5
 12
0.0
 22
0.0
 32
0.0
 14
0.0
 24
0.0
 34
0.0
 15
0.0
 25
0.0
 35
0.0
146
0.0
 13
0.0
 23
0.0
 33
0.0
 16
1.0
 26
0.0
 36
0.0
 17
0.0
 27
1.0
 37
0.0
 76
0
330
214
345
0
346
0
  0
ENDSEC
  0
EOF
