999
DXF file: 2159_front.dxf
999
Pro/ENGINEER 2018400 by Parametric Technology Corporation
  0
SECTION
  2
HEADER
  9
$ACADVER
  1
AC1027
  9
$DWGCODEPAGE
  3
ANSI_1252
  9
$EXTMAX
 10
11.0
 20
8.5
 30
0.0
  9
$EXTMIN
 10
0.0
 20
0.0
 30
0.0
  9
$LIMMIN
 10
0.0
 20
0.0
  9
$LIMMAX
 10
11.0
 20
8.5
  9
$VIEWCTR
 10
5.5
 20
4.25
  9
$VIEWSIZE
 40
8.5
  9
$CLAYER
  8
0
  9
$LTSCALE
 40
0.605
  9
$CELTYPE
  6
BYLAYER
  9
$DIMSCALE
 40
1.0
  9
$DIMASZ
 40
0.1
  9
$DIMEXO
 40
0.0625
  9
$DIMDLI
 40
0.418
  9
$DIMEXE
 40
0.125
  9
$DIMCEN
 40
0.099
  9
$DIMLFAC
 40
1.0
  9
$DIMBLK
  1
_FILLED
  9
$DIMALT
 70
1
  9
$DIMALTD
 70
1
  9
$DIMALTTD
 70
2
  9
$DIMALTF
 40
25.4
  9
$DIMTXT
 40
0.08
  9
$DIMTOL
 70
1
  9
$DIMLIM
 70
0
  9
$DIMTFAC
 40
1.0
  9
$DIMTP
 40
0.01
  9
$DIMTM
 40
0.01
  9
$DIMGAP
 40
0.09
  9
$DIMDSEP
 70
46
  9
$AUNITS
 70
0
  9
$PDMODE
 70
3
  9
$PDSIZE
 40
0.3125
  9
$HANDSEED
  5
41C
  9
$TILEMODE
 70
1
  9
$MEASUREMENT
 70
0
  9
$INSUNITS
 70
1
  0
ENDSEC
  0
SECTION
  2
CLASSES
  0
CLASS
  1
ACDBDICTIONARYWDFLT
  2
AcDbDictionaryWithDefault
  3
AutoCAD 2000
 90
0
 91
1
280
0
281
0
  0
CLASS
  1
ACDBPLACEHOLDER
  2
AcDbPlaceHolder
  3
AutoCAD 2000
 90
0
 91
1
280
0
281
0
  0
CLASS
  1
LAYOUT
  2
AcDbLayout
  3
AutoCAD 2000
 90
0
 91
0
280
0
281
0
  0
ENDSEC
  0
SECTION
  2
TABLES
  0
TABLE
  2
VPORT
  5
8
100
AcDbSymbolTable
 70
2
  0
VPORT
  5
1F4
100
AcDbSymbolTableRecord
100
AcDbViewportTableRecord
  2
*ACTIVE
 70
0
 10
0.0
 20
0.0
 11
1.0
 21
1.0
 12
5.5
 22
4.25
 13
0.0
 23
0.0
 14
1.0
 24
1.0
 15
0.0
 25
0.0
 16
0.0
 26
0.0
 36
1.0
 17
0.0
 27
0.0
 37
0.0
 40
8.5
 41
1.2941176471
 42
50.0
 43
0.0
 44
0.0
 50
0.0
 51
0.0
 71
0
 72
100
 73
1
 74
1
 75
0
 76
0
 77
0
 78
0
  0
ENDTAB
  0
TABLE
  2
LTYPE
  5
5
100
AcDbSymbolTable
 70
6
  0
LTYPE
  5
14
100
AcDbSymbolTableRecord
100
AcDbLinetypeTableRecord
  2
BYBLOCK
 70
0
  3

 72
65
 73
0
 40
0.0
  0
LTYPE
  5
15
100
AcDbSymbolTableRecord
100
AcDbLinetypeTableRecord
  2
BYLAYER
 70
0
  3

 72
65
 73
0
 40
0.0
  0
LTYPE
  5
16
100
AcDbSymbolTableRecord
100
AcDbLinetypeTableRecord
  2
CONTINUOUS
 70
64
  3
Solid line
 72
65
 73
0
 40
0.0
  0
LTYPE
  5
1F5
100
AcDbSymbolTableRecord
100
AcDbLinetypeTableRecord
  2
CENTER
 70
64
  3
____ _ ____ _ ____ _ ____ _ ____ _ ____ _ ____
 72
65
 73
4
 40
0.6
 49
0.375
 74
0
 49
-0.075
 74
0
 49
0.075
 74
0
 49
-0.075
 74
0
  0
LTYPE
  5
1F6
100
AcDbSymbolTableRecord
100
AcDbLinetypeTableRecord
  2
HIDDEN
 70
64
  3
- - - - - - - - - - - - - - - - - - - -
 72
65
 73
2
 40
0.2
 49
0.1
 74
0
 49
-0.1
 74
0
  0
LTYPE
  5
1F7
100
AcDbSymbolTableRecord
100
AcDbLinetypeTableRecord
  2
PHANTOM
 70
64
  3
_____ _ _ _____ _ _ _____ _ _ _____
 72
65
 73
6
 40
0.8
 49
0.45
 74
0
 49
-0.05
 74
0
 49
0.1
 74
0
 49
-0.05
 74
0
 49
0.1
 74
0
 49
-0.05
 74
0
  0
LTYPE
  5
1F8
100
AcDbSymbolTableRecord
100
AcDbLinetypeTableRecord
  2
DOT
 70
64
  3
. . . . . . . . . . . . . . . . . . . .
 72
65
 73
2
 40
0.2
 49
0.1
 74
0
 49
-0.1
 74
0
  0
LTYPE
  5
1F9
100
AcDbSymbolTableRecord
100
AcDbLinetypeTableRecord
  2
DASHED
 70
64
  3
- - - - - - - - - - - - - - - - - - - -
 72
65
 73
2
 40
0.2
 49
0.1
 74
0
 49
-0.1
 74
0
  0
ENDTAB
  0
TABLE
  2
LAYER
  5
2
100
AcDbSymbolTable
 70
36
  0
LAYER
  5
10
100
AcDbSymbolTableRecord
100
AcDbLayerTableRecord
  2
0
 70
0
 62
7
  6
CONTINUOUS
370
-3
390
F
  0
LAYER
  5
1FA
100
AcDbSymbolTableRecord
100
AcDbLayerTableRecord
  2
DEFAULT_1
 70
0
 62
7
  6
CENTER
370
-3
390
F
  0
LAYER
  5
1FB
100
AcDbSymbolTableRecord
100
AcDbLayerTableRecord
  2
DEFAULT_2
 70
0
 62
8
  6
HIDDEN
370
-3
390
F
  0
LAYER
  5
1FC
100
AcDbSymbolTableRecord
100
AcDbLayerTableRecord
  2
DEFAULT_3
 70
0
 62
7
  6
PHANTOM
370
-3
390
F
  0
LAYER
  5
1FD
100
AcDbSymbolTableRecord
100
AcDbLayerTableRecord
  2
ALL_FEATURES
 70
0
 62
7
  6
CONTINUOUS
370
-3
390
F
  0
LAYER
  5
1FE
100
AcDbSymbolTableRecord
100
AcDbLayerTableRecord
  2
AXES_FEATURES
 70
0
 62
7
  6
CONTINUOUS
370
-3
390
F
  0
LAYER
  5
1FF
100
AcDbSymbolTableRecord
100
AcDbLayerTableRecord
  2
CHAMFER_FEATURES
 70
0
 62
7
  6
CONTINUOUS
370
-3
390
F
  0
LAYER
  5
200
100
AcDbSymbolTableRecord
100
AcDbLayerTableRecord
  2
CUT_FEATURES
 70
0
 62
7
  6
CONTINUOUS
370
-3
390
F
  0
LAYER
  5
201
100
AcDbSymbolTableRecord
100
AcDbLayerTableRecord
  2
DATUM_CURVES
 70
0
 62
7
  6
CONTINUOUS
370
-3
390
F
  0
LAYER
  5
202
100
AcDbSymbolTableRecord
100
AcDbLayerTableRecord
  2
DATUM_PLANES
 70
0
 62
7
  6
CONTINUOUS
370
-3
390
F
  0
LAYER
  5
203
100
AcDbSymbolTableRecord
100
AcDbLayerTableRecord
  2
DATUM_POINTS
 70
0
 62
7
  6
CONTINUOUS
370
-3
390
F
  0
LAYER
  5
204
100
AcDbSymbolTableRecord
100
AcDbLayerTableRecord
  2
DEFAULT_COORDINATE_SYSTEM
 70
0
 62
7
  6
CONTINUOUS
370
-3
390
F
  0
LAYER
  5
205
100
AcDbSymbolTableRecord
100
AcDbLayerTableRecord
  2
DEFAULT_DATUM_AXES
 70
0
 62
7
  6
CONTINUOUS
370
-3
390
F
  0
LAYER
  5
206
100
AcDbSymbolTableRecord
100
AcDbLayerTableRecord
  2
DEFAULT_DATUM_CURVES
 70
0
 62
7
  6
CONTINUOUS
370
-3
390
F
  0
LAYER
  5
207
100
AcDbSymbolTableRecord
100
AcDbLayerTableRecord
  2
DEFAULT_DATUM_PLANES
 70
0
 62
7
  6
CONTINUOUS
370
-3
390
F
  0
LAYER
  5
208
100
AcDbSymbolTableRecord
100
AcDbLayerTableRecord
  2
DEFAULT_SURFACES
 70
0
 62
7
  6
CONTINUOUS
370
-3
390
F
  0
LAYER
  5
209
100
AcDbSymbolTableRecord
100
AcDbLayerTableRecord
  2
DIMENSIONS
 70
0
 62
7
  6
CONTINUOUS
370
-3
390
F
  0
LAYER
  5
20A
100
AcDbSymbolTableRecord
100
AcDbLayerTableRecord
  2
HOLE_FEATURES
 70
0
 62
7
  6
CONTINUOUS
370
-3
390
F
  0
LAYER
  5
20B
100
AcDbSymbolTableRecord
100
AcDbLayerTableRecord
  2
NOTES
 70
0
 62
7
  6
CONTINUOUS
370
-3
390
F
  0
LAYER
  5
20C
100
AcDbSymbolTableRecord
100
AcDbLayerTableRecord
  2
PART_REFERENCE_DIMENSIONS
 70
0
 62
7
  6
CONTINUOUS
370
-3
390
F
  0
LAYER
  5
20D
100
AcDbSymbolTableRecord
100
AcDbLayerTableRecord
  2
POINTS
 70
0
 62
7
  6
CONTINUOUS
370
-3
390
F
  0
LAYER
  5
20E
100
AcDbSymbolTableRecord
100
AcDbLayerTableRecord
  2
PROTRUSION_FEATURES
 70
0
 62
7
  6
CONTINUOUS
370
-3
390
F
  0
LAYER
  5
20F
100
AcDbSymbolTableRecord
100
AcDbLayerTableRecord
  2
REFERENCE_DIMENSIONS
 70
0
 62
7
  6
CONTINUOUS
370
-3
390
F
  0
LAYER
  5
210
100
AcDbSymbolTableRecord
100
AcDbLayerTableRecord
  2
ROUND_FEATURES
 70
0
 62
7
  6
CONTINUOUS
370
-3
390
F
  0
ENDTAB
  0
TABLE
  2
STYLE
  5
3
100
AcDbSymbolTable
 70
1
  0
STYLE
  5
11
100
AcDbSymbolTableRecord
100
AcDbTextStyleTableRecord
  2
STANDARD
 70
0
 40
0.0
 41
0.8
 50
0.0
 71
0
 42
0.2
  3
txt
  4

  0
STYLE
  5
211
100
AcDbSymbolTableRecord
100
AcDbTextStyleTableRecord
  2
TEXTSTYLE_1
 70
0
 40
0.0
 41
0.8
 50
0.0
 71
0
 42
0.2
  3
gdt
  4

  0
ENDTAB
  0
TABLE
  2
VIEW
  5
6
100
AcDbSymbolTable
 70
0
  0
ENDTAB
  0
TABLE
  2
UCS
  5
7
100
AcDbSymbolTable
 70
0
  0
ENDTAB
  0
TABLE
  2
APPID
  5
9
100
AcDbSymbolTable
 70
1
  0
APPID
  5
212
100
AcDbSymbolTableRecord
100
AcDbRegAppTableRecord
  2
ACAD
 70
0
  0
ENDTAB
  0
TABLE
  2
BLOCK_RECORD
  5
1
100
AcDbSymbolTable
 70
0
  0
BLOCK_RECORD
  5
213
100
AcDbSymbolTableRecord
100
AcDbBlockTableRecord
  2
*Model_Space
  0
BLOCK_RECORD
  5
214
100
AcDbSymbolTableRecord
100
AcDbBlockTableRecord
  2
*Paper_Space
  0
BLOCK_RECORD
  5
215
100
AcDbSymbolTableRecord
100
AcDbBlockTableRecord
  2
_FILLED
  0
ENDTAB
  0
TABLE
  2
DIMSTYLE
  5
A
100
AcDbSymbolTable
 70
1
100
AcDbDimStyleTable
 71
0
  0
DIMSTYLE
105
216
100
AcDbSymbolTableRecord
100
AcDbDimStyleTableRecord
  2
STANDARD
 70
0
  3

  4

 40
1.0
 41
0.1
 42
0.0625
 43
0.38
 44
0.125
 45
0.0
 46
0.0
 47
0.01
 48
0.01
140
0.08
141
0.09
142
0.0
143
25.4
144
1.0
145
0.0
146
1.0
147
0.09
 71
1.0
 72
0.0
 73
1
 74
1
 75
0
 76
0
 77
0
 78
4
 79
1
170
1
171
1
172
0
173
0
174
0
175
0
176
0
177
0
178
0
270
2
179
2
271
2
272
2
273
2
274
2
275
0
280
0
281
0
282
0
283
1
284
4
285
0
286
0
287
3
288
0
340
11
278
46
341
215
342
215
343
215
344
215
  0
ENDTAB
  0
ENDSEC
  0
SECTION
  2
BLOCKS
  0
BLOCK
  5
20
100
AcDbEntity
  8
0
100
AcDbBlockBegin
  2
*Model_Space
 70
0
 10
0.0
 20
0.0
 30
0.0
  3
*Model_Space
  1

  0
ENDBLK
  5
21
100
AcDbEntity
  8
0
100
AcDbBlockEnd
  0
BLOCK
  5
1C
100
AcDbEntity
  8
0
100
AcDbBlockBegin
  2
*Paper_Space
 70
0
 10
0.0
 20
0.0
 30
0.0
  3
*Paper_Space
  1

  0
ENDBLK
  5
1D
100
AcDbEntity
  8
0
100
AcDbBlockEnd
  0
BLOCK
  5
217
100
AcDbEntity
  8
0
100
AcDbBlockBegin
  2
_FILLED
 70
64
 10
0.0
 20
0.0
  3
_FILLED
  1

  0
SOLID
  5
218
100
AcDbEntity
  8
0
  6
BYBLOCK
 62
0
100
AcDbTrace
 10
0.0
 20
0.0
 11
-1.0
 21
0.2
 12
-1.0
 22
-0.2
 13
-1.0
 23
-0.2
  0
ENDBLK
  5
219
100
AcDbEntity
  8
0
  6
BYBLOCK
 62
0
100
AcDbBlockEnd
  0
ENDSEC
  0
SECTION
  2
ENTITIES
  0
MTEXT
  5
21A
100
AcDbEntity
  8
0
100
AcDbMText
 62
2
  6
CONTINUOUS
  7
STANDARD
 71
3
 72
1
 10
5.4423524845
 20
1.5543801816
 30
0.0
 11
1.0
 21
0.0
 31
0.0
 73
2
 44
0.9
  1
SCALE  1.000
 40
0.08
 41
0.768
  0
LINE
  5
21B
100
AcDbEntity
  8
0
100
AcDbLine
 62
7
  6
CONTINUOUS
 10
0.0
 20
0.0
 11
0.0
 21
8.5
  0
LINE
  5
21C
100
AcDbEntity
  8
0
100
AcDbLine
 62
7
  6
CONTINUOUS
 10
0.0
 20
0.0
 11
11.0
 21
0.0
  0
LINE
  5
21D
100
AcDbEntity
  8
0
100
AcDbLine
 62
7
  6
CONTINUOUS
 10
0.0
 20
8.5
 11
11.0
 21
8.5
  0
LINE
  5
21E
100
AcDbEntity
  8
0
100
AcDbLine
 62
7
  6
CONTINUOUS
 10
11.0
 20
0.0
 11
11.0
 21
8.5
  0
LINE
  5
21F
100
AcDbEntity
  8
0
100
AcDbLine
 62
7
  6
CONTINUOUS
 10
1.1557175292
 20
3.4338614726
 11
1.1557117216
 21
2.7438614726
  0
LINE
  5
220
100
AcDbEntity
  8
0
100
AcDbLine
 62
7
  6
CONTINUOUS
 10
1.3007189934
 20
3.5538601859
 11
1.3007143558
 21
2.7438598681
  0
LINE
  5
221
100
AcDbEntity
  8
0
100
AcDbLine
 62
7
  6
CONTINUOUS
 10
1.3126415062
 20
2.7438597677
 11
1.3126415062
 21
2.7208161083
  0
LINE
  5
222
100
AcDbEntity
  8
0
100
AcDbLine
 62
7
  6
CONTINUOUS
 10
1.3570259558
 20
4.0186023974
 11
1.3570257608
 21
4.0386024504
  0
LINE
  5
223
100
AcDbEntity
  8
0
100
AcDbLine
 62
7
  6
CONTINUOUS
 10
1.3570227554
 20
3.681531029
 11
1.3570232871
 21
3.701530976
  0
LINE
  5
224
100
AcDbEntity
  8
0
100
AcDbLine
 62
7
  6
CONTINUOUS
 10
1.9261811887
 20
2.6455677452
 11
1.9223093306
 21
2.7208161083
  0
LINE
  5
225
100
AcDbEntity
  8
0
100
AcDbLine
 62
7
  6
CONTINUOUS
 10
1.852047876
 20
2.7208161083
 11
1.8558581865
 21
2.6455869393
  0
LINE
  5
226
100
AcDbEntity
  8
0
100
AcDbLine
 62
7
  6
CONTINUOUS
 10
2.1340045566
 20
2.6455240974
 11
2.1299281262
 21
2.7212466909
  0
LINE
  5
227
100
AcDbEntity
  8
0
100
AcDbLine
 62
7
  6
CONTINUOUS
 10
2.1340520995
 20
2.6455172728
 11
2.1299984409
 21
2.7208161083
  0
LINE
  5
228
100
AcDbEntity
  8
0
100
AcDbLine
 62
7
  6
CONTINUOUS
 10
2.1515996395
 20
3.5538530243
 11
2.1515994986
 21
3.6675244339
  0
LINE
  5
229
100
AcDbEntity
  8
0
100
AcDbLine
 62
7
  6
CONTINUOUS
 10
2.2036583758
 20
4.0385953245
 11
2.2036559021
 21
3.7015238501
  0
LINE
  5
22A
100
AcDbEntity
  8
0
100
AcDbLine
 62
7
  6
CONTINUOUS
 10
2.2106547576
 20
3.5538525272
 11
2.2106547346
 21
3.6815238442
  0
LINE
  5
22B
100
AcDbEntity
  8
0
100
AcDbLine
 62
7
  6
CONTINUOUS
 10
2.2236582074
 20
4.0185951562
 11
2.2236553704
 21
3.6815237348
  0
LINE
  5
22C
100
AcDbEntity
  8
0
100
AcDbLine
 62
7
  6
CONTINUOUS
 10
2.4703167087
 20
2.6454472069
 11
2.4659690382
 21
2.7208161083
  0
LINE
  5
22D
100
AcDbEntity
  8
0
100
AcDbLine
 62
7
  6
CONTINUOUS
 10
2.470385417
 20
2.6454372799
 11
2.466037115
 21
2.7208161083
  0
LINE
  5
22E
100
AcDbEntity
  8
0
100
AcDbLine
 62
7
  6
CONTINUOUS
 10
2.3190806755
 20
2.6442015975
 11
2.3283978974
 21
2.7209746363
  0
LINE
  5
22F
100
AcDbEntity
  8
0
100
AcDbLine
 62
7
  6
CONTINUOUS
 10
2.1112187148
 20
2.6441594888
 11
2.1207238233
 21
2.7209653475
  0
LINE
  5
230
100
AcDbEntity
  8
0
100
AcDbLine
 62
7
  6
CONTINUOUS
 10
1.3426114615
 20
4.0324672558
 11
1.3425359159
 21
4.0323882863
  0
LINE
  5
231
100
AcDbEntity
  8
0
100
AcDbLine
 62
7
  6
CONTINUOUS
 10
1.3425359159
 20
4.0323882863
 11
1.3570259558
 21
4.0186023974
  0
LWPOLYLINE
  5
232
100
AcDbEntity
  8
0
100
AcDbPolyline
 62
7
  6
CONTINUOUS
 90
3
 70
0
 10
2.2236553704
 20
3.6815237348
 10
2.2236189305
 20
3.6815648403
 10
2.2232754133
 20
3.6819037585
  0
LINE
  5
233
100
AcDbEntity
  8
0
100
AcDbLine
 62
7
  6
CONTINUOUS
 10
2.7291754873
 20
2.6334936054
 11
2.7235418658
 21
2.7208161083
  0
LINE
  5
234
100
AcDbEntity
  8
0
100
AcDbLine
 62
7
  6
CONTINUOUS
 10
2.9203940532
 20
2.6453438241
 11
2.9156075981
 21
2.7215108635
  0
LINE
  5
235
100
AcDbEntity
  8
0
100
AcDbLine
 62
7
  6
CONTINUOUS
 10
2.9204809238
 20
2.6453312293
 11
2.9157372622
 21
2.7208161083
  0
LWPOLYLINE
  5
236
100
AcDbEntity
  8
0
100
AcDbPolyline
 62
7
  6
CONTINUOUS
 90
7
 70
0
 10
2.6942620315
 20
3.5645900132
 10
2.694262224
 20
3.5645860422
 10
2.6942565409
 20
3.5645577523
 10
2.6942387901
 20
3.5645006877
 10
2.6942084453
 20
3.5644161115
 10
2.6941713086
 20
3.5643101773
 10
2.6941257629
 20
3.5641838585
  0
LINE
  5
237
100
AcDbEntity
  8
0
100
AcDbLine
 62
7
  6
CONTINUOUS
 10
2.655400913
 20
2.6442717645
 11
2.6644146966
 21
2.7209929574
  0
LINE
  5
238
100
AcDbEntity
  8
0
100
AcDbLine
 62
7
  6
CONTINUOUS
 10
2.2054746253
 20
3.6997211933
 11
2.2036559021
 21
3.7015238501
  0
LINE
  5
239
100
AcDbEntity
  8
0
100
AcDbLine
 62
7
  6
CONTINUOUS
 10
2.2236553704
 20
3.6815237348
 11
2.2036559021
 21
3.7015238501
  0
LINE
  5
23A
100
AcDbEntity
  8
0
100
AcDbLine
 62
7
  6
CONTINUOUS
 10
3.2722659045
 20
2.6253696356
 11
3.2649005132
 21
2.7208161083
  0
LINE
  5
23B
100
AcDbEntity
  8
0
100
AcDbLine
 62
7
  6
CONTINUOUS
 10
3.2239693465
 20
2.7208161083
 11
3.2313122964
 21
2.6253754556
  0
LINE
  5
23C
100
AcDbEntity
  8
0
100
AcDbLine
 62
7
  6
CONTINUOUS
 10
2.8942440166
 20
2.6325963569
 11
2.9039976733
 21
2.7208161083
  0
LWPOLYLINE
  5
23D
100
AcDbEntity
  8
0
100
AcDbPolyline
 62
7
  6
CONTINUOUS
 90
8
 70
0
 10
2.6941257629
 20
3.5641838585
 10
2.6940035689
 20
3.5638703794
 10
2.6939305229
 20
3.563687623
 10
2.6938459408
 20
3.5634867411
 10
2.6937515859
 20
3.5632674532
 10
2.6936471485
 20
3.5630296655
 10
2.6935291755
 20
3.5627734716
 10
2.6933950462
 20
3.5624988717
  0
LINE
  5
23E
100
AcDbEntity
  8
0
100
AcDbLine
 62
7
  6
CONTINUOUS
 10
1.3570232871
 20
3.701530976
 11
1.3425330151
 21
3.6877454369
  0
LINE
  5
23F
100
AcDbEntity
  8
0
100
AcDbLine
 62
7
  6
CONTINUOUS
 10
3.7553572349
 20
2.7091003795
 11
3.7789257774
 21
2.685531837
  0
LINE
  5
240
100
AcDbEntity
  8
0
100
AcDbLine
 62
7
  6
CONTINUOUS
 10
3.5891519429
 20
2.6253357085
 11
3.5890304008
 21
2.6268751731
  0
LINE
  5
241
100
AcDbEntity
  8
0
100
AcDbLine
 62
7
  6
CONTINUOUS
 10
3.5891919496
 20
2.6253300003
 11
3.5890699565
 21
2.6268751728
  0
LINE
  5
242
100
AcDbEntity
  8
0
100
AcDbLine
 62
7
  6
CONTINUOUS
 10
3.3933227223
 20
2.625354182
 11
3.3858911135
 21
2.7208161083
  0
LINE
  5
243
100
AcDbEntity
  8
0
100
AcDbLine
 62
7
  6
CONTINUOUS
 10
3.4154426481
 20
2.6333539692
 11
3.4092142352
 21
2.7208161083
  0
LINE
  5
244
100
AcDbEntity
  8
0
100
AcDbLine
 62
7
  6
CONTINUOUS
 10
3.464666323
 20
2.6452037282
 11
3.4594430075
 21
2.7208161083
  0
LINE
  5
245
100
AcDbEntity
  8
0
100
AcDbLine
 62
7
  6
CONTINUOUS
 10
3.1771872993
 20
2.632645948
 11
3.1866911241
 21
2.7208161083
  0
LINE
  5
246
100
AcDbEntity
  8
0
100
AcDbLine
 62
7
  6
CONTINUOUS
 10
3.1054814472
 20
2.6443668622
 11
3.1140898059
 21
2.7210174855
  0
LINE
  5
247
100
AcDbEntity
  8
0
100
AcDbLine
 62
7
  6
CONTINUOUS
 10
3.8512625487
 20
2.6253054186
 11
3.8473610264
 21
2.6738161083
  0
LINE
  5
248
100
AcDbEntity
  8
0
100
AcDbLine
 62
7
  6
CONTINUOUS
 10
3.851313134
 20
2.6252981451
 11
3.8436309763
 21
2.7208161083
  0
LINE
  5
249
100
AcDbEntity
  8
0
100
AcDbLine
 62
7
  6
CONTINUOUS
 10
3.3936556536
 20
2.6253618286
 11
3.3933227296
 21
2.6253540885
  0
LINE
  5
24A
100
AcDbEntity
  8
0
100
AcDbLine
 62
7
  6
CONTINUOUS
 10
3.2725988024
 20
2.6253730836
 11
3.2722659031
 21
2.6253696535
  0
LINE
  5
24B
100
AcDbEntity
  8
0
100
AcDbLine
 62
7
  6
CONTINUOUS
 10
8.4758201191
 20
2.6455312209
 11
8.405472208
 21
2.6449832686
  0
LINE
  5
24C
100
AcDbEntity
  8
0
100
AcDbLine
 62
7
  6
CONTINUOUS
 10
7.6815295263
 20
2.6331454875
 11
7.6048272622
 21
2.6326858171
  0
LINE
  5
24D
100
AcDbEntity
  8
0
100
AcDbLine
 62
7
  6
CONTINUOUS
 10
7.1003656692
 20
2.6253428917
 11
7.0594207434
 21
2.6252042723
  0
LWPOLYLINE
  5
24E
100
AcDbEntity
  8
0
100
AcDbPolyline
 62
7
  6
CONTINUOUS
 90
3
 70
0
 10
7.0050263844
 20
2.625200201
 10
6.9923255715
 20
2.6251584985
 10
6.9682998955
 20
2.6250736908
  0
LINE
  5
24F
100
AcDbEntity
  8
0
100
AcDbLine
 62
7
  6
CONTINUOUS
 10
4.5457242158
 20
2.607184915
 11
4.6279879444
 21
2.6071838995
  0
LINE
  5
250
100
AcDbEntity
  8
0
100
AcDbLine
 62
7
  6
CONTINUOUS
 10
5.3206027028
 20
2.6071781773
 11
5.4028645809
 21
2.6071774849
  0
LINE
  5
251
100
AcDbEntity
  8
0
100
AcDbLine
 62
7
  6
CONTINUOUS
 10
4.9288797203
 20
2.6071814743
 11
5.0111437285
 21
2.6071807819
  0
LINE
  5
252
100
AcDbEntity
  8
0
100
AcDbLine
 62
7
  6
CONTINUOUS
 10
3.2509391612
 20
2.6072005331
 11
3.289504591
 21
2.6072000998
  0
LINE
  5
253
100
AcDbEntity
  8
0
100
AcDbLine
 62
7
  6
CONTINUOUS
 10
7.0418399708
 20
2.6071685173
 11
7.0807384985
 21
2.6071682987
  0
LINE
  5
254
100
AcDbEntity
  8
0
100
AcDbLine
 62
7
  6
CONTINUOUS
 10
5.7037718935
 20
2.607175168
 11
5.7860161384
 21
2.6071744758
  0
LINE
  5
255
100
AcDbEntity
  8
0
100
AcDbLine
 62
7
  6
CONTINUOUS
 10
3.870941913
 20
2.6071916263
 11
3.9532097816
 21
2.6071909339
  0
LINE
  5
256
100
AcDbEntity
  8
0
100
AcDbLine
 62
7
  6
CONTINUOUS
 10
3.608817574
 20
2.6071946057
 11
3.6910849559
 21
2.6071939112
  0
LINE
  5
257
100
AcDbEntity
  8
0
100
AcDbLine
 62
7
  6
CONTINUOUS
 10
3.4129568026
 20
2.6071971507
 11
3.4952238239
 21
2.6071964583
  0
LINE
  5
258
100
AcDbEntity
  8
0
100
AcDbLine
 62
7
  6
CONTINUOUS
 10
6.0616087155
 20
2.6071725782
 11
6.1438850842
 21
2.6071718857
  0
LINE
  5
259
100
AcDbEntity
  8
0
100
AcDbLine
 62
7
  6
CONTINUOUS
 10
3.2919045599
 20
2.6071991564
 11
3.3741650716
 21
2.607198464
  0
LINE
  5
25A
100
AcDbEntity
  8
0
100
AcDbLine
 62
7
  6
CONTINUOUS
 10
4.1878513202
 20
2.6071883491
 11
4.2701281167
 21
2.6071876566
  0
LINE
  5
25B
100
AcDbEntity
  8
0
100
AcDbLine
 62
7
  6
CONTINUOUS
 10
6.378516918
 20
2.6071705208
 11
6.4607878925
 21
2.6071698283
  0
LINE
  5
25C
100
AcDbEntity
  8
0
100
AcDbLine
 62
7
  6
CONTINUOUS
 10
6.9575309961
 20
2.6071683038
 11
7.0397830008
 21
2.6071676115
  0
LINE
  5
25D
100
AcDbEntity
  8
0
100
AcDbLine
 62
7
  6
CONTINUOUS
 10
6.6406297699
 20
2.6071690857
 11
6.7228907121
 21
2.6071683933
  0
LINE
  5
25E
100
AcDbEntity
  8
0
100
AcDbLine
 62
7
  6
CONTINUOUS
 10
3.4165069954
 20
2.6071975943
 11
3.4131757122
 21
2.6071973884
  0
LINE
  5
25F
100
AcDbEntity
  8
0
100
AcDbLine
 62
7
  6
CONTINUOUS
 10
7.1778368228
 20
2.6150456119
 11
7.1740861689
 21
2.6150453398
  0
LINE
  5
260
100
AcDbEntity
  8
0
100
AcDbLine
 62
7
  6
CONTINUOUS
 10
7.7293705699
 20
2.6150360399
 11
7.7297798561
 21
2.6150360562
  0
LINE
  5
261
100
AcDbEntity
  8
0
100
AcDbLine
 62
7
  6
CONTINUOUS
 10
7.6044000975
 20
2.6150371314
 11
7.6039908117
 21
2.6150371151
  0
LINE
  5
262
100
AcDbEntity
  8
0
100
AcDbLine
 62
7
  6
CONTINUOUS
 10
2.7463912899
 20
2.6150811531
 11
2.7487481922
 21
2.6150816154
  0
LINE
  5
263
100
AcDbEntity
  8
0
100
AcDbLine
 62
7
  6
CONTINUOUS
 10
6.7757293891
 20
2.6150500224
 11
6.7719368723
 21
2.6150498832
  0
LINE
  5
264
100
AcDbEntity
  8
0
100
AcDbLine
 62
7
  6
CONTINUOUS
 10
5.106377322
 20
2.6150522599
 11
5.2321558177
 21
2.6150512012
  0
LINE
  5
265
100
AcDbEntity
  8
0
100
AcDbLine
 62
7
  6
CONTINUOUS
 10
5.7090997054
 20
2.6150473829
 11
5.8349063652
 21
2.615046324
  0
LINE
  5
266
100
AcDbEntity
  8
0
100
AcDbLine
 62
7
  6
CONTINUOUS
 10
4.4967714238
 20
2.6150705392
 11
4.5032069203
 21
2.6150704122
  0
LINE
  5
267
100
AcDbEntity
  8
0
100
AcDbLine
 62
7
  6
CONTINUOUS
 10
4.5034273641
 20
2.6150575265
 11
4.6292344366
 21
2.6150564676
  0
LINE
  5
268
100
AcDbEntity
  8
0
100
AcDbLine
 62
7
  6
CONTINUOUS
 10
3.4350898632
 20
2.6150679987
 11
3.5609077814
 21
2.6150669397
  0
LINE
  5
269
100
AcDbEntity
  8
0
100
AcDbLine
 62
7
  6
CONTINUOUS
 10
2.7488230164
 20
2.6150764006
 11
2.8746745949
 21
2.6150753414
  0
LINE
  5
26A
100
AcDbEntity
  8
0
100
AcDbLine
 62
7
  6
CONTINUOUS
 10
5.0995219713
 20
2.6150656621
 11
5.106136105
 21
2.6150655326
  0
LINE
  5
26B
100
AcDbEntity
  8
0
100
AcDbLine
 62
7
  6
CONTINUOUS
 10
7.6039908117
 20
2.6150371151
 11
7.7293705699
 21
2.6150360399
  0
LINE
  5
26C
100
AcDbEntity
  8
0
100
AcDbLine
 62
7
  6
CONTINUOUS
 10
6.2766046901
 20
2.6150431788
 11
6.4024181989
 21
2.6150421198
  0
LINE
  5
26D
100
AcDbEntity
  8
0
100
AcDbLine
 62
7
  6
CONTINUOUS
 10
3.9353258974
 20
2.6150628764
 11
4.0611470154
 21
2.6150618174
  0
LINE
  5
26E
100
AcDbEntity
  8
0
100
AcDbLine
 62
7
  6
CONTINUOUS
 10
6.2705307739
 20
2.6150550459
 11
6.2764048546
 21
2.6150549268
  0
LINE
  5
26F
100
AcDbEntity
  8
0
100
AcDbLine
 62
7
  6
CONTINUOUS
 10
6.7758983674
 20
2.6150398919
 11
6.9017221751
 21
2.6150388328
  0
LINE
  5
270
100
AcDbEntity
  8
0
100
AcDbLine
 62
7
  6
CONTINUOUS
 10
6.7707700084
 20
2.6150499235
 11
6.7719368723
 21
2.6150498832
  0
LINE
  5
271
100
AcDbEntity
  8
0
100
AcDbLine
 62
7
  6
CONTINUOUS
 10
7.4594333518
 20
2.6150367695
 11
7.5852865032
 21
2.6150357101
  0
LINE
  5
272
100
AcDbEntity
  8
0
100
AcDbLine
 62
7
  6
CONTINUOUS
 10
3.1575873036
 20
2.6150715369
 11
3.0317883637
 21
2.6150726107
  0
LINE
  5
273
100
AcDbEntity
  8
0
100
AcDbLine
 62
7
  6
CONTINUOUS
 10
3.4365829978
 20
2.6150679764
 11
3.4362638509
 21
2.6150679581
  0
LINE
  5
274
100
AcDbEntity
  8
0
100
AcDbLine
 62
7
  6
CONTINUOUS
 10
2.7529412761
 20
2.6150769595
 11
2.7489044768
 21
2.6150767074
  0
LINE
  5
275
100
AcDbEntity
  8
0
100
AcDbLine
 62
7
  6
CONTINUOUS
 10
8.3795356393
 20
2.6268405872
 11
8.3842646411
 21
2.6268410725
  0
LINE
  5
276
100
AcDbEntity
  8
0
100
AcDbLine
 62
7
  6
CONTINUOUS
 10
4.0988055729
 20
2.6268703312
 11
4.2445387786
 21
2.6268686741
  0
LINE
  5
277
100
AcDbEntity
  8
0
100
AcDbLine
 62
7
  6
CONTINUOUS
 10
4.7567185194
 20
2.6268644231
 11
4.9024564696
 21
2.6268631967
  0
LINE
  5
278
100
AcDbEntity
  8
0
100
AcDbLine
 62
7
  6
CONTINUOUS
 10
5.429337784
 20
2.6268587621
 11
5.5750757312
 21
2.6268575352
  0
LINE
  5
279
100
AcDbEntity
  8
0
100
AcDbLine
 62
7
  6
CONTINUOUS
 10
1.875512105
 20
2.626897149
 11
1.9441844563
 21
2.6268963784
  0
LINE
  5
27A
100
AcDbEntity
  8
0
100
AcDbLine
 62
7
  6
CONTINUOUS
 10
8.3874900853
 20
2.6268421468
 11
8.4561658937
 21
2.6268417615
  0
LINE
  5
27B
100
AcDbEntity
  8
0
100
AcDbLine
 62
7
  6
CONTINUOUS
 10
2.9401529996
 20
2.6268818549
 11
3.0858933924
 21
2.6268806285
  0
LINE
  5
27C
100
AcDbEntity
  8
0
100
AcDbLine
 62
7
  6
CONTINUOUS
 10
6.0872666099
 20
2.6268535948
 11
6.2329836612
 21
2.6268523684
  0
LINE
  5
27D
100
AcDbEntity
  8
0
100
AcDbLine
 62
7
  6
CONTINUOUS
 10
2.1537225803
 20
2.6268913409
 11
2.2995249682
 21
2.6268901142
  0
LINE
  5
27E
100
AcDbEntity
  8
0
100
AcDbLine
 62
7
  6
CONTINUOUS
 10
1.9458684995
 20
2.6268947854
 11
2.0916542426
 21
2.6268935576
  0
LINE
  5
27F
100
AcDbEntity
  8
0
100
AcDbLine
 62
7
  6
CONTINUOUS
 10
6.7017035306
 20
2.626849148
 11
6.8474733457
 21
2.626847921
  0
LINE
  5
280
100
AcDbEntity
  8
0
100
AcDbLine
 62
7
  6
CONTINUOUS
 10
3.4843059719
 20
2.6268762278
 11
3.6300756139
 21
2.626875001
  0
LINE
  5
281
100
AcDbEntity
  8
0
100
AcDbLine
 62
7
  6
CONTINUOUS
 10
8.240047853
 20
2.6268418083
 11
8.385834011
 21
2.6268405819
  0
LINE
  5
282
100
AcDbEntity
  8
0
100
AcDbLine
 62
7
  6
CONTINUOUS
 10
7.2458713661
 20
2.6268456152
 11
7.3916119748
 21
2.6268443882
  0
LINE
  5
283
100
AcDbEntity
  8
0
100
AcDbLine
 62
7
  6
CONTINUOUS
 10
8.0322004459
 20
2.6268418639
 11
8.178003095
 21
2.6268406362
  0
LINE
  5
284
100
AcDbEntity
  8
0
100
AcDbLine
 62
7
  6
CONTINUOUS
 10
2.6358311023
 20
2.6268857404
 11
2.4900532374
 21
2.6268869819
  0
LINE
  5
285
100
AcDbEntity
  8
0
100
AcDbLine
 62
7
  6
CONTINUOUS
 10
2.1600115918
 20
2.6268918874
 11
2.1541217265
 21
2.626891649
  0
LINE
  5
286
100
AcDbEntity
  8
0
100
AcDbLine
 62
7
  6
CONTINUOUS
 10
6.5240729637
 20
2.6738161083
 11
6.4843201332
 21
2.6738161083
  0
LINE
  5
287
100
AcDbEntity
  8
0
100
AcDbLine
 62
7
  6
CONTINUOUS
 10
6.0374807377
 20
2.6738161083
 11
5.8578568196
 21
2.6738161083
  0
LINE
  5
288
100
AcDbEntity
  8
0
100
AcDbLine
 62
7
  6
CONTINUOUS
 10
5.6797267385
 20
2.6738161083
 11
5.5971180846
 21
2.6738161083
  0
LINE
  5
289
100
AcDbEntity
  8
0
100
AcDbLine
 62
7
  6
CONTINUOUS
 10
5.2966719609
 20
2.6738161083
 11
5.2553588506
 21
2.6738161083
  0
LINE
  5
28A
100
AcDbEntity
  8
0
100
AcDbLine
 62
7
  6
CONTINUOUS
 10
5.0831726731
 20
2.6738161083
 11
5.0350743141
 21
2.6738161083
  0
LINE
  5
28B
100
AcDbEntity
  8
0
100
AcDbLine
 62
7
  6
CONTINUOUS
 10
4.7346775253
 20
2.6738161083
 11
4.6526646308
 21
2.6738161083
  0
LINE
  5
28C
100
AcDbEntity
  8
0
100
AcDbLine
 62
7
  6
CONTINUOUS
 10
4.4804764314
 20
2.6738161083
 11
4.2942556255
 21
2.6738161083
  0
LINE
  5
28D
100
AcDbEntity
  8
0
100
AcDbLine
 62
7
  6
CONTINUOUS
 10
3.8474110131
 20
2.6738161083
 11
3.8072100486
 21
2.6738161083
  0
LINE
  5
28E
100
AcDbEntity
  8
0
100
AcDbLine
 62
7
  6
CONTINUOUS
 10
6.5523572349
 20
2.685531837
 11
6.4852625813
 21
2.685531837
  0
LINE
  5
28F
100
AcDbEntity
  8
0
100
AcDbLine
 62
7
  6
CONTINUOUS
 10
6.0363939558
 20
2.685531837
 11
5.8588128103
 21
2.685531837
  0
LINE
  5
290
100
AcDbEntity
  8
0
100
AcDbLine
 62
7
  6
CONTINUOUS
 10
5.6786635764
 20
2.685531837
 11
5.598098622
 21
2.685531837
  0
LINE
  5
291
100
AcDbEntity
  8
0
100
AcDbLine
 62
7
  6
CONTINUOUS
 10
5.2956340845
 20
2.685531837
 11
5.2563838591
 21
2.685531837
  0
LINE
  5
292
100
AcDbEntity
  8
0
100
AcDbLine
 62
7
  6
CONTINUOUS
 10
5.0821470781
 20
2.685531837
 11
5.0361123849
 21
2.685531837
  0
LINE
  5
293
100
AcDbEntity
  8
0
100
AcDbLine
 62
7
  6
CONTINUOUS
 10
4.7336971709
 20
2.685531837
 11
4.6537587154
 21
2.685531837
  0
LINE
  5
294
100
AcDbEntity
  8
0
100
AcDbLine
 62
7
  6
CONTINUOUS
 10
4.4795198773
 20
2.685531837
 11
4.2953426024
 21
2.685531837
  0
LINE
  5
295
100
AcDbEntity
  8
0
100
AcDbLine
 62
7
  6
CONTINUOUS
 10
3.8464687602
 20
2.685531837
 11
3.7789257774
 21
2.685531837
  0
LINE
  5
296
100
AcDbEntity
  8
0
100
AcDbLine
 62
7
  6
CONTINUOUS
 10
6.5759257774
 20
2.7091003795
 11
6.4871585049
 21
2.7091003795
  0
LINE
  5
297
100
AcDbEntity
  8
0
100
AcDbLine
 62
7
  6
CONTINUOUS
 10
6.0342076755
 20
2.7091003795
 11
5.8607359775
 21
2.7091003795
  0
LINE
  5
298
100
AcDbEntity
  8
0
100
AcDbLine
 62
7
  6
CONTINUOUS
 10
5.6765248121
 20
2.7091003795
 11
5.6000711699
 21
2.7091003795
  0
LINE
  5
299
100
AcDbEntity
  8
0
100
AcDbLine
 62
7
  6
CONTINUOUS
 10
5.2935461875
 20
2.7091003795
 11
5.2584458698
 21
2.7091003795
  0
LINE
  5
29A
100
AcDbEntity
  8
0
100
AcDbLine
 62
7
  6
CONTINUOUS
 10
5.0800838877
 20
2.7091003795
 11
5.0382006727
 21
2.7091003795
  0
LINE
  5
29B
100
AcDbEntity
  8
0
100
AcDbLine
 62
7
  6
CONTINUOUS
 10
4.7317249911
 20
2.7091003795
 11
4.6559596865
 21
2.7091003795
  0
LINE
  5
29C
100
AcDbEntity
  8
0
100
AcDbLine
 62
7
  6
CONTINUOUS
 10
4.4775955765
 20
2.7091003795
 11
4.2975292751
 21
2.7091003795
  0
LINE
  5
29D
100
AcDbEntity
  8
0
100
AcDbLine
 62
7
  6
CONTINUOUS
 10
3.8445732292
 20
2.7091003795
 11
3.7553572349
 21
2.7091003795
  0
LINE
  5
29E
100
AcDbEntity
  8
0
100
AcDbLine
 62
7
  6
CONTINUOUS
 10
9.0456415062
 20
2.7208161083
 11
1.2856415062
 21
2.7208161083
  0
LINE
  5
29F
100
AcDbEntity
  8
0
100
AcDbLine
 62
7
  6
CONTINUOUS
 10
1.1557117216
 20
2.7438614726
 11
9.17571172
 21
2.7437939705
  0
LINE
  5
2A0
100
AcDbEntity
  8
0
100
AcDbLine
 62
7
  6
CONTINUOUS
 10
6.8364792186
 20
2.6071683359
 11
6.9187508551
 21
2.6071676434
  0
LINE
  5
2A1
100
AcDbEntity
  8
0
100
AcDbLine
 62
7
  6
CONTINUOUS
 10
6.9178559332
 20
2.6071675648
 11
6.9151990506
 21
2.6071680075
  0
LINE
  5
2A2
100
AcDbEntity
  8
0
100
AcDbLine
 62
7
  6
CONTINUOUS
 10
6.8373741226
 20
2.607168169
 11
6.836533711
 21
2.6071683302
  0
LINE
  5
2A3
100
AcDbEntity
  8
0
100
AcDbLine
 62
7
  6
CONTINUOUS
 10
3.0278934628
 20
2.6150802091
 11
3.031652342
 21
2.615080121
  0
LINE
  5
2A4
100
AcDbEntity
  8
0
100
AcDbLine
 62
7
  6
CONTINUOUS
 10
2.6027173128
 20
2.6150791915
 11
2.7285202463
 21
2.6150781328
  0
LINE
  5
2A5
100
AcDbEntity
  8
0
100
AcDbLine
 62
7
  6
CONTINUOUS
 10
7.1779798376
 20
2.6150377131
 11
7.303784331
 21
2.6150366542
  0
LINE
  5
2A6
100
AcDbEntity
  8
0
100
AcDbLine
 62
7
  6
CONTINUOUS
 10
7.4570846521
 20
2.6150418298
 11
7.4593643992
 21
2.6150415533
  0
LINE
  5
2A7
100
AcDbEntity
  8
0
100
AcDbLine
 62
7
  6
CONTINUOUS
 10
7.6959154615
 20
2.6268431511
 11
7.8416899803
 21
2.6268419242
  0
LINE
  5
2A8
100
AcDbEntity
  8
0
100
AcDbLine
 62
7
  6
CONTINUOUS
 10
3.4014621626
 20
2.6253710885
 11
3.3933225566
 21
2.6253541076
  0
LINE
  5
2A9
100
AcDbEntity
  8
0
100
AcDbLine
 62
7
  6
CONTINUOUS
 10
3.2752395443
 20
2.6253731684
 11
3.2722689948
 21
2.6253694364
  0
LINE
  5
2AA
100
AcDbEntity
  8
0
100
AcDbLine
 62
7
  6
CONTINUOUS
 10
3.4178172073
 20
2.6253452244
 11
3.3985752003
 21
2.6253721051
  0
LINE
  5
2AB
100
AcDbEntity
  8
0
100
AcDbLine
 62
7
  6
CONTINUOUS
 10
6.9370557067
 20
2.6253379269
 11
6.9190083937
 21
2.6253256417
  0
LINE
  5
2AC
100
AcDbEntity
  8
0
100
AcDbLine
 62
7
  6
CONTINUOUS
 10
3.3933966374
 20
2.6249726258
 11
3.2735936422
 21
2.6253741758
  0
LINE
  5
2AD
100
AcDbEntity
  8
0
100
AcDbLine
 62
7
  6
CONTINUOUS
 10
3.3393680621
 20
2.6251892555
 11
3.3266672154
 21
2.6252312006
  0
LINE
  5
2AE
100
AcDbEntity
  8
0
100
AcDbLine
 62
7
  6
CONTINUOUS
 10
3.3266672154
 20
2.6252312006
 11
3.3203865312
 21
2.6252515224
  0
LINE
  5
2AF
100
AcDbEntity
  8
0
100
AcDbLine
 62
7
  6
CONTINUOUS
 10
3.27228696
 20
2.6252361255
 11
3.2313122856
 21
2.6253755971
  0
LINE
  5
2B0
100
AcDbEntity
  8
0
100
AcDbLine
 62
7
  6
CONTINUOUS
 10
6.9383831083
 20
2.6253243804
 11
6.9331313541
 21
2.6253423548
  0
LINE
  5
2B1
100
AcDbEntity
  8
0
100
AcDbLine
 62
7
  6
CONTINUOUS
 10
7.0594231326
 20
2.6253377111
 11
7.058098937
 21
2.6253423218
  0
LINE
  5
2B2
100
AcDbEntity
  8
0
100
AcDbLine
 62
7
  6
CONTINUOUS
 10
2.7293482588
 20
2.6327167904
 11
2.650222004
 21
2.6331933823
  0
LINE
  5
2B3
100
AcDbEntity
  8
0
100
AcDbLine
 62
7
  6
CONTINUOUS
 10
1.9262306826
 20
2.6450375988
 11
1.855858192
 21
2.6455867729
  0
LWPOLYLINE
  5
2B4
100
AcDbEntity
  8
0
100
AcDbPolyline
 62
7
  6
CONTINUOUS
 90
3
 70
0
 10
7.0594262277
 20
2.6253379157
 10
7.0590935727
 20
2.6253413527
 10
6.9383052738
 20
2.624943014
  0
LINE
  5
2B5
100
AcDbEntity
  8
0
100
AcDbLine
 62
7
  6
CONTINUOUS
 10
6.9383829366
 20
2.6253243796
 11
6.938050285
 21
2.6253321277
  0
LINE
  5
2B6
100
AcDbEntity
  8
0
100
AcDbLine
 62
7
  6
CONTINUOUS
 10
4.1681713369
 20
2.6252685317
 11
4.1680396979
 21
2.6268697878
  0
LINE
  5
2B7
100
AcDbEntity
  8
0
100
AcDbLine
 62
7
  6
CONTINUOUS
 10
4.16823029
 20
2.6252600108
 11
4.16809795
 21
2.6268697873
  0
LINE
  5
2B8
100
AcDbEntity
  8
0
100
AcDbLine
 62
7
  6
CONTINUOUS
 10
3.9156915446
 20
2.6332534462
 11
3.909028264
 21
2.7208161083
  0
LINE
  5
2B9
100
AcDbEntity
  8
0
100
AcDbLine
 62
7
  6
CONTINUOUS
 10
4.0791571801
 20
2.6450603126
 11
4.0734449779
 21
2.7200947398
  0
LINE
  5
2BA
100
AcDbEntity
  8
0
100
AcDbLine
 62
7
  6
CONTINUOUS
 10
3.710694144
 20
2.6249966737
 11
3.7198968546
 21
2.7208161083
  0
LINE
  5
2BB
100
AcDbEntity
  8
0
100
AcDbLine
 62
7
  6
CONTINUOUS
 10
3.6496525505
 20
2.6444826666
 11
3.6577709967
 21
2.7210390284
  0
LINE
  5
2BC
100
AcDbEntity
  8
0
100
AcDbLine
 62
7
  6
CONTINUOUS
 10
4.2906451003
 20
4.7638379597
 11
4.2906451003
 21
5.1888379597
  0
LINE
  5
2BD
100
AcDbEntity
  8
0
100
AcDbLine
 62
7
  6
CONTINUOUS
 10
4.080742764
 20
2.6328076625
 11
4.0812296222
 21
2.6377282041
  0
LINE
  5
2BE
100
AcDbEntity
  8
0
100
AcDbLine
 62
7
  6
CONTINUOUS
 10
4.20205314
 20
4.7531213885
 11
2.6942642162
 21
3.5645917353
  0
LWPOLYLINE
  5
2BF
100
AcDbEntity
  8
0
100
AcDbPolyline
 62
7
  6
CONTINUOUS
 90
5
 70
0
 10
2.6942636196
 20
3.5645914589
 10
2.6911727549
 20
3.5623412265
 10
2.6880097141
 20
3.5603851587
 10
2.6849062138
 20
3.5587630291
 10
2.6818793757
 20
3.5574347196
  0
LINE
  5
2C0
100
AcDbEntity
  8
0
100
AcDbLine
 62
7
  6
CONTINUOUS
 10
1.3425330151
 20
3.6877454369
 11
1.3425273834
 21
3.6877462581
  0
LINE
  5
2C1
100
AcDbEntity
  8
0
100
AcDbLine
 62
7
  6
CONTINUOUS
 10
4.7369803196
 20
2.6449241465
 11
4.7345627223
 21
2.6738161083
  0
LINE
  5
2C2
100
AcDbEntity
  8
0
100
AcDbLine
 62
7
  6
CONTINUOUS
 10
4.7370965767
 20
2.6449072247
 11
4.7307529653
 21
2.7207165773
  0
LINE
  5
2C3
100
AcDbEntity
  8
0
100
AcDbLine
 62
7
  6
CONTINUOUS
 10
4.4837975253
 20
2.6331398564
 11
4.4766390224
 21
2.7208161083
  0
LINE
  5
2C4
100
AcDbEntity
  8
0
100
AcDbLine
 62
7
  6
CONTINUOUS
 10
4.4771412553
 20
2.6331540985
 11
4.4738239685
 21
2.6738161083
  0
LINE
  5
2C5
100
AcDbEntity
  8
0
100
AcDbLine
 62
7
  6
CONTINUOUS
 10
4.2897314774
 20
2.6250536308
 11
4.2986162521
 21
2.7208161083
  0
LINE
  5
2C6
100
AcDbEntity
  8
0
100
AcDbLine
 62
7
  6
CONTINUOUS
 10
4.264132246
 20
2.6446140472
 11
4.2716988902
 21
2.7210606928
  0
LINE
  5
2C7
100
AcDbEntity
  8
ALL_FEATURES
100
AcDbLine
 62
7
  6
CONTINUOUS
 10
5.6181526284
 20
5.7737952471
 11
5.6006524811
 21
5.7562950643
  0
LINE
  5
2C8
100
AcDbEntity
  8
ALL_FEATURES
100
AcDbLine
 62
7
  6
CONTINUOUS
 10
5.5112429843
 20
5.3743898645
 11
5.5630857779
 21
5.4262317854
  0
LINE
  5
2C9
100
AcDbEntity
  8
0
100
AcDbLine
 62
7
  6
CONTINUOUS
 10
9.0307201618
 20
3.4337948068
 11
9.1757175276
 21
3.4337939704
  0
LINE
  5
2CA
100
AcDbEntity
  8
0
100
AcDbLine
 62
7
  6
CONTINUOUS
 10
1.1557175292
 20
3.4338614726
 11
9.0307201618
 21
3.4337948068
  0
LINE
  5
2CB
100
AcDbEntity
  8
0
100
AcDbLine
 62
7
  6
CONTINUOUS
 10
1.2757185392
 20
3.5538604626
 11
9.0557185376
 21
3.5537949804
  0
LINE
  5
2CC
100
AcDbEntity
  8
0
100
AcDbLine
 62
7
  6
CONTINUOUS
 10
2.2106545746
 20
3.6625239369
 11
2.1515994565
 21
3.6625244339
  0
LINE
  5
2CD
100
AcDbEntity
  8
0
100
AcDbLine
 62
7
  6
CONTINUOUS
 10
1.3570227554
 20
3.681531029
 11
2.2236553704
 21
3.6815237348
  0
LINE
  5
2CE
100
AcDbEntity
  8
0
100
AcDbLine
 62
7
  6
CONTINUOUS
 10
1.3570267987
 20
3.701530976
 11
2.2036559021
 21
3.7015238501
  0
LINE
  5
2CF
100
AcDbEntity
  8
0
100
AcDbLine
 62
7
  6
CONTINUOUS
 10
1.3425302842
 20
4.0323891075
 11
1.3425359159
 21
4.0323882863
  0
LINE
  5
2D0
100
AcDbEntity
  8
0
100
AcDbLine
 62
7
  6
CONTINUOUS
 10
4.9091919943
 20
2.6251816304
 11
4.908948586
 21
2.6279994473
  0
LINE
  5
2D1
100
AcDbEntity
  8
0
100
AcDbLine
 62
7
  6
CONTINUOUS
 10
4.9092597005
 20
2.625171771
 11
4.9090136132
 21
2.6280205906
  0
LINE
  5
2D2
100
AcDbEntity
  8
ALL_FEATURES
100
AcDbLine
 62
7
  6
CONTINUOUS
 10
4.7131526284
 20
5.7738028642
 11
4.7131535332
 21
5.8813028642
  0
LINE
  5
2D3
100
AcDbEntity
  8
ALL_FEATURES
100
AcDbLine
 62
7
  6
CONTINUOUS
 10
4.7306524811
 20
5.7563023869
 11
4.7306501553
 21
5.4799678594
  0
LINE
  5
2D4
100
AcDbEntity
  8
0
100
AcDbLine
 62
7
  6
CONTINUOUS
 10
4.8740928764
 20
4.8888379597
 11
4.8740928764
 21
5.1888379597
  0
LINE
  5
2D5
100
AcDbEntity
  8
0
100
AcDbLine
 62
7
  6
CONTINUOUS
 10
4.6475933925
 20
2.625089342
 11
4.6479032244
 21
2.6285029729
  0
LINE
  5
2D6
100
AcDbEntity
  8
0
100
AcDbLine
 62
7
  6
CONTINUOUS
 10
4.6488446039
 20
2.6329103168
 11
4.6570537711
 21
2.7208161083
  0
LINE
  5
2D7
100
AcDbEntity
  8
0
100
AcDbLine
 62
7
  6
CONTINUOUS
 10
5.3009176679
 20
2.6251354139
 11
5.2966051465
 21
2.6738161083
  0
LINE
  5
2D8
100
AcDbEntity
  8
0
100
AcDbLine
 62
7
  6
CONTINUOUS
 10
5.300985377
 20
2.625125522
 11
5.2925083111
 21
2.7208161083
  0
LINE
  5
2D9
100
AcDbEntity
  8
0
100
AcDbLine
 62
7
  6
CONTINUOUS
 10
5.0798885199
 20
2.633034491
 11
5.0763212294
 21
2.6738161083
  0
LINE
  5
2DA
100
AcDbEntity
  8
0
100
AcDbLine
 62
7
  6
CONTINUOUS
 10
5.0867439833
 20
2.6330197897
 11
5.0790582926
 21
2.7208161083
  0
LINE
  5
2DB
100
AcDbEntity
  8
0
100
AcDbLine
 62
7
  6
CONTINUOUS
 10
5.0307602973
 20
2.6251278547
 11
5.0392387435
 21
2.7208161083
  0
LINE
  5
2DC
100
AcDbEntity
  8
0
100
AcDbLine
 62
7
  6
CONTINUOUS
 10
4.9220655367
 20
2.6447552088
 11
4.9290430118
 21
2.7210796401
  0
LINE
  5
2DD
100
AcDbEntity
  8
0
100
AcDbLine
 62
7
  6
CONTINUOUS
 10
2.6818793757
 20
3.5574347196
 11
2.6789581358
 21
3.5563704319
  0
LINE
  5
2DE
100
AcDbEntity
  8
0
100
AcDbLine
 62
7
  6
CONTINUOUS
 10
1.3570284726
 20
4.0186023974
 11
2.2236582074
 21
4.0185951562
  0
LINE
  5
2DF
100
AcDbEntity
  8
0
100
AcDbLine
 62
7
  6
CONTINUOUS
 10
1.3570257608
 20
4.0386024504
 11
2.2036583758
 21
4.0385953245
  0
LINE
  5
2E0
100
AcDbEntity
  8
0
100
AcDbLine
 62
7
  6
CONTINUOUS
 10
5.409729011
 20
2.6447511413
 11
5.402752769
 21
2.7210751402
  0
LINE
  5
2E1
100
AcDbEntity
  8
0
100
AcDbLine
 62
7
  6
CONTINUOUS
 10
5.4571880659
 20
4.8888379597
 11
5.4571880659
 21
5.1888379597
  0
LINE
  5
2E2
100
AcDbEntity
  8
0
100
AcDbLine
 62
7
  6
CONTINUOUS
 10
5.2517895803
 20
2.6330197637
 11
5.2594708784
 21
2.7208161083
  0
LWPOLYLINE
  5
2E3
100
AcDbEntity
  8
0
100
AcDbPolyline
 62
7
  6
CONTINUOUS
 90
5
 70
0
 10
7.6523380691
 20
3.5563286228
 10
7.6493925519
 20
3.5574027206
 10
7.6463501388
 20
3.5587405217
 10
7.6432394373
 20
3.5603704284
 10
7.6400786987
 20
3.5623299311
  0
LINE
  5
2E4
100
AcDbEntity
  8
0
100
AcDbLine
 62
7
  6
CONTINUOUS
 10
5.6894897357
 20
2.6329002222
 11
5.6812753948
 21
2.7208161083
  0
LINE
  5
2E5
100
AcDbEntity
  8
0
100
AcDbLine
 62
7
  6
CONTINUOUS
 10
5.6828334932
 20
2.6329145277
 11
5.6790145536
 21
2.6738161083
  0
LINE
  5
2E6
100
AcDbEntity
  8
0
100
AcDbLine
 62
7
  6
CONTINUOUS
 10
5.6840845712
 20
2.6250900297
 11
5.6796628646
 21
2.6738161083
  0
LINE
  5
2E7
100
AcDbEntity
  8
0
100
AcDbLine
 62
7
  6
CONTINUOUS
 10
5.684149324
 20
2.6250805378
 11
5.67546165
 21
2.7208161083
  0
LINE
  5
2E8
100
AcDbEntity
  8
ALL_FEATURES
100
AcDbLine
 62
7
  6
CONTINUOUS
 10
5.6006501553
 20
5.4799605368
 11
5.6006524811
 21
5.7562950643
  0
LINE
  5
2E9
100
AcDbEntity
  8
ALL_FEATURES
100
AcDbLine
 62
7
  6
CONTINUOUS
 10
5.6181526284
 20
5.7737952471
 11
5.6181535332
 21
5.8812952471
  0
LINE
  5
2EA
100
AcDbEntity
  8
0
100
AcDbLine
 62
7
  6
CONTINUOUS
 10
5.5946979731
 20
2.6448999525
 11
5.6010744893
 21
2.721088315
  0
LINE
  5
2EB
100
AcDbEntity
  8
0
100
AcDbLine
 62
7
  6
CONTINUOUS
 10
5.4224859723
 20
2.6251674854
 11
5.4227335309
 21
2.628032787
  0
LINE
  5
2EC
100
AcDbEntity
  8
0
100
AcDbLine
 62
7
  6
CONTINUOUS
 10
4.2020523841
 20
4.7531207926
 11
4.2066543103
 21
4.753295237
  0
LINE
  5
2ED
100
AcDbEntity
  8
0
100
AcDbLine
 62
7
  6
CONTINUOUS
 10
4.2020527423
 20
4.7531209178
 11
4.2542511466
 21
4.7548516364
  0
LINE
  5
2EE
100
AcDbEntity
  8
0
100
AcDbLine
 62
7
  6
CONTINUOUS
 10
4.2416837304
 20
4.7544716462
 11
4.2542395213
 21
4.7548443895
  0
LINE
  5
2EF
100
AcDbEntity
  8
0
100
AcDbLine
 62
7
  6
CONTINUOUS
 10
5.8289101499
 20
4.7588732459
 11
5.8307308168
 21
4.7588984506
  0
LINE
  5
2F0
100
AcDbEntity
  8
0
100
AcDbLine
 62
7
  6
CONTINUOUS
 10
4.2330029892
 20
4.7638458098
 11
6.0983154453
 21
4.7638301091
  0
LINE
  5
2F1
100
AcDbEntity
  8
0
100
AcDbLine
 62
7
  6
CONTINUOUS
 10
4.5007545155
 20
4.7589080294
 11
4.5027594473
 21
4.758881286
  0
LINE
  5
2F2
100
AcDbEntity
  8
ALL_FEATURES
100
AcDbLine
 62
7
  6
CONTINUOUS
 10
4.8200555491
 20
5.374395682
 11
4.7682136282
 21
5.4262384757
  0
LINE
  5
2F3
100
AcDbEntity
  8
0
100
AcDbLine
 62
7
  6
CONTINUOUS
 10
6.0676572186
 20
2.6445988891
 11
6.0601144811
 21
2.7208161083
  0
LINE
  5
2F4
100
AcDbEntity
  8
0
100
AcDbLine
 62
7
  6
CONTINUOUS
 10
6.0419464846
 20
2.6250474615
 11
6.037422592
 21
2.6738161083
  0
LINE
  5
2F5
100
AcDbEntity
  8
0
100
AcDbLine
 62
7
  6
CONTINUOUS
 10
6.0420054512
 20
2.6250387848
 11
6.0331208935
 21
2.7208161083
  0
LINE
  5
2F6
100
AcDbEntity
  8
0
100
AcDbLine
 62
7
  6
CONTINUOUS
 10
6.0406451003
 20
4.7638379597
 11
6.0406451003
 21
5.1888379597
  0
LINE
  5
2F7
100
AcDbEntity
  8
0
100
AcDbLine
 62
7
  6
CONTINUOUS
 10
5.8545368477
 20
2.6331296322
 11
5.8616919682
 21
2.7208161083
  0
LINE
  5
2F8
100
AcDbEntity
  8
0
100
AcDbLine
 62
7
  6
CONTINUOUS
 10
4.8740928764
 20
4.8888379597
 11
5.4571880659
 21
4.8888379597
  0
LINE
  5
2F9
100
AcDbEntity
  8
ALL_FEATURES
100
AcDbLine
 62
7
  6
CONTINUOUS
 10
4.7306524811
 20
5.7563023869
 11
4.7131526284
 21
5.7738028642
  0
LINE
  5
2FA
100
AcDbEntity
  8
0
100
AcDbLine
 62
7
  6
CONTINUOUS
 10
6.2509353299
 20
2.6328011904
 11
6.2504668405
 21
2.6375368968
  0
LINE
  5
2FB
100
AcDbEntity
  8
0
100
AcDbLine
 62
7
  6
CONTINUOUS
 10
6.257005518
 20
2.6327881131
 11
6.2540063185
 21
2.6630872089
  0
LINE
  5
2FC
100
AcDbEntity
  8
0
100
AcDbLine
 62
7
  6
CONTINUOUS
 10
6.1635066317
 20
2.6252431988
 11
6.163639037
 21
2.6268534443
  0
LINE
  5
2FD
100
AcDbEntity
  8
0
100
AcDbLine
 62
7
  6
CONTINUOUS
 10
4.2906451003
 20
5.1888379597
 11
6.0406451003
 21
5.1888379597
  0
LINE
  5
2FE
100
AcDbEntity
  8
ALL_FEATURES
100
AcDbLine
 62
7
  6
CONTINUOUS
 10
5.51126755
 20
5.2612272725
 11
4.8200290785
 21
5.2612330905
  0
LINE
  5
2FF
100
AcDbEntity
  8
ALL_FEATURES
100
AcDbLine
 62
7
  6
CONTINUOUS
 10
5.5112429843
 20
5.3743898645
 11
4.8200555491
 21
5.374395682
  0
LINE
  5
300
100
AcDbEntity
  8
ALL_FEATURES
100
AcDbLine
 62
7
  6
CONTINUOUS
 10
4.7682136282
 20
5.4262384757
 11
5.5630857779
 21
5.4262317854
  0
LWPOLYLINE
  5
301
100
AcDbEntity
  8
0
100
AcDbPolyline
 62
7
  6
CONTINUOUS
 90
7
 70
0
 10
6.1292651652
 20
4.7530973046
 10
6.1248780165
 20
4.7561888469
 10
6.1199759825
 20
4.7588932941
 10
6.114802424
 20
4.7610327031
 10
6.1094222186
 20
4.7625802793
 10
6.1039028269
 20
4.7635166508
 10
6.09831345
 20
4.7638301091
  0
LINE
  5
302
100
AcDbEntity
  8
0
100
AcDbLine
 62
7
  6
CONTINUOUS
 10
7.6400786987
 20
3.5623299311
 11
7.6370330147
 21
3.564549909
  0
LINE
  5
303
100
AcDbEntity
  8
0
100
AcDbLine
 62
7
  6
CONTINUOUS
 10
7.6370326266
 20
3.5645501232
 11
6.1292684073
 21
4.7531014533
  0
LINE
  5
304
100
AcDbEntity
  8
0
100
AcDbLine
 62
7
  6
CONTINUOUS
 10
6.6821269724
 20
2.6444571518
 11
6.6740306711
 21
2.7208161083
  0
LINE
  5
305
100
AcDbEntity
  8
0
100
AcDbLine
 62
7
  6
CONTINUOUS
 10
6.620983816
 20
2.6249780061
 11
6.6117809403
 21
2.7208161083
  0
LINE
  5
306
100
AcDbEntity
  8
0
100
AcDbLine
 62
7
  6
CONTINUOUS
 10
6.621023844
 20
2.6249720523
 11
6.6118203753
 21
2.7208161083
  0
LINE
  5
307
100
AcDbEntity
  8
0
100
AcDbLine
 62
7
  6
CONTINUOUS
 10
6.4220567966
 20
2.6332335392
 11
6.4287178827
 21
2.7208161083
  0
LINE
  5
308
100
AcDbEntity
  8
0
100
AcDbLine
 62
7
  6
CONTINUOUS
 10
6.2526322908
 20
2.6450419472
 11
6.2584200429
 21
2.7210531518
  0
LINE
  5
309
100
AcDbEntity
  8
0
100
AcDbLine
 62
7
  6
CONTINUOUS
 10
6.4804154205
 20
2.6252759725
 11
6.4881009529
 21
2.7208161083
  0
LINE
  5
30A
100
AcDbEntity
  8
ALL_FEATURES
100
AcDbLine
 62
7
  6
CONTINUOUS
 10
4.730650822
 20
5.5591745366
 11
5.6006508219
 21
5.559167214
  0
LINE
  5
30B
100
AcDbEntity
  8
0
100
AcDbLine
 62
7
  6
CONTINUOUS
 10
6.7425260243
 20
2.6253033628
 11
6.7426481275
 21
2.6268496023
  0
LINE
  5
30C
100
AcDbEntity
  8
ALL_FEATURES
100
AcDbLine
 62
7
  6
CONTINUOUS
 10
5.6181535332
 20
5.8812952471
 11
4.7131535332
 21
5.8813028642
  0
LINE
  5
30D
100
AcDbEntity
  8
0
100
AcDbLine
 62
7
  6
CONTINUOUS
 10
7.154490789
 20
2.6326200649
 11
7.1449856754
 21
2.7208161083
  0
LINE
  5
30E
100
AcDbEntity
  8
0
100
AcDbLine
 62
7
  6
CONTINUOUS
 10
7.1583851135
 20
2.6326116153
 11
7.148875726
 21
2.7208161083
  0
LINE
  5
30F
100
AcDbEntity
  8
0
100
AcDbLine
 62
7
  6
CONTINUOUS
 10
6.8671132099
 20
2.6451750008
 11
6.8723351167
 21
2.7207497542
  0
LINE
  5
310
100
AcDbEntity
  8
0
100
AcDbLine
 62
7
  6
CONTINUOUS
 10
6.921366876
 20
2.6333254575
 11
6.9275944168
 21
2.7208161083
  0
LINE
  5
311
100
AcDbEntity
  8
0
100
AcDbLine
 62
7
  6
CONTINUOUS
 10
7.1077127412
 20
2.7208161083
 11
7.1003656692
 21
2.6253428917
  0
LINE
  5
312
100
AcDbEntity
  8
0
100
AcDbLine
 62
7
  6
CONTINUOUS
 10
7.0594262063
 20
2.625337638
 11
7.0667956759
 21
2.7208161083
  0
LINE
  5
313
100
AcDbEntity
  8
0
100
AcDbLine
 62
7
  6
CONTINUOUS
 10
6.9383829251
 20
2.6253242321
 11
6.9458184678
 21
2.7208161083
  0
LINE
  5
314
100
AcDbEntity
  8
0
100
AcDbLine
 62
7
  6
CONTINUOUS
 10
7.2262837099
 20
2.644332177
 11
7.217695299
 21
2.7208161083
  0
LINE
  5
315
100
AcDbEntity
  8
0
100
AcDbLine
 62
7
  6
CONTINUOUS
 10
7.4112842462
 20
2.6452933244
 11
7.4159946385
 21
2.7202298318
  0
LINE
  5
316
100
AcDbEntity
  8
0
100
AcDbLine
 62
7
  6
CONTINUOUS
 10
6.5759257774
 20
2.7091003795
 11
6.5523572349
 21
2.685531837
  0
LINE
  5
317
100
AcDbEntity
  8
0
100
AcDbLine
 62
7
  6
CONTINUOUS
 10
7.6763460873
 20
2.6442294492
 11
7.6673493562
 21
2.7208161083
  0
LINE
  5
318
100
AcDbEntity
  8
0
100
AcDbLine
 62
7
  6
CONTINUOUS
 10
7.4374340719
 20
2.6325628546
 11
7.4276782144
 21
2.7208161083
  0
LINE
  5
319
100
AcDbEntity
  8
0
100
AcDbLine
 62
7
  6
CONTINUOUS
 10
7.4398650403
 20
2.6325575411
 11
7.4301064942
 21
2.7208161083
  0
LINE
  5
31A
100
AcDbEntity
  8
0
100
AcDbLine
 62
7
  6
CONTINUOUS
 10
7.6049336196
 20
2.6334530487
 11
7.6105692621
 21
2.7208161083
  0
LINE
  5
31B
100
AcDbEntity
  8
0
100
AcDbLine
 62
7
  6
CONTINUOUS
 10
8.0125976066
 20
2.644160612
 11
8.0032959583
 21
2.7208161083
  0
LINE
  5
31C
100
AcDbEntity
  8
0
100
AcDbLine
 62
7
  6
CONTINUOUS
 10
8.01264516
 20
2.6441536185
 11
8.0033426218
 21
2.7208161083
  0
LINE
  5
31D
100
AcDbEntity
  8
0
100
AcDbLine
 62
7
  6
CONTINUOUS
 10
7.8613615928
 20
2.6453917827
 11
7.8657290405
 21
2.7210813786
  0
LINE
  5
31E
100
AcDbEntity
  8
0
100
AcDbLine
 62
7
  6
CONTINUOUS
 10
8.220459566
 20
2.6441116187
 11
8.2109018421
 21
2.7213533005
  0
LINE
  5
31F
100
AcDbEntity
  8
0
100
AcDbLine
 62
7
  6
CONTINUOUS
 10
8.1976737462
 20
2.6454660977
 11
8.2017453542
 21
2.7210754053
  0
LINE
  5
320
100
AcDbEntity
  8
0
100
AcDbLine
 62
7
  6
CONTINUOUS
 10
8.4796472955
 20
2.7210682145
 11
8.4758201191
 21
2.6455312209
  0
LINE
  5
321
100
AcDbEntity
  8
0
100
AcDbLine
 62
7
  6
CONTINUOUS
 10
8.4055214143
 20
2.6455130596
 11
8.4094103826
 21
2.7210695768
  0
LINE
  5
322
100
AcDbEntity
  8
0
100
AcDbLine
 62
7
  6
CONTINUOUS
 10
9.0186415062
 20
2.7437949084
 11
9.0186415062
 21
2.7208161083
  0
LINE
  5
323
100
AcDbEntity
  8
0
100
AcDbLine
 62
7
  6
CONTINUOUS
 10
9.0307189918
 20
3.5537951246
 11
9.0307143542
 21
2.7437948068
  0
LINE
  5
324
100
AcDbEntity
  8
0
100
AcDbLine
 62
7
  6
CONTINUOUS
 10
9.1757175276
 20
3.4337939704
 11
9.17571172
 21
2.7437939705
  0
ARC
  5
325
100
AcDbEntity
  8
0
100
AcDbCircle
 62
7
  6
CONTINUOUS
 10
-13.064385598
 20
-19.6502688304
 40
30.8759953049
100
AcDbArc
 50
52.070836186
 51
52.2378170394
  0
ARC
  5
326
100
AcDbEntity
  8
0
100
AcDbCircle
 62
7
  6
CONTINUOUS
 10
3.86408122
 20
-18.4340085777
 40
21.0593762559
100
AcDbArc
 50
89.8530319693
 51
89.9800496548
  0
ARC
  5
327
100
AcDbEntity
  8
0
100
AcDbCircle
 62
7
  6
CONTINUOUS
 10
4.6911589695
 20
-14.7052040907
 40
19.4653374787
100
AcDbArc
 50
90.6045461006
 51
90.8111892015
  0
ARC
  5
328
100
AcDbEntity
  8
0
100
AcDbCircle
 62
7
  6
CONTINUOUS
 10
2.765105071
 20
-0.4657460082
 40
6.0652780793
100
AcDbArc
 50
58.465243066
 51
59.4770101094
  0
ARC
  5
329
100
AcDbEntity
  8
0
100
AcDbCircle
 62
7
  6
CONTINUOUS
 10
1.2856415062
 20
2.7808161083
 40
0.06
100
AcDbArc
 50
218.046533641
 51
270.0
  0
ARC
  5
32A
100
AcDbEntity
  8
0
100
AcDbCircle
 62
7
  6
CONTINUOUS
 10
1.9458539585
 20
2.6465800328
 40
0.019684802
100
AcDbArc
 50
182.9454136955
 51
269.9618337766
  0
ARC
  5
32B
100
AcDbEntity
  8
0
100
AcDbCircle
 62
7
  6
CONTINUOUS
 10
2.1537250829
 20
2.6465763643
 40
0.019684802
100
AcDbArc
 50
183.0814712017
 51
269.9552264221
  0
ARC
  5
32C
100
AcDbEntity
  8
0
100
AcDbCircle
 62
7
  6
CONTINUOUS
 10
1.8755246586
 20
2.6465824907
 40
0.019684799
100
AcDbArc
 50
182.8984266082
 51
269.9632166054
  0
ARC
  5
32D
100
AcDbEntity
  8
0
100
AcDbCircle
 62
7
  6
CONTINUOUS
 10
2.0916691077
 20
2.6465788139
 40
0.019684799
100
AcDbArc
 50
269.9836658733
 51
352.9451223432
  0
ARC
  5
32E
100
AcDbEntity
  8
0
100
AcDbCircle
 62
7
  6
CONTINUOUS
 10
1.5236568732
 20
3.8600653372
 40
0.25
100
AcDbArc
 50
136.4259254499
 51
223.5731100618
  0
ARC
  5
32F
100
AcDbEntity
  8
0
100
AcDbCircle
 62
7
  6
CONTINUOUS
 10
1.5236572366
 20
3.8600652842
 40
0.23
100
AcDbArc
 50
136.4254932902
 51
223.5737130455
  0
ARC
  5
330
100
AcDbEntity
  8
0
100
AcDbCircle
 62
7
  6
CONTINUOUS
 10
1.2757175292
 20
3.4338604626
 40
0.12
100
AcDbArc
 50
89.9995177544
 51
179.9995177572
  0
ARC
  5
331
100
AcDbEntity
  8
0
100
AcDbCircle
 62
7
  6
CONTINUOUS
 10
1.2755770998
 20
3.4338809388
 40
0.12
100
AcDbArc
 50
89.9995177544
 51
179.9995177572
  0
ARC
  5
332
100
AcDbEntity
  8
0
100
AcDbCircle
 62
7
  6
CONTINUOUS
 10
2.2036525757
 20
4.0185961457
 40
0.02
100
AcDbArc
 50
359.9995177572
 51
89.9995177544
  0
ARC
  5
333
100
AcDbEntity
  8
0
100
AcDbCircle
 62
7
  6
CONTINUOUS
 10
1.3570229238
 20
3.701531029
 40
0.02
100
AcDbArc
 50
223.5731100618
 51
269.9995177544
  0
ARC
  5
334
100
AcDbEntity
  8
0
100
AcDbCircle
 62
7
  6
CONTINUOUS
 10
1.3570199608
 20
4.0186032715
 40
0.02
100
AcDbArc
 50
89.9995177544
 51
136.4259254499
  0
ARC
  5
335
100
AcDbEntity
  8
0
100
AcDbCircle
 62
7
  6
CONTINUOUS
 10
2.1365994986
 20
3.6675245602
 40
0.015
100
AcDbArc
 50
359.9995177572
 51
69.0602226556
  0
ARC
  5
336
100
AcDbEntity
  8
0
100
AcDbCircle
 62
7
  6
CONTINUOUS
 10
2.9401392646
 20
2.646566494
 40
0.0196848108
100
AcDbArc
 50
183.5962183116
 51
269.9692372876
  0
ARC
  5
337
100
AcDbEntity
  8
0
100
AcDbCircle
 62
7
  6
CONTINUOUS
 10
2.4900532335
 20
2.6465717842
 40
0.019684802
100
AcDbArc
 50
183.301658242
 51
269.9605418121
  0
ARC
  5
338
100
AcDbEntity
  8
0
100
AcDbCircle
 62
7
  6
CONTINUOUS
 10
2.2995227923
 20
2.6465751435
 40
0.019684799
100
AcDbArc
 50
270.0555830128
 51
353.0803570206
  0
ARC
  5
339
100
AcDbEntity
  8
0
100
AcDbCircle
 62
7
  6
CONTINUOUS
 10
2.6358350699
 20
2.6465705602
 40
0.019684799
100
AcDbArc
 50
270.0417418695
 51
353.299330444
  0
ARC
  5
33A
100
AcDbEntity
  8
0
100
AcDbCircle
 62
7
  6
CONTINUOUS
 10
3.085907475
 20
2.6465652608
 40
0.0196847946
100
AcDbArc
 50
270.0297725331
 51
353.5924967409
  0
ARC
  5
33B
100
AcDbEntity
  8
0
100
AcDbCircle
 62
7
  6
CONTINUOUS
 10
2.7488273135
 20
2.6347614491
 40
0.0196847838
100
AcDbArc
 50
183.691316545
 51
269.9986258058
  0
ARC
  5
33C
100
AcDbEntity
  8
0
100
AcDbCircle
 62
7
  6
CONTINUOUS
 10
2.6026936504
 20
2.6347644957
 40
0.0196847838
100
AcDbArc
 50
203.6247344021
 51
269.9983932372
  0
ARC
  5
33D
100
AcDbEntity
  8
0
100
AcDbCircle
 62
7
  6
CONTINUOUS
 10
3.0317718106
 20
2.6347574113
 40
0.0196847838
100
AcDbArc
 50
203.6173058544
 51
269.9988380675
  0
ARC
  5
33E
100
AcDbEntity
  8
0
100
AcDbCircle
 62
7
  6
CONTINUOUS
 10
2.8746706326
 20
2.6347604044
 40
0.0196847692
100
AcDbArc
 50
270.0004149398
 51
353.6909374416
  0
ARC
  5
33F
100
AcDbEntity
  8
0
100
AcDbCircle
 62
7
  6
CONTINUOUS
 10
2.6018671133
 20
2.6347659828
 40
0.0196847692
100
AcDbArc
 50
203.6293877111
 51
269.9985181825
  0
ARC
  5
340
100
AcDbEntity
  8
0
100
AcDbCircle
 62
7
  6
CONTINUOUS
 10
3.0278773444
 20
2.6347649012
 40
0.0196847692
100
AcDbArc
 50
203.6406816764
 51
269.9989583737
  0
ARC
  5
341
100
AcDbEntity
  8
0
100
AcDbCircle
 62
7
  6
CONTINUOUS
 10
2.7463961679
 20
2.6347660734
 40
0.0196847692
100
AcDbArc
 50
241.198950306
 51
269.9987505617
  0
ARC
  5
342
100
AcDbEntity
  8
0
100
AcDbCircle
 62
7
  6
CONTINUOUS
 10
2.7285442414
 20
2.6347634596
 40
0.0196847692
100
AcDbArc
 50
270.0006553599
 51
301.0654195475
  0
ARC
  5
343
100
AcDbEntity
  8
0
100
AcDbCircle
 62
7
  6
CONTINUOUS
 10
3.1576085095
 20
2.6347563544
 40
0.0196847692
100
AcDbArc
 50
270.0001915709
 51
353.8479121626
  0
ARC
  5
344
100
AcDbEntity
  8
0
100
AcDbCircle
 62
7
  6
CONTINUOUS
 10
2.7609321804
 20
3.4629055008
 40
0.1203333155
100
AcDbArc
 50
123.2880465382
 51
124.1422739049
  0
ARC
  5
345
100
AcDbEntity
  8
0
100
AcDbCircle
 62
7
  6
CONTINUOUS
 10
2.6655606174
 20
3.6029701884
 40
0.0491183072
100
AcDbArc
 50
270.0277295816
 51
304.5185168706
  0
ARC
  5
346
100
AcDbEntity
  8
0
100
AcDbCircle
 62
7
  6
CONTINUOUS
 10
3.8072100486
 20
2.7138161083
 40
0.04
100
AcDbArc
 50
225.0
 51
270.0
  0
ARC
  5
347
100
AcDbEntity
  8
0
100
AcDbCircle
 62
7
  6
CONTINUOUS
 10
3.7270729637
 20
2.6808161083
 40
0.04
100
AcDbArc
 50
45.0
 51
90.0
  0
ARC
  5
348
100
AcDbEntity
  8
0
100
AcDbCircle
 62
7
  6
CONTINUOUS
 10
4.1878499246
 20
2.6268729382
 40
0.0196848528
100
AcDbArc
 50
184.6997404147
 51
269.9995177544
  0
ARC
  5
349
100
AcDbEntity
  8
0
100
AcDbCircle
 62
7
  6
CONTINUOUS
 10
3.6088175329
 20
2.6268794586
 40
0.0196848528
100
AcDbArc
 50
184.5142131329
 51
269.9995177544
  0
ARC
  5
34A
100
AcDbEntity
  8
0
100
AcDbCircle
 62
7
  6
CONTINUOUS
 10
3.2918947375
 20
2.6268843485
 40
0.0196848528
100
AcDbArc
 50
184.4126432614
 51
269.9995177544
  0
ARC
  5
34B
100
AcDbEntity
  8
0
100
AcDbCircle
 62
7
  6
CONTINUOUS
 10
3.8709360088
 20
2.6268763354
 40
0.0196848528
100
AcDbArc
 50
184.5982056797
 51
269.9995177544
  0
ARC
  5
34C
100
AcDbEntity
  8
0
100
AcDbCircle
 62
7
  6
CONTINUOUS
 10
3.4129503298
 20
2.6268821684
 40
0.0196848528
100
AcDbArc
 50
184.4514420174
 51
269.9995177544
  0
ARC
  5
34D
100
AcDbEntity
  8
0
100
AcDbCircle
 62
7
  6
CONTINUOUS
 10
3.2509412615
 20
2.6268857263
 40
0.0196848512
100
AcDbArc
 50
184.3993093176
 51
269.9938866209
  0
ARC
  5
34E
100
AcDbEntity
  8
0
100
AcDbCircle
 62
7
  6
CONTINUOUS
 10
3.6910976589
 20
2.6268787673
 40
0.0196848512
100
AcDbArc
 50
269.9995177544
 51
354.5140232206
  0
ARC
  5
34F
100
AcDbEntity
  8
0
100
AcDbCircle
 62
7
  6
CONTINUOUS
 10
3.3741752143
 20
2.6268836587
 40
0.0196848512
100
AcDbArc
 50
269.9995177544
 51
350.4926061875
  0
ARC
  5
350
100
AcDbEntity
  8
0
100
AcDbCircle
 62
7
  6
CONTINUOUS
 10
3.9532160053
 20
2.626875649
 40
0.0196848512
100
AcDbArc
 50
269.9995177544
 51
323.0402438796
  0
ARC
  5
351
100
AcDbEntity
  8
0
100
AcDbCircle
 62
7
  6
CONTINUOUS
 10
3.4952306179
 20
2.6268814779
 40
0.0196848512
100
AcDbArc
 50
269.9995177544
 51
323.0375640375
  0
ARC
  5
352
100
AcDbEntity
  8
0
100
AcDbCircle
 62
7
  6
CONTINUOUS
 10
3.4843122402
 20
2.6465607295
 40
0.0196848108
100
AcDbArc
 50
183.9521351658
 51
269.9800691949
  0
ARC
  5
353
100
AcDbEntity
  8
0
100
AcDbCircle
 62
7
  6
CONTINUOUS
 10
4.0987891988
 20
2.6465547382
 40
0.0196848108
100
AcDbArc
 50
184.3537380679
 51
269.9904688936
  0
ARC
  5
354
100
AcDbEntity
  8
0
100
AcDbCircle
 62
7
  6
CONTINUOUS
 10
3.6300696957
 20
2.6465594792
 40
0.0196847946
100
AcDbArc
 50
270.0189244301
 51
353.947080961
  0
ARC
  5
355
100
AcDbEntity
  8
0
100
AcDbCircle
 62
7
  6
CONTINUOUS
 10
3.5609145471
 20
2.6347515594
 40
0.0196847843
100
AcDbArc
 50
269.9999934674
 51
336.3821237599
  0
ARC
  5
356
100
AcDbEntity
  8
0
100
AcDbCircle
 62
7
  6
CONTINUOUS
 10
4.0611500691
 20
2.6347462864
 40
0.0196847843
100
AcDbArc
 50
269.9998563425
 51
354.3494418918
  0
ARC
  5
357
100
AcDbEntity
  8
0
100
AcDbCircle
 62
7
  6
CONTINUOUS
 10
3.4350834315
 20
2.6347526042
 40
0.0196847686
100
AcDbArc
 50
184.0734182905
 51
269.9990092051
  0
ARC
  5
358
100
AcDbEntity
  8
0
100
AcDbCircle
 62
7
  6
CONTINUOUS
 10
3.935323177
 20
2.6347473162
 40
0.0196847686
100
AcDbArc
 50
184.3517929039
 51
269.999160073
  0
ARC
  5
359
100
AcDbEntity
  8
0
100
AcDbCircle
 62
7
  6
CONTINUOUS
 10
4.9288719549
 20
2.6268659192
 40
0.0196848528
100
AcDbArc
 50
184.9370862321
 51
269.9995177544
  0
ARC
  5
35A
100
AcDbEntity
  8
0
100
AcDbCircle
 62
7
  6
CONTINUOUS
 10
4.5457086207
 20
2.6268694148
 40
0.0196848528
100
AcDbArc
 50
216.9562903449
 51
269.9995177544
  0
ARC
  5
35B
100
AcDbEntity
  8
0
100
AcDbCircle
 62
7
  6
CONTINUOUS
 10
5.0111518038
 20
2.6268652646
 40
0.0196848512
100
AcDbArc
 50
269.9995177544
 51
354.9365422921
  0
ARC
  5
35C
100
AcDbEntity
  8
0
100
AcDbCircle
 62
7
  6
CONTINUOUS
 10
4.270129828
 20
2.6268722633
 40
0.0196848512
100
AcDbArc
 50
269.9995177544
 51
354.6993279152
  0
ARC
  5
35D
100
AcDbEntity
  8
0
100
AcDbCircle
 62
7
  6
CONTINUOUS
 10
4.6279884742
 20
2.6268687507
 40
0.0196848512
100
AcDbArc
 50
269.9995177544
 51
354.8138748745
  0
ARC
  5
35E
100
AcDbEntity
  8
0
100
AcDbCircle
 62
7
  6
CONTINUOUS
 10
4.7567145486
 20
2.6465487818
 40
0.0196848108
100
AcDbArc
 50
184.7834109529
 51
269.9968078919
  0
ARC
  5
35F
100
AcDbEntity
  8
0
100
AcDbCircle
 62
7
  6
CONTINUOUS
 10
4.2445392249
 20
2.6465534688
 40
0.0196847946
100
AcDbArc
 50
270.0085101367
 51
354.3476429159
  0
ARC
  5
360
100
AcDbEntity
  8
0
100
AcDbCircle
 62
7
  6
CONTINUOUS
 10
4.9024607958
 20
2.6465474923
 40
0.0196847946
100
AcDbArc
 50
270.0021617535
 51
354.7767462398
  0
ARC
  5
361
100
AcDbEntity
  8
0
100
AcDbCircle
 62
7
  6
CONTINUOUS
 10
4.6292432042
 20
2.6347408416
 40
0.0196847843
100
AcDbArc
 50
269.9997698424
 51
354.6649351212
  0
ARC
  5
362
100
AcDbEntity
  8
0
100
AcDbCircle
 62
7
  6
CONTINUOUS
 10
5.0994996653
 20
2.6347499371
 40
0.0196847689
100
AcDbArc
 50
184.9991085752
 51
269.9993307559
  0
ARC
  5
363
100
AcDbEntity
  8
0
100
AcDbCircle
 62
7
  6
CONTINUOUS
 10
4.4967627217
 20
2.6347548277
 40
0.0196847689
100
AcDbArc
 50
184.6640562431
 51
269.9993183744
  0
ARC
  5
364
100
AcDbEntity
  8
0
100
AcDbCircle
 62
7
  6
CONTINUOUS
 10
4.503418929
 20
2.6347418558
 40
0.0196847686
100
AcDbArc
 50
184.6677598398
 51
269.9992607378
  0
ARC
  5
365
100
AcDbEntity
  8
0
100
AcDbCircle
 62
7
  6
CONTINUOUS
 10
5.1063550272
 20
2.6347365403
 40
0.0196847686
100
AcDbArc
 50
185.0029210529
 51
269.9993053554
  0
ARC
  5
366
100
AcDbEntity
  8
ALL_FEATURES
100
AcDbCircle
 62
7
  6
CONTINUOUS
 10
5.1656454026
 20
4.9152990557
 40
0.489
100
AcDbArc
 50
34.0245079546
 51
45.0253582187
  0
ARC
  5
367
100
AcDbEntity
  8
ALL_FEATURES
100
AcDbCircle
 62
7
  6
CONTINUOUS
 10
5.1656454026
 20
4.9152990557
 40
0.489
100
AcDbArc
 50
134.9736772901
 51
145.9754984438
  0
ARC
  5
368
100
AcDbEntity
  8
ALL_FEATURES
100
AcDbCircle
 62
7
  6
CONTINUOUS
 10
4.7634865305
 20
5.3178276157
 40
0.08
100
AcDbArc
 50
314.9736772901
 51
44.9995177543
  0
ARC
  5
369
100
AcDbEntity
  8
0
100
AcDbCircle
 62
7
  6
CONTINUOUS
 10
4.233009445
 20
4.7138458097
 40
0.05
100
AcDbArc
 50
89.9995178167
 51
128.2445500054
  0
ARC
  5
36A
100
AcDbEntity
  8
0
100
AcDbCircle
 62
7
  6
CONTINUOUS
 10
4.5026652136
 20
4.7393738723
 40
0.0244679071
100
AcDbArc
 50
90.0029311175
 51
93.8667558061
  0
ARC
  5
36B
100
AcDbEntity
  8
0
100
AcDbCircle
 62
7
  6
CONTINUOUS
 10
5.166025394
 20
30.3455324583
 40
25.5924271889
100
AcDbArc
 50
269.7584259387
 51
270.2400592438
  0
ARC
  5
36C
100
AcDbEntity
  8
ALL_FEATURES
100
AcDbCircle
 62
7
  6
CONTINUOUS
 10
4.901150822
 20
5.5591734316
 40
0.188
100
AcDbArc
 50
204.9170830714
 51
224.9995177543
  0
ARC
  5
36D
100
AcDbEntity
  8
0
100
AcDbCircle
 62
7
  6
CONTINUOUS
 10
5.6379530409
 20
-14.7557352811
 40
19.5158784308
100
AcDbArc
 50
89.1113666609
 51
89.3904756729
  0
ARC
  5
36E
100
AcDbEntity
  8
0
100
AcDbCircle
 62
7
  6
CONTINUOUS
 10
6.4627729792
 20
-14.918027523
 40
17.543372165
100
AcDbArc
 50
90.0080239975
 51
90.1408139523
  0
ARC
  5
36F
100
AcDbEntity
  8
0
100
AcDbCircle
 62
7
  6
CONTINUOUS
 10
6.8950755748
 20
-8.992842706
 40
11.626330708
100
AcDbArc
 50
90.0070067899
 51
90.1540026339
  0
ARC
  5
370
100
AcDbEntity
  8
0
100
AcDbCircle
 62
7
  6
CONTINUOUS
 10
5.7989794802
 20
-4.9260454097
 40
9.684869346
100
AcDbArc
 50
88.342998802
 51
89.15196086
  0
ARC
  5
371
100
AcDbEntity
  8
ALL_FEATURES
100
AcDbCircle
 62
7
  6
CONTINUOUS
 10
5.5678110506
 20
5.3178208458
 40
0.08
100
AcDbArc
 50
134.9995177545
 51
225.0253582187
  0
ARC
  5
372
100
AcDbEntity
  8
0
100
AcDbCircle
 62
7
  6
CONTINUOUS
 10
6.5240729637
 20
2.7138161083
 40
0.04
100
AcDbArc
 50
270.0
 51
315.0
  0
ARC
  5
373
100
AcDbEntity
  8
0
100
AcDbCircle
 62
7
  6
CONTINUOUS
 10
6.6042100486
 20
2.6808161083
 40
0.04
100
AcDbArc
 50
90.0
 51
135.0
  0
ARC
  5
374
100
AcDbEntity
  8
0
100
AcDbCircle
 62
7
  6
CONTINUOUS
 10
5.8286752789
 20
4.7393562017
 40
0.024474417
100
AcDbArc
 50
85.9779857565
 51
89.9957919979
  0
ARC
  5
375
100
AcDbEntity
  8
0
100
AcDbCircle
 62
7
  6
CONTINUOUS
 10
6.8364748654
 20
2.6268531972
 40
0.0196848528
100
AcDbArc
 50
216.9620642616
 51
269.9995177544
  0
ARC
  5
376
100
AcDbEntity
  8
0
100
AcDbCircle
 62
7
  6
CONTINUOUS
 10
6.378512429
 20
2.626855115
 40
0.0196848528
100
AcDbArc
 50
216.9578669535
 51
269.9995177544
  0
ARC
  5
377
100
AcDbEntity
  8
0
100
AcDbCircle
 62
7
  6
CONTINUOUS
 10
5.7037541819
 20
2.6268596148
 40
0.0196848528
100
AcDbArc
 50
185.1851830294
 51
269.9995177544
  0
ARC
  5
378
100
AcDbEntity
  8
0
100
AcDbCircle
 62
7
  6
CONTINUOUS
 10
6.9575167193
 20
2.6268533289
 40
0.0196848528
100
AcDbArc
 50
189.6470928612
 51
269.9995177544
  0
ARC
  5
379
100
AcDbEntity
  8
0
100
AcDbCircle
 62
7
  6
CONTINUOUS
 10
6.6406201724
 20
2.626853802
 40
0.0196848528
100
AcDbArc
 50
185.4850257961
 51
269.9995177544
  0
ARC
  5
37A
100
AcDbEntity
  8
0
100
AcDbCircle
 62
7
  6
CONTINUOUS
 10
6.0616070032
 20
2.6268570815
 40
0.0196848528
100
AcDbArc
 50
185.2997278191
 51
269.9995177544
  0
ARC
  5
37B
100
AcDbEntity
  8
0
100
AcDbCircle
 62
7
  6
CONTINUOUS
 10
5.3205938508
 20
2.6268626043
 40
0.0196848528
100
AcDbArc
 50
185.0625167507
 51
269.9995177544
  0
ARC
  5
37C
100
AcDbEntity
  8
0
100
AcDbCircle
 62
7
  6
CONTINUOUS
 10
6.9187555113
 20
2.6268525329
 40
0.0196848512
100
AcDbArc
 50
269.9995177544
 51
355.5476026647
  0
ARC
  5
37D
100
AcDbEntity
  8
0
100
AcDbCircle
 62
7
  6
CONTINUOUS
 10
6.4607926889
 20
2.6268544786
 40
0.0196848512
100
AcDbArc
 50
269.9995177544
 51
355.4008471569
  0
ARC
  5
37E
100
AcDbEntity
  8
0
100
AcDbCircle
 62
7
  6
CONTINUOUS
 10
5.7860341569
 20
2.6268589738
 40
0.0196848512
100
AcDbArc
 50
269.9995177544
 51
323.0427255621
  0
ARC
  5
37F
100
AcDbEntity
  8
0
100
AcDbCircle
 62
7
  6
CONTINUOUS
 10
7.0807367004
 20
2.6268535284
 40
0.0196848512
100
AcDbArc
 50
270.005233472
 51
355.5996242845
  0
ARC
  5
380
100
AcDbEntity
  8
0
100
AcDbCircle
 62
7
  6
CONTINUOUS
 10
7.0397975798
 20
2.6268526658
 40
0.0196848512
100
AcDbArc
 50
269.9995177544
 51
355.5863968617
  0
ARC
  5
381
100
AcDbEntity
  8
0
100
AcDbCircle
 62
7
  6
CONTINUOUS
 10
6.722900614
 20
2.6268531356
 40
0.0196848512
100
AcDbArc
 50
269.9995177544
 51
355.4848358251
  0
ARC
  5
382
100
AcDbEntity
  8
0
100
AcDbCircle
 62
7
  6
CONTINUOUS
 10
6.1438871032
 20
2.626856444
 40
0.0196848512
100
AcDbArc
 50
269.9995177544
 51
355.2993154631
  0
ARC
  5
383
100
AcDbEntity
  8
0
100
AcDbCircle
 62
7
  6
CONTINUOUS
 10
5.4028737409
 20
2.6268619575
 40
0.0196848512
100
AcDbArc
 50
269.9995177544
 51
355.0619728448
  0
ARC
  5
384
100
AcDbEntity
  8
0
100
AcDbCircle
 62
7
  6
CONTINUOUS
 10
5.4293337948
 20
2.6465431207
 40
0.0196848108
100
AcDbArc
 50
185.2223689079
 51
269.9970943132
  0
ARC
  5
385
100
AcDbEntity
  8
0
100
AcDbCircle
 62
7
  6
CONTINUOUS
 10
6.0872502487
 20
2.6465380023
 40
0.0196848108
100
AcDbArc
 50
185.6514685778
 51
269.9911047371
  0
ARC
  5
386
100
AcDbEntity
  8
0
100
AcDbCircle
 62
7
  6
CONTINUOUS
 10
6.7017098042
 20
2.6465336503
 40
0.0196848108
100
AcDbArc
 50
186.0520234456
 51
269.9809107734
  0
ARC
  5
387
100
AcDbEntity
  8
0
100
AcDbCircle
 62
7
  6
CONTINUOUS
 10
5.5750800785
 20
2.6465418109
 40
0.0196847946
100
AcDbArc
 50
270.0018736646
 51
355.2157042173
  0
ARC
  5
388
100
AcDbEntity
  8
0
100
AcDbCircle
 62
7
  6
CONTINUOUS
 10
6.2330003828
 20
2.6465366729
 40
0.0196847946
100
AcDbArc
 50
270.0078515554
 51
355.6453734921
  0
ARC
  5
389
100
AcDbEntity
  8
0
100
AcDbCircle
 62
7
  6
CONTINUOUS
 10
6.8474674344
 20
2.6465323029
 40
0.0196847946
100
AcDbArc
 50
270.0180286624
 51
356.0469693464
  0
ARC
  5
38A
100
AcDbEntity
  8
0
100
AcDbCircle
 62
7
  6
CONTINUOUS
 10
6.9017261222
 20
2.6347234395
 40
0.0196847843
100
AcDbArc
 50
269.9999816401
 51
355.9284748799
  0
ARC
  5
38B
100
AcDbEntity
  8
0
100
AcDbCircle
 62
7
  6
CONTINUOUS
 10
5.8349153848
 20
2.6347306934
 40
0.0196847843
100
AcDbArc
 50
269.9997655709
 51
355.3349791277
  0
ARC
  5
38C
100
AcDbEntity
  8
0
100
AcDbCircle
 62
7
  6
CONTINUOUS
 10
5.2321784443
 20
2.6347355412
 40
0.0196847843
100
AcDbArc
 50
269.9997389883
 51
354.9999267617
  0
ARC
  5
38D
100
AcDbEntity
  8
0
100
AcDbCircle
 62
7
  6
CONTINUOUS
 10
6.4024251456
 20
2.6347265798
 40
0.0196847843
100
AcDbArc
 50
269.999848055
 51
355.6506216813
  0
ARC
  5
38E
100
AcDbEntity
  8
0
100
AcDbCircle
 62
7
  6
CONTINUOUS
 10
6.2705280473
 20
2.6347394839
 40
0.0196847689
100
AcDbArc
 50
185.6495934393
 51
269.9991821684
  0
ARC
  5
38F
100
AcDbEntity
  8
0
100
AcDbCircle
 62
7
  6
CONTINUOUS
 10
6.7707635727
 20
2.6347345289
 40
0.0196847689
100
AcDbArc
 50
203.6456219867
 51
269.9990298523
  0
ARC
  5
390
100
AcDbEntity
  8
0
100
AcDbCircle
 62
7
  6
CONTINUOUS
 10
5.7024349088
 20
2.6347447214
 40
0.0196847689
100
AcDbArc
 50
185.3341002007
 51
199.136837113
  0
ARC
  5
391
100
AcDbEntity
  8
0
100
AcDbCircle
 62
7
  6
CONTINUOUS
 10
6.7758947509
 20
2.6347244044
 40
0.0196847686
100
AcDbArc
 50
203.6142906418
 51
269.9990939389
  0
ARC
  5
392
100
AcDbEntity
  8
0
100
AcDbCircle
 62
7
  6
CONTINUOUS
 10
5.7090910173
 20
2.6347316787
 40
0.0196847686
100
AcDbArc
 50
185.3378000461
 51
269.9992913155
  0
ARC
  5
393
100
AcDbEntity
  8
0
100
AcDbCircle
 62
7
  6
CONTINUOUS
 10
6.2765980743
 20
2.6347275535
 40
0.0196847686
100
AcDbArc
 50
185.6529659595
 51
269.9992194569
  0
ARC
  5
394
100
AcDbEntity
  8
0
100
AcDbCircle
 62
7
  6
CONTINUOUS
 10
7.5660259887
 20
-0.4654345157
 40
6.0649126954
100
AcDbArc
 50
120.5227243621
 51
121.534523515
  0
ARC
  5
395
100
AcDbEntity
  8
0
100
AcDbCircle
 62
7
  6
CONTINUOUS
 10
7.5704454502
 20
3.46286849
 40
0.1203311244
100
AcDbArc
 50
55.8552892957
 51
56.7439437211
  0
ARC
  5
396
100
AcDbEntity
  8
0
100
AcDbCircle
 62
7
  6
CONTINUOUS
 10
9.0557175276
 20
3.4337949804
 40
0.12
100
AcDbArc
 50
359.9995177572
 51
89.9995177544
  0
ARC
  5
397
100
AcDbEntity
  8
0
100
AcDbCircle
 62
7
  6
CONTINUOUS
 10
9.0456415062
 20
2.7808161083
 40
0.06
100
AcDbArc
 50
270.0
 51
321.8694403738
  0
ARC
  5
398
100
AcDbEntity
  8
0
100
AcDbCircle
 62
7
  6
CONTINUOUS
 10
7.6658271532
 20
3.6029494583
 40
0.0491396634
100
AcDbArc
 50
235.4883094592
 51
269.9719499477
  0
ARC
  5
399
100
AcDbEntity
  8
0
100
AcDbCircle
 62
7
  6
CONTINUOUS
 10
7.2458576303
 20
2.6465302549
 40
0.0196848108
100
AcDbArc
 50
186.4065975281
 51
269.970381691
  0
ARC
  5
39A
100
AcDbEntity
  8
0
100
AcDbCircle
 62
7
  6
CONTINUOUS
 10
7.6959118505
 20
2.6465279166
 40
0.0196848049
100
AcDbArc
 50
186.6997510276
 51
269.9619230647
  0
ARC
  5
39B
100
AcDbEntity
  8
0
100
AcDbCircle
 62
7
  6
CONTINUOUS
 10
8.0322029471
 20
2.6465268292
 40
0.0196848049
100
AcDbArc
 50
186.9187100116
 51
269.9568501366
  0
ARC
  5
39C
100
AcDbEntity
  8
0
100
AcDbCircle
 62
7
  6
CONTINUOUS
 10
8.2400333792
 20
2.6465269957
 40
0.0196848049
100
AcDbArc
 50
187.0539291104
 51
269.9573150736
  0
ARC
  5
39D
100
AcDbEntity
  8
0
100
AcDbCircle
 62
7
  6
CONTINUOUS
 10
7.8416939586
 20
2.6465265936
 40
0.0196847953
100
AcDbArc
 50
270.0369805585
 51
356.6974234879
  0
ARC
  5
39E
100
AcDbEntity
  8
0
100
AcDbCircle
 62
7
  6
CONTINUOUS
 10
8.178000962
 20
2.6465255001
 40
0.0196847953
100
AcDbArc
 50
270.0420298273
 51
356.9175960173
  0
ARC
  5
39F
100
AcDbEntity
  8
0
100
AcDbCircle
 62
7
  6
CONTINUOUS
 10
8.4561536706
 20
2.6465270747
 40
0.0196847953
100
AcDbArc
 50
270.0358038024
 51
357.1006912549
  0
ARC
  5
3A0
100
AcDbEntity
  8
0
100
AcDbCircle
 62
7
  6
CONTINUOUS
 10
8.3858488541
 20
2.646525663
 40
0.0196847953
100
AcDbArc
 50
270.0415735738
 51
357.0536378536
  0
ARC
  5
3A1
100
AcDbEntity
  8
0
100
AcDbCircle
 62
7
  6
CONTINUOUS
 10
7.3916260746
 20
2.6465288918
 40
0.0196847946
100
AcDbArc
 50
270.0285461406
 51
356.4028760919
  0
ARC
  5
3A2
100
AcDbEntity
  8
0
100
AcDbCircle
 62
7
  6
CONTINUOUS
 10
7.6031338803
 20
2.6347240388
 40
0.0196847852
100
AcDbArc
 50
243.00500752
 51
269.9984115733
  0
ARC
  5
3A3
100
AcDbEntity
  8
0
100
AcDbCircle
 62
7
  6
CONTINUOUS
 10
7.585281931
 20
2.6347207499
 40
0.0196847852
100
AcDbArc
 50
270.0003795425
 51
356.3090730375
  0
ARC
  5
3A4
100
AcDbEntity
  8
0
100
AcDbCircle
 62
7
  6
CONTINUOUS
 10
7.1740696145
 20
2.6347301419
 40
0.0196847852
100
AcDbArc
 50
186.1511234086
 51
269.9988601848
  0
ARC
  5
3A5
100
AcDbEntity
  8
0
100
AcDbCircle
 62
7
  6
CONTINUOUS
 10
7.4570074899
 20
2.6347265725
 40
0.0196847852
100
AcDbArc
 50
186.3080980894
 51
269.9986460335
  0
ARC
  5
3A6
100
AcDbEntity
  8
0
100
AcDbCircle
 62
7
  6
CONTINUOUS
 10
7.303800756
 20
2.6347214599
 40
0.0196847852
100
AcDbArc
 50
270.0001665908
 51
336.3818513251
  0
ARC
  5
3A7
100
AcDbEntity
  8
0
100
AcDbCircle
 62
7
  6
CONTINUOUS
 10
7.7298109847
 20
2.6347213525
 40
0.0196847852
100
AcDbArc
 50
270.0006134073
 51
336.3754381666
  0
ARC
  5
3A8
100
AcDbEntity
  8
0
100
AcDbCircle
 62
7
  6
CONTINUOUS
 10
7.4594382515
 20
2.6347217019
 40
0.0196847689
100
AcDbArc
 50
186.3094467999
 51
269.9987190931
  0
ARC
  5
3A9
100
AcDbEntity
  8
0
100
AcDbCircle
 62
7
  6
CONTINUOUS
 10
7.1779637397
 20
2.6347224168
 40
0.0196847689
100
AcDbArc
 50
186.1532850953
 51
269.9989275264
  0
ARC
  5
3AA
100
AcDbEntity
  8
0
100
AcDbCircle
 62
7
  6
CONTINUOUS
 10
7.6039600113
 20
2.6347223033
 40
0.0196847689
100
AcDbArc
 50
241.6694943419
 51
269.9984864536
  0
ARC
  5
3AB
100
AcDbEntity
  8
0
100
AcDbCircle
 62
7
  6
CONTINUOUS
 10
23.4002853187
 20
-19.6558236664
 40
30.8831870601
100
AcDbArc
 50
127.7625441873
 51
127.9294813444
  0
ARC
  5
3AC
100
AcDbEntity
  8
ALL_FEATURES
100
AcDbCircle
 62
7
  6
CONTINUOUS
 10
5.4301508219
 20
5.5591689792
 40
0.188
100
AcDbArc
 50
314.9995177545
 51
335.0819524374
  0
LINE
  5
3AD
100
AcDbEntity
  8
0
100
AcDbLine
 62
7
  6
CONTINUOUS
 10
5.0307590428
 20
2.6251281118
 11
4.9636608316
 21
2.6253559203
  0
LINE
  5
3AE
100
AcDbEntity
  8
0
100
AcDbLine
 62
7
  6
CONTINUOUS
 10
5.3680870361
 20
2.6253523749
 11
5.3009866255
 21
2.6251258484
  0
LINE
  5
3AF
100
AcDbEntity
  8
0
100
AcDbLine
 62
7
  6
CONTINUOUS
 10
6.7309246054
 20
2.6253429893
 11
6.7174853294
 21
2.6253328419
  0
LINE
  5
3B0
100
AcDbEntity
  8
0
100
AcDbLine
 62
7
  6
CONTINUOUS
 10
6.7174853294
 20
2.6253328419
 11
6.6881276069
 21
2.6252749729
  0
LINE
  5
3B1
100
AcDbEntity
  8
0
100
AcDbLine
 62
7
  6
CONTINUOUS
 10
6.6881276069
 20
2.6252749729
 11
6.6210238134
 21
2.6249723525
  0
LINE
  5
3B2
100
AcDbEntity
  8
0
100
AcDbLine
 62
7
  6
CONTINUOUS
 10
6.742526038
 20
2.6253035539
 11
6.7309246141
 21
2.625343129
  0
LINE
  5
3B3
100
AcDbEntity
  8
0
100
AcDbLine
 62
7
  6
CONTINUOUS
 10
6.1635056157
 20
2.625243431
 11
6.1331327671
 21
2.6253467356
  0
LINE
  5
3B4
100
AcDbEntity
  8
0
100
AcDbLine
 62
7
  6
CONTINUOUS
 10
4.2897304657
 20
2.6250538269
 11
4.2593555661
 21
2.6252593585
  0
LINE
  5
3B5
100
AcDbEntity
  8
0
100
AcDbLine
 62
7
  6
CONTINUOUS
 10
4.2593555661
 20
2.6252593585
 11
4.2289813472
 21
2.6253349404
  0
LINE
  5
3B6
100
AcDbEntity
  8
0
100
AcDbLine
 62
7
  6
CONTINUOUS
 10
4.2289813472
 20
2.6253349404
 11
4.1986060699
 21
2.625363018
  0
LINE
  5
3B7
100
AcDbEntity
  8
0
100
AcDbLine
 62
7
  6
CONTINUOUS
 10
5.4224847243
 20
2.6251677477
 11
5.3680870372
 21
2.6253525164
  0
LINE
  5
3B8
100
AcDbEntity
  8
0
100
AcDbLine
 62
7
  6
CONTINUOUS
 10
4.647593414
 20
2.6250895763
 11
4.6464093833
 21
2.6251291815
  0
LINE
  5
3B9
100
AcDbEntity
  8
0
100
AcDbLine
 62
7
  6
CONTINUOUS
 10
3.6007946747
 20
2.6253693338
 11
3.5891919531
 21
2.6253299803
  0
LINE
  5
3BA
100
AcDbEntity
  8
0
100
AcDbLine
 62
7
  6
CONTINUOUS
 10
4.1986060753
 20
2.6253628765
 11
4.1682313144
 21
2.6252601521
  0
LINE
  5
3BB
100
AcDbEntity
  8
0
100
AcDbLine
 62
7
  6
CONTINUOUS
 10
3.8714140853
 20
2.62536626
 11
3.8513148411
 21
2.6252982027
  0
LINE
  5
3BC
100
AcDbEntity
  8
0
100
AcDbLine
 62
7
  6
CONTINUOUS
 10
6.1331327617
 20
2.6253465941
 11
6.1091085702
 21
2.6253288028
  0
LINE
  5
3BD
100
AcDbEntity
  8
0
100
AcDbLine
 62
7
  6
CONTINUOUS
 10
6.1091085702
 20
2.6253288028
 11
6.1027585385
 21
2.6253190514
  0
LINE
  5
3BE
100
AcDbEntity
  8
0
100
AcDbLine
 62
7
  6
CONTINUOUS
 10
6.1027585385
 20
2.6253190514
 11
6.0780488161
 21
2.6252620192
  0
LINE
  5
3BF
100
AcDbEntity
  8
0
100
AcDbLine
 62
7
  6
CONTINUOUS
 10
6.0780488161
 20
2.6252620192
 11
6.0723832175
 21
2.6252440324
  0
LINE
  5
3C0
100
AcDbEntity
  8
0
100
AcDbLine
 62
7
  6
CONTINUOUS
 10
6.0723832175
 20
2.6252440324
 11
6.0420064479
 21
2.625039145
  0
LINE
  5
3C1
100
AcDbEntity
  8
0
100
AcDbLine
 62
7
  6
CONTINUOUS
 10
3.7106941516
 20
2.6249967365
 11
3.6435930939
 21
2.625300686
  0
LINE
  5
3C2
100
AcDbEntity
  8
0
100
AcDbLine
 62
7
  6
CONTINUOUS
 10
3.6435930939
 20
2.625300686
 11
3.6142347527
 21
2.6253590924
  0
LINE
  5
3C3
100
AcDbEntity
  8
0
100
AcDbLine
 62
7
  6
CONTINUOUS
 10
3.6142347527
 20
2.6253590924
 11
3.6007946659
 21
2.6253694753
  0
LINE
  5
3C4
100
AcDbEntity
  8
0
100
AcDbLine
 62
7
  6
CONTINUOUS
 10
4.9636608327
 20
2.6253557788
 11
4.9092609466
 21
2.6251720499
  0
LINE
  5
3C5
100
AcDbEntity
  8
0
100
AcDbLine
 62
7
  6
CONTINUOUS
 10
5.6918897786
 20
2.625184202
 11
5.6841492916
 21
2.6250808916
  0
LINE
  5
3C6
100
AcDbEntity
  8
0
100
AcDbLine
 62
7
  6
CONTINUOUS
 10
6.4804137241
 20
2.6252761706
 11
6.4603161219
 21
2.6253446115
  0
SPLINE
  5
3C7
100
AcDbEntity
  8
0
100
AcDbSpline
 62
7
  6
CONTINUOUS
 70
0
 71
3
 72
27
 73
23
 74
0
 42
0.0000001
 43
0.0000001
 44
0.0000000001
 40
0.0
 40
0.0
 40
0.0
 40
0.0
 40
0.0705243791
 40
0.1973753117
 40
0.3636837695
 40
0.4548500626
 40
0.547344774
 40
0.638064691
 40
0.7239844338
 40
0.8022143288
 40
0.8701582376
 40
0.8995277856
 40
0.9255056711
 40
0.94788008
 40
0.9664424641
 40
0.9810392358
 40
0.9868167136
 40
0.9915625058
 40
0.9952633095
 40
0.997905911
 40
0.9994833287
 40
1.0
 40
1.0
 40
1.0
 40
1.0
 10
8.4035015956
 20
2.6455300067
 30
0.0
 10
8.3991991709
 20
2.6455294533
 30
0.0
 10
8.3871581611
 20
2.6454620425
 30
0.0
 10
8.3649716171
 20
2.6453336897
 30
0.0
 10
8.3415259144
 20
2.6451699187
 30
0.0
 10
8.3201761768
 20
2.645014267
 30
0.0
 10
8.3034377223
 20
2.6448868915
 30
0.0
 10
8.2870193667
 20
2.6447572155
 30
0.0
 10
8.2714712719
 20
2.6446294268
 30
0.0
 10
8.2573126331
 20
2.64450784
 30
0.0
 10
8.2466038741
 20
2.6444110378
 30
0.0
 10
8.2390826144
 20
2.6443393478
 30
0.0
 10
8.2343414913
 20
2.6442921311
 30
0.0
 10
8.2302590312
 20
2.6442497386
 30
0.0
 10
8.2268726829
 20
2.6442111195
 30
0.0
 10
8.2244943895
 20
2.6441839169
 30
0.0
 10
8.2229668179
 20
2.6441602286
 30
0.0
 10
8.2220890923
 20
2.6441530328
 30
0.0
 10
8.2214387461
 20
2.6441264869
 30
0.0
 10
8.2208966946
 20
2.6441506878
 30
0.0
 10
8.2207105669
 20
2.6440835331
 30
0.0
 10
8.2204777246
 20
2.6441386444
 30
0.0
 10
8.2204891814
 20
2.6441092801
 30
0.0
  0
SPLINE
  5
3C8
100
AcDbEntity
  8
0
100
AcDbSpline
 62
7
  6
CONTINUOUS
 70
0
 71
3
 72
27
 73
23
 74
0
 42
0.0000001
 43
0.0000001
 44
0.0000000001
 40
0.0
 40
0.0
 40
0.0
 40
0.0
 40
0.0983639542
 40
0.2402252058
 40
0.4092998269
 40
0.498035727
 40
0.5861660201
 40
0.6711602565
 40
0.7505462455
 40
0.8220575354
 40
0.8835974706
 40
0.9100764291
 40
0.9334225296
 40
0.9534546541
 40
0.970049496
 40
0.9830927159
 40
0.9882467574
 40
0.9924715758
 40
0.9957618942
 40
0.9981147864
 40
0.9995275884
 40
1.0
 40
1.0
 40
1.0
 40
1.0
 10
8.1896816872
 20
2.6455300632
 30
0.0
 10
8.1838767388
 20
2.6455297076
 30
0.0
 10
8.1696998832
 20
2.6454829306
 30
0.0
 10
8.1455453521
 20
2.6453654451
 30
0.0
 10
8.1219591638
 20
2.6452193807
 30
0.0
 10
8.101543959
 20
2.6450777776
 30
0.0
 10
8.0860906973
 20
2.6449622846
 30
0.0
 10
8.0711892678
 20
2.6448427186
 30
0.0
 10
8.0572686524
 20
2.6447224365
 30
0.0
 10
8.0447322092
 20
2.6446050638
 30
0.0
 10
8.0353180569
 20
2.6445082698
 30
0.0
 10
8.0287462273
 20
2.6444340013
 30
0.0
 10
8.0246240158
 20
2.6443838706
 30
0.0
 10
8.0210846962
 20
2.6443372325
 30
0.0
 10
8.0181546237
 20
2.6442933935
 30
0.0
 10
8.0160995824
 20
2.6442599948
 30
0.0
 10
8.0147798007
 20
2.6442313403
 30
0.0
 10
8.014025602
 20
2.6442185772
 30
0.0
 10
8.0134608412
 20
2.6441912539
 30
0.0
 10
8.0130052877
 20
2.6442026871
 30
0.0
 10
8.0128246208
 20
2.6441450298
 30
0.0
 10
8.0126420043
 20
2.6441825773
 30
0.0
 10
8.0126444723
 20
2.6441548074
 30
0.0
  0
SPLINE
  5
3C9
100
AcDbEntity
  8
0
100
AcDbSpline
 62
7
  6
CONTINUOUS
 70
0
 71
3
 72
27
 73
23
 74
0
 42
0.0000001
 43
0.0000001
 44
0.0000000001
 40
0.0
 40
0.0
 40
0.0
 40
0.0
 40
0.0005166577
 40
0.0020940456
 40
0.0047366016
 40
0.0084373414
 40
0.0131830501
 40
0.0189604241
 40
0.0335569225
 40
0.0521189432
 40
0.0744929191
 40
0.1004703008
 40
0.1298392665
 40
0.1977818266
 40
0.2760103621
 40
0.3619288781
 40
0.452647775
 40
0.545141693
 40
0.6363074464
 40
0.8026163226
 40
0.9294703052
 40
1.0
 40
1.0
 40
1.0
 40
1.0
 10
2.1112134233
 20
2.6441608537
 30
0.0
 10
2.1112248836
 20
2.6441902156
 30
0.0
 10
2.1109920378
 20
2.6441351129
 30
0.0
 10
2.1108059238
 20
2.6442022656
 30
0.0
 10
2.1102638786
 20
2.6441780754
 30
0.0
 10
2.1096135487
 20
2.6442046298
 30
0.0
 10
2.1087358413
 20
2.6442118391
 30
0.0
 10
2.1072083042
 20
2.6442355499
 30
0.0
 10
2.1048300652
 20
2.644262788
 30
0.0
 10
2.1014437956
 20
2.6443014575
 30
0.0
 10
2.0973614308
 20
2.6443439109
 30
0.0
 10
2.0926204191
 20
2.6443911982
 30
0.0
 10
2.0850993374
 20
2.6444630002
 30
0.0
 10
2.0743908211
 20
2.6445599623
 30
0.0
 10
2.0602324777
 20
2.6446817606
 30
0.0
 10
2.0446846636
 20
2.644809782
 30
0.0
 10
2.0282665576
 20
2.6449397039
 30
0.0
 10
2.0115283118
 20
2.6450673307
 30
0.0
 10
1.9901787131
 20
2.6452233044
 30
0.0
 10
1.9667329229
 20
2.6453874292
 30
0.0
 10
1.9445459288
 20
2.6455161237
 30
0.0
 10
1.9325044551
 20
2.6455837164
 30
0.0
 10
1.9282017225
 20
2.6455843405
 30
0.0
  0
SPLINE
  5
3CA
100
AcDbEntity
  8
0
100
AcDbSpline
 62
7
  6
CONTINUOUS
 70
0
 71
3
 72
26
 73
22
 74
0
 42
0.0000001
 43
0.0000001
 44
0.0000000001
 40
0.0
 40
0.0
 40
0.0
 40
0.0
 40
0.1223220019
 40
0.2764663112
 40
0.4473196078
 40
0.5337995876
 40
0.6181453863
 40
0.6982710802
 40
0.7722263949
 40
0.8381614417
 40
0.8944911869
 40
0.9185906258
 40
0.9397863404
 40
0.9579554146
 40
0.9729749619
 40
0.9847361627
 40
0.9931854827
 40
0.9961558507
 40
0.99828364
 40
0.9995646888
 40
1.0
 40
1.0
 40
1.0
 40
1.0
 10
7.8437053502
 20
2.6455313879
 30
0.0
 10
7.8368810355
 20
2.6455311195
 30
0.0
 10
7.8214570579
 20
2.6454968733
 30
0.0
 10
7.7965014108
 20
2.6453949096
 30
0.0
 10
7.7735455257
 20
2.6452663395
 30
0.0
 10
7.7544837517
 20
2.6451399594
 30
0.0
 10
7.7404836064
 20
2.6450370226
 30
0.0
 10
7.7271822747
 20
2.6449287833
 30
0.0
 10
7.7149081202
 20
2.6448181068
 30
0.0
 10
7.7039616337
 20
2.6447075435
 30
0.0
 10
7.6957964649
 20
2.6446140237
 30
0.0
 10
7.6901274454
 20
2.6445399918
 30
0.0
 10
7.686586848
 20
2.644489403
 30
0.0
 10
7.6835540591
 20
2.6444402738
 30
0.0
 10
7.6810441784
 20
2.6443957388
 30
0.0
 10
7.6790857963
 20
2.6443489021
 30
0.0
 10
7.6777791857
 20
2.6443210631
 30
0.0
 10
7.6770425774
 20
2.6442820413
 30
0.0
 10
7.676656261
 20
2.6442814798
 30
0.0
 10
7.6764970978
 20
2.6442357573
 30
0.0
 10
7.6763446828
 20
2.6442551067
 30
0.0
 10
7.676345915
 20
2.6442308521
 30
0.0
  0
LINE
  5
3CB
100
AcDbEntity
  8
0
100
AcDbLine
 62
7
  6
CONTINUOUS
 10
7.2313874861
 20
2.6332302457
 11
7.2258337413
 21
2.6332009814
  0
LINE
  5
3CC
100
AcDbEntity
  8
0
100
AcDbLine
 62
7
  6
CONTINUOUS
 10
7.2258337413
 20
2.6332009814
 11
7.1583848203
 21
2.6326123541
  0
SPLINE
  5
3CD
100
AcDbEntity
  8
0
100
AcDbSpline
 62
7
  6
CONTINUOUS
 70
0
 71
3
 72
27
 73
23
 74
0
 42
0.0000001
 43
0.0000001
 44
0.0000000001
 40
0.0
 40
0.0
 40
0.0
 40
0.0
 40
0.0004724065
 40
0.0018851865
 40
0.0042380385
 40
0.0075282977
 40
0.0117530371
 40
0.0169069835
 40
0.0299499707
 40
0.0465445141
 40
0.0665762636
 40
0.0899219092
 40
0.1164003573
 40
0.1779392169
 40
0.24944944
 40
0.3288344418
 40
0.4138278133
 40
0.5019573608
 40
0.5906927186
 40
0.7597676104
 40
0.9016314339
 40
1.0
 40
1.0
 40
1.0
 40
1.0
 10
2.3190813729
 20
2.6442028788
 30
0.0
 10
2.3190838397
 20
2.6442306483
 30
0.0
 10
2.3189012299
 20
2.6441931009
 30
0.0
 10
2.3187205647
 20
2.6442507609
 30
0.0
 10
2.3182650243
 20
2.6442393324
 30
0.0
 10
2.3177002776
 20
2.6442666629
 30
0.0
 10
2.3169460991
 20
2.6442794357
 30
0.0
 10
2.3156263517
 20
2.6443081078
 30
0.0
 10
2.3135713638
 20
2.6443415346
 30
0.0
 10
2.3106413679
 20
2.6443854146
 30
0.0
 10
2.3071021429
 20
2.6444321028
 30
0.0
 10
2.3029800429
 20
2.6444822926
 30
0.0
 10
2.2964083855
 20
2.644556656
 30
0.0
 10
2.2869944637
 20
2.6446535872
 30
0.0
 10
2.2744583035
 20
2.6447711444
 30
0.0
 10
2.2605379694
 20
2.6448916327
 30
0.0
 10
2.2456368097
 20
2.645011421
 30
0.0
 10
2.2301837958
 20
2.645127146
 30
0.0
 10
2.2097688105
 20
2.6452690581
 30
0.0
 10
2.1861826703
 20
2.6454154827
 30
0.0
 10
2.1620278871
 20
2.6455333441
 30
0.0
 10
2.1478507176
 20
2.6455803453
 30
0.0
 10
2.1420455417
 20
2.6455807975
 30
0.0
  0
SPLINE
  5
3CE
100
AcDbEntity
  8
0
100
AcDbSpline
 62
7
  6
CONTINUOUS
 70
0
 71
3
 72
26
 73
22
 74
0
 42
0.0000001
 43
0.0000001
 44
0.0000000001
 40
0.0
 40
0.0
 40
0.0
 40
0.0
 40
0.1429878229
 40
0.3072635221
 40
0.4792089099
 40
0.5636410984
 40
0.6446979507
 40
0.7207051498
 40
0.7900837111
 40
0.8514202241
 40
0.9034101111
 40
0.9255754253
 40
0.9450249063
 40
0.9616424389
 40
0.9753522756
 40
0.9860956057
 40
0.9938139525
 40
0.9965207572
 40
0.9984512597
 40
0.9996068379
 40
1.0
 40
1.0
 40
1.0
 40
1.0
 10
7.3806934104
 20
2.6455339228
 30
0.0
 10
7.3733333853
 20
2.6455337111
 30
0.0
 10
7.357517584
 20
2.6455080457
 30
0.0
 10
7.3328513624
 20
2.6454218772
 30
0.0
 10
7.3111993116
 20
2.6453108052
 30
0.0
 10
7.2938308692
 20
2.6452002448
 30
0.0
 10
7.2814006357
 20
2.6451100882
 30
0.0
 10
7.2697453296
 20
2.6450141856
 30
0.0
 10
7.2591051513
 20
2.6449144645
 30
0.0
 10
7.24970133
 20
2.6448131971
 30
0.0
 10
7.242727634
 20
2.644725344
 30
0.0
 10
7.2379101417
 20
2.6446543768
 30
0.0
 10
7.2349128858
 20
2.6446051271
 30
0.0
 10
7.232351945
 20
2.6445566926
 30
0.0
 10
7.2302362366
 20
2.6445110667
 30
0.0
 10
7.2285864987
 20
2.6444644239
 30
0.0
 10
7.2274857508
 20
2.6444312884
 30
0.0
 10
7.2268663486
 20
2.6443943433
 30
0.0
 10
7.2265427835
 20
2.6443844919
 30
0.0
 10
7.2264103904
 20
2.6443503198
 30
0.0
 10
7.2262837665
 20
2.644353821
 30
0.0
 10
7.2262862047
 20
2.6443337311
 30
0.0
  0
SPLINE
  5
3CF
100
AcDbEntity
  8
0
100
AcDbSpline
 62
7
  6
CONTINUOUS
 70
0
 71
3
 72
23
 73
19
 74
0
 42
0.0000001
 43
0.0000001
 44
0.0000000001
 40
0.0
 40
0.0
 40
0.0
 40
0.0
 40
0.1638148888
 40
0.3378537435
 40
0.5104661679
 40
0.59274177
 40
0.6704694173
 40
0.7423834673
 40
0.8073012338
 40
0.8641336104
 40
0.9119854206
 40
0.9500175832
 40
0.9651603206
 40
0.9776430142
 40
0.9874076051
 40
0.9943989494
 40
0.9985943468
 40
1.0
 40
1.0
 40
1.0
 40
1.0
 10
6.3779869327
 20
2.6334913097
 30
0.0
 10
6.3713804976
 20
2.633491208
 30
0.0
 10
6.3577553078
 20
2.6334791493
 30
0.0
 10
6.3371689352
 20
2.6334335273
 30
0.0
 10
6.3198709916
 20
2.6333730455
 30
0.0
 10
6.3064571785
 20
2.6333119079
 30
0.0
 10
6.2971044147
 20
2.6332619599
 30
0.0
 10
6.2884516244
 20
2.6332081438
 30
0.0
 10
6.2806418053
 20
2.6331511998
 30
0.0
 10
6.2738016449
 20
2.6330927618
 30
0.0
 10
6.2680480915
 20
2.6330319904
 30
0.0
 10
6.2639701492
 20
2.6329821501
 30
0.0
 10
6.2613288265
 20
2.6329347034
 30
0.0
 10
6.2598080147
 20
2.6329138557
 30
0.0
 10
6.2586635504
 20
2.6328627339
 30
0.0
 10
6.2577410528
 20
2.6328865069
 30
0.0
 10
6.257370718
 20
2.6327724653
 30
0.0
 10
6.2570034683
 20
2.6328456095
 30
0.0
 10
6.2570072431
 20
2.6327890472
 30
0.0
  0
SPLINE
  5
3D0
100
AcDbEntity
  8
0
100
AcDbSpline
 62
7
  6
CONTINUOUS
 70
0
 71
3
 72
26
 73
22
 74
0
 42
0.0000001
 43
0.0000001
 44
0.0000000001
 40
0.0
 40
0.0
 40
0.0
 40
0.0
 40
0.000435318
 40
0.0017163648
 40
0.0038441399
 40
0.0068144796
 40
0.0152636944
 40
0.027024715
 40
0.0420440037
 40
0.0602127591
 40
0.0814081153
 40
0.1055071769
 40
0.1618361033
 40
0.2277703001
 40
0.3017248004
 40
0.3818497013
 40
0.4661947575
 40
0.5526741984
 40
0.7235275954
 40
0.8776740384
 40
1.0
 40
1.0
 40
1.0
 40
1.0
 10
2.6554010958
 20
2.6442732524
 30
0.0
 10
2.6554023247
 20
2.6442975073
 30
0.0
 10
2.6552499178
 20
2.6442781532
 30
0.0
 10
2.6550907502
 20
2.6443238802
 30
0.0
 10
2.654704445
 20
2.6443244425
 30
0.0
 10
2.6539678514
 20
2.6443634728
 30
0.0
 10
2.6526612762
 20
2.6443913258
 30
0.0
 10
2.650702947
 20
2.6444381872
 30
0.0
 10
2.6481931392
 20
2.6444827548
 30
0.0
 10
2.6451604388
 20
2.6445319248
 30
0.0
 10
2.6416199427
 20
2.6445825622
 30
0.0
 10
2.6359510777
 20
2.6446566732
 30
0.0
 10
2.6277861207
 20
2.6447503092
 30
0.0
 10
2.6168399034
 20
2.644861031
 30
0.0
 10
2.6045660323
 20
2.6449718877
 30
0.0
 10
2.5912649902
 20
2.6450803244
 30
0.0
 10
2.5772651271
 20
2.6451834714
 30
0.0
 10
2.5582036457
 20
2.6453101406
 30
0.0
 10
2.5352479386
 20
2.6454390641
 30
0.0
 10
2.5102922417
 20
2.6455414206
 30
0.0
 10
2.4948681065
 20
2.6455759156
 30
0.0
 10
2.4880436514
 20
2.645576298
 30
0.0
  0
SPLINE
  5
3D1
100
AcDbEntity
  8
0
100
AcDbSpline
 62
7
  6
CONTINUOUS
 70
0
 71
3
 72
25
 73
21
 74
0
 42
0.0000001
 43
0.0000001
 44
0.0000000001
 40
0.0
 40
0.0
 40
0.0
 40
0.0
 40
0.1608053656
 40
0.333467138
 40
0.5060159727
 40
0.5886114992
 40
0.6668171107
 40
0.739318731
 40
0.8048653527
 40
0.862335163
 40
0.9107718325
 40
0.9313160718
 40
0.949299092
 40
0.9646538734
 40
0.977313472
 40
0.9872111954
 40
0.9942970692
 40
0.9967811413
 40
0.9985583959
 40
1.0
 40
1.0
 40
1.0
 40
1.0
 10
6.8208817116
 20
2.6455375573
 30
0.0
 10
6.8134436156
 20
2.6455373864
 30
0.0
 10
6.7980190012
 20
2.6455179986
 30
0.0
 10
6.7746131935
 20
2.6454466987
 30
0.0
 10
6.7548251158
 20
2.6453527646
 30
0.0
 10
6.7394062102
 20
2.6452580737
 30
0.0
 10
6.7286150038
 20
2.6451807616
 30
0.0
 10
6.7186124612
 20
2.6450975948
 30
0.0
 10
6.7095691567
 20
2.6450100364
 30
0.0
 10
6.7016390089
 20
2.6449195976
 30
0.0
 10
6.6957906582
 20
2.6448396983
 30
0.0
 10
6.6917684414
 20
2.6447740952
 30
0.0
 10
6.6892770415
 20
2.6447275434
 30
0.0
 10
6.6871484183
 20
2.6446827611
 30
0.0
 10
6.6853995043
 20
2.6446355337
 30
0.0
 10
6.6840182904
 20
2.6445985289
 30
0.0
 10
6.6831408981
 20
2.6445474711
 30
0.0
 10
6.6825868425
 20
2.6445343418
 30
0.0
 10
6.6823769938
 20
2.6444804617
 30
0.0
 10
6.6821253875
 20
2.6445253976
 30
0.0
 10
6.6821283495
 20
2.6444587817
 30
0.0
  0
SPLINE
  5
3D2
100
AcDbEntity
  8
0
100
AcDbSpline
 62
7
  6
CONTINUOUS
 70
0
 71
3
 72
22
 73
18
 74
0
 42
0.0000001
 43
0.0000001
 44
0.0000000001
 40
0.0
 40
0.0
 40
0.0
 40
0.0
 40
0.1949172004
 40
0.3827410331
 40
0.5556291763
 40
0.7071491943
 40
0.7730822861
 40
0.8315519222
 40
0.8819835949
 40
0.9239392594
 40
0.9569901871
 40
0.9700585329
 40
0.9807897324
 40
0.9891652893
 40
0.9951671724
 40
0.9987790622
 40
1.0
 40
1.0
 40
1.0
 40
1.0
 10
5.1693790922
 20
2.6335006886
 30
0.0
 10
5.1640096648
 20
2.6335006273
 30
0.0
 10
5.153466211
 20
2.6334944991
 30
0.0
 10
5.1381601932
 20
2.6334679564
 30
0.0
 10
5.1240496752
 20
2.6334250838
 30
0.0
 10
5.1132969935
 20
2.6333754206
 30
0.0
 10
5.10569619
 20
2.6333273405
 30
0.0
 10
5.1008802485
 20
2.6332900959
 30
0.0
 10
5.0967243853
 20
2.6332507537
 30
0.0
 10
5.0932701651
 20
2.6332088294
 30
0.0
 10
5.0908418751
 20
2.6331724301
 30
0.0
 10
5.0892797502
 20
2.6331382406
 30
0.0
 10
5.0883860533
 20
2.6331198294
 30
0.0
 10
5.0877145482
 20
2.6330871771
 30
0.0
 10
5.0871744306
 20
2.6330889494
 30
0.0
 10
5.0869559198
 20
2.6330275198
 30
0.0
 10
5.0867408926
 20
2.6330540991
 30
0.0
 10
5.0867439134
 20
2.6330206016
 30
0.0
  0
SPLINE
  5
3D3
100
AcDbEntity
  8
0
100
AcDbSpline
 62
7
  6
CONTINUOUS
 70
0
 71
3
 72
26
 73
22
 74
0
 42
0.0000001
 43
0.0000001
 44
0.0000000001
 40
0.0
 40
0.0
 40
0.0
 40
0.0
 40
0.0003931821
 40
0.00154877
 40
0.0034792651
 40
0.0061860444
 40
0.0139042924
 40
0.0246474711
 40
0.0383571176
 40
0.0549744351
 40
0.0744236608
 40
0.0965886799
 40
0.1485779222
 40
0.2099137664
 40
0.2792916088
 40
0.3552980516
 40
0.4363542026
 40
0.5207859054
 40
0.692731295
 40
0.8570087848
 40
1.0
 40
1.0
 40
1.0
 40
1.0
 10
3.1054789664
 20
2.6443685387
 30
0.0
 10
3.1054813996
 20
2.6443886298
 30
0.0
 10
3.1053547844
 20
2.6443851188
 30
0.0
 10
3.1052223832
 20
2.6444192982
 30
0.0
 10
3.1048988301
 20
2.6444291466
 30
0.0
 10
3.1042794415
 20
2.6444660985
 30
0.0
 10
3.1031787287
 20
2.6444992427
 30
0.0
 10
3.1015290393
 20
2.6445459047
 30
0.0
 10
3.0994133949
 20
2.6445915556
 30
0.0
 10
3.09685253
 20
2.6446400227
 30
0.0
 10
3.0938553627
 20
2.6446893116
 30
0.0
 10
3.0890380108
 20
2.6447603437
 30
0.0
 10
3.0820645118
 20
2.6448482936
 30
0.0
 10
3.0726609486
 20
2.644949695
 30
0.0
 10
3.0620210543
 20
2.6450495707
 30
0.0
 10
3.0503660502
 20
2.6451456456
 30
0.0
 10
3.0379361192
 20
2.6452359887
 30
0.0
 10
3.0205680205
 20
2.645346813
 30
0.0
 10
2.9989162545
 20
2.6454582202
 30
0.0
 10
2.9742501664
 20
2.645544781
 30
0.0
 10
2.9584343547
 20
2.6455707024
 30
0.0
 10
2.951074274
 20
2.6455710387
 30
0.0
  0
SPLINE
  5
3D4
100
AcDbEntity
  8
0
100
AcDbSpline
 62
7
  6
CONTINUOUS
 70
0
 71
3
 72
23
 73
19
 74
0
 42
0.0000001
 43
0.0000001
 44
0.0000000001
 40
0.0
 40
0.0
 40
0.0
 40
0.0
 40
0.1761249738
 40
0.3557402207
 40
0.5285670605
 40
0.6095038444
 40
0.6852719767
 40
0.7547808604
 40
0.8171072801
 40
0.8713712567
 40
0.9168095782
 40
0.9528374256
 40
0.96714485
 40
0.978904655
 40
0.9880906978
 40
0.994679615
 40
0.9986501609
 40
1.0
 40
1.0
 40
1.0
 40
1.0
 10
6.1887367111
 20
2.6455421323
 30
0.0
 10
6.1816275507
 20
2.6455419928
 30
0.0
 10
6.1672683455
 20
2.6455273836
 30
0.0
 10
6.145933177
 20
2.6454696299
 30
0.0
 10
6.1284403078
 20
2.6453921273
 30
0.0
 10
6.1151392182
 20
2.6453128771
 30
0.0
 10
6.1060085014
 20
2.6452482258
 30
0.0
 10
6.0976289705
 20
2.6451779121
 30
0.0
 10
6.0901177539
 20
2.6451029359
 30
0.0
 10
6.0835774956
 20
2.6450249929
 30
0.0
 10
6.0781009849
 20
2.6449436349
 30
0.0
 10
6.0742321508
 20
2.6448738198
 30
0.0
 10
6.0717320802
 20
2.6448107883
 30
0.0
 10
6.0702977544
 20
2.6447755825
 30
0.0
 10
6.0692180692
 20
2.6447192434
 30
0.0
 10
6.0683514303
 20
2.6447161966
 30
0.0
 10
6.067996488
 20
2.6446174405
 30
0.0
 10
6.0676530018
 20
2.6446548166
 30
0.0
 10
6.0676570612
 20
2.6446004828
 30
0.0
  0
SPLINE
  5
3D5
100
AcDbEntity
  8
0
100
AcDbSpline
 62
7
  6
CONTINUOUS
 70
0
 71
3
 72
21
 73
17
 74
0
 42
0.0000001
 43
0.0000001
 44
0.0000000001
 40
0.0
 40
0.0
 40
0.0
 40
0.0
 40
0.215803495
 40
0.4122869764
 40
0.585009237
 40
0.7307165831
 40
0.7926454945
 40
0.8468798742
 40
0.8931965456
 40
0.9314126085
 40
0.9613456916
 40
0.9828142403
 40
0.9903270045
 40
0.9956885423
 40
0.9989037216
 40
1.0
 40
1.0
 40
1.0
 40
1.0
 10
3.959960271
 20
2.633511653
 30
0.0
 10
3.956775619
 20
2.6335116129
 30
0.0
 10
3.9506914252
 20
2.6335088948
 30
0.0
 10
3.9420583364
 20
2.6334961988
 30
0.0
 10
3.9344597162
 20
2.6334752302
 30
0.0
 10
3.9288466939
 20
2.6334503282
 30
0.0
 10
3.9249823856
 20
2.6334255027
 30
0.0
 10
3.9225845085
 20
2.633406275
 30
0.0
 10
3.9205374144
 20
2.6333850771
 30
0.0
 10
3.9188466493
 20
2.6333635524
 30
0.0
 10
3.9175287856
 20
2.6333381165
 30
0.0
 10
3.9166503855
 20
2.6333204421
 30
0.0
 10
3.916156369
 20
2.6332955966
 30
0.0
 10
3.9158988756
 20
2.6332914233
 30
0.0
 10
3.915792659
 20
2.6332642568
 30
0.0
 10
3.9156919501
 20
2.6332700872
 30
0.0
 10
3.9156933391
 20
2.6332539689
 30
0.0
  0
SPLINE
  5
3D6
100
AcDbEntity
  8
0
100
AcDbSpline
 62
7
  6
CONTINUOUS
 70
0
 71
3
 72
25
 73
21
 74
0
 42
0.0000001
 43
0.0000001
 44
0.0000000001
 40
0.0
 40
0.0
 40
0.0
 40
0.0
 40
0.001441632
 40
0.0032188884
 40
0.005702954
 40
0.0127887927
 40
0.0226864438
 40
0.0353459138
 40
0.050700524
 40
0.0686833456
 40
0.0892273739
 40
0.137663564
 40
0.1951327935
 40
0.2606787428
 40
0.3331796497
 40
0.4113846485
 40
0.4939797238
 40
0.666528511
 40
0.8391917664
 40
1.0
 40
1.0
 40
1.0
 40
1.0
 10
3.6496511879
 20
2.6444844069
 30
0.0
 10
3.6496541371
 20
2.6445510234
 30
0.0
 10
3.6494025517
 20
2.6445060784
 30
0.0
 10
3.6491926968
 20
2.6445599617
 30
0.0
 10
3.6486386605
 20
2.6445730912
 30
0.0
 10
3.6477612879
 20
2.6446241571
 30
0.0
 10
3.6463801164
 20
2.6446611745
 30
0.0
 10
3.6446312561
 20
2.6447084215
 30
0.0
 10
3.6425027015
 20
2.644753229
 30
0.0
 10
3.6400113811
 20
2.6447998119
 30
0.0
 10
3.6359892908
 20
2.644865467
 30
0.0
 10
3.6301411227
 20
2.6449454454
 30
0.0
 10
3.6222112227
 20
2.6450359953
 30
0.0
 10
3.6131682001
 20
2.6451236839
 30
0.0
 10
3.603165961
 20
2.6452069979
 30
0.0
 10
3.5923750644
 20
2.6452844715
 30
0.0
 10
3.5769565351
 20
2.645379397
 30
0.0
 10
3.5571688284
 20
2.6454736393
 30
0.0
 10
3.5337633139
 20
2.6455453132
 30
0.0
 10
3.5183388221
 20
2.6455649527
 30
0.0
 10
3.5109007495
 20
2.6455652494
 30
0.0
  0
LINE
  5
3D7
100
AcDbEntity
  8
0
100
AcDbLine
 62
7
  6
CONTINUOUS
 10
7.6049342701
 20
2.6334531796
 11
7.5996115515
 21
2.6334846901
  0
SPLINE
  5
3D8
100
AcDbEntity
  8
0
100
AcDbSpline
 62
7
  6
CONTINUOUS
 70
0
 71
3
 72
23
 73
19
 74
0
 42
0.0000001
 43
0.0000001
 44
0.0000000001
 40
0.0
 40
0.0
 40
0.0
 40
0.0
 40
0.0014039296
 40
0.0055951042
 40
0.0125801363
 40
0.0223353044
 40
0.0348056247
 40
0.0499336448
 40
0.0879315894
 40
0.1357425443
 40
0.1925306164
 40
0.2574045272
 40
0.3292775824
 40
0.4069719531
 40
0.4892252334
 40
0.6618422284
 40
0.8359767239
 40
1.0
 40
1.0
 40
1.0
 40
1.0
 10
4.0807410183
 20
2.632808504
 30
0.0
 10
4.0807448818
 20
2.6328648973
 30
0.0
 10
4.0803784202
 20
2.6327921589
 30
0.0
 10
4.0800092674
 20
2.632905824
 30
0.0
 10
4.0790890415
 20
2.6328822585
 30
0.0
 10
4.0779476129
 20
2.6329332874
 30
0.0
 10
4.0764307654
 20
2.6329541709
 30
0.0
 10
4.0737962592
 20
2.6330016015
 30
0.0
 10
4.0697286356
 20
2.6330514516
 30
0.0
 10
4.0639893511
 20
2.6331122255
 30
0.0
 10
4.0571656323
 20
2.633170678
 30
0.0
 10
4.0493738552
 20
2.6332276429
 30
0.0
 10
4.0407400486
 20
2.6332814941
 30
0.0
 10
4.0314065522
 20
2.6333314886
 30
0.0
 10
4.0180168492
 20
2.6333927174
 30
0.0
 10
4.0007442114
 20
2.6334533457
 30
0.0
 10
3.9801792623
 20
2.6334991947
 30
0.0
 10
3.9665642342
 20
2.6335114426
 30
0.0
 10
3.959960271
 20
2.6335116532
 30
0.0
  0
SPLINE
  5
3D9
100
AcDbEntity
  8
0
100
AcDbSpline
 62
7
  6
CONTINUOUS
 70
0
 71
3
 72
22
 73
18
 74
0
 42
0.0000001
 43
0.0000001
 44
0.0000000001
 40
0.0
 40
0.0
 40
0.0
 40
0.0
 40
0.189232755
 40
0.3746182924
 40
0.5475295668
 40
0.7006413951
 40
0.7676601401
 40
0.8272653694
 40
0.8788503616
 40
0.9218511204
 40
0.9557538093
 40
0.9691911246
 40
0.9802409722
 40
0.9888701002
 40
0.9950460197
 40
0.9987461303
 40
1.0
 40
1.0
 40
1.0
 40
1.0
 10
5.511886179
 20
2.6455474481
 30
0.0
 10
5.5054416221
 20
2.645547333
 30
0.0
 10
5.4926835272
 20
2.6455364321
 30
0.0
 10
5.4740367778
 20
2.6454908559
 30
0.0
 10
5.4566202507
 20
2.6454180467
 30
0.0
 10
5.4432350018
 20
2.6453343762
 30
0.0
 10
5.4337085272
 20
2.6452539591
 30
0.0
 10
5.4276398592
 20
2.6451917961
 30
0.0
 10
5.422388655
 20
2.6451263937
 30
0.0
 10
5.4180145993
 20
2.6450576154
 30
0.0
 10
5.4149356139
 20
2.6449970056
 30
0.0
 10
5.4129522624
 20
2.6449425164
 30
0.0
 10
5.4118154988
 20
2.644910104
 30
0.0
 10
5.4109604172
 20
2.6448637742
 30
0.0
 10
5.4102750828
 20
2.6448521032
 30
0.0
 10
5.409995734
 20
2.6447790889
 30
0.0
 10
5.4097261773
 20
2.6447950225
 30
0.0
 10
5.4097308267
 20
2.6447525743
 30
0.0
  0
SPLINE
  5
3DA
100
AcDbEntity
  8
0
100
AcDbSpline
 62
7
  6
CONTINUOUS
 70
0
 71
3
 72
23
 73
19
 74
0
 42
0.0000001
 43
0.0000001
 44
0.0000000001
 40
0.0
 40
0.0
 40
0.0
 40
0.0
 40
0.0013499068
 40
0.0053204741
 40
0.0119093685
 40
0.0210953563
 40
0.0328550868
 40
0.0471624221
 40
0.0831899893
 40
0.1286279013
 40
0.1828913442
 40
0.2452171361
 40
0.3147254164
 40
0.3904930121
 40
0.4714293749
 40
0.644256175
 40
0.8238726383
 40
1.0
 40
1.0
 40
1.0
 40
1.0
 10
4.2641324129
 20
2.6446157373
 30
0.0
 10
4.2641364544
 20
2.6446700738
 30
0.0
 10
4.2637930095
 20
2.6446326765
 30
0.0
 10
4.2634380364
 20
2.6447314486
 30
0.0
 10
4.2625714452
 20
2.6447344912
 30
0.0
 10
4.2614917851
 20
2.6447908432
 30
0.0
 10
4.2600575104
 20
2.6448260617
 30
0.0
 10
4.2575575226
 20
2.6448891213
 30
0.0
 10
4.2536888244
 20
2.6449589834
 30
0.0
 10
4.2482125084
 20
2.6450404136
 30
0.0
 10
4.2416724878
 20
2.6451184467
 30
0.0
 10
4.234161542
 20
2.64519353
 30
0.0
 10
4.2257823051
 20
2.6452639663
 30
0.0
 10
4.2166518937
 20
2.6453287539
 30
0.0
 10
4.2033511973
 20
2.6454082067
 30
0.0
 10
4.1858587614
 20
2.6454859829
 30
0.0
 10
4.164524014
 20
2.6455440786
 30
0.0
 10
4.1501650433
 20
2.6455589235
 30
0.0
 10
4.1430559745
 20
2.6455591833
 30
0.0
  0
SPLINE
  5
3DB
100
AcDbEntity
  8
0
100
AcDbSpline
 62
7
  6
CONTINUOUS
 70
0
 71
3
 72
22
 73
18
 74
0
 42
0.0000001
 43
0.0000001
 44
0.0000000001
 40
0.0
 40
0.0
 40
0.0
 40
0.0
 40
0.2003333748
 40
0.3904723326
 40
0.5633379427
 40
0.7133519627
 40
0.7782349178
 40
0.83562577
 40
0.8849864465
 40
0.9259280771
 40
0.9581451227
 40
0.9708869949
 40
0.9813351095
 40
0.9894703785
 40
0.9952883965
 40
0.9987885447
 40
1.0
 40
1.0
 40
1.0
 40
1.0
 10
4.8199117313
 20
2.6455532723
 30
0.0
 10
4.8143808052
 20
2.6455531765
 30
0.0
 10
4.8036004044
 20
2.6455451999
 30
0.0
 10
4.7880474619
 20
2.6455103401
 30
0.0
 10
4.7738838266
 20
2.6454540044
 30
0.0
 10
4.7631784523
 20
2.6453884556
 30
0.0
 10
4.755661189
 20
2.6453244815
 30
0.0
 10
4.7509229598
 20
2.6452749614
 30
0.0
 10
4.7468453765
 20
2.6452222594
 30
0.0
 10
4.7434641295
 20
2.6451662231
 30
0.0
 10
4.7410909929
 20
2.6451161279
 30
0.0
 10
4.7395650805
 20
2.6450710375
 30
0.0
 10
4.7386940664
 20
2.6450431225
 30
0.0
 10
4.7380383714
 20
2.645005826
 30
0.0
 10
4.7375181491
 20
2.6449912607
 30
0.0
 10
4.7372979519
 20
2.6449365147
 30
0.0
 10
4.7370964881
 20
2.6449418377
 30
0.0
 10
4.7370983971
 20
2.6449084456
 30
0.0
  0
SPLINE
  5
3DC
100
AcDbEntity
  8
0
100
AcDbSpline
 62
7
  6
CONTINUOUS
 70
0
 71
3
 72
22
 73
18
 74
0
 42
0.0000001
 43
0.0000001
 44
0.0000000001
 40
0.0
 40
0.0
 40
0.0
 40
0.0
 40
0.0012539138
 40
0.0049540731
 40
0.0111300228
 40
0.0197591447
 40
0.0308089508
 40
0.0442461908
 40
0.078148634
 40
0.1211490033
 40
0.1727335006
 40
0.2323382251
 40
0.299356458
 40
0.4524674543
 40
0.625378731
 40
0.810765274
 40
1.0
 40
1.0
 40
1.0
 40
1.0
 10
4.9220637283
 20
2.6447567228
 30
0.0
 10
4.9220683703
 20
2.6447991719
 30
0.0
 10
4.9217988298
 20
2.6447832199
 30
0.0
 10
4.9215194741
 20
2.6448562465
 30
0.0
 10
4.9208341672
 20
2.6448679119
 30
0.0
 10
4.9199791111
 20
2.6449142509
 30
0.0
 10
4.9188423907
 20
2.6449466719
 30
0.0
 10
4.9168591165
 20
2.6450011819
 30
0.0
 10
4.9137802574
 20
2.6450618273
 30
0.0
 10
4.9094063843
 20
2.6451306617
 30
0.0
 10
4.9041554005
 20
2.6451961351
 30
0.0
 10
4.8980869839
 20
2.6452583836
 30
0.0
 10
4.8885608858
 20
2.6453389393
 30
0.0
 10
4.8751761227
 20
2.6454228121
 30
0.0
 10
4.8577601616
 20
2.6454958943
 30
0.0
 10
4.8391139228
 20
2.6455417699
 30
0.0
 10
4.826356145
 20
2.6455528812
 30
0.0
 10
4.8199117322
 20
2.6455531053
 30
0.0
  0
LINE
  5
3DD
100
AcDbEntity
  8
0
100
AcDbLine
 62
7
  6
CONTINUOUS
 10
6.9213647153
 20
2.6333258021
 11
6.8936537728
 21
2.6334879152
  0
SPLINE
  5
3DE
100
AcDbEntity
  8
0
100
AcDbSpline
 62
7
  6
CONTINUOUS
 70
0
 71
3
 72
21
 73
17
 74
0
 42
0.0000001
 43
0.0000001
 44
0.0000000001
 40
0.0
 40
0.0
 40
0.0
 40
0.0
 40
0.2095986987
 40
0.4035940023
 40
0.5763583872
 40
0.7237904511
 40
0.7868672452
 40
0.8423536759
 40
0.8899220844
 40
0.9292450146
 40
0.9600330709
 40
0.9821452195
 40
0.9899160789
 40
0.9954812136
 40
0.9988332641
 40
1.0
 40
1.0
 40
1.0
 40
1.0
 10
4.1430559718
 20
2.6455593503
 30
0.0
 10
4.1385908389
 20
2.6455592703
 30
0.0
 10
4.1299929771
 20
2.6455536074
 30
0.0
 10
4.1177146844
 20
2.6455280109
 30
0.0
 10
4.106760832
 20
2.6454861751
 30
0.0
 10
4.098595933
 20
2.6454371174
 30
0.0
 10
4.0929296926
 20
2.645388516
 30
0.0
 10
4.0893904634
 20
2.6453509109
 30
0.0
 10
4.0863584655
 20
2.6453100532
 30
0.0
 10
4.0838495019
 20
2.6452679734
 30
0.0
 10
4.0818914832
 20
2.6452208299
 30
0.0
 10
4.08058683
 20
2.6451838142
 30
0.0
 10
4.079849776
 20
2.6451412744
 30
0.0
 10
4.0794665918
 20
2.6451264532
 30
0.0
 10
4.079303536
 20
2.6450876517
 30
0.0
 10
4.0791551429
 20
2.6450860961
 30
0.0
 10
4.0791571046
 20
2.6450613184
 30
0.0
  0
SPLINE
  5
3DF
100
AcDbEntity
  8
0
100
AcDbSpline
 62
7
  6
CONTINUOUS
 70
0
 71
3
 72
22
 73
18
 74
0
 42
0.0000001
 43
0.0000001
 44
0.0000000001
 40
0.0
 40
0.0
 40
0.0
 40
0.0
 40
0.0012114252
 40
0.004711536
 40
0.0105294968
 40
0.018664688
 40
0.029112703
 40
0.0418544409
 40
0.0740711343
 40
0.1150123581
 40
0.1643726327
 40
0.2217630175
 40
0.2866455004
 40
0.4366589945
 40
0.6095247872
 40
0.7996647793
 40
1.0
 40
1.0
 40
1.0
 40
1.0
 10
5.594696156
 20
2.6449012369
 30
0.0
 10
5.5946980649
 20
2.6449346268
 30
0.0
 10
5.5944966084
 20
2.6449292936
 30
0.0
 10
5.5942764264
 20
2.6449840436
 30
0.0
 10
5.5937562282
 20
2.6449986057
 30
0.0
 10
5.5931005673
 20
2.6450359072
 30
0.0
 10
5.592229597
 20
2.6450638282
 30
0.0
 10
5.5907037631
 20
2.6451089332
 30
0.0
 10
5.5883307477
 20
2.6451590547
 30
0.0
 10
5.5849496704
 20
2.6452151329
 30
0.0
 10
5.580872288
 20
2.6452678891
 30
0.0
 10
5.5761342883
 20
2.6453174753
 30
0.0
 10
5.5686173705
 20
2.6453815583
 30
0.0
 10
5.557912453
 20
2.6454472688
 30
0.0
 10
5.5437493725
 20
2.645503827
 30
0.0
 10
5.5281969754
 20
2.6455389368
 30
0.0
 10
5.5174169314
 20
2.6455470919
 30
0.0
 10
5.5118861781
 20
2.6455472811
 30
0.0
  0
SPLINE
  5
3E0
100
AcDbEntity
  8
0
100
AcDbSpline
 62
7
  6
CONTINUOUS
 70
0
 71
3
 72
20
 73
16
 74
0
 42
0.0000001
 43
0.0000001
 44
0.0000000001
 40
0.0
 40
0.0
 40
0.0
 40
0.0
 40
0.2172010525
 40
0.4142443558
 40
0.5869697213
 40
0.7322820957
 40
0.7939451024
 40
0.8479045962
 40
0.8939347619
 40
0.93187995
 40
0.9615895537
 40
0.9829142276
 40
0.9903868271
 40
0.9957170419
 40
1.0
 40
1.0
 40
1.0
 40
1.0
 10
3.5109007453
 20
2.6455654165
 30
0.0
 10
3.5075529293
 20
2.6455653498
 30
0.0
 10
3.5011679926
 20
2.6455615252
 30
0.0
 10
3.4921208001
 20
2.6455436808
 30
0.0
 10
3.4841816248
 20
2.6455144444
 30
0.0
 10
3.4783293572
 20
2.6454795894
 30
0.0
 10
3.4743073754
 20
2.6454451112
 30
0.0
 10
3.4718164258
 20
2.6454178518
 30
0.0
 10
3.4696889994
 20
2.6453895001
 30
0.0
 10
3.4679413896
 20
2.6453558051
 30
0.0
 10
3.4665589175
 20
2.6453293897
 30
0.0
 10
3.465681333
 20
2.6452853177
 30
0.0
 10
3.4651240212
 20
2.6452763914
 30
0.0
 10
3.4649174391
 20
2.645224633
 30
0.0
 10
3.4646614636
 20
2.6452702012
 30
0.0
 10
3.4646678359
 20
2.6452044944
 30
0.0
  0
SPLINE
  5
3E1
100
AcDbEntity
  8
0
100
AcDbSpline
 62
7
  6
CONTINUOUS
 70
0
 71
3
 72
21
 73
17
 74
0
 42
0.0000001
 43
0.0000001
 44
0.0000000001
 40
0.0
 40
0.0
 40
0.0
 40
0.0
 40
0.0011666946
 40
0.004518692
 40
0.0100837509
 40
0.0178545151
 40
0.0399664347
 40
0.0707542467
 40
0.1100768522
 40
0.1576448285
 40
0.2131308261
 40
0.2762072931
 40
0.4236390216
 40
0.5964036289
 40
0.790399779
 40
1.0
 40
1.0
 40
1.0
 40
1.0
 10
6.25263237
 20
2.6450430003
 30
0.0
 10
6.2526343319
 20
2.6450677759
 30
0.0
 10
6.2524859453
 20
2.6450693229
 30
0.0
 10
6.2523229042
 20
2.6451081268
 30
0.0
 10
6.2519397423
 20
2.6451229447
 30
0.0
 10
6.251202735
 20
2.6451654888
 30
0.0
 10
6.2498981589
 20
2.6452025136
 30
0.0
 10
6.2479402563
 20
2.6452496781
 30
0.0
 10
6.2454314402
 20
2.6452917878
 30
0.0
 10
6.2423996201
 20
2.6453326851
 30
0.0
 10
6.2388605942
 20
2.6453703391
 30
0.0
 10
6.2331946618
 20
2.6454190218
 30
0.0
 10
6.2250301821
 20
2.6454682029
 30
0.0
 10
6.2140768637
 20
2.6455102104
 30
0.0
 10
6.2017991314
 20
2.6455360043
 30
0.0
 10
6.1932016501
 20
2.6455418098
 30
0.0
 10
6.1887367085
 20
2.6455419653
 30
0.0
  0
LINE
  5
3E2
100
AcDbEntity
  8
0
100
AcDbLine
 62
7
  6
CONTINUOUS
 10
4.4837214115
 20
2.6329638361
 11
4.4771423267
 21
2.6331547851
  0
SPLINE
  5
3E3
100
AcDbEntity
  8
0
100
AcDbSpline
 62
7
  6
CONTINUOUS
 70
0
 71
3
 72
18
 73
14
 74
0
 42
0.0000001
 43
0.0000001
 44
0.0000000001
 40
0.0
 40
0.0
 40
0.0
 40
0.0
 40
0.223236495
 40
0.4225597075
 40
0.5952835165
 40
0.7389852426
 40
0.8522898889
 40
0.8971953999
 40
0.9340844787
 40
0.9628380068
 40
0.9834134718
 40
0.9957919397
 40
1.0
 40
1.0
 40
1.0
 40
1.0
 10
2.9510742684
 20
2.6455712057
 30
0.0
 10
2.9487975551
 20
2.645571151
 30
0.0
 10
2.9444879746
 20
2.6455687726
 30
0.0
 10
2.9384170332
 20
2.6455571791
 30
0.0
 10
2.933156691
 20
2.645538616
 30
0.0
 10
2.9287752951
 20
2.6455119218
 30
0.0
 10
2.9256935165
 20
2.6454850915
 30
0.0
 10
2.923708277
 20
2.6454546344
 30
0.0
 10
2.9225718856
 20
2.6454394207
 30
0.0
 10
2.921716495
 20
2.6454033329
 30
0.0
 10
2.9210338958
 20
2.6454128874
 30
0.0
 10
2.9207500065
 20
2.6453344067
 30
0.0
 10
2.9204828174
 20
2.6453746967
 30
0.0
 10
2.9204835301
 20
2.6453317861
 30
0.0
  0
SPLINE
  5
3E4
100
AcDbEntity
  8
0
100
AcDbSpline
 62
7
  6
CONTINUOUS
 70
0
 71
3
 72
20
 73
16
 74
0
 42
0.0000001
 43
0.0000001
 44
0.0000000001
 40
0.0
 40
0.0
 40
0.0
 40
0.0
 40
0.0042829294
 40
0.0096131373
 40
0.017085714
 40
0.0384101971
 40
0.0681194825
 40
0.1060643107
 40
0.1520941616
 40
0.2060534338
 40
0.2677162227
 40
0.4130283277
 40
0.5857539284
 40
0.7827978064
 40
1.0
 40
1.0
 40
1.0
 40
1.0
 10
6.8671117035
 20
2.6451757992
 30
0.0
 10
6.8671180762
 20
2.6452415014
 30
0.0
 10
6.8668621148
 20
2.6451959279
 30
0.0
 10
6.8666555481
 20
2.6452476866
 30
0.0
 10
6.8660982742
 20
2.6452566129
 30
0.0
 10
6.8652207539
 20
2.6453006918
 30
0.0
 10
6.8638383824
 20
2.6453271204
 30
0.0
 10
6.8620908984
 20
2.6453608356
 30
0.0
 10
6.8599636201
 20
2.6453892144
 30
0.0
 10
6.8574728393
 20
2.6454165075
 30
0.0
 10
6.8534511222
 20
2.6454510431
 30
0.0
 10
6.8475992274
 20
2.6454859861
 30
0.0
 10
6.839660544
 20
2.6455153463
 30
0.0
 10
6.8306138913
 20
2.6455333362
 30
0.0
 10
6.8242293301
 20
2.6455372669
 30
0.0
 10
6.8208817073
 20
2.6455373902
 30
0.0
  0
SPLINE
  5
3E5
100
AcDbEntity
  8
0
100
AcDbSpline
 62
7
  6
CONTINUOUS
 70
0
 71
3
 72
22
 73
18
 74
0
 42
0.0000001
 43
0.0000001
 44
0.0000000001
 40
0.0
 40
0.0
 40
0.0
 40
0.0
 40
0.0012207664
 40
0.0048299772
 40
0.0108270625
 40
0.0191960678
 40
0.0299193231
 40
0.042978692
 40
0.0760081126
 40
0.1179368676
 40
0.1683394834
 40
0.2267805337
 40
0.2926857817
 40
0.4441654504
 40
0.617053044
 40
0.804938678
 40
1.0
 40
1.0
 40
1.0
 40
1.0
 10
5.2517896452
 20
2.6330205087
 30
0.0
 10
5.2517925255
 20
2.6330539221
 30
0.0
 10
5.2515785357
 20
2.6330274594
 30
0.0
 10
5.2513604487
 20
2.6330887065
 30
0.0
 10
5.2508224075
 20
2.6330869862
 30
0.0
 10
5.2501531614
 20
2.6331195636
 30
0.0
 10
5.2492625764
 20
2.6331379537
 30
0.0
 10
5.2477057369
 20
2.6331720864
 30
0.0
 10
5.2452856358
 20
2.6332084356
 30
0.0
 10
5.2418429288
 20
2.6332503077
 30
0.0
 10
5.2377006868
 20
2.6332896099
 30
0.0
 10
5.2329001838
 20
2.6333268256
 30
0.0
 10
5.2253226995
 20
2.6333748917
 30
0.0
 10
5.2146011333
 20
2.633424579
 30
0.0
 10
5.2005283948
 20
2.6334675461
 30
0.0
 10
5.1852583379
 20
2.633494257
 30
0.0
 10
5.1747378846
 20
2.6335005389
 30
0.0
 10
5.1693790922
 20
2.6335006888
 30
0.0
  0
LINE
  5
3E6
100
AcDbEntity
  8
0
100
AcDbLine
 62
7
  6
CONTINUOUS
 10
5.6833404352
 20
2.6328648159
 11
5.6828345762
 21
2.6329153784
  0
LINE
  5
3E7
100
AcDbEntity
  8
0
100
AcDbLine
 62
7
  6
CONTINUOUS
 10
2.4880436446
 20
2.645576465
 11
2.470385398
 21
2.6454376865
  0
SPLINE
  5
3E8
100
AcDbEntity
  8
0
100
AcDbSpline
 62
7
  6
CONTINUOUS
 70
0
 71
3
 72
18
 73
14
 74
0
 42
0.0000001
 43
0.0000001
 44
0.0000000001
 40
0.0
 40
0.0
 40
0.0
 40
0.0
 40
0.0042079089
 40
0.0165861888
 40
0.0371614717
 40
0.0659148852
 40
0.1028038585
 40
0.1477092001
 40
0.2610134966
 40
0.4047151588
 40
0.5774391482
 40
0.7767627016
 40
1.0
 40
1.0
 40
1.0
 40
1.0
 10
7.4112816389
 20
2.6452938993
 30
0.0
 10
7.4112823551
 20
2.6453368048
 30
0.0
 10
7.4110151834
 20
2.6452965116
 30
0.0
 10
7.4107313314
 20
2.6453749926
 30
0.0
 10
7.4100487878
 20
2.6453654408
 30
0.0
 10
7.4091934741
 20
2.6454015368
 30
0.0
 10
7.4080571788
 20
2.6454167627
 30
0.0
 10
7.406072109
 20
2.6454472446
 30
0.0
 10
7.4029905885
 20
2.6454741175
 30
0.0
 10
7.398609554
 20
2.6455008767
 30
0.0
 10
7.3933496377
 20
2.6455195213
 30
0.0
 10
7.3872791796
 20
2.6455312124
 30
0.0
 10
7.38296994
 20
2.6455336626
 30
0.0
 10
7.3806934048
 20
2.6455337558
 30
0.0
  0
LINE
  5
3E9
100
AcDbEntity
  8
0
100
AcDbLine
 62
7
  6
CONTINUOUS
 10
3.4696095211
 20
2.6334831077
 11
3.465107782
 21
2.6334927148
  0
LINE
  5
3EA
100
AcDbEntity
  8
0
100
AcDbLine
 62
7
  6
CONTINUOUS
 10
3.465107782
 20
2.6334927148
 11
3.4433238472
 21
2.6335169434
  0
LINE
  5
3EB
100
AcDbEntity
  8
0
100
AcDbLine
 62
7
  6
CONTINUOUS
 10
7.8613616142
 20
2.6453921955
 11
7.8437053433
 21
2.6455312208
  0
LINE
  5
3EC
100
AcDbEntity
  8
0
100
AcDbLine
 62
7
  6
CONTINUOUS
 10
2.1420455339
 20
2.6455809645
 11
2.1340515454
 21
2.6455175855
  0
LINE
  5
3ED
100
AcDbEntity
  8
0
100
AcDbLine
 62
7
  6
CONTINUOUS
 10
7.4398166877
 20
2.6325360508
 11
7.4374333731
 21
2.632563344
  0
LINE
  5
3EE
100
AcDbEntity
  8
0
100
AcDbLine
 62
7
  6
CONTINUOUS
 10
8.1976742998
 20
2.6454664107
 11
8.1896816795
 21
2.6455298962
  0
LINE
  5
3EF
100
AcDbEntity
  8
0
100
AcDbLine
 62
7
  6
CONTINUOUS
 10
1.9282017142
 20
2.6455845075
 11
1.9261866216
 21
2.6455681434
  0
SPLINE
  5
3F0
100
AcDbEntity
  8
0
100
AcDbSpline
 62
7
  6
CONTINUOUS
 70
0
 71
3
 72
27
 73
23
 74
0
 42
0.0000001
 43
0.0000001
 44
0.0000000001
 40
0.0
 40
0.0
 40
0.0
 40
0.0
 40
0.000485972
 40
0.0019444127
 40
0.0043711433
 40
0.0077609864
 40
0.0121086541
 40
0.0174088287
 40
0.0308318181
 40
0.0479107776
 40
0.0685082438
 40
0.0924861863
 40
0.1196730005
 40
0.1827732407
 40
0.255931159
 40
0.3369231481
 40
0.4233371216
 40
0.5125584176
 40
0.6019166193
 40
0.770363816
 40
0.9085538819
 40
1.0
 40
1.0
 40
1.0
 40
1.0
 10
2.8942447145
 20
2.632596838
 30
0.0
 10
2.8942476236
 20
2.6326225391
 30
0.0
 10
2.89407498
 20
2.6325779504
 30
0.0
 10
2.8939093614
 20
2.6326340552
 30
0.0
 10
2.8934841742
 20
2.6326153041
 30
0.0
 10
2.8929600728
 20
2.6326374338
 30
0.0
 10
2.8922597606
 20
2.6326435443
 30
0.0
 10
2.8910350358
 20
2.6326626488
 30
0.0
 10
2.8891276417
 20
2.6326835137
 30
0.0
 10
2.8864089477
 20
2.6327122094
 30
0.0
 10
2.8831273093
 20
2.6327426678
 30
0.0
 10
2.8793081015
 20
2.6327757857
 30
0.0
 10
2.8732266499
 20
2.6328250695
 30
0.0
 10
2.864527765
 20
2.632889908
 30
0.0
 10
2.8529651647
 20
2.6329692222
 30
0.0
 10
2.8401617227
 20
2.633051064
 30
0.0
 10
2.8265033075
 20
2.6331328617
 30
0.0
 10
2.8123995906
 20
2.6332122319
 30
0.0
 10
2.7939297934
 20
2.6333095164
 30
0.0
 10
2.7728536732
 20
2.6334102126
 30
0.0
 10
2.7516663565
 20
2.6334913536
 30
0.0
 10
2.739444286
 20
2.6335252744
 30
0.0
 10
2.7345771828
 20
2.6335256206
 30
0.0
  0
LINE
  5
3F1
100
AcDbEntity
  8
0
100
AcDbLine
 62
7
  6
CONTINUOUS
 10
8.4055159771
 20
2.6455134516
 11
8.4035015873
 21
2.6455298397
  0
SPLINE
  5
3F2
100
AcDbEntity
  8
0
100
AcDbSpline
 62
7
  6
CONTINUOUS
 70
0
 71
3
 72
23
 73
19
 74
0
 42
0.0000001
 43
0.0000001
 44
0.0000000001
 40
0.0
 40
0.0
 40
0.0
 40
0.0
 40
0.0013075892
 40
0.0051722843
 40
0.0115956047
 40
0.0205674256
 40
0.032073202
 40
0.046070575
 40
0.0813127627
 40
0.125838214
 40
0.1791229721
 40
0.240440709
 40
0.3090259557
 40
0.384019822
 40
0.4644146331
 40
0.6372795325
 40
0.8190362158
 40
1.0
 40
1.0
 40
1.0
 40
1.0
 10
4.6488435177
 20
2.6329111481
 30
0.0
 10
4.6488451569
 20
2.632955651
 30
0.0
 10
4.6485638828
 20
2.6329093644
 30
0.0
 10
4.648271112
 20
2.632994697
 30
0.0
 10
4.6475580036
 20
2.6329844378
 30
0.0
 10
4.646667589
 20
2.633026151
 30
0.0
 10
4.6454839548
 20
2.6330465778
 30
0.0
 10
4.6434201087
 20
2.6330878894
 30
0.0
 10
4.6402240398
 20
2.6331316919
 30
0.0
 10
4.6356941838
 20
2.6331834616
 30
0.0
 10
4.6302744715
 20
2.6332324537
 30
0.0
 10
4.6240358978
 20
2.6332795764
 30
0.0
 10
4.617057734
 20
2.6333235261
 30
0.0
 10
4.6094298846
 20
2.6333638513
 30
0.0
 10
4.5982505244
 20
2.6334132816
 30
0.0
 10
4.5834350732
 20
2.6334614435
 30
0.0
 10
4.5651944585
 20
2.6334971037
 30
0.0
 10
4.5528411421
 20
2.6335059479
 30
0.0
 10
4.5466779864
 20
2.6335061279
 30
0.0
  0
SPLINE
  5
3F3
100
AcDbEntity
  8
0
100
AcDbSpline
 62
7
  6
CONTINUOUS
 70
0
 71
3
 72
21
 73
17
 74
0
 42
0.0000001
 43
0.0000001
 44
0.0000000001
 40
0.0
 40
0.0
 40
0.0
 40
0.0
 40
0.0011374749
 40
0.0045212463
 40
0.0101723609
 40
0.0180748928
 40
0.0405537469
 40
0.0717932628
 40
0.1116246684
 40
0.1597899341
 40
0.2159002163
 40
0.2795560947
 40
0.427819044
 40
0.6006132476
 40
0.793375495
 40
1.0
 40
1.0
 40
1.0
 40
1.0
 10
5.8545357736
 20
2.633130267
 30
0.0
 10
5.8545387773
 20
2.6331538371
 30
0.0
 10
5.8543857733
 20
2.6331412203
 30
0.0
 10
5.8542310043
 20
2.6331825203
 30
0.0
 10
5.8538452318
 20
2.6331856128
 30
0.0
 10
5.8531126566
 20
2.6332210639
 30
0.0
 10
5.8518112337
 20
2.6332445792
 30
0.0
 10
5.849864301
 20
2.6332806434
 30
0.0
 10
5.8473710826
 20
2.6333108959
 30
0.0
 10
5.8443619276
 20
2.6333411221
 30
0.0
 10
5.84085379
 20
2.6333687544
 30
0.0
 10
5.8352551661
 20
2.6334046588
 30
0.0
 10
5.8272188793
 20
2.6334410109
 30
0.0
 10
5.8164857595
 20
2.6334721409
 30
0.0
 10
5.8045334532
 20
2.6334912118
 30
0.0
 10
5.7961906506
 20
2.6334955314
 30
0.0
 10
5.7918744638
 20
2.6334956519
 30
0.0
  0
SPLINE
  5
3F4
100
AcDbEntity
  8
0
100
AcDbSpline
 62
7
  6
CONTINUOUS
 70
0
 71
3
 72
21
 73
17
 74
0
 42
0.0000001
 43
0.0000001
 44
0.0000000001
 40
0.0
 40
0.0
 40
0.0
 40
0.0
 40
0.0010952531
 40
0.0043085316
 40
0.0096675562
 40
0.0171773991
 40
0.0386372421
 40
0.0685561847
 40
0.106754734
 40
0.1530526452
 40
0.2072690522
 40
0.2691807681
 40
0.414862226
 40
0.5875842871
 40
0.7841041849
 40
1.0
 40
1.0
 40
1.0
 40
1.0
 10
6.4220550149
 20
2.6332340303
 30
0.0
 10
6.4220564281
 20
2.6332500584
 30
0.0
 10
6.4219561811
 20
2.6332443165
 30
0.0
 10
6.4218505635
 20
2.6332713182
 30
0.0
 10
6.4215943087
 20
2.6332755087
 30
0.0
 10
6.4211027369
 20
2.6333002407
 30
0.0
 10
6.4202286489
 20
2.6333178668
 30
0.0
 10
6.4189173041
 20
2.6333432095
 30
0.0
 10
6.4172348724
 20
2.6333646694
 30
0.0
 10
6.4151977716
 20
2.633385805
 30
0.0
 10
6.4128114575
 20
2.6334049837
 30
0.0
 10
6.4089654045
 20
2.6334297584
 30
0.0
 10
6.403378231
 20
2.6334546368
 30
0.0
 10
6.3958135909
 20
2.6334756313
 30
0.0
 10
6.3872173921
 20
2.6334884119
 30
0.0
 10
6.3811586362
 20
2.6334912175
 30
0.0
 10
6.3779869327
 20
2.6334913099
 30
0.0
  0
SPLINE
  5
3F5
100
AcDbEntity
  8
0
100
AcDbSpline
 62
7
  6
CONTINUOUS
 70
0
 71
3
 72
22
 73
18
 74
0
 42
0.0000001
 43
0.0000001
 44
0.0000000001
 40
0.0
 40
0.0
 40
0.0
 40
0.0
 40
0.001185144
 40
0.0047256642
 40
0.0106095401
 40
0.0188187146
 40
0.0293345315
 40
0.0421381716
 40
0.0745309718
 40
0.1157362593
 40
0.1653447825
 40
0.2229363587
 40
0.2880545467
 40
0.4384314131
 40
0.6113036657
 40
0.8006608423
 40
1.0
 40
1.0
 40
1.0
 40
1.0
 10
3.1771875718
 20
2.6326465837
 30
0.0
 10
3.1771898216
 20
2.632676441
 30
0.0
 10
3.176994524
 20
2.6326342352
 30
0.0
 10
3.1768001502
 20
2.6326960639
 30
0.0
 10
3.1763131502
 20
2.6326816167
 30
0.0
 10
3.1757099552
 20
2.6327090675
 30
0.0
 10
3.1749064857
 20
2.6327201741
 30
0.0
 10
3.1735025063
 20
2.6327466491
 30
0.0
 10
3.1713176559
 20
2.6327760418
 30
0.0
 10
3.1682060777
 20
2.6328140943
 30
0.0
 10
3.1644565809
 20
2.6328534434
 30
0.0
 10
3.1601033704
 20
2.6328948699
 30
0.0
 10
3.1532042151
 20
2.6329546506
 30
0.0
 10
3.1433926626
 20
2.6330298444
 30
0.0
 10
3.1304422581
 20
2.6331171711
 30
0.0
 10
3.1162548256
 20
2.63320234
 30
0.0
 10
3.1064347873
 20
2.6332549006
 30
0.0
 10
3.1013986685
 20
2.6332803507
 30
0.0
  0
SPLINE
  5
3F6
100
AcDbEntity
  8
0
100
AcDbSpline
 62
7
  6
CONTINUOUS
 70
0
 71
3
 72
27
 73
23
 74
0
 42
0.0000001
 43
0.0000001
 44
0.0000000001
 40
0.0
 40
0.0
 40
0.0
 40
0.0
 40
0.0910970868
 40
0.2291012805
 40
0.397516193
 40
0.4869055646
 40
0.5761817414
 40
0.6626671909
 40
0.7437403596
 40
0.8169815483
 40
0.8801611191
 40
0.9073837888
 40
0.9313939031
 40
0.9520202496
 40
0.9691237386
 40
0.9825657391
 40
0.9878733973
 40
0.9922274146
 40
0.9956223515
 40
0.9980527981
 40
0.9995134532
 40
1.0
 40
1.0
 40
1.0
 40
1.0
 10
7.5996115515
 20
2.6334846902
 30
0.0
 10
7.5947606061
 20
2.6334844247
 30
0.0
 10
7.5825609214
 20
2.6334505603
 30
0.0
 10
7.5613932363
 20
2.6333696611
 30
0.0
 10
7.540316557
 20
2.6332691706
 30
0.0
 10
7.5218346807
 20
2.633172072
 30
0.0
 10
7.507715538
 20
2.6330928349
 30
0.0
 10
7.4940392558
 20
2.6330111767
 30
0.0
 10
7.4812168615
 20
2.6329294809
 30
0.0
 10
7.4696355095
 20
2.6328503189
 30
0.0
 10
7.4609217153
 20
2.6327856198
 30
0.0
 10
7.454829381
 20
2.6327364545
 30
0.0
 10
7.4510031072
 20
2.6327034207
 30
0.0
 10
7.447715271
 20
2.6326730489
 30
0.0
 10
7.444991369
 20
2.6326444386
 30
0.0
 10
7.443080291
 20
2.6326236548
 30
0.0
 10
7.4418532267
 20
2.6326046084
 30
0.0
 10
7.4411515104
 20
2.6325985566
 30
0.0
 10
7.4406264591
 20
2.6325764337
 30
0.0
 10
7.4402001983
 20
2.6325953128
 30
0.0
 10
7.4400346268
 20
2.6325390993
 30
0.0
 10
7.439861264
 20
2.6325838656
 30
0.0
 10
7.4398643317
 20
2.6325581391
 30
0.0
  0
LINE
  5
3F7
100
AcDbEntity
  8
0
100
AcDbLine
 62
7
  6
CONTINUOUS
 10
6.8638257443
 20
2.6334460045
 11
6.8621411994
 21
2.6334417318
  0
LINE
  5
3F8
100
AcDbEntity
  8
0
100
AcDbLine
 62
7
  6
CONTINUOUS
 10
7.1583465263
 20
2.6325570372
 11
7.1544905175
 21
2.6326206872
  0
SPLINE
  5
3F9
100
AcDbEntity
  8
0
100
AcDbSpline
 62
7
  6
CONTINUOUS
 70
0
 71
3
 72
23
 73
19
 74
0
 42
0.0000001
 43
0.0000001
 44
0.0000000001
 40
0.0
 40
0.0
 40
0.0
 40
0.0
 40
0.1807894934
 40
0.3624690732
 40
0.5353326237
 40
0.6157471042
 40
0.6907691053
 40
0.7593875846
 40
0.8207417803
 40
0.8740621112
 40
0.9186201224
 40
0.9538907614
 40
0.9678995739
 40
0.979414335
 40
0.9883935177
 40
0.9948226317
 40
0.9986911132
 40
1.0
 40
1.0
 40
1.0
 40
1.0
 10
5.7918744638
 20
2.6334956517
 30
0.0
 10
5.7857040966
 20
2.6334955735
 30
0.0
 10
5.7733329825
 20
2.6334869071
 30
0.0
 10
5.7550620448
 20
2.6334514501
 30
0.0
 10
5.7402169641
 20
2.6334034033
 30
0.0
 10
5.7290121468
 20
2.6333540325
 30
0.0
 10
5.7213652434
 20
2.6333137311
 30
0.0
 10
5.7143688398
 20
2.6332697884
 30
0.0
 10
5.7081133517
 20
2.6332226599
 30
0.0
 10
5.7026784958
 20
2.6331736509
 30
0.0
 10
5.6981356709
 20
2.6331218485
 30
0.0
 10
5.694930301
 20
2.6330780244
 30
0.0
 10
5.6928603828
 20
2.6330366721
 30
0.0
 10
5.6916732633
 20
2.6330162491
 30
0.0
 10
5.6907802139
 20
2.6329744454
 30
0.0
 10
5.6900649445
 20
2.6329848421
 30
0.0
 10
5.6897712868
 20
2.6328992055
 30
0.0
 10
5.6894891149
 20
2.6329457768
 30
0.0
 10
5.6894907554
 20
2.6329011345
 30
0.0
  0
LINE
  5
3FA
100
AcDbEntity
  8
0
100
AcDbLine
 62
7
  6
CONTINUOUS
 10
6.2569467872
 20
2.6326593197
 11
6.2509370759
 21
2.63280202
  0
SPLINE
  5
3FB
100
AcDbEntity
  8
0
100
AcDbSpline
 62
7
  6
CONTINUOUS
 70
0
 71
3
 72
21
 73
17
 74
0
 42
0.0000001
 43
0.0000001
 44
0.0000000001
 40
0.0
 40
0.0
 40
0.0
 40
0.0
 40
0.2065076053
 40
0.3992213382
 40
0.5720168041
 40
0.7203122574
 40
0.7839909973
 40
0.8401256125
 40
0.8883137967
 40
0.9281650285
 40
0.959422614
 40
0.9819156282
 40
0.9898230018
 40
0.9954770531
 40
0.9988620621
 40
1.0
 40
1.0
 40
1.0
 40
1.0
 10
4.5466779864
 20
2.6335061278
 30
0.0
 10
4.5423492332
 20
2.6335060786
 30
0.0
 10
4.5339808718
 20
2.633501881
 30
0.0
 10
4.5219904219
 20
2.6334829372
 30
0.0
 10
4.5112202684
 20
2.6334518657
 30
0.0
 10
4.5031548344
 20
2.6334155094
 30
0.0
 10
4.4975350607
 20
2.6333795674
 30
0.0
 10
4.4940132474
 20
2.6333518945
 30
0.0
 10
4.4909922168
 20
2.633321612
 30
0.0
 10
4.4884890474
 20
2.6332912987
 30
0.0
 10
4.4865342528
 20
2.6332551414
 30
0.0
 10
4.4852275154
 20
2.6332315905
 30
0.0
 10
4.4844919419
 20
2.6331960217
 30
0.0
 10
4.4841046224
 20
2.6331929643
 30
0.0
 10
4.4839492347
 20
2.6331514831
 30
0.0
 10
4.4837956449
 20
2.6331642038
 30
0.0
 10
4.4837986522
 20
2.633140541
 30
0.0
  0
LINE
  5
3FC
100
AcDbEntity
  8
0
100
AcDbLine
 62
7
  6
CONTINUOUS
 10
5.0867346967
 20
2.6328443499
 11
5.0798884494
 21
2.6330353007
  0
LINE
  5
3FD
100
AcDbEntity
  8
0
100
AcDbLine
 62
7
  6
CONTINUOUS
 10
3.4433238472
 20
2.6335169432
 11
3.4154447424
 21
2.6333543269
  0
LINE
  5
3FE
100
AcDbEntity
  8
0
100
AcDbLine
 62
7
  6
CONTINUOUS
 10
2.7345771828
 20
2.6335256205
 11
2.7291748342
 21
2.6334937365
  0
LINE
  5
3FF
100
AcDbEntity
  8
0
100
AcDbLine
 62
7
  6
CONTINUOUS
 10
7.6379854634
 20
3.5624572495
 11
7.6370330514
 21
3.5645496022
  0
SPLINE
  5
400
100
AcDbEntity
  8
0
100
AcDbSpline
 62
7
  6
CONTINUOUS
 70
0
 71
3
 72
9
 73
5
 74
0
 42
0.0000001
 43
0.0000001
 44
0.0000000001
 40
0.0
 40
0.0
 40
0.0
 40
0.0
 40
0.4215005413
 40
1.0
 40
1.0
 40
1.0
 40
1.0
 10
4.2542511466
 20
4.7548516364
 30
0.0
 10
4.2769130632
 20
4.7555156738
 30
0.0
 10
4.3306855241
 20
4.7568333001
 30
0.0
 10
4.3844662878
 20
4.757740475
 30
0.0
 10
4.4155794383
 20
4.7581825386
 30
0.0
  0
SPLINE
  5
401
100
AcDbEntity
  8
0
100
AcDbSpline
 62
7
  6
CONTINUOUS
 70
0
 71
3
 72
19
 73
15
 74
0
 42
0.0000001
 43
0.0000001
 44
0.0000000001
 40
0.0
 40
0.0
 40
0.0
 40
0.0
 40
0.0648828595
 40
0.129208085
 40
0.1930340258
 40
0.2564305095
 40
0.3194637942
 40
0.3821914299
 40
0.4446615053
 40
0.5069135897
 40
0.6308877074
 40
0.7543101188
 40
0.8773158012
 40
1.0
 40
1.0
 40
1.0
 40
1.0
 10
5.937340729
 20
4.7038302905
 30
0.0
 10
5.975109528
 20
4.6806794175
 30
0.0
 10
6.0498907561
 20
4.6338708362
 30
0.0
 10
6.1606757113
 20
4.5624742773
 30
0.0
 10
6.2699665848
 20
4.4906440909
 30
0.0
 10
6.378086668
 20
4.4186442721
 30
0.0
 10
6.4852929596
 20
4.3466274887
 30
0.0
 10
6.5917825046
 20
4.2746791067
 30
0.0
 10
6.6977052829
 20
4.2028450355
 30
0.0
 10
6.8381307055
 20
4.1073840618
 30
0.0
 10
7.0128559195
 20
3.988355287
 30
0.0
 10
7.2218206364
 20
3.8459114573
 30
0.0
 10
7.4300800643
 20
3.7039965719
 30
0.0
 10
7.5687371309
 20
3.6095855438
 30
0.0
 10
7.6379854634
 20
3.5624572495
 30
0.0
  0
LINE
  5
402
100
AcDbEntity
  8
0
100
AcDbLine
 62
7
  6
CONTINUOUS
 10
5.9406239373
 20
4.7577959538
 11
5.9423208144
 21
4.7577691097
  0
LINE
  5
403
100
AcDbEntity
  8
0
100
AcDbLine
 62
7
  6
CONTINUOUS
 10
6.0790281254
 20
4.754775474
 11
6.1292690779
 21
4.7530997124
  0
SPLINE
  5
404
100
AcDbEntity
  8
0
100
AcDbSpline
 62
7
  6
CONTINUOUS
 70
0
 71
3
 72
17
 73
13
 74
0
 42
0.0000001
 43
0.0000001
 44
0.0000000001
 40
0.0
 40
0.0
 40
0.0
 40
0.0
 40
0.0594248908
 40
0.1198108208
 40
0.1809341287
 40
0.2426182668
 40
0.3671729723
 40
0.4927779758
 40
0.619046723
 40
0.7457556785
 40
0.8727689405
 40
1.0
 40
1.0
 40
1.0
 40
1.0
 10
4.4166638814
 20
4.7038430003
 30
0.0
 10
4.3865151171
 20
4.6803666001
 30
0.0
 10
4.3257493453
 20
4.6330092721
 30
0.0
 10
4.2337600555
 20
4.5617784118
 30
0.0
 10
4.1402871376
 20
4.490092535
 30
0.0
 10
4.0135848332
 20
4.3939361192
 30
0.0
 10
3.8529561456
 20
4.2739023764
 30
0.0
 10
3.6578670459
 20
4.1306225635
 30
0.0
 10
3.4607137735
 20
3.9878233176
 30
0.0
 10
3.2620762025
 20
3.8455363157
 30
0.0
 10
3.0623376814
 20
3.7037279605
 30
0.0
 10
2.9287139763
 20
3.6095393703
 30
0.0
 10
2.8617801225
 20
3.5624970035
 30
0.0
  0
SPLINE
  5
405
100
AcDbEntity
  8
0
100
AcDbSpline
 62
7
  6
CONTINUOUS
 70
0
 71
3
 72
11
 73
7
 74
0
 42
0.0000001
 43
0.0000001
 44
0.0000000001
 40
0.0
 40
0.0
 40
0.0
 40
0.0
 40
0.2500072382
 40
0.5000079234
 40
0.7500048032
 40
1.0
 40
1.0
 40
1.0
 40
1.0
 10
2.861780367
 20
3.5624970214
 30
0.0
 10
2.8454855687
 20
3.5609118527
 30
0.0
 10
2.8128407527
 20
3.5583006842
 30
0.0
 10
2.7637920618
 20
3.5556866697
 30
0.0
 10
2.714698194
 20
3.5541804156
 30
0.0
 10
2.6819552645
 20
3.553852253
 30
0.0
 10
2.6655843331
 20
3.55385238
 30
0.0
  0
SPLINE
  5
406
100
AcDbEntity
  8
0
100
AcDbSpline
 62
7
  6
CONTINUOUS
 70
0
 71
3
 72
13
 73
9
 74
0
 42
0.0000001
 43
0.0000001
 44
0.0000000001
 40
0.0
 40
0.0
 40
0.0
 40
0.0
 40
0.1250074079
 40
0.2500121442
 40
0.3750134173
 40
0.500013871
 40
0.7500077368
 40
1.0
 40
1.0
 40
1.0
 40
1.0
 10
7.4696073772
 20
3.5624582344
 30
0.0
 10
7.4777547784
 20
3.5616621556
 30
0.0
 10
7.4940644723
 20
3.5602222059
 30
0.0
 10
7.5185572729
 20
3.5584239223
 30
0.0
 10
7.5430715324
 20
3.5569541093
 30
0.0
 10
7.575777616
 20
3.5553948023
 30
0.0
 10
7.6166894075
 20
3.5541392321
 30
0.0
 10
7.6494322406
 20
3.5538104489
 30
0.0
 10
7.6658031657
 20
3.5538103037
 30
0.0
  0
LINE
  5
407
100
AcDbEntity
  8
0
100
AcDbLine
 62
7
  6
CONTINUOUS
 10
4.4877187565
 20
4.7590502636
 11
4.5007545155
 21
4.7589080294
  0
LINE
  5
408
100
AcDbEntity
  8
0
100
AcDbLine
 62
7
  6
CONTINUOUS
 10
4.502548205
 20
4.7588882977
 11
4.5233007336
 21
4.758657467
  0
SPLINE
  5
409
100
AcDbEntity
  8
0
100
AcDbSpline
 62
7
  6
CONTINUOUS
 70
0
 71
3
 72
13
 73
9
 74
0
 42
0.0000001
 43
0.0000001
 44
0.0000000001
 40
0.0
 40
0.0
 40
0.0
 40
0.0
 40
0.2202408849
 40
0.3395649745
 40
0.4641551662
 40
0.5932884107
 40
0.7261851532
 40
1.0
 40
1.0
 40
1.0
 40
1.0
 10
4.5233007336
 20
4.758657467
 30
0.0
 10
4.5621705278
 20
4.7582210289
 30
0.0
 10
4.6220991776
 20
4.7575153517
 30
0.0
 10
4.704016189
 20
4.7565403899
 30
0.0
 10
4.7698540335
 20
4.755763585
 30
0.0
 10
4.8380877865
 20
4.7550021477
 30
0.0
 10
4.9326591527
 20
4.7540705328
 30
0.0
 10
5.0044418017
 20
4.7535652246
 30
0.0
 10
5.0527693289
 20
4.753355459
 30
0.0
  0
LINE
  5
40A
100
AcDbEntity
  8
0
100
AcDbLine
 62
7
  6
CONTINUOUS
 10
5.0527693289
 20
4.753355459
 11
5.0581213161
 21
4.7533327458
  0
SPLINE
  5
40B
100
AcDbEntity
  8
0
100
AcDbSpline
 62
7
  6
CONTINUOUS
 70
0
 71
3
 72
11
 73
7
 74
0
 42
0.0000001
 43
0.0000001
 44
0.0000000001
 40
0.0
 40
0.0
 40
0.0
 40
0.0
 40
0.2735603633
 40
0.5355546276
 40
0.7795718374
 40
1.0
 40
1.0
 40
1.0
 40
1.0
 10
5.2732528512
 20
4.7533299019
 30
0.0
 10
5.3218187265
 20
4.7535301161
 30
0.0
 10
5.4168961229
 20
4.7541846564
 30
0.0
 10
5.5552888698
 20
4.7556657099
 30
0.0
 10
5.6842473943
 20
4.7572115097
 30
0.0
 10
5.7666965678
 20
4.7581824885
 30
0.0
 10
5.8058276118
 20
4.7586219388
 30
0.0
  0
LINE
  5
40C
100
AcDbEntity
  8
0
100
AcDbLine
 62
7
  6
CONTINUOUS
 10
5.8058276118
 20
4.7586219388
 11
5.8291415792
 21
4.7588810064
  0
LINE
  5
40D
100
AcDbEntity
  8
0
100
AcDbLine
 62
7
  6
CONTINUOUS
 10
5.8307308168
 20
4.7588984506
 11
5.8436229122
 21
4.7590388257
  0
SPLINE
  5
40E
100
AcDbEntity
  8
0
100
AcDbSpline
 62
7
  6
CONTINUOUS
 70
0
 71
3
 72
17
 73
13
 74
0
 42
0.0000001
 43
0.0000001
 44
0.0000000001
 40
0.0
 40
0.0
 40
0.0
 40
0.0
 40
0.0594250323
 40
0.1198110541
 40
0.1809344179
 40
0.2426185859
 40
0.3671732999
 40
0.4927782696
 40
0.6190469591
 40
0.7457558425
 40
0.8727690235
 40
1.0
 40
1.0
 40
1.0
 40
1.0
 10
5.9146801622
 20
4.7038303921
 30
0.0
 10
5.9448299063
 20
4.6803534968
 30
0.0
 10
6.005597606
 20
4.6329951639
 30
0.0
 10
6.0975897224
 20
4.561762746
 30
0.0
 10
6.191065404
 20
4.4900752896
 30
0.0
 10
6.3177713252
 20
4.3939167488
 30
0.0
 10
6.4784044562
 20
4.2738803022
 30
0.0
 10
6.6734988208
 20
4.130597195
 30
0.0
 10
6.8706573128
 20
3.9877946243
 30
0.0
 10
7.0693000781
 20
3.8455042773
 30
0.0
 10
7.2690437729
 20
3.7036925505
 30
0.0
 10
7.402670932
 20
3.6095017201
 30
0.0
 10
7.4696065084
 20
3.5624582249
 30
0.0
  0
SPLINE
  5
40F
100
AcDbEntity
  8
0
100
AcDbSpline
 62
7
  6
CONTINUOUS
 70
0
 71
3
 72
13
 73
9
 74
0
 42
0.0000001
 43
0.0000001
 44
0.0000000001
 40
0.0
 40
0.0
 40
0.0
 40
0.0
 40
0.2499999778
 40
0.3749999844
 40
0.4999999965
 40
0.625000009
 40
0.7500000169
 40
1.0
 40
1.0
 40
1.0
 40
1.0
 10
2.8617801225
 20
3.5624970035
 30
0.0
 10
3.2457653849
 20
3.5630697834
 30
0.0
 10
3.8217434433
 20
3.5638593217
 30
0.0
 10
4.5897146767
 20
3.5644603602
 30
0.0
 10
5.165693318
 20
3.5646183198
 30
0.0
 10
5.7416719585
 20
3.5644507061
 30
0.0
 10
6.5096431924
 20
3.5638367026
 30
0.0
 10
7.0856212475
 20
3.5630374821
 30
0.0
 10
7.4696065084
 20
3.5624582249
 30
0.0
  0
SPLINE
  5
410
100
AcDbEntity
  8
0
100
AcDbSpline
 62
7
  6
CONTINUOUS
 70
0
 71
3
 72
19
 73
15
 74
0
 42
0.0000001
 43
0.0000001
 44
0.0000000001
 40
0.0
 40
0.0
 40
0.0
 40
0.0
 40
0.064882984
 40
0.1292083083
 40
0.1930343231
 40
0.2564308586
 40
0.3194641758
 40
0.3821918273
 40
0.444661904
 40
0.5069139773
 40
0.6308880417
 40
0.7543103669
 40
0.8773159378
 40
1.0
 40
1.0
 40
1.0
 40
1.0
 10
4.3940024914
 20
4.7038432806
 30
0.0
 10
4.35623439
 20
4.6806930477
 30
0.0
 10
4.2814545709
 20
4.6338857346
 30
0.0
 10
4.1706717625
 20
4.5624910403
 30
0.0
 10
4.0613830804
 20
4.4906626924
 30
0.0
 10
3.9532652297
 20
4.4186646923
 30
0.0
 10
3.8460612069
 20
4.3466497121
 30
0.0
 10
3.739573962
 20
4.2747031214
 30
0.0
 10
3.6336535111
 20
4.2028708321
 30
0.0
 10
3.4932312301
 20
4.1074122291
 30
0.0
 10
3.3185099906
 20
3.9883864006
 30
0.0
 10
3.1095500943
 20
3.8459460841
 30
0.0
 10
2.9012955376
 20
3.7040347028
 30
0.0
 10
2.7626417381
 20
3.609626002
 30
0.0
 10
2.6933950462
 20
3.5624988717
 30
0.0
  0
SPLINE
  5
411
100
AcDbEntity
  8
0
100
AcDbSpline
 62
7
  6
CONTINUOUS
 70
0
 71
3
 72
11
 73
7
 74
0
 42
0.0000001
 43
0.0000001
 44
0.0000000001
 40
0.0
 40
0.0
 40
0.0
 40
0.0
 40
0.258971259
 40
0.5104904719
 40
0.7566588466
 40
1.0
 40
1.0
 40
1.0
 40
1.0
 10
4.4857725819
 20
4.7590497974
 30
0.0
 10
4.4869404261
 20
4.7598218826
 30
0.0
 10
4.4893446625
 20
4.761196811
 30
0.0
 10
4.4931576052
 20
4.7627158205
 30
0.0
 10
4.4970716044
 20
4.7636356878
 30
0.0
 10
4.4997222669
 20
4.763841805
 30
0.0
 10
4.5010377623
 20
4.7638417973
 30
0.0
  0
SPLINE
  5
412
100
AcDbEntity
  8
0
100
AcDbSpline
 62
7
  6
CONTINUOUS
 70
0
 71
3
 72
10
 73
6
 74
0
 42
0.0000001
 43
0.0000001
 44
0.0000000001
 40
0.0
 40
0.0
 40
0.0
 40
0.0
 40
0.510601218
 40
0.7570351352
 40
1.0
 40
1.0
 40
1.0
 40
1.0
 10
4.4877240723
 20
4.7590498245
 30
0.0
 10
4.4897340069
 20
4.7604075484
 30
0.0
 10
4.4929710657
 20
4.7620882551
 30
0.0
 10
4.4975515814
 20
4.763386943
 30
0.0
 10
4.4998636389
 20
4.7637082902
 30
0.0
 10
4.5010151859
 20
4.76378608
 30
0.0
  0
SPLINE
  5
413
100
AcDbEntity
  8
0
100
AcDbSpline
 62
7
  6
CONTINUOUS
 70
0
 71
3
 72
10
 73
6
 74
0
 42
0.0000001
 43
0.0000001
 44
0.0000000001
 40
0.0
 40
0.0
 40
0.0
 40
0.0
 40
0.5105909525
 40
0.757036948
 40
1.0
 40
1.0
 40
1.0
 40
1.0
 10
5.8436175906
 20
4.7590383651
 30
0.0
 10
5.8416168787
 20
4.7603898396
 30
0.0
 10
5.8383959843
 20
4.7620643671
 30
0.0
 10
5.8338386466
 20
4.7633645227
 30
0.0
 10
5.8315379671
 20
4.7636898067
 30
0.0
 10
5.8303919084
 20
4.7637703425
 30
0.0
  0
LINE
  5
414
100
AcDbEntity
  8
0
100
AcDbLine
 62
7
  6
CONTINUOUS
 10
5.8436182799
 20
4.7590383979
 11
5.8455688883
 21
4.7590384249
  0
SPLINE
  5
415
100
AcDbEntity
  8
0
100
AcDbSpline
 62
7
  6
CONTINUOUS
 70
0
 71
3
 72
11
 73
7
 74
0
 42
0.0000001
 43
0.0000001
 44
0.0000000001
 40
0.0
 40
0.0
 40
0.0
 40
0.0
 40
0.2589722889
 40
0.5104921136
 40
0.7566603326
 40
1.0
 40
1.0
 40
1.0
 40
1.0
 10
5.8455682095
 20
4.7590384011
 30
0.0
 10
5.8444003318
 20
4.7598104976
 30
0.0
 10
5.8419960354
 20
4.7611854505
 30
0.0
 10
5.8381830144
 20
4.7627045081
 30
0.0
 10
5.8342689516
 20
4.7636244329
 30
0.0
 10
5.8316182479
 20
4.7638305948
 30
0.0
 10
5.8303027336
 20
4.7638306093
 30
0.0
  0
SPLINE
  5
416
100
AcDbEntity
  8
0
100
AcDbSpline
 62
7
  6
CONTINUOUS
 70
0
 71
3
 72
17
 73
13
 74
0
 42
0.0000001
 43
0.0000001
 44
0.0000000001
 40
0.0
 40
0.0
 40
0.0
 40
0.0
 40
0.1107709849
 40
0.2235290125
 40
0.2810834695
 40
0.3395878947
 40
0.4599582764
 40
0.585727147
 40
0.7176190489
 40
0.7859545318
 40
0.8558327505
 40
1.0
 40
1.0
 40
1.0
 40
1.0
 10
7.6364328276
 20
3.563492769
 30
0.0
 10
7.6310552671
 20
3.5670192918
 30
0.0
 10
7.6196134449
 20
3.5732732386
 30
0.0
 10
7.6041960485
 20
3.5788122213
 30
0.0
 10
7.5912656498
 20
3.581900121
 30
0.0
 10
7.5777090906
 20
3.5841159056
 30
0.0
 10
7.5599930079
 20
3.5851152537
 30
0.0
 10
7.5380507168
 20
3.5835424999
 30
0.0
 10
7.519419923
 20
3.5799827268
 30
0.0
 10
7.5042902719
 20
3.5758411094
 30
0.0
 10
7.4887113424
 20
3.5707206001
 30
0.0
 10
7.4771987902
 20
3.5659810236
 30
0.0
 10
7.4696067039
 20
3.5624582992
 30
0.0
  0
LINE
  5
417
100
AcDbEntity
  8
0
100
AcDbLine
 62
7
  6
CONTINUOUS
 10
4.4857726085
 20
4.7590498283
 11
4.4877234079
 21
4.7590498485
  0
SPLINE
  5
418
100
AcDbEntity
  8
0
100
AcDbSpline
 62
7
  6
CONTINUOUS
 70
0
 71
3
 72
17
 73
13
 74
0
 42
0.0000001
 43
0.0000001
 44
0.0000000001
 40
0.0
 40
0.0
 40
0.0
 40
0.0
 40
0.1441723513
 40
0.2140521536
 40
0.2823885121
 40
0.4142799936
 40
0.5400464677
 40
0.6604136398
 40
0.7189166387
 40
0.7764699457
 40
0.8892269573
 40
1.0
 40
1.0
 40
1.0
 40
1.0
 10
2.8617801476
 20
3.5624970008
 30
0.0
 10
2.8541844181
 20
3.566021489
 30
0.0
 10
2.8426662689
 20
3.5707632082
 30
0.0
 10
2.8270796873
 20
3.5758853973
 30
0.0
 10
2.8119428287
 20
3.5800277794
 30
0.0
 10
2.7933033324
 20
3.5835869491
 30
0.0
 10
2.7713512088
 20
3.585156349
 30
0.0
 10
2.7536277843
 20
3.5841519571
 30
0.0
 10
2.7400661956
 20
3.5819307893
 30
0.0
 10
2.7271313344
 20
3.5788367823
 30
0.0
 10
2.7117093541
 20
3.5732886548
 30
0.0
 10
2.7002655292
 20
3.5670259233
 30
0.0
 10
2.6948874286
 20
3.5634947526
 30
0.0
  0
ELLIPSE
  5
419
100
AcDbEntity
  8
0
100
AcDbEllipse
 62
7
  6
CONTINUOUS
 10
5.1656451003
 20
5.7138379597
 30
0.0
 11
0.6187340561
 21
0.6187062824
 31
0.0
 40
0.9999943889
 41
3.5873178799
 42
4.266703032
  0
ENDSEC
  0
SECTION
  2
OBJECTS
  0
DICTIONARY
  5
C
100
AcDbDictionary
280
0
281
1
  3
ACAD_GROUP
350
D
  3
ACAD_MLINESTYLE
350
17
  3
ACAD_LAYOUT
350
1A
  3
ACAD_PLOTSETTINGS
350
19
  3
ACAD_PLOTSTYLENAME
350
E
  0
DICTIONARY
  5
D
102
{ACAD_REACTORS
330
C
102
}
100
AcDbDictionary
280
0
281
1
  0
ACDBDICTIONARYWDFLT
  5
E
102
{ACAD_REACTORS
330
C
102
}
100
AcDbDictionary
281
1
  3
Normal
350
F
100
AcDbDictionaryWithDefault
340
F
  0
DICTIONARY
  5
17
102
{ACAD_REACTORS
330
C
102
}
100
AcDbDictionary
280
0
281
1
  3
Standard
350
18
  0
DICTIONARY
  5
19
102
{ACAD_REACTORS
330
C
102
}
100
AcDbDictionary
281
1
  0
DICTIONARY
  5
1A
102
{ACAD_REACTORS
330
C
102
}
100
AcDbDictionary
281
1
  3
Model
350
41A
  3
Layout1
350
41B
  0
ACDBPLACEHOLDER
  5
F
102
{ACAD_REACTORS
330
E
102
}
  0
MLINESTYLE
  5
18
102
{ACAD_REACTORS
330
17
102
}
100
AcDbMlineStyle
  2
STANDARD
 70
0
  3

 62
256
 51
90.0
 52
90.0
 71
2
 49
0.5
 62
256
  6
BYLAYER
 49
-0.5
 62
256
  6
BYLAYER
  0
LAYOUT
  5
41A
102
{ACAD_REACTORS
330
1A
102
}
100
AcDbPlotSettings
  1

  2
none_device
  4
ANSI_A_(11.00_x_8.50_Inches)
  6

 40
0.0
 41
0.0
 42
0.0
 43
0.0
 44
279.4
 45
215.9
 46
0.0
 47
0.0
 48
0.0
 49
0.0
140
0.0
141
0.0
142
1.0
143
1.0
 70
1024
 72
0
 73
0
 74
0
  7

 75
0
147
1.0
148
0.0
149
0.0
100
AcDbLayout
  1
Model
 70
0
 71
0
 10
0.0
 20
0.0
 11
11.0
 21
8.5
 12
0.0
 22
0.0
 32
0.0
 14
0.0
 24
0.0
 34
0.0
 15
0.0
 25
0.0
 35
0.0
146
0.0
 13
0.0
 23
0.0
 33
0.0
 16
1.0
 26
0.0
 36
0.0
 17
0.0
 27
1.0
 37
0.0
 76
0
330
213
345
0
346
0
  0
LAYOUT
  5
41B
102
{ACAD_REACTORS
330
1A
102
}
100
AcDbPlotSettings
  1

  2
none_device
  4
ANSI_A_(11.00_x_8.50_Inches)
  6

 40
0.0
 41
0.0
 42
0.0
 43
0.0
 44
279.4
 45
215.9
 46
0.0
 47
0.0
 48
0.0
 49
0.0
140
0.0
141
0.0
142
1.0
143
1.0
 70
0
 72
0
 73
0
 74
0
  7

 75
0
147
1.0
148
0.0
149
0.0
100
AcDbLayout
  1
Layout1
 70
0
 71
1
 10
0.0
 20
0.0
 11
11.0
 21
8.5
 12
0.0
 22
0.0
 32
0.0
 14
0.0
 24
0.0
 34
0.0
 15
0.0
 25
0.0
 35
0.0
146
0.0
 13
0.0
 23
0.0
 33
0.0
 16
1.0
 26
0.0
 36
0.0
 17
0.0
 27
1.0
 37
0.0
 76
0
330
214
345
0
346
0
  0
ENDSEC
  0
EOF
