999
DXF file: 215_right.dxf
999
Pro/ENGINEER 2018400 by Parametric Technology Corporation
  0
SECTION
  2
HEADER
  9
$ACADVER
  1
AC1027
  9
$DWGCODEPAGE
  3
ANSI_1252
  9
$EXTMAX
 10
11.0
 20
8.5
 30
0.0
  9
$EXTMIN
 10
0.0
 20
0.0
 30
0.0
  9
$LIMMIN
 10
0.0
 20
0.0
  9
$LIMMAX
 10
11.0
 20
8.5
  9
$VIEWCTR
 10
5.5
 20
4.25
  9
$VIEWSIZE
 40
8.5
  9
$CLAYER
  8
0
  9
$LTSCALE
 40
0.605
  9
$CELTYPE
  6
BYLAYER
  9
$DIMSCALE
 40
1.0
  9
$DIMASZ
 40
0.1
  9
$DIMEXO
 40
0.0625
  9
$DIMDLI
 40
0.418
  9
$DIMEXE
 40
0.125
  9
$DIMCEN
 40
0.099
  9
$DIMLFAC
 40
1.0
  9
$DIMBLK
  1
_FILLED
  9
$DIMALT
 70
1
  9
$DIMALTD
 70
1
  9
$DIMALTTD
 70
2
  9
$DIMALTF
 40
25.4
  9
$DIMTXT
 40
0.08
  9
$DIMTOL
 70
1
  9
$DIMLIM
 70
0
  9
$DIMTFAC
 40
1.0
  9
$DIMTP
 40
0.01
  9
$DIMTM
 40
0.01
  9
$DIMGAP
 40
0.09
  9
$DIMDSEP
 70
46
  9
$AUNITS
 70
0
  9
$PDMODE
 70
3
  9
$PDSIZE
 40
0.3125
  9
$HANDSEED
  5
3F4
  9
$TILEMODE
 70
1
  9
$MEASUREMENT
 70
0
  9
$INSUNITS
 70
1
  0
ENDSEC
  0
SECTION
  2
CLASSES
  0
CLASS
  1
ACDBDICTIONARYWDFLT
  2
AcDbDictionaryWithDefault
  3
AutoCAD 2000
 90
0
 91
1
280
0
281
0
  0
CLASS
  1
ACDBPLACEHOLDER
  2
AcDbPlaceHolder
  3
AutoCAD 2000
 90
0
 91
1
280
0
281
0
  0
CLASS
  1
LAYOUT
  2
AcDbLayout
  3
AutoCAD 2000
 90
0
 91
0
280
0
281
0
  0
ENDSEC
  0
SECTION
  2
TABLES
  0
TABLE
  2
VPORT
  5
8
100
AcDbSymbolTable
 70
2
  0
VPORT
  5
1F4
100
AcDbSymbolTableRecord
100
AcDbViewportTableRecord
  2
*ACTIVE
 70
0
 10
0.0
 20
0.0
 11
1.0
 21
1.0
 12
5.5
 22
4.25
 13
0.0
 23
0.0
 14
1.0
 24
1.0
 15
0.0
 25
0.0
 16
0.0
 26
0.0
 36
1.0
 17
0.0
 27
0.0
 37
0.0
 40
8.5
 41
1.2941176471
 42
50.0
 43
0.0
 44
0.0
 50
0.0
 51
0.0
 71
0
 72
100
 73
1
 74
1
 75
0
 76
0
 77
0
 78
0
  0
ENDTAB
  0
TABLE
  2
LTYPE
  5
5
100
AcDbSymbolTable
 70
6
  0
LTYPE
  5
14
100
AcDbSymbolTableRecord
100
AcDbLinetypeTableRecord
  2
BYBLOCK
 70
0
  3

 72
65
 73
0
 40
0.0
  0
LTYPE
  5
15
100
AcDbSymbolTableRecord
100
AcDbLinetypeTableRecord
  2
BYLAYER
 70
0
  3

 72
65
 73
0
 40
0.0
  0
LTYPE
  5
16
100
AcDbSymbolTableRecord
100
AcDbLinetypeTableRecord
  2
CONTINUOUS
 70
64
  3
Solid line
 72
65
 73
0
 40
0.0
  0
LTYPE
  5
1F5
100
AcDbSymbolTableRecord
100
AcDbLinetypeTableRecord
  2
CENTER
 70
64
  3
____ _ ____ _ ____ _ ____ _ ____ _ ____ _ ____
 72
65
 73
4
 40
0.6
 49
0.375
 74
0
 49
-0.075
 74
0
 49
0.075
 74
0
 49
-0.075
 74
0
  0
LTYPE
  5
1F6
100
AcDbSymbolTableRecord
100
AcDbLinetypeTableRecord
  2
HIDDEN
 70
64
  3
- - - - - - - - - - - - - - - - - - - -
 72
65
 73
2
 40
0.2
 49
0.1
 74
0
 49
-0.1
 74
0
  0
LTYPE
  5
1F7
100
AcDbSymbolTableRecord
100
AcDbLinetypeTableRecord
  2
PHANTOM
 70
64
  3
_____ _ _ _____ _ _ _____ _ _ _____
 72
65
 73
6
 40
0.8
 49
0.45
 74
0
 49
-0.05
 74
0
 49
0.1
 74
0
 49
-0.05
 74
0
 49
0.1
 74
0
 49
-0.05
 74
0
  0
LTYPE
  5
1F8
100
AcDbSymbolTableRecord
100
AcDbLinetypeTableRecord
  2
DOT
 70
64
  3
. . . . . . . . . . . . . . . . . . . .
 72
65
 73
2
 40
0.2
 49
0.1
 74
0
 49
-0.1
 74
0
  0
LTYPE
  5
1F9
100
AcDbSymbolTableRecord
100
AcDbLinetypeTableRecord
  2
DASHED
 70
64
  3
- - - - - - - - - - - - - - - - - - - -
 72
65
 73
2
 40
0.2
 49
0.1
 74
0
 49
-0.1
 74
0
  0
ENDTAB
  0
TABLE
  2
LAYER
  5
2
100
AcDbSymbolTable
 70
36
  0
LAYER
  5
10
100
AcDbSymbolTableRecord
100
AcDbLayerTableRecord
  2
0
 70
0
 62
7
  6
CONTINUOUS
370
-3
390
F
  0
LAYER
  5
1FA
100
AcDbSymbolTableRecord
100
AcDbLayerTableRecord
  2
DEFAULT_1
 70
0
 62
7
  6
CENTER
370
-3
390
F
  0
LAYER
  5
1FB
100
AcDbSymbolTableRecord
100
AcDbLayerTableRecord
  2
DEFAULT_2
 70
0
 62
8
  6
HIDDEN
370
-3
390
F
  0
LAYER
  5
1FC
100
AcDbSymbolTableRecord
100
AcDbLayerTableRecord
  2
DEFAULT_3
 70
0
 62
7
  6
PHANTOM
370
-3
390
F
  0
LAYER
  5
1FD
100
AcDbSymbolTableRecord
100
AcDbLayerTableRecord
  2
DEFAULT_COORDINATE_SYSTEM
 70
0
 62
7
  6
CONTINUOUS
370
-3
390
F
  0
LAYER
  5
1FE
100
AcDbSymbolTableRecord
100
AcDbLayerTableRecord
  2
DEFAULT_DATUM_AXES
 70
0
 62
7
  6
CONTINUOUS
370
-3
390
F
  0
LAYER
  5
1FF
100
AcDbSymbolTableRecord
100
AcDbLayerTableRecord
  2
DEFAULT_DATUM_PLANES
 70
0
 62
7
  6
CONTINUOUS
370
-3
390
F
  0
ENDTAB
  0
TABLE
  2
STYLE
  5
3
100
AcDbSymbolTable
 70
1
  0
STYLE
  5
11
100
AcDbSymbolTableRecord
100
AcDbTextStyleTableRecord
  2
STANDARD
 70
0
 40
0.0
 41
0.8
 50
0.0
 71
0
 42
0.2
  3
txt
  4

  0
STYLE
  5
200
100
AcDbSymbolTableRecord
100
AcDbTextStyleTableRecord
  2
TEXTSTYLE_1
 70
0
 40
0.0
 41
0.8
 50
0.0
 71
0
 42
0.2
  3
gdt
  4

  0
ENDTAB
  0
TABLE
  2
VIEW
  5
6
100
AcDbSymbolTable
 70
0
  0
ENDTAB
  0
TABLE
  2
UCS
  5
7
100
AcDbSymbolTable
 70
0
  0
ENDTAB
  0
TABLE
  2
APPID
  5
9
100
AcDbSymbolTable
 70
1
  0
APPID
  5
201
100
AcDbSymbolTableRecord
100
AcDbRegAppTableRecord
  2
ACAD
 70
0
  0
ENDTAB
  0
TABLE
  2
BLOCK_RECORD
  5
1
100
AcDbSymbolTable
 70
0
  0
BLOCK_RECORD
  5
202
100
AcDbSymbolTableRecord
100
AcDbBlockTableRecord
  2
*Model_Space
  0
BLOCK_RECORD
  5
203
100
AcDbSymbolTableRecord
100
AcDbBlockTableRecord
  2
*Paper_Space
  0
BLOCK_RECORD
  5
204
100
AcDbSymbolTableRecord
100
AcDbBlockTableRecord
  2
_FILLED
  0
ENDTAB
  0
TABLE
  2
DIMSTYLE
  5
A
100
AcDbSymbolTable
 70
1
100
AcDbDimStyleTable
 71
0
  0
DIMSTYLE
105
205
100
AcDbSymbolTableRecord
100
AcDbDimStyleTableRecord
  2
STANDARD
 70
0
  3

  4

 40
1.0
 41
0.1
 42
0.0625
 43
0.38
 44
0.125
 45
0.0
 46
0.0
 47
0.01
 48
0.01
140
0.08
141
0.09
142
0.0
143
25.4
144
1.0
145
0.0
146
1.0
147
0.09
 71
1.0
 72
0.0
 73
1
 74
1
 75
0
 76
0
 77
0
 78
4
 79
1
170
1
171
1
172
0
173
0
174
0
175
0
176
0
177
0
178
0
270
2
179
2
271
2
272
2
273
2
274
2
275
0
280
0
281
0
282
0
283
1
284
4
285
0
286
0
287
3
288
0
340
11
278
46
341
204
342
204
343
204
344
204
  0
ENDTAB
  0
ENDSEC
  0
SECTION
  2
BLOCKS
  0
BLOCK
  5
20
100
AcDbEntity
  8
0
100
AcDbBlockBegin
  2
*Model_Space
 70
0
 10
0.0
 20
0.0
 30
0.0
  3
*Model_Space
  1

  0
ENDBLK
  5
21
100
AcDbEntity
  8
0
100
AcDbBlockEnd
  0
BLOCK
  5
1C
100
AcDbEntity
  8
0
100
AcDbBlockBegin
  2
*Paper_Space
 70
0
 10
0.0
 20
0.0
 30
0.0
  3
*Paper_Space
  1

  0
ENDBLK
  5
1D
100
AcDbEntity
  8
0
100
AcDbBlockEnd
  0
BLOCK
  5
206
100
AcDbEntity
  8
0
100
AcDbBlockBegin
  2
_FILLED
 70
64
 10
0.0
 20
0.0
  3
_FILLED
  1

  0
SOLID
  5
207
100
AcDbEntity
  8
0
  6
BYBLOCK
 62
0
100
AcDbTrace
 10
0.0
 20
0.0
 11
-1.0
 21
0.2
 12
-1.0
 22
-0.2
 13
-1.0
 23
-0.2
  0
ENDBLK
  5
208
100
AcDbEntity
  8
0
  6
BYBLOCK
 62
0
100
AcDbBlockEnd
  0
ENDSEC
  0
SECTION
  2
ENTITIES
  0
MTEXT
  5
209
100
AcDbEntity
  8
0
100
AcDbMText
 62
2
  6
CONTINUOUS
  7
STANDARD
 71
3
 72
1
 10
5.6268245342
 20
0.9708041745
 30
0.0
 11
1.0
 21
0.0
 31
0.0
 73
2
 44
0.9
  1
SCALE  .750
 40
0.08
 41
0.704
  0
LINE
  5
20A
100
AcDbEntity
  8
0
100
AcDbLine
 62
7
  6
CONTINUOUS
 10
0.0
 20
0.0
 11
0.0
 21
8.5
  0
LINE
  5
20B
100
AcDbEntity
  8
0
100
AcDbLine
 62
7
  6
CONTINUOUS
 10
0.0
 20
0.0
 11
11.0
 21
0.0
  0
LINE
  5
20C
100
AcDbEntity
  8
0
100
AcDbLine
 62
7
  6
CONTINUOUS
 10
0.0
 20
8.5
 11
11.0
 21
8.5
  0
LINE
  5
20D
100
AcDbEntity
  8
0
100
AcDbLine
 62
7
  6
CONTINUOUS
 10
11.0
 20
0.0
 11
11.0
 21
8.5
  0
LINE
  5
20E
100
AcDbEntity
  8
0
100
AcDbLine
 62
7
  6
CONTINUOUS
 10
2.3029430701
 20
2.3097201951
 11
2.3484394478
 21
2.2642238174
  0
LINE
  5
20F
100
AcDbEntity
  8
0
100
AcDbLine
 62
7
  6
CONTINUOUS
 10
2.3504498582
 20
2.3097201951
 11
2.3959462359
 21
2.2642238174
  0
LINE
  5
210
100
AcDbEntity
  8
0
100
AcDbLine
 62
7
  6
CONTINUOUS
 10
1.868439441
 20
2.5229738174
 11
1.868439441
 21
2.3842238174
  0
LINE
  5
211
100
AcDbEntity
  8
0
100
AcDbLine
 62
7
  6
CONTINUOUS
 10
2.4912809762
 20
2.3097201951
 11
2.5367773539
 21
2.2642238174
  0
LINE
  5
212
100
AcDbEntity
  8
0
100
AcDbLine
 62
7
  6
CONTINUOUS
 10
2.7206408018
 20
2.3097201951
 11
2.7661371795
 21
2.2642238174
  0
LINE
  5
213
100
AcDbEntity
  8
0
100
AcDbLine
 62
7
  6
CONTINUOUS
 10
2.3484394478
 20
2.2642238174
 11
2.3770421513
 21
2.1574770747
  0
LINE
  5
214
100
AcDbEntity
  8
0
100
AcDbLine
 62
7
  6
CONTINUOUS
 10
2.3959462359
 20
2.2642238174
 11
2.4245489394
 21
2.1574770747
  0
LINE
  5
215
100
AcDbEntity
  8
0
100
AcDbLine
 62
7
  6
CONTINUOUS
 10
2.142189441
 20
2.6654738174
 11
2.142189441
 21
2.6429738174
  0
LINE
  5
216
100
AcDbEntity
  8
0
100
AcDbLine
 62
7
  6
CONTINUOUS
 10
2.3029430701
 20
2.3842238174
 11
2.3029430701
 21
2.3097201951
  0
LINE
  5
217
100
AcDbEntity
  8
0
100
AcDbLine
 62
7
  6
CONTINUOUS
 10
3.0654202013
 20
2.2747568391
 11
3.075953223
 21
2.2642238174
  0
LINE
  5
218
100
AcDbEntity
  8
0
100
AcDbLine
 62
7
  6
CONTINUOUS
 10
3.0307191074
 20
2.3097201951
 11
3.0762154851
 21
2.2642238174
  0
LINE
  5
219
100
AcDbEntity
  8
0
100
AcDbLine
 62
7
  6
CONTINUOUS
 10
2.5367773539
 20
2.2642238174
 11
2.5653800574
 21
2.1574770747
  0
LINE
  5
21A
100
AcDbEntity
  8
0
100
AcDbLine
 62
7
  6
CONTINUOUS
 10
2.7661371795
 20
2.2642238174
 11
2.794739883
 21
2.1574770747
  0
LINE
  5
21B
100
AcDbEntity
  8
0
100
AcDbLine
 62
7
  6
CONTINUOUS
 10
2.3504498582
 20
2.3842238174
 11
2.3504498582
 21
2.3097201951
  0
LINE
  5
21C
100
AcDbEntity
  8
0
100
AcDbLine
 62
7
  6
CONTINUOUS
 10
2.4455139504
 20
2.3842238174
 11
2.4455139504
 21
2.3093347675
  0
LINE
  5
21D
100
AcDbEntity
  8
0
100
AcDbLine
 62
7
  6
CONTINUOUS
 10
2.4912809762
 20
2.3842238174
 11
2.4912809762
 21
2.3097201951
  0
LINE
  5
21E
100
AcDbEntity
  8
0
100
AcDbLine
 62
7
  6
CONTINUOUS
 10
2.5863450684
 20
2.3842238174
 11
2.5863450684
 21
2.3093347675
  0
LINE
  5
21F
100
AcDbEntity
  8
0
100
AcDbLine
 62
7
  6
CONTINUOUS
 10
3.4109570161
 20
2.3097201951
 11
3.4564533938
 21
2.2642238174
  0
LINE
  5
220
100
AcDbEntity
  8
0
100
AcDbLine
 62
7
  6
CONTINUOUS
 10
2.7206408018
 20
2.3842238174
 11
2.7206408018
 21
2.3097201951
  0
LINE
  5
221
100
AcDbEntity
  8
0
100
AcDbLine
 62
7
  6
CONTINUOUS
 10
2.815704894
 20
2.3842238174
 11
2.815704894
 21
2.3093347675
  0
LINE
  5
222
100
AcDbEntity
  8
0
100
AcDbLine
 62
7
  6
CONTINUOUS
 10
3.8042556227
 20
2.3072118294
 11
3.8472436348
 21
2.2642238174
  0
LINE
  5
223
100
AcDbEntity
  8
0
100
AcDbLine
 62
7
  6
CONTINUOUS
 10
3.8484065559
 20
2.3097201951
 11
3.8939029336
 21
2.2642238174
  0
LINE
  5
224
100
AcDbEntity
  8
0
100
AcDbLine
 62
7
  6
CONTINUOUS
 10
3.075953223
 20
2.2642238174
 11
3.1045559265
 21
2.1574770747
  0
LINE
  5
225
100
AcDbEntity
  8
0
100
AcDbLine
 62
7
  6
CONTINUOUS
 10
3.0762154851
 20
2.2642238174
 11
3.1048181886
 21
2.1574770747
  0
LINE
  5
226
100
AcDbEntity
  8
0
100
AcDbLine
 62
7
  6
CONTINUOUS
 10
3.005319465
 20
2.3842238174
 11
3.005319465
 21
2.3093347675
  0
LINE
  5
227
100
AcDbEntity
  8
0
100
AcDbLine
 62
7
  6
CONTINUOUS
 10
3.0307191074
 20
2.3842238174
 11
3.0307191074
 21
2.3097201951
  0
LINE
  5
228
100
AcDbEntity
  8
0
100
AcDbLine
 62
7
  6
CONTINUOUS
 10
3.1257831996
 20
2.3842238174
 11
3.1257831996
 21
2.3093347675
  0
LINE
  5
229
100
AcDbEntity
  8
0
100
AcDbLine
 62
7
  6
CONTINUOUS
 10
2.445139922
 20
2.1052238174
 11
2.4919520202
 21
2.1052238174
  0
LINE
  5
22A
100
AcDbEntity
  8
0
100
AcDbLine
 62
7
  6
CONTINUOUS
 10
2.4926467101
 20
2.1052238174
 11
2.5879957616
 21
2.1052238174
  0
LINE
  5
22B
100
AcDbEntity
  8
0
100
AcDbLine
 62
7
  6
CONTINUOUS
 10
2.6334778281
 20
2.1052238174
 11
2.7288268796
 21
2.1052238174
  0
LINE
  5
22C
100
AcDbEntity
  8
0
100
AcDbLine
 62
7
  6
CONTINUOUS
 10
2.8628376537
 20
2.1052238174
 11
2.9581867052
 21
2.1052238174
  0
LINE
  5
22D
100
AcDbEntity
  8
0
100
AcDbLine
 62
7
  6
CONTINUOUS
 10
3.1729159593
 20
2.1052238174
 11
3.2682650108
 21
2.1052238174
  0
LINE
  5
22E
100
AcDbEntity
  8
0
100
AcDbLine
 62
7
  6
CONTINUOUS
 10
3.2697829279
 20
2.1052238174
 11
3.2717389667
 21
2.1052238174
  0
LINE
  5
22F
100
AcDbEntity
  8
0
100
AcDbLine
 62
7
  6
CONTINUOUS
 10
3.2770605433
 20
2.1052238174
 11
3.3724095948
 21
2.1052238174
  0
LINE
  5
230
100
AcDbEntity
  8
0
100
AcDbLine
 62
7
  6
CONTINUOUS
 10
3.5531538681
 20
2.1052238174
 11
3.6485029196
 21
2.1052238174
  0
LINE
  5
231
100
AcDbEntity
  8
0
100
AcDbLine
 62
7
  6
CONTINUOUS
 10
3.6490760789
 20
2.1052238174
 11
3.6645671364
 21
2.1052238174
  0
LINE
  5
232
100
AcDbEntity
  8
0
100
AcDbLine
 62
7
  6
CONTINUOUS
 10
3.943944109
 20
2.1052238174
 11
3.9890347341
 21
2.1052238174
  0
LINE
  5
233
100
AcDbEntity
  8
0
100
AcDbLine
 62
7
  6
CONTINUOUS
 10
3.9906034079
 20
2.1052238174
 11
4.0859524594
 21
2.1052238174
  0
LINE
  5
234
100
AcDbEntity
  8
0
100
AcDbLine
 62
7
  6
CONTINUOUS
 10
4.0863576455
 20
2.1052238174
 11
4.1196131759
 21
2.1052238174
  0
LINE
  5
235
100
AcDbEntity
  8
0
100
AcDbLine
 62
7
  6
CONTINUOUS
 10
4.1668793895
 20
2.1052238174
 11
4.262228441
 21
2.1052238174
  0
LINE
  5
236
100
AcDbEntity
  8
0
100
AcDbLine
 62
7
  6
CONTINUOUS
 10
4.4703684195
 20
2.1052238174
 11
4.565717471
 21
2.1052238174
  0
LINE
  5
237
100
AcDbEntity
  8
0
100
AcDbLine
 62
7
  6
CONTINUOUS
 10
4.5742024152
 20
2.1052238174
 11
4.5965393295
 21
2.1052238174
  0
LINE
  5
238
100
AcDbEntity
  8
0
100
AcDbLine
 62
7
  6
CONTINUOUS
 10
4.5976555849
 20
2.1052238174
 11
4.6930046364
 21
2.1052238174
  0
LINE
  5
239
100
AcDbEntity
  8
0
100
AcDbLine
 62
7
  6
CONTINUOUS
 10
4.6942142643
 20
2.1052238174
 11
4.7529889667
 21
2.1052238174
  0
LINE
  5
23A
100
AcDbEntity
  8
0
100
AcDbLine
 62
7
  6
CONTINUOUS
 10
4.9454524152
 20
2.1052238174
 11
4.9754622136
 21
2.1052238174
  0
LINE
  5
23B
100
AcDbEntity
  8
0
100
AcDbLine
 62
7
  6
CONTINUOUS
 10
4.976111805
 20
2.1052238174
 11
5.0714608565
 21
2.1052238174
  0
LINE
  5
23C
100
AcDbEntity
  8
0
100
AcDbLine
 62
7
  6
CONTINUOUS
 10
5.0954833346
 20
2.1052238174
 11
5.1908323861
 21
2.1052238174
  0
LINE
  5
23D
100
AcDbEntity
  8
0
100
AcDbLine
 62
7
  6
CONTINUOUS
 10
5.2332649152
 20
2.1052238174
 11
5.3286139667
 21
2.1052238174
  0
LINE
  5
23E
100
AcDbEntity
  8
0
100
AcDbLine
 62
7
  6
CONTINUOUS
 10
5.4906118431
 20
2.1052238174
 11
5.5859608946
 21
2.1052238174
  0
LINE
  5
23F
100
AcDbEntity
  8
0
100
AcDbLine
 62
7
  6
CONTINUOUS
 10
5.5864166683
 20
2.1052238174
 11
5.6164264667
 21
2.1052238174
  0
LINE
  5
240
100
AcDbEntity
  8
0
100
AcDbLine
 62
7
  6
CONTINUOUS
 10
5.640587941
 20
2.1052238174
 11
5.7359369925
 21
2.1052238174
  0
LINE
  5
241
100
AcDbEntity
  8
0
100
AcDbLine
 62
7
  6
CONTINUOUS
 10
5.8088899152
 20
2.1052238174
 11
5.8676646177
 21
2.1052238174
  0
LINE
  5
242
100
AcDbEntity
  8
0
100
AcDbLine
 62
7
  6
CONTINUOUS
 10
5.8688742455
 20
2.1052238174
 11
5.964223297
 21
2.1052238174
  0
LINE
  5
243
100
AcDbEntity
  8
0
100
AcDbLine
 62
7
  6
CONTINUOUS
 10
5.9963486286
 20
2.1052238174
 11
6.0916976801
 21
2.1052238174
  0
LINE
  5
244
100
AcDbEntity
  8
0
100
AcDbLine
 62
7
  6
CONTINUOUS
 10
6.1152626957
 20
2.1052238174
 11
6.2106117473
 21
2.1052238174
  0
LINE
  5
245
100
AcDbEntity
  8
0
100
AcDbLine
 62
7
  6
CONTINUOUS
 10
6.4374320216
 20
2.1052238174
 11
6.4411217501
 21
2.1052238174
  0
LINE
  5
246
100
AcDbEntity
  8
0
100
AcDbLine
 62
7
  6
CONTINUOUS
 10
6.4422657061
 20
2.1052238174
 11
6.4755212365
 21
2.1052238174
  0
LINE
  5
247
100
AcDbEntity
  8
0
100
AcDbLine
 62
7
  6
CONTINUOUS
 10
6.4761006651
 20
2.1052238174
 11
6.5714497166
 21
2.1052238174
  0
LINE
  5
248
100
AcDbEntity
  8
0
100
AcDbLine
 62
7
  6
CONTINUOUS
 10
6.5722845171
 20
2.1052238174
 11
6.6467389667
 21
2.1052238174
  0
LINE
  5
249
100
AcDbEntity
  8
0
100
AcDbLine
 62
7
  6
CONTINUOUS
 10
6.8973117455
 20
2.1052238174
 11
6.9128028031
 21
2.1052238174
  0
LINE
  5
24A
100
AcDbEntity
  8
0
100
AcDbLine
 62
7
  6
CONTINUOUS
 10
6.9135312964
 20
2.1052238174
 11
7.0088803479
 21
2.1052238174
  0
LINE
  5
24B
100
AcDbEntity
  8
0
100
AcDbLine
 62
7
  6
CONTINUOUS
 10
7.1894692872
 20
2.1052238174
 11
7.2848183387
 21
2.1052238174
  0
LINE
  5
24C
100
AcDbEntity
  8
0
100
AcDbLine
 62
7
  6
CONTINUOUS
 10
7.2901399152
 20
2.1052238174
 11
7.2926143556
 21
2.1052238174
  0
LINE
  5
24D
100
AcDbEntity
  8
0
100
AcDbLine
 62
7
  6
CONTINUOUS
 10
7.2937450072
 20
2.1052238174
 11
7.3890940587
 21
2.1052238174
  0
LINE
  5
24E
100
AcDbEntity
  8
0
100
AcDbLine
 62
7
  6
CONTINUOUS
 10
7.6037946494
 20
2.1052238174
 11
7.6991437009
 21
2.1052238174
  0
LINE
  5
24F
100
AcDbEntity
  8
0
100
AcDbLine
 62
7
  6
CONTINUOUS
 10
7.8331223221
 20
2.1052238174
 11
7.9284713736
 21
2.1052238174
  0
LINE
  5
250
100
AcDbEntity
  8
0
100
AcDbLine
 62
7
  6
CONTINUOUS
 10
7.9739188927
 20
2.1052238174
 11
8.0692679442
 21
2.1052238174
  0
LINE
  5
251
100
AcDbEntity
  8
0
100
AcDbLine
 62
7
  6
CONTINUOUS
 10
8.0699268685
 20
2.1052238174
 11
8.1167389667
 21
2.1052238174
  0
LINE
  5
252
100
AcDbEntity
  8
0
100
AcDbLine
 62
7
  6
CONTINUOUS
 10
2.3770421513
 20
2.1574770747
 11
3.026284476
 21
2.1574770747
  0
LINE
  5
253
100
AcDbEntity
  8
0
100
AcDbLine
 62
7
  6
CONTINUOUS
 10
3.1045559265
 20
2.1574770747
 11
3.4405073655
 21
2.1574770747
  0
LINE
  5
254
100
AcDbEntity
  8
0
100
AcDbLine
 62
7
  6
CONTINUOUS
 10
3.4847454375
 20
2.1574770747
 11
3.7326649072
 21
2.1574770747
  0
LINE
  5
255
100
AcDbEntity
  8
0
100
AcDbLine
 62
7
  6
CONTINUOUS
 10
3.8758463383
 20
2.1574770747
 11
4.3303262118
 21
2.1574770747
  0
LINE
  5
256
100
AcDbEntity
  8
0
100
AcDbLine
 62
7
  6
CONTINUOUS
 10
4.4018962172
 20
2.1574770747
 11
4.8210867375
 21
2.1574770747
  0
LINE
  5
257
100
AcDbEntity
  8
0
100
AcDbLine
 62
7
  6
CONTINUOUS
 10
4.8773546445
 20
2.1574770747
 11
5.3967117375
 21
2.1574770747
  0
LINE
  5
258
100
AcDbEntity
  8
0
100
AcDbLine
 62
7
  6
CONTINUOUS
 10
5.422126436
 20
2.1574770747
 11
6.278709518
 21
2.1574770747
  0
LINE
  5
259
100
AcDbEntity
  8
0
100
AcDbLine
 62
7
  6
CONTINUOUS
 10
6.3693342508
 20
2.1574770747
 11
6.7148367375
 21
2.1574770747
  0
LINE
  5
25A
100
AcDbEntity
  8
0
100
AcDbLine
 62
7
  6
CONTINUOUS
 10
6.8292139748
 20
2.1574770747
 11
7.0769781187
 21
2.1574770747
  0
LINE
  5
25B
100
AcDbEntity
  8
0
100
AcDbLine
 62
7
  6
CONTINUOUS
 10
7.1213715164
 20
2.1574770747
 11
7.4571918295
 21
2.1574770747
  0
LINE
  5
25C
100
AcDbEntity
  8
0
100
AcDbLine
 62
7
  6
CONTINUOUS
 10
7.5354919218
 20
2.1574770747
 11
8.1848367375
 21
2.1574770747
  0
LINE
  5
25D
100
AcDbEntity
  8
0
100
AcDbLine
 62
7
  6
CONTINUOUS
 10
3.4626264015
 20
2.2400264407
 11
3.4847454375
 21
2.1574770747
  0
LINE
  5
25E
100
AcDbEntity
  8
0
100
AcDbLine
 62
7
  6
CONTINUOUS
 10
3.4564533938
 20
2.2642238174
 11
3.4850560973
 21
2.1574770747
  0
LINE
  5
25F
100
AcDbEntity
  8
0
100
AcDbLine
 62
7
  6
CONTINUOUS
 10
3.3153977706
 20
2.3842238174
 11
3.3153977706
 21
2.3093347675
  0
LINE
  5
260
100
AcDbEntity
  8
0
100
AcDbLine
 62
7
  6
CONTINUOUS
 10
2.3484394478
 20
2.2642238174
 11
3.0548871795
 21
2.2642238174
  0
LINE
  5
261
100
AcDbEntity
  8
0
100
AcDbLine
 62
7
  6
CONTINUOUS
 10
3.075953223
 20
2.2642238174
 11
3.7612676107
 21
2.2642238174
  0
LINE
  5
262
100
AcDbEntity
  8
0
100
AcDbLine
 62
7
  6
CONTINUOUS
 10
3.8472436348
 20
2.2642238174
 11
4.3589289153
 21
2.2642238174
  0
LINE
  5
263
100
AcDbEntity
  8
0
100
AcDbLine
 62
7
  6
CONTINUOUS
 10
4.3732935137
 20
2.2642238174
 11
6.3073122215
 21
2.2642238174
  0
LINE
  5
264
100
AcDbEntity
  8
0
100
AcDbLine
 62
7
  6
CONTINUOUS
 10
6.3407315473
 20
2.2642238174
 11
6.743439441
 21
2.2642238174
  0
LINE
  5
265
100
AcDbEntity
  8
0
100
AcDbLine
 62
7
  6
CONTINUOUS
 10
6.8006112713
 20
2.2642238174
 11
7.485794533
 21
2.2642238174
  0
LINE
  5
266
100
AcDbEntity
  8
0
100
AcDbLine
 62
7
  6
CONTINUOUS
 10
7.5068892183
 20
2.2642238174
 11
8.213439441
 21
2.2642238174
  0
LINE
  5
267
100
AcDbEntity
  8
0
100
AcDbLine
 62
7
  6
CONTINUOUS
 10
1.868439441
 20
2.3842238174
 11
8.693439441
 21
2.3842238174
  0
LINE
  5
268
100
AcDbEntity
  8
0
100
AcDbLine
 62
7
  6
CONTINUOUS
 10
4.3661112145
 20
2.2714061166
 11
4.3732935137
 21
2.2642238174
  0
LINE
  5
269
100
AcDbEntity
  8
0
100
AcDbLine
 62
7
  6
CONTINUOUS
 10
4.3281715676
 20
2.3097201951
 11
4.3736679453
 21
2.2642238174
  0
LINE
  5
26A
100
AcDbEntity
  8
0
100
AcDbLine
 62
7
  6
CONTINUOUS
 10
3.8472436348
 20
2.2642238174
 11
3.8758463383
 21
2.1574770747
  0
LINE
  5
26B
100
AcDbEntity
  8
0
100
AcDbLine
 62
7
  6
CONTINUOUS
 10
3.8939029336
 20
2.2642238174
 11
3.9225056371
 21
2.1574770747
  0
LINE
  5
26C
100
AcDbEntity
  8
0
100
AcDbLine
 62
7
  6
CONTINUOUS
 10
3.4104618628
 20
2.3842238174
 11
3.4104618628
 21
2.3097201951
  0
LINE
  5
26D
100
AcDbEntity
  8
0
100
AcDbLine
 62
7
  6
CONTINUOUS
 10
3.4109570161
 20
2.3842238174
 11
3.4109570161
 21
2.3097201951
  0
LINE
  5
26E
100
AcDbEntity
  8
0
100
AcDbLine
 62
7
  6
CONTINUOUS
 10
3.5060211083
 20
2.3842238174
 11
3.5060211083
 21
2.3093347675
  0
LINE
  5
26F
100
AcDbEntity
  8
0
100
AcDbLine
 62
7
  6
CONTINUOUS
 10
3.0548871795
 20
2.2642238174
 11
3.026284476
 21
2.1574770747
  0
LINE
  5
270
100
AcDbEntity
  8
0
100
AcDbLine
 62
7
  6
CONTINUOUS
 10
4.935939441
 20
6.6138367416
 11
4.928439441
 21
6.6063367416
  0
LINE
  5
271
100
AcDbEntity
  8
0
100
AcDbLine
 62
7
  6
CONTINUOUS
 10
1.868439441
 20
2.5229738174
 11
8.693439441
 21
2.5229738174
  0
LINE
  5
272
100
AcDbEntity
  8
0
100
AcDbLine
 62
7
  6
CONTINUOUS
 10
1.939689441
 20
2.5942238174
 11
8.622189441
 21
2.5942238174
  0
LINE
  5
273
100
AcDbEntity
  8
0
100
AcDbLine
 62
7
  6
CONTINUOUS
 10
2.142189441
 20
2.6429738174
 11
8.419689441
 21
2.6429738174
  0
LINE
  5
274
100
AcDbEntity
  8
0
100
AcDbLine
 62
7
  6
CONTINUOUS
 10
2.142189441
 20
2.6654738174
 11
8.419689441
 21
2.6654738174
  0
LINE
  5
275
100
AcDbEntity
  8
0
100
AcDbLine
 62
7
  6
CONTINUOUS
 10
4.8192285258
 20
2.2937472325
 11
4.848751941
 21
2.2642238174
  0
LINE
  5
276
100
AcDbEntity
  8
0
100
AcDbLine
 62
7
  6
CONTINUOUS
 10
4.833914953
 20
2.3097201951
 11
4.8794113307
 21
2.2642238174
  0
LINE
  5
277
100
AcDbEntity
  8
0
100
AcDbLine
 62
7
  6
CONTINUOUS
 10
3.6956356793
 20
2.3842238174
 11
3.6956356793
 21
2.3093347675
  0
LINE
  5
278
100
AcDbEntity
  8
0
100
AcDbLine
 62
7
  6
CONTINUOUS
 10
3.7906997715
 20
2.3842238174
 11
3.7906997715
 21
2.3097201951
  0
LINE
  5
279
100
AcDbEntity
  8
0
100
AcDbLine
 62
7
  6
CONTINUOUS
 10
3.8067639884
 20
2.3842238174
 11
3.8067639884
 21
2.3097201951
  0
LINE
  5
27A
100
AcDbEntity
  8
0
100
AcDbLine
 62
7
  6
CONTINUOUS
 10
3.8484065559
 20
2.3842238174
 11
3.8484065559
 21
2.3097201951
  0
LINE
  5
27B
100
AcDbEntity
  8
0
100
AcDbLine
 62
7
  6
CONTINUOUS
 10
3.9434706481
 20
2.3842238174
 11
3.9434706481
 21
2.3093347675
  0
LINE
  5
27C
100
AcDbEntity
  8
0
100
AcDbLine
 62
7
  6
CONTINUOUS
 10
2.2227056397
 20
2.7937869437
 11
8.3391732422
 21
2.7937869437
  0
LINE
  5
27D
100
AcDbEntity
  8
0
100
AcDbLine
 62
7
  6
CONTINUOUS
 10
5.3484149911
 20
2.3097201951
 11
5.3939113688
 21
2.2642238174
  0
LINE
  5
27E
100
AcDbEntity
  8
0
100
AcDbLine
 62
7
  6
CONTINUOUS
 10
4.3732935137
 20
2.2642238174
 11
4.4018962172
 21
2.1574770747
  0
LINE
  5
27F
100
AcDbEntity
  8
0
100
AcDbLine
 62
7
  6
CONTINUOUS
 10
4.3736679453
 20
2.2642238174
 11
4.4022706488
 21
2.1574770747
  0
LINE
  5
280
100
AcDbEntity
  8
0
100
AcDbLine
 62
7
  6
CONTINUOUS
 10
4.1330852191
 20
2.3842238174
 11
4.1330852191
 21
2.3093347675
  0
LINE
  5
281
100
AcDbEntity
  8
0
100
AcDbLine
 62
7
  6
CONTINUOUS
 10
3.3649654851
 20
2.2642238174
 11
3.3363627816
 21
2.1574770747
  0
LINE
  5
282
100
AcDbEntity
  8
0
100
AcDbLine
 62
7
  6
CONTINUOUS
 10
3.4627817314
 20
2.2406061399
 11
3.4405073655
 21
2.1574770747
  0
LINE
  5
283
100
AcDbEntity
  8
0
100
AcDbLine
 62
7
  6
CONTINUOUS
 10
4.770939441
 20
5.7226114438
 11
4.6855469759
 21
5.6372189787
  0
LINE
  5
284
100
AcDbEntity
  8
0
100
AcDbLine
 62
7
  6
CONTINUOUS
 10
5.7274175701
 20
2.3089800186
 11
5.7721737713
 21
2.2642238174
  0
LINE
  5
285
100
AcDbEntity
  8
0
100
AcDbLine
 62
7
  6
CONTINUOUS
 10
4.2281493113
 20
2.3842238174
 11
4.2281493113
 21
2.3097201951
  0
LINE
  5
286
100
AcDbEntity
  8
0
100
AcDbLine
 62
7
  6
CONTINUOUS
 10
4.2618100279
 20
2.3842238174
 11
4.2618100279
 21
2.3097201951
  0
LINE
  5
287
100
AcDbEntity
  8
0
100
AcDbLine
 62
7
  6
CONTINUOUS
 10
4.3093612008
 20
2.3842238174
 11
4.3093612008
 21
2.3093347675
  0
LINE
  5
288
100
AcDbEntity
  8
0
100
AcDbLine
 62
7
  6
CONTINUOUS
 10
4.3281715676
 20
2.3842238174
 11
4.3281715676
 21
2.3097201951
  0
LINE
  5
289
100
AcDbEntity
  8
0
100
AcDbLine
 62
7
  6
CONTINUOUS
 10
4.4232356598
 20
2.3842238174
 11
4.4232356598
 21
2.3093347675
  0
LINE
  5
28A
100
AcDbEntity
  8
0
100
AcDbLine
 62
7
  6
CONTINUOUS
 10
3.7452033938
 20
2.2642238174
 11
3.7166006903
 21
2.1574770747
  0
LINE
  5
28B
100
AcDbEntity
  8
0
100
AcDbLine
 62
7
  6
CONTINUOUS
 10
3.7612676107
 20
2.2642238174
 11
3.7326649072
 21
2.1574770747
  0
LINE
  5
28C
100
AcDbEntity
  8
0
100
AcDbLine
 62
7
  6
CONTINUOUS
 10
5.8541517766
 20
2.3097201951
 11
5.8996481543
 21
2.2642238174
  0
LINE
  5
28D
100
AcDbEntity
  8
0
100
AcDbLine
 62
7
  6
CONTINUOUS
 10
4.848751941
 20
2.2642238174
 11
4.8773546445
 21
2.1574770747
  0
LINE
  5
28E
100
AcDbEntity
  8
0
100
AcDbLine
 62
7
  6
CONTINUOUS
 10
4.8794113307
 20
2.2642238174
 11
4.9080140342
 21
2.1574770747
  0
LINE
  5
28F
100
AcDbEntity
  8
0
100
AcDbLine
 62
7
  6
CONTINUOUS
 10
4.6128502308
 20
2.3842238174
 11
4.6128502308
 21
2.3093347675
  0
LINE
  5
290
100
AcDbEntity
  8
0
100
AcDbLine
 62
7
  6
CONTINUOUS
 10
4.6855469759
 20
5.6372189787
 11
4.6855469759
 21
5.5267539089
  0
LINE
  5
291
100
AcDbEntity
  8
0
100
AcDbLine
 62
7
  6
CONTINUOUS
 10
4.707914323
 20
2.3842238174
 11
4.707914323
 21
2.3097201951
  0
LINE
  5
292
100
AcDbEntity
  8
0
100
AcDbLine
 62
7
  6
CONTINUOUS
 10
4.7401373962
 20
2.3842238174
 11
4.7401373962
 21
2.3093347675
  0
LINE
  5
293
100
AcDbEntity
  8
0
100
AcDbLine
 62
7
  6
CONTINUOUS
 10
4.1826529336
 20
2.2642238174
 11
4.1540502301
 21
2.1574770747
  0
LINE
  5
294
100
AcDbEntity
  8
0
100
AcDbLine
 62
7
  6
CONTINUOUS
 10
6.3240218844
 20
2.2809334803
 11
6.3407315473
 21
2.2642238174
  0
LINE
  5
295
100
AcDbEntity
  8
0
100
AcDbLine
 62
7
  6
CONTINUOUS
 10
6.3000688541
 20
2.3097201951
 11
6.3455652318
 21
2.2642238174
  0
LINE
  5
296
100
AcDbEntity
  8
0
100
AcDbLine
 62
7
  6
CONTINUOUS
 10
6.3339038131
 20
2.3097201951
 11
6.3794001909
 21
2.2642238174
  0
LINE
  5
297
100
AcDbEntity
  8
0
100
AcDbLine
 62
7
  6
CONTINUOUS
 10
5.1523628859
 20
2.2052632185
 11
5.1651671445
 21
2.1574770747
  0
LINE
  5
298
100
AcDbEntity
  8
0
100
AcDbLine
 62
7
  6
CONTINUOUS
 10
4.789689441
 20
5.7908614438
 11
4.789689441
 21
5.8883614438
  0
LINE
  5
299
100
AcDbEntity
  8
0
100
AcDbLine
 62
7
  6
CONTINUOUS
 10
4.7944262831
 20
5.7908614438
 11
4.7944262831
 21
5.8883614438
  0
LINE
  5
29A
100
AcDbEntity
  8
0
100
AcDbLine
 62
7
  6
CONTINUOUS
 10
4.819689441
 20
5.7484350369
 11
4.819689441
 21
5.7226114438
  0
LINE
  5
29B
100
AcDbEntity
  8
0
100
AcDbLine
 62
7
  6
CONTINUOUS
 10
4.8273812756
 20
5.8883614438
 11
4.8273812756
 21
5.7908614438
  0
LINE
  5
29C
100
AcDbEntity
  8
0
100
AcDbLine
 62
7
  6
CONTINUOUS
 10
4.833914953
 20
2.3842238174
 11
4.833914953
 21
2.3097201951
  0
LINE
  5
29D
100
AcDbEntity
  8
0
100
AcDbLine
 62
7
  6
CONTINUOUS
 10
4.8424171237
 20
5.8883614438
 11
4.8424171237
 21
5.7908614438
  0
LINE
  5
29E
100
AcDbEntity
  8
0
100
AcDbLine
 62
7
  6
CONTINUOUS
 10
4.887189441
 20
5.3476114438
 11
4.887189441
 21
5.3241739438
  0
LINE
  5
29F
100
AcDbEntity
  8
0
100
AcDbLine
 62
7
  6
CONTINUOUS
 10
4.928439441
 20
6.6063367416
 11
4.928439441
 21
6.1443367416
  0
LINE
  5
2A0
100
AcDbEntity
  8
0
100
AcDbLine
 62
7
  6
CONTINUOUS
 10
4.9289790452
 20
2.3842238174
 11
4.9289790452
 21
2.3093347675
  0
LINE
  5
2A1
100
AcDbEntity
  8
0
100
AcDbLine
 62
7
  6
CONTINUOUS
 10
4.9832432084
 20
5.6372189787
 11
4.9832432084
 21
5.5267539089
  0
LINE
  5
2A2
100
AcDbEntity
  8
0
100
AcDbLine
 62
7
  6
CONTINUOUS
 10
4.2163136502
 20
2.2642238174
 11
4.1877109467
 21
2.1574770747
  0
LINE
  5
2A3
100
AcDbEntity
  8
0
100
AcDbLine
 62
7
  6
CONTINUOUS
 10
4.3589289153
 20
2.2642238174
 11
4.3303262118
 21
2.1574770747
  0
LINE
  5
2A4
100
AcDbEntity
  8
0
100
AcDbLine
 62
7
  6
CONTINUOUS
 10
5.8763319061
 20
5.5267539089
 11
5.790939441
 21
5.4413614438
  0
LINE
  5
2A5
100
AcDbEntity
  8
0
100
AcDbLine
 62
7
  6
CONTINUOUS
 10
6.7551148936
 20
2.3097201951
 11
6.8006112713
 21
2.2642238174
  0
LINE
  5
2A6
100
AcDbEntity
  8
0
100
AcDbLine
 62
7
  6
CONTINUOUS
 10
6.7713344445
 20
2.3097201951
 11
6.8168308222
 21
2.2642238174
  0
LINE
  5
2A7
100
AcDbEntity
  8
0
100
AcDbLine
 62
7
  6
CONTINUOUS
 10
5.4094190867
 20
2.2049015477
 11
5.422126436
 21
2.1574770747
  0
LINE
  5
2A8
100
AcDbEntity
  8
0
100
AcDbLine
 62
7
  6
CONTINUOUS
 10
5.3939113688
 20
2.2642238174
 11
5.4225140723
 21
2.1574770747
  0
LINE
  5
2A9
100
AcDbEntity
  8
0
100
AcDbLine
 62
7
  6
CONTINUOUS
 10
5.1185936162
 20
2.3842238174
 11
5.1185936162
 21
2.3093347675
  0
LINE
  5
2AA
100
AcDbEntity
  8
0
100
AcDbLine
 62
7
  6
CONTINUOUS
 10
5.1767488104
 20
6.4263367416
 11
5.1767488104
 21
6.1443367416
  0
LINE
  5
2AB
100
AcDbEntity
  8
0
100
AcDbLine
 62
7
  6
CONTINUOUS
 10
5.2136577084
 20
2.3842238174
 11
5.2136577084
 21
2.3097201951
  0
LINE
  5
2AC
100
AcDbEntity
  8
0
100
AcDbLine
 62
7
  6
CONTINUOUS
 10
5.2282117582
 20
5.7908614438
 11
5.2282117582
 21
5.8883614438
  0
LINE
  5
2AD
100
AcDbEntity
  8
0
100
AcDbLine
 62
7
  6
CONTINUOUS
 10
5.2479844485
 20
5.7908614438
 11
5.2479844485
 21
5.8883614438
  0
LINE
  5
2AE
100
AcDbEntity
  8
0
100
AcDbLine
 62
7
  6
CONTINUOUS
 10
5.3138944335
 20
5.8883614438
 11
5.3138944335
 21
5.7908614438
  0
LINE
  5
2AF
100
AcDbEntity
  8
0
100
AcDbLine
 62
7
  6
CONTINUOUS
 10
4.6624179453
 20
2.2642238174
 11
4.6338152418
 21
2.1574770747
  0
LINE
  5
2B0
100
AcDbEntity
  8
0
100
AcDbLine
 62
7
  6
CONTINUOUS
 10
3.0655513323
 20
2.2748879702
 11
3.0548871795
 21
2.2642238174
  0
LINE
  5
2B1
100
AcDbEntity
  8
0
100
AcDbLine
 62
7
  6
CONTINUOUS
 10
4.5110133972
 20
4.1623731179
 11
6.0508654848
 21
4.1623731179
  0
LINE
  5
2B2
100
AcDbEntity
  8
0
100
AcDbLine
 62
7
  6
CONTINUOUS
 10
4.6126034024
 20
4.2734784323
 11
5.9492754796
 21
4.2734784323
  0
LINE
  5
2B3
100
AcDbEntity
  8
0
100
AcDbLine
 62
7
  6
CONTINUOUS
 10
4.812189441
 20
4.3867238174
 11
5.749689441
 21
4.3867238174
  0
LINE
  5
2B4
100
AcDbEntity
  8
0
100
AcDbLine
 62
7
  6
CONTINUOUS
 10
7.1515481553
 20
2.3097201951
 11
7.197044533
 21
2.2642238174
  0
LINE
  5
2B5
100
AcDbEntity
  8
0
100
AcDbLine
 62
7
  6
CONTINUOUS
 10
5.7721737713
 20
2.2642238174
 11
5.8007764748
 21
2.1574770747
  0
LINE
  5
2B6
100
AcDbEntity
  8
0
100
AcDbLine
 62
7
  6
CONTINUOUS
 10
5.3336671237
 20
5.8883614438
 11
5.3336671237
 21
5.7908614438
  0
LINE
  5
2B7
100
AcDbEntity
  8
0
100
AcDbLine
 62
7
  6
CONTINUOUS
 10
5.3484149911
 20
2.3842238174
 11
5.3484149911
 21
2.3097201951
  0
LINE
  5
2B8
100
AcDbEntity
  8
0
100
AcDbLine
 62
7
  6
CONTINUOUS
 10
5.3851300716
 20
6.4263367416
 11
5.3851300716
 21
6.1443367416
  0
LINE
  5
2B9
100
AcDbEntity
  8
0
100
AcDbLine
 62
7
  6
CONTINUOUS
 10
5.4434790833
 20
2.3842238174
 11
5.4434790833
 21
2.3093347675
  0
LINE
  5
2BA
100
AcDbEntity
  8
0
100
AcDbLine
 62
7
  6
CONTINUOUS
 10
5.5786356735
 20
5.6372189787
 11
5.5786356735
 21
5.5267539089
  0
LINE
  5
2BB
100
AcDbEntity
  8
0
100
AcDbLine
 62
7
  6
CONTINUOUS
 10
4.7897051107
 20
2.2642238174
 11
4.7611024072
 21
2.1574770747
  0
LINE
  5
2BC
100
AcDbEntity
  8
0
100
AcDbLine
 62
7
  6
CONTINUOUS
 10
4.849220691
 20
2.2624744186
 11
4.8210867375
 21
2.1574770747
  0
LINE
  5
2BD
100
AcDbEntity
  8
0
100
AcDbLine
 62
7
  6
CONTINUOUS
 10
3.4104618628
 20
2.3097201951
 11
3.3649654851
 21
2.2642238174
  0
LINE
  5
2BE
100
AcDbEntity
  8
0
100
AcDbLine
 62
7
  6
CONTINUOUS
 10
4.812189441
 20
4.5742238174
 11
5.749689441
 21
4.5742238174
  0
LINE
  5
2BF
100
AcDbEntity
  8
0
100
AcDbLine
 62
7
  6
CONTINUOUS
 10
7.4963418756
 20
2.2747711601
 11
7.5068892183
 21
2.2642238174
  0
LINE
  5
2C0
100
AcDbEntity
  8
0
100
AcDbLine
 62
7
  6
CONTINUOUS
 10
7.496444354
 20
2.2748736385
 11
7.5070941751
 21
2.2642238174
  0
LINE
  5
2C1
100
AcDbEntity
  8
0
100
AcDbLine
 62
7
  6
CONTINUOUS
 10
5.8996481543
 20
2.2642238174
 11
5.9282508578
 21
2.1574770747
  0
LINE
  5
2C2
100
AcDbEntity
  8
0
100
AcDbLine
 62
7
  6
CONTINUOUS
 10
5.6330936543
 20
2.3842238174
 11
5.6330936543
 21
2.3093347675
  0
LINE
  5
2C3
100
AcDbEntity
  8
0
100
AcDbLine
 62
7
  6
CONTINUOUS
 10
5.633439441
 20
6.6063367416
 11
5.633439441
 21
6.1443367416
  0
LINE
  5
2C4
100
AcDbEntity
  8
0
100
AcDbLine
 62
7
  6
CONTINUOUS
 10
5.674689441
 20
5.3476114438
 11
5.674689441
 21
5.3241739438
  0
LINE
  5
2C5
100
AcDbEntity
  8
0
100
AcDbLine
 62
7
  6
CONTINUOUS
 10
5.7194617582
 20
5.7908614438
 11
5.7194617582
 21
5.8883614438
  0
LINE
  5
2C6
100
AcDbEntity
  8
0
100
AcDbLine
 62
7
  6
CONTINUOUS
 10
5.7281577465
 20
2.3842238174
 11
5.7281577465
 21
2.3097201951
  0
LINE
  5
2C7
100
AcDbEntity
  8
0
100
AcDbLine
 62
7
  6
CONTINUOUS
 10
5.7344976064
 20
5.7908614438
 11
5.7344976064
 21
5.8883614438
  0
LINE
  5
2C8
100
AcDbEntity
  8
0
100
AcDbLine
 62
7
  6
CONTINUOUS
 10
5.742189441
 20
5.7484350369
 11
5.742189441
 21
5.7226114438
  0
LINE
  5
2C9
100
AcDbEntity
  8
0
100
AcDbLine
 62
7
  6
CONTINUOUS
 10
5.7674525989
 20
5.8883614438
 11
5.7674525989
 21
5.7908614438
  0
LINE
  5
2CA
100
AcDbEntity
  8
0
100
AcDbLine
 62
7
  6
CONTINUOUS
 10
5.772189441
 20
5.8883614438
 11
5.772189441
 21
5.7908614438
  0
LINE
  5
2CB
100
AcDbEntity
  8
0
100
AcDbLine
 62
7
  6
CONTINUOUS
 10
5.8217414858
 20
2.3842238174
 11
5.8217414858
 21
2.3093347675
  0
LINE
  5
2CC
100
AcDbEntity
  8
0
100
AcDbLine
 62
7
  6
CONTINUOUS
 10
5.8541517766
 20
2.3842238174
 11
5.8541517766
 21
2.3097201951
  0
LINE
  5
2CD
100
AcDbEntity
  8
0
100
AcDbLine
 62
7
  6
CONTINUOUS
 10
5.1681613307
 20
2.2642238174
 11
5.1395586272
 21
2.1574770747
  0
LINE
  5
2CE
100
AcDbEntity
  8
0
100
AcDbLine
 62
7
  6
CONTINUOUS
 10
3.7906997715
 20
2.3097201951
 11
3.7452033938
 21
2.2642238174
  0
LINE
  5
2CF
100
AcDbEntity
  8
0
100
AcDbLine
 62
7
  6
CONTINUOUS
 10
3.8067639884
 20
2.3097201951
 11
3.7612676107
 21
2.2642238174
  0
LINE
  5
2D0
100
AcDbEntity
  8
0
100
AcDbLine
 62
7
  6
CONTINUOUS
 10
4.6855469759
 20
5.5267539089
 11
4.770939441
 21
5.4413614438
  0
LINE
  5
2D1
100
AcDbEntity
  8
0
100
AcDbLine
 62
7
  6
CONTINUOUS
 10
6.3407315473
 20
2.2642238174
 11
6.3693342508
 21
2.1574770747
  0
LINE
  5
2D2
100
AcDbEntity
  8
0
100
AcDbLine
 62
7
  6
CONTINUOUS
 10
6.3455652318
 20
2.2642238174
 11
6.3741679353
 21
2.1574770747
  0
LINE
  5
2D3
100
AcDbEntity
  8
0
100
AcDbLine
 62
7
  6
CONTINUOUS
 10
6.3794001909
 20
2.2642238174
 11
6.4080028943
 21
2.1574770747
  0
LINE
  5
2D4
100
AcDbEntity
  8
0
100
AcDbLine
 62
7
  6
CONTINUOUS
 10
5.8763319061
 20
5.6372189787
 11
5.8763319061
 21
5.5267539089
  0
LINE
  5
2D5
100
AcDbEntity
  8
0
100
AcDbLine
 62
7
  6
CONTINUOUS
 10
5.9492158688
 20
2.3842238174
 11
5.9492158688
 21
2.3093347675
  0
LINE
  5
2D6
100
AcDbEntity
  8
0
100
AcDbLine
 62
7
  6
CONTINUOUS
 10
5.4096129049
 20
2.205624887
 11
5.3967117375
 21
2.1574770747
  0
LINE
  5
2D7
100
AcDbEntity
  8
0
100
AcDbLine
 62
7
  6
CONTINUOUS
 10
4.2281493113
 20
2.3097201951
 11
4.1826529336
 21
2.2642238174
  0
LINE
  5
2D8
100
AcDbEntity
  8
0
100
AcDbLine
 62
7
  6
CONTINUOUS
 10
4.2618100279
 20
2.3097201951
 11
4.2163136502
 21
2.2642238174
  0
LINE
  5
2D9
100
AcDbEntity
  8
0
100
AcDbLine
 62
7
  6
CONTINUOUS
 10
4.3662984303
 20
2.2715933324
 11
4.3589289153
 21
2.2642238174
  0
LINE
  5
2DA
100
AcDbEntity
  8
0
100
AcDbLine
 62
7
  6
CONTINUOUS
 10
4.6526101162
 20
5.1636739438
 11
5.9092687658
 21
5.1636739438
  0
LINE
  5
2DB
100
AcDbEntity
  8
0
100
AcDbLine
 62
7
  6
CONTINUOUS
 10
6.1388304398
 20
2.3842238174
 11
6.1388304398
 21
2.3093347675
  0
LINE
  5
2DC
100
AcDbEntity
  8
0
100
AcDbLine
 62
7
  6
CONTINUOUS
 10
6.2338945321
 20
2.3842238174
 11
6.2338945321
 21
2.3097201951
  0
LINE
  5
2DD
100
AcDbEntity
  8
0
100
AcDbLine
 62
7
  6
CONTINUOUS
 10
6.257744507
 20
2.3842238174
 11
6.257744507
 21
2.3093347675
  0
LINE
  5
2DE
100
AcDbEntity
  8
0
100
AcDbLine
 62
7
  6
CONTINUOUS
 10
6.3000688541
 20
2.3842238174
 11
6.3000688541
 21
2.3097201951
  0
LINE
  5
2DF
100
AcDbEntity
  8
0
100
AcDbLine
 62
7
  6
CONTINUOUS
 10
6.3339038131
 20
2.3842238174
 11
6.3339038131
 21
2.3097201951
  0
LINE
  5
2E0
100
AcDbEntity
  8
0
100
AcDbLine
 62
7
  6
CONTINUOUS
 10
5.6826613688
 20
2.2642238174
 11
5.6540586653
 21
2.1574770747
  0
LINE
  5
2E1
100
AcDbEntity
  8
0
100
AcDbLine
 62
7
  6
CONTINUOUS
 10
4.707914323
 20
2.3097201951
 11
4.6624179453
 21
2.2642238174
  0
LINE
  5
2E2
100
AcDbEntity
  8
0
100
AcDbLine
 62
7
  6
CONTINUOUS
 10
4.718439441
 20
5.3241739438
 11
5.843439441
 21
5.3241739438
  0
LINE
  5
2E3
100
AcDbEntity
  8
0
100
AcDbLine
 62
7
  6
CONTINUOUS
 10
4.864689441
 20
5.3476114438
 11
5.697189441
 21
5.3476114438
  0
LINE
  5
2E4
100
AcDbEntity
  8
0
100
AcDbLine
 62
7
  6
CONTINUOUS
 10
4.770939441
 20
5.4413614438
 11
5.790939441
 21
5.4413614438
  0
LINE
  5
2E5
100
AcDbEntity
  8
0
100
AcDbLine
 62
7
  6
CONTINUOUS
 10
6.8006112713
 20
2.2642238174
 11
6.8292139748
 21
2.1574770747
  0
LINE
  5
2E6
100
AcDbEntity
  8
0
100
AcDbLine
 62
7
  6
CONTINUOUS
 10
6.8168308222
 20
2.2642238174
 11
6.8454335257
 21
2.1574770747
  0
LINE
  5
2E7
100
AcDbEntity
  8
0
100
AcDbLine
 62
7
  6
CONTINUOUS
 10
6.4289679054
 20
2.3842238174
 11
6.4289679054
 21
2.3093347675
  0
LINE
  5
2E8
100
AcDbEntity
  8
0
100
AcDbLine
 62
7
  6
CONTINUOUS
 10
6.6185824764
 20
2.3842238174
 11
6.6185824764
 21
2.3093347675
  0
LINE
  5
2E9
100
AcDbEntity
  8
0
100
AcDbLine
 62
7
  6
CONTINUOUS
 10
4.8345582207
 20
2.3090769274
 11
4.7897051107
 21
2.2642238174
  0
LINE
  5
2EA
100
AcDbEntity
  8
0
100
AcDbLine
 62
7
  6
CONTINUOUS
 10
4.770939441
 20
5.7226114438
 11
5.790939441
 21
5.7226114438
  0
LINE
  5
2EB
100
AcDbEntity
  8
0
100
AcDbLine
 62
7
  6
CONTINUOUS
 10
5.727189441
 20
5.7458614438
 11
5.6051058929
 21
5.7458614438
  0
LINE
  5
2EC
100
AcDbEntity
  8
0
100
AcDbLine
 62
7
  6
CONTINUOUS
 10
5.4030229891
 20
5.7458614438
 11
5.1588558929
 21
5.7458614438
  0
LINE
  5
2ED
100
AcDbEntity
  8
0
100
AcDbLine
 62
7
  6
CONTINUOUS
 10
4.9567729891
 20
5.7458614438
 11
4.834689441
 21
5.7458614438
  0
LINE
  5
2EE
100
AcDbEntity
  8
0
100
AcDbLine
 62
7
  6
CONTINUOUS
 10
5.790939441
 20
5.7226114438
 11
5.8763319061
 21
5.6372189787
  0
LINE
  5
2EF
100
AcDbEntity
  8
0
100
AcDbLine
 62
7
  6
CONTINUOUS
 10
7.0991748176
 20
2.2403162827
 11
7.1213715164
 21
2.1574770747
  0
LINE
  5
2F0
100
AcDbEntity
  8
0
100
AcDbLine
 62
7
  6
CONTINUOUS
 10
7.197044533
 20
2.2642238174
 11
7.2256472365
 21
2.1574770747
  0
LINE
  5
2F1
100
AcDbEntity
  8
0
100
AcDbLine
 62
7
  6
CONTINUOUS
 10
6.7136465686
 20
2.3842238174
 11
6.7136465686
 21
2.3097201951
  0
LINE
  5
2F2
100
AcDbEntity
  8
0
100
AcDbLine
 62
7
  6
CONTINUOUS
 10
6.7551148936
 20
2.3842238174
 11
6.7551148936
 21
2.3097201951
  0
LINE
  5
2F3
100
AcDbEntity
  8
0
100
AcDbLine
 62
7
  6
CONTINUOUS
 10
6.7713344445
 20
2.3842238174
 11
6.7713344445
 21
2.3097201951
  0
LINE
  5
2F4
100
AcDbEntity
  8
0
100
AcDbLine
 62
7
  6
CONTINUOUS
 10
6.8663985367
 20
2.3842238174
 11
6.8663985367
 21
2.3093347675
  0
LINE
  5
2F5
100
AcDbEntity
  8
0
100
AcDbLine
 62
7
  6
CONTINUOUS
 10
6.1883981543
 20
2.2642238174
 11
6.1597954508
 21
2.1574770747
  0
LINE
  5
2F6
100
AcDbEntity
  8
0
100
AcDbLine
 62
7
  6
CONTINUOUS
 10
6.3073122215
 20
2.2642238174
 11
6.278709518
 21
2.1574770747
  0
LINE
  5
2F7
100
AcDbEntity
  8
0
100
AcDbLine
 62
7
  6
CONTINUOUS
 10
5.2136577084
 20
2.3097201951
 11
5.1681613307
 21
2.2642238174
  0
LINE
  5
2F8
100
AcDbEntity
  8
0
100
AcDbLine
 62
7
  6
CONTINUOUS
 10
4.789689441
 20
5.7908614438
 11
5.772189441
 21
5.7908614438
  0
LINE
  5
2F9
100
AcDbEntity
  8
0
100
AcDbLine
 62
7
  6
CONTINUOUS
 10
4.789689441
 20
5.8883614438
 11
5.772189441
 21
5.8883614438
  0
LINE
  5
2FA
100
AcDbEntity
  8
0
100
AcDbLine
 62
7
  6
CONTINUOUS
 10
4.834689441
 20
5.9333614438
 11
5.727189441
 21
5.9333614438
  0
LINE
  5
2FB
100
AcDbEntity
  8
0
100
AcDbLine
 62
7
  6
CONTINUOUS
 10
5.0104116277
 20
6.0195633317
 11
5.5514672543
 21
6.0195633317
  0
LINE
  5
2FC
100
AcDbEntity
  8
0
100
AcDbLine
 62
7
  6
CONTINUOUS
 10
7.5068892183
 20
2.2642238174
 11
7.5354919218
 21
2.1574770747
  0
LINE
  5
2FD
100
AcDbEntity
  8
0
100
AcDbLine
 62
7
  6
CONTINUOUS
 10
7.5070941751
 20
2.2642238174
 11
7.5356968786
 21
2.1574770747
  0
LINE
  5
2FE
100
AcDbEntity
  8
0
100
AcDbLine
 62
7
  6
CONTINUOUS
 10
7.0560131077
 20
2.3842238174
 11
7.0560131077
 21
2.3093347675
  0
LINE
  5
2FF
100
AcDbEntity
  8
0
100
AcDbLine
 62
7
  6
CONTINUOUS
 10
7.1510771999
 20
2.3842238174
 11
7.1510771999
 21
2.3097201951
  0
LINE
  5
300
100
AcDbEntity
  8
0
100
AcDbLine
 62
7
  6
CONTINUOUS
 10
7.1515481553
 20
2.3842238174
 11
7.1515481553
 21
2.3097201951
  0
LINE
  5
301
100
AcDbEntity
  8
0
100
AcDbLine
 62
7
  6
CONTINUOUS
 10
6.6681501909
 20
2.2642238174
 11
6.6395474874
 21
2.1574770747
  0
LINE
  5
302
100
AcDbEntity
  8
0
100
AcDbLine
 62
7
  6
CONTINUOUS
 10
5.7281577465
 20
2.3097201951
 11
5.6826613688
 21
2.2642238174
  0
LINE
  5
303
100
AcDbEntity
  8
0
100
AcDbLine
 62
7
  6
CONTINUOUS
 10
4.9509394465
 20
6.1218367416
 11
5.6109394408
 21
6.1218367416
  0
LINE
  5
304
100
AcDbEntity
  8
0
100
AcDbLine
 62
7
  6
CONTINUOUS
 10
4.928439441
 20
6.1443367416
 11
5.1767488104
 21
6.1443367416
  0
LINE
  5
305
100
AcDbEntity
  8
0
100
AcDbLine
 62
7
  6
CONTINUOUS
 10
5.3851300716
 20
6.1443367416
 11
5.633439441
 21
6.1443367416
  0
LINE
  5
306
100
AcDbEntity
  8
0
100
AcDbLine
 62
7
  6
CONTINUOUS
 10
5.625939441
 20
6.6138367416
 11
5.633439441
 21
6.6063367416
  0
LINE
  5
307
100
AcDbEntity
  8
0
100
AcDbLine
 62
7
  6
CONTINUOUS
 10
7.2466122475
 20
2.3842238174
 11
7.2466122475
 21
2.3093347675
  0
LINE
  5
308
100
AcDbEntity
  8
0
100
AcDbLine
 62
7
  6
CONTINUOUS
 10
7.4362268185
 20
2.3842238174
 11
7.4362268185
 21
2.3093347675
  0
LINE
  5
309
100
AcDbEntity
  8
0
100
AcDbLine
 62
7
  6
CONTINUOUS
 10
6.743439441
 20
2.2642238174
 11
6.7148367375
 21
2.1574770747
  0
LINE
  5
30A
100
AcDbEntity
  8
0
100
AcDbLine
 62
7
  6
CONTINUOUS
 10
6.2338945321
 20
2.3097201951
 11
6.1883981543
 21
2.2642238174
  0
LINE
  5
30B
100
AcDbEntity
  8
0
100
AcDbLine
 62
7
  6
CONTINUOUS
 10
6.3264387267
 20
2.2833503225
 11
6.3073122215
 21
2.2642238174
  0
LINE
  5
30C
100
AcDbEntity
  8
0
100
AcDbLine
 62
7
  6
CONTINUOUS
 10
5.3851300716
 20
6.4263367416
 11
5.1767488104
 21
6.4263367416
  0
LINE
  5
30D
100
AcDbEntity
  8
0
100
AcDbLine
 62
7
  6
CONTINUOUS
 10
7.5312909107
 20
2.3842238174
 11
7.5312909107
 21
2.3097201951
  0
LINE
  5
30E
100
AcDbEntity
  8
0
100
AcDbLine
 62
7
  6
CONTINUOUS
 10
7.5566618896
 20
2.3842238174
 11
7.5566618896
 21
2.3093347675
  0
LINE
  5
30F
100
AcDbEntity
  8
0
100
AcDbLine
 62
7
  6
CONTINUOUS
 10
7.7462764606
 20
2.3842238174
 11
7.7462764606
 21
2.3093347675
  0
LINE
  5
310
100
AcDbEntity
  8
0
100
AcDbLine
 62
7
  6
CONTINUOUS
 10
7.1055808222
 20
2.2642238174
 11
7.0769781187
 21
2.1574770747
  0
LINE
  5
311
100
AcDbEntity
  8
0
100
AcDbLine
 62
7
  6
CONTINUOUS
 10
6.7136465686
 20
2.3097201951
 11
6.6681501909
 21
2.2642238174
  0
LINE
  5
312
100
AcDbEntity
  8
0
100
AcDbLine
 62
7
  6
CONTINUOUS
 10
4.928439441
 20
6.6063367416
 11
5.633439441
 21
6.6063367416
  0
LINE
  5
313
100
AcDbEntity
  8
0
100
AcDbLine
 62
7
  6
CONTINUOUS
 10
4.935939441
 20
6.6138367416
 11
5.625939441
 21
6.6138367416
  0
LINE
  5
314
100
AcDbEntity
  8
0
100
AcDbLine
 62
7
  6
CONTINUOUS
 10
7.8413405528
 20
2.3842238174
 11
7.8413405528
 21
2.3097201951
  0
LINE
  5
315
100
AcDbEntity
  8
0
100
AcDbLine
 62
7
  6
CONTINUOUS
 10
7.9756041334
 20
2.3842238174
 11
7.9756041334
 21
2.3093347675
  0
LINE
  5
316
100
AcDbEntity
  8
0
100
AcDbLine
 62
7
  6
CONTINUOUS
 10
7.485794533
 20
2.2642238174
 11
7.4571918295
 21
2.1574770747
  0
LINE
  5
317
100
AcDbEntity
  8
0
100
AcDbLine
 62
7
  6
CONTINUOUS
 10
6.7720253561
 20
2.2928097325
 11
6.743439441
 21
2.2642238174
  0
LINE
  5
318
100
AcDbEntity
  8
0
100
AcDbLine
 62
7
  6
CONTINUOUS
 10
8.0706682256
 20
2.3842238174
 11
8.0706682256
 21
2.3097201951
  0
LINE
  5
319
100
AcDbEntity
  8
0
100
AcDbLine
 62
7
  6
CONTINUOUS
 10
8.1164007039
 20
2.3842238174
 11
8.1164007039
 21
2.3093347675
  0
LINE
  5
31A
100
AcDbEntity
  8
0
100
AcDbLine
 62
7
  6
CONTINUOUS
 10
8.2114647961
 20
2.3842238174
 11
8.2114647961
 21
2.3097201951
  0
LINE
  5
31B
100
AcDbEntity
  8
0
100
AcDbLine
 62
7
  6
CONTINUOUS
 10
8.2589358187
 20
2.3842238174
 11
8.2589358187
 21
2.3097201951
  0
LINE
  5
31C
100
AcDbEntity
  8
0
100
AcDbLine
 62
7
  6
CONTINUOUS
 10
7.7958441751
 20
2.2642238174
 11
7.7672414716
 21
2.1574770747
  0
LINE
  5
31D
100
AcDbEntity
  8
0
100
AcDbLine
 62
7
  6
CONTINUOUS
 10
7.1510771999
 20
2.3097201951
 11
7.1055808222
 21
2.2642238174
  0
LINE
  5
31E
100
AcDbEntity
  8
0
100
AcDbLine
 62
7
  6
CONTINUOUS
 10
8.419689441
 20
2.6654738174
 11
8.419689441
 21
2.6429738174
  0
LINE
  5
31F
100
AcDbEntity
  8
0
100
AcDbLine
 62
7
  6
CONTINUOUS
 10
8.0251718479
 20
2.2642238174
 11
7.9965691444
 21
2.1574770747
  0
LINE
  5
320
100
AcDbEntity
  8
0
100
AcDbLine
 62
7
  6
CONTINUOUS
 10
7.5312909107
 20
2.3097201951
 11
7.485794533
 21
2.2642238174
  0
LINE
  5
321
100
AcDbEntity
  8
0
100
AcDbLine
 62
7
  6
CONTINUOUS
 10
7.8413405528
 20
2.3097201951
 11
7.7958441751
 21
2.2642238174
  0
LINE
  5
322
100
AcDbEntity
  8
0
100
AcDbLine
 62
7
  6
CONTINUOUS
 10
8.693439441
 20
2.5229738174
 11
8.693439441
 21
2.3842238174
  0
LINE
  5
323
100
AcDbEntity
  8
0
100
AcDbLine
 62
7
  6
CONTINUOUS
 10
8.1659684184
 20
2.2642238174
 11
8.1373657149
 21
2.1574770747
  0
LINE
  5
324
100
AcDbEntity
  8
0
100
AcDbLine
 62
7
  6
CONTINUOUS
 10
8.213439441
 20
2.2642238174
 11
8.1848367375
 21
2.1574770747
  0
LINE
  5
325
100
AcDbEntity
  8
0
100
AcDbLine
 62
7
  6
CONTINUOUS
 10
8.0706682256
 20
2.3097201951
 11
8.0251718479
 21
2.2642238174
  0
LINE
  5
326
100
AcDbEntity
  8
0
100
AcDbLine
 62
7
  6
CONTINUOUS
 10
8.2114647961
 20
2.3097201951
 11
8.1659684184
 21
2.2642238174
  0
LINE
  5
327
100
AcDbEntity
  8
0
100
AcDbLine
 62
7
  6
CONTINUOUS
 10
8.2589358187
 20
2.3097201951
 11
8.213439441
 21
2.2642238174
  0
ARC
  5
328
100
AcDbEntity
  8
0
100
AcDbCircle
 62
7
  6
CONTINUOUS
 10
3.281999512
 20
2.5824424805
 40
0.3057782525
100
AcDbArc
 50
293.0872973268
 51
295.5816932727
  0
ARC
  5
329
100
AcDbEntity
  8
0
100
AcDbCircle
 62
7
  6
CONTINUOUS
 10
2.284689441
 20
2.6654738174
 40
0.1425
100
AcDbArc
 50
115.783642258
 51
180.0
  0
ARC
  5
32A
100
AcDbEntity
  8
0
100
AcDbCircle
 62
7
  6
CONTINUOUS
 10
1.939689441
 20
2.5229738174
 40
0.07125
100
AcDbArc
 50
90.0
 51
180.0
  0
ARC
  5
32B
100
AcDbEntity
  8
0
100
AcDbCircle
 62
7
  6
CONTINUOUS
 10
2.6333372013
 20
2.1757238174
 40
0.0705
100
AcDbArc
 50
251.2094678007
 51
270.0
  0
ARC
  5
32C
100
AcDbEntity
  8
0
100
AcDbCircle
 62
7
  6
CONTINUOUS
 10
2.8626327201
 20
2.1757238174
 40
0.0705
100
AcDbArc
 50
198.3632447043
 51
270.0
  0
ARC
  5
32D
100
AcDbEntity
  8
0
100
AcDbCircle
 62
7
  6
CONTINUOUS
 10
3.1726536973
 20
2.1757238174
 40
0.0705
100
AcDbArc
 50
195.0
 51
270.0
  0
ARC
  5
32E
100
AcDbEntity
  8
0
100
AcDbCircle
 62
7
  6
CONTINUOUS
 10
3.5528432082
 20
2.1757238174
 40
0.0705
100
AcDbArc
 50
195.0
 51
270.0
  0
ARC
  5
32F
100
AcDbEntity
  8
0
100
AcDbCircle
 62
7
  6
CONTINUOUS
 10
3.2717389667
 20
2.1757238174
 40
0.0705
100
AcDbArc
 50
270.0
 51
272.1631152944
  0
ARC
  5
330
100
AcDbEntity
  8
0
100
AcDbCircle
 62
7
  6
CONTINUOUS
 10
3.3724095948
 20
2.1757238174
 40
0.0705
100
AcDbArc
 50
270.0
 51
345.0
  0
ARC
  5
331
100
AcDbEntity
  8
0
100
AcDbCircle
 62
7
  6
CONTINUOUS
 10
3.2770605433
 20
2.1757238174
 40
0.0705
100
AcDbArc
 50
266.4233748279
 51
270.0
  0
ARC
  5
332
100
AcDbEntity
  8
0
100
AcDbCircle
 62
7
  6
CONTINUOUS
 10
2.445139922
 20
2.1757238174
 40
0.0705
100
AcDbArc
 50
195.0
 51
270.0
  0
ARC
  5
333
100
AcDbEntity
  8
0
100
AcDbCircle
 62
7
  6
CONTINUOUS
 10
2.5879957616
 20
2.1757238174
 40
0.0705
100
AcDbArc
 50
270.0
 51
288.820101145
  0
ARC
  5
334
100
AcDbEntity
  8
0
100
AcDbCircle
 62
7
  6
CONTINUOUS
 10
2.4926467101
 20
2.1757238174
 40
0.0705
100
AcDbArc
 50
195.0
 51
270.0
  0
ARC
  5
335
100
AcDbEntity
  8
0
100
AcDbCircle
 62
7
  6
CONTINUOUS
 10
2.7288268796
 20
2.1757238174
 40
0.0705
100
AcDbArc
 50
270.0
 51
341.9079342072
  0
ARC
  5
336
100
AcDbEntity
  8
0
100
AcDbCircle
 62
7
  6
CONTINUOUS
 10
2.6334778281
 20
2.1757238174
 40
0.0705
100
AcDbArc
 50
195.0
 51
270.0
  0
ARC
  5
337
100
AcDbEntity
  8
0
100
AcDbCircle
 62
7
  6
CONTINUOUS
 10
2.9581867052
 20
2.1757238174
 40
0.0705
100
AcDbArc
 50
270.0
 51
345.0
  0
ARC
  5
338
100
AcDbEntity
  8
0
100
AcDbCircle
 62
7
  6
CONTINUOUS
 10
2.8628376537
 20
2.1757238174
 40
0.0705
100
AcDbArc
 50
195.0
 51
270.0
  0
ARC
  5
339
100
AcDbEntity
  8
0
100
AcDbCircle
 62
7
  6
CONTINUOUS
 10
3.2682650108
 20
2.1757238174
 40
0.0705
100
AcDbArc
 50
270.0
 51
345.0
  0
ARC
  5
33A
100
AcDbEntity
  8
0
100
AcDbCircle
 62
7
  6
CONTINUOUS
 10
3.1729159593
 20
2.1757238174
 40
0.0705
100
AcDbArc
 50
195.0
 51
270.0
  0
ARC
  5
33B
100
AcDbEntity
  8
0
100
AcDbCircle
 62
7
  6
CONTINUOUS
 10
3.5531538681
 20
2.1757238174
 40
0.0705
100
AcDbArc
 50
195.0
 51
270.0
  0
ARC
  5
33C
100
AcDbEntity
  8
0
100
AcDbCircle
 62
7
  6
CONTINUOUS
 10
2.093439441
 20
2.6429738174
 40
0.04875
100
AcDbArc
 50
270.0
 51
360.0
  0
ARC
  5
33D
100
AcDbEntity
  8
0
100
AcDbCircle
 62
7
  6
CONTINUOUS
 10
4.812189441
 20
4.1542238174
 40
0.2325
100
AcDbArc
 50
90.0
 51
149.1412687964
  0
ARC
  5
33E
100
AcDbEntity
  8
0
100
AcDbCircle
 62
7
  6
CONTINUOUS
 10
4.8636675621
 20
2.3622291053
 40
0.0818306936
100
AcDbArc
 50
236.992341173
 51
237.6232324681
  0
ARC
  5
33F
100
AcDbEntity
  8
0
100
AcDbCircle
 62
7
  6
CONTINUOUS
 10
4.9454524152
 20
2.1757238174
 40
0.0705
100
AcDbArc
 50
195.0
 51
270.0
  0
ARC
  5
340
100
AcDbEntity
  8
0
100
AcDbCircle
 62
7
  6
CONTINUOUS
 10
4.7529889667
 20
2.1757238174
 40
0.0705
100
AcDbArc
 50
270.0
 51
345.0
  0
ARC
  5
341
100
AcDbEntity
  8
0
100
AcDbCircle
 62
7
  6
CONTINUOUS
 10
4.469993988
 20
2.1757238174
 40
0.0705
100
AcDbArc
 50
195.0
 51
270.0
  0
ARC
  5
342
100
AcDbEntity
  8
0
100
AcDbCircle
 62
7
  6
CONTINUOUS
 10
5.1908323861
 20
2.1757238174
 40
0.0705
100
AcDbArc
 50
270.0
 51
287.5150728808
  0
ARC
  5
343
100
AcDbEntity
  8
0
100
AcDbCircle
 62
7
  6
CONTINUOUS
 10
5.0954833346
 20
2.1757238174
 40
0.0705
100
AcDbArc
 50
260.1900068812
 51
270.0
  0
ARC
  5
344
100
AcDbEntity
  8
0
100
AcDbCircle
 62
7
  6
CONTINUOUS
 10
4.5742024152
 20
2.1757238174
 40
0.0705
100
AcDbArc
 50
266.5497493476
 51
270.0
  0
ARC
  5
345
100
AcDbEntity
  8
0
100
AcDbCircle
 62
7
  6
CONTINUOUS
 10
4.262228441
 20
2.1757238174
 40
0.0705
100
AcDbArc
 50
270.0
 51
345.0
  0
ARC
  5
346
100
AcDbEntity
  8
0
100
AcDbCircle
 62
7
  6
CONTINUOUS
 10
4.1668793895
 20
2.1757238174
 40
0.0705
100
AcDbArc
 50
250.4122295424
 51
270.0
  0
ARC
  5
347
100
AcDbEntity
  8
0
100
AcDbCircle
 62
7
  6
CONTINUOUS
 10
3.943944109
 20
2.1757238174
 40
0.0705
100
AcDbArc
 50
195.0
 51
270.0
  0
ARC
  5
348
100
AcDbEntity
  8
0
100
AcDbCircle
 62
7
  6
CONTINUOUS
 10
3.6645671364
 20
2.1757238174
 40
0.0705
100
AcDbArc
 50
270.0
 51
345.0
  0
ARC
  5
349
100
AcDbEntity
  8
0
100
AcDbCircle
 62
7
  6
CONTINUOUS
 10
4.1196131759
 20
2.1757238174
 40
0.0705
100
AcDbArc
 50
270.0
 51
345.0
  0
ARC
  5
34A
100
AcDbEntity
  8
0
100
AcDbCircle
 62
7
  6
CONTINUOUS
 10
4.6930046364
 20
2.1757238174
 40
0.0705
100
AcDbArc
 50
270.0
 51
345.0
  0
ARC
  5
34B
100
AcDbEntity
  8
0
100
AcDbCircle
 62
7
  6
CONTINUOUS
 10
4.5976555849
 20
2.1757238174
 40
0.0705
100
AcDbArc
 50
256.9070989685
 51
270.0
  0
ARC
  5
34C
100
AcDbEntity
  8
0
100
AcDbCircle
 62
7
  6
CONTINUOUS
 10
5.2332649152
 20
2.1757238174
 40
0.0705
100
AcDbArc
 50
195.0
 51
270.0
  0
ARC
  5
34D
100
AcDbEntity
  8
0
100
AcDbCircle
 62
7
  6
CONTINUOUS
 10
4.976111805
 20
2.1757238174
 40
0.0705
100
AcDbArc
 50
195.0
 51
270.0
  0
ARC
  5
34E
100
AcDbEntity
  8
0
100
AcDbCircle
 62
7
  6
CONTINUOUS
 10
5.0714608565
 20
2.1757238174
 40
0.0705
100
AcDbArc
 50
270.0
 51
345.0
  0
ARC
  5
34F
100
AcDbEntity
  8
0
100
AcDbCircle
 62
7
  6
CONTINUOUS
 10
4.4703684195
 20
2.1757238174
 40
0.0705
100
AcDbArc
 50
195.0
 51
270.0
  0
ARC
  5
350
100
AcDbEntity
  8
0
100
AcDbCircle
 62
7
  6
CONTINUOUS
 10
4.565717471
 20
2.1757238174
 40
0.0705
100
AcDbArc
 50
270.0
 51
345.0
  0
ARC
  5
351
100
AcDbEntity
  8
0
100
AcDbCircle
 62
7
  6
CONTINUOUS
 10
3.9906034079
 20
2.1757238174
 40
0.0705
100
AcDbArc
 50
195.0
 51
270.0
  0
ARC
  5
352
100
AcDbEntity
  8
0
100
AcDbCircle
 62
7
  6
CONTINUOUS
 10
4.0859524594
 20
2.1757238174
 40
0.0705
100
AcDbArc
 50
270.0
 51
345.0
  0
ARC
  5
353
100
AcDbEntity
  8
0
100
AcDbCircle
 62
7
  6
CONTINUOUS
 10
3.6485029196
 20
2.1757238174
 40
0.0705
100
AcDbArc
 50
270.0
 51
345.0
  0
ARC
  5
354
100
AcDbEntity
  8
0
100
AcDbCircle
 62
7
  6
CONTINUOUS
 10
4.2228762841
 20
4.7279299438
 40
0.612
100
AcDbArc
 50
345.4493774353
 51
45.3978746838
  0
ARC
  5
355
100
AcDbEntity
  8
0
100
AcDbCircle
 62
7
  6
CONTINUOUS
 10
4.2906904368
 20
4.4658245855
 40
0.375
100
AcDbArc
 50
305.9817756331
 51
329.1412687964
  0
ARC
  5
356
100
AcDbEntity
  8
0
100
AcDbCircle
 62
7
  6
CONTINUOUS
 10
4.718439441
 20
5.2304239438
 40
0.09375
100
AcDbArc
 50
90.0
 51
225.3978746838
  0
ARC
  5
357
100
AcDbEntity
  8
0
100
AcDbCircle
 62
7
  6
CONTINUOUS
 10
4.812189441
 20
4.4804738174
 40
0.09375
100
AcDbArc
 50
90.0
 51
270.0
  0
ARC
  5
358
100
AcDbEntity
  8
0
100
AcDbCircle
 62
7
  6
CONTINUOUS
 10
4.864689441
 20
5.4413614438
 40
0.09375
100
AcDbArc
 50
180.0
 51
270.0
  0
ARC
  5
359
100
AcDbEntity
  8
0
100
AcDbCircle
 62
7
  6
CONTINUOUS
 10
4.9665015625
 20
6.0612738631
 40
0.0605628785
100
AcDbArc
 50
316.471565278
 51
90.0
  0
ARC
  5
35A
100
AcDbEntity
  8
0
100
AcDbCircle
 62
7
  6
CONTINUOUS
 10
4.834689441
 20
5.8883614438
 40
0.045
100
AcDbArc
 50
90.0
 51
180.0
  0
ARC
  5
35B
100
AcDbEntity
  8
0
100
AcDbCircle
 62
7
  6
CONTINUOUS
 10
4.834689441
 20
5.7908614438
 40
0.045
100
AcDbArc
 50
180.0
 51
270.0
  0
ARC
  5
35C
100
AcDbEntity
  8
0
100
AcDbCircle
 62
7
  6
CONTINUOUS
 10
4.950939441
 20
6.1443367416
 40
0.0225
100
AcDbArc
 50
180.0
 51
270.0
  0
ARC
  5
35D
100
AcDbEntity
  8
0
100
AcDbCircle
 62
7
  6
CONTINUOUS
 10
-4.3019050175
 20
16.3004318184
 40
15.0
100
AcDbArc
 50
295.783642258
 51
305.9817756331
  0
ARC
  5
35E
100
AcDbEntity
  8
0
100
AcDbCircle
 62
7
  6
CONTINUOUS
 10
5.749689441
 20
4.1542238174
 40
0.2325
100
AcDbArc
 50
30.8587312036
 51
90.0
  0
ARC
  5
35F
100
AcDbEntity
  8
0
100
AcDbCircle
 62
7
  6
CONTINUOUS
 10
5.8088899152
 20
2.1757238174
 40
0.0705
100
AcDbArc
 50
238.8390168028
 51
270.0
  0
ARC
  5
360
100
AcDbEntity
  8
0
100
AcDbCircle
 62
7
  6
CONTINUOUS
 10
5.6164264667
 20
2.1757238174
 40
0.0705
100
AcDbArc
 50
270.0
 51
279.8674535371
  0
ARC
  5
361
100
AcDbEntity
  8
0
100
AcDbCircle
 62
7
  6
CONTINUOUS
 10
6.6467389667
 20
2.1757238174
 40
0.0705
100
AcDbArc
 50
270.0
 51
345.0
  0
ARC
  5
362
100
AcDbEntity
  8
0
100
AcDbCircle
 62
7
  6
CONTINUOUS
 10
6.4374320216
 20
2.1757238174
 40
0.0705
100
AcDbArc
 50
195.0
 51
270.0
  0
ARC
  5
363
100
AcDbEntity
  8
0
100
AcDbCircle
 62
7
  6
CONTINUOUS
 10
6.2106117473
 20
2.1757238174
 40
0.0705
100
AcDbArc
 50
270.0
 51
345.0
  0
ARC
  5
364
100
AcDbEntity
  8
0
100
AcDbCircle
 62
7
  6
CONTINUOUS
 10
6.1152626957
 20
2.1757238174
 40
0.0705
100
AcDbArc
 50
260.3791200338
 51
270.0
  0
ARC
  5
365
100
AcDbEntity
  8
0
100
AcDbCircle
 62
7
  6
CONTINUOUS
 10
5.7359369925
 20
2.1757238174
 40
0.0705
100
AcDbArc
 50
270.0
 51
340.5498646033
  0
ARC
  5
366
100
AcDbEntity
  8
0
100
AcDbCircle
 62
7
  6
CONTINUOUS
 10
5.640587941
 20
2.1757238174
 40
0.0705
100
AcDbArc
 50
247.2039169733
 51
270.0
  0
ARC
  5
367
100
AcDbEntity
  8
0
100
AcDbCircle
 62
7
  6
CONTINUOUS
 10
5.4902242067
 20
2.1757238174
 40
0.0705
100
AcDbArc
 50
195.0
 51
270.0
  0
ARC
  5
368
100
AcDbEntity
  8
0
100
AcDbCircle
 62
7
  6
CONTINUOUS
 10
5.9959741896
 20
2.1757238174
 40
0.0705
100
AcDbArc
 50
256.985027722
 51
270.0
  0
ARC
  5
369
100
AcDbEntity
  8
0
100
AcDbCircle
 62
7
  6
CONTINUOUS
 10
5.3286139667
 20
2.1757238174
 40
0.0705
100
AcDbArc
 50
270.0
 51
345.0
  0
ARC
  5
36A
100
AcDbEntity
  8
0
100
AcDbCircle
 62
7
  6
CONTINUOUS
 10
5.964223297
 20
2.1757238174
 40
0.0705
100
AcDbArc
 50
270.0
 51
283.1708282374
  0
ARC
  5
36B
100
AcDbEntity
  8
0
100
AcDbCircle
 62
7
  6
CONTINUOUS
 10
5.8688742455
 20
2.1757238174
 40
0.0705
100
AcDbArc
 50
195.0
 51
270.0
  0
ARC
  5
36C
100
AcDbEntity
  8
0
100
AcDbCircle
 62
7
  6
CONTINUOUS
 10
6.4422657061
 20
2.1757238174
 40
0.0705
100
AcDbArc
 50
195.0
 51
270.0
  0
ARC
  5
36D
100
AcDbEntity
  8
0
100
AcDbCircle
 62
7
  6
CONTINUOUS
 10
6.8973117455
 20
2.1757238174
 40
0.0705
100
AcDbArc
 50
195.0
 51
270.0
  0
ARC
  5
36E
100
AcDbEntity
  8
0
100
AcDbCircle
 62
7
  6
CONTINUOUS
 10
6.9135312964
 20
2.1757238174
 40
0.0705
100
AcDbArc
 50
195.0
 51
270.0
  0
ARC
  5
36F
100
AcDbEntity
  8
0
100
AcDbCircle
 62
7
  6
CONTINUOUS
 10
6.4761006651
 20
2.1757238174
 40
0.0705
100
AcDbArc
 50
195.0
 51
270.0
  0
ARC
  5
370
100
AcDbEntity
  8
0
100
AcDbCircle
 62
7
  6
CONTINUOUS
 10
6.5714497166
 20
2.1757238174
 40
0.0705
100
AcDbArc
 50
270.0
 51
345.0
  0
ARC
  5
371
100
AcDbEntity
  8
0
100
AcDbCircle
 62
7
  6
CONTINUOUS
 10
5.9963486286
 20
2.1757238174
 40
0.0705
100
AcDbArc
 50
195.0
 51
270.0
  0
ARC
  5
372
100
AcDbEntity
  8
0
100
AcDbCircle
 62
7
  6
CONTINUOUS
 10
6.0916976801
 20
2.1757238174
 40
0.0705
100
AcDbArc
 50
270.0
 51
345.0
  0
ARC
  5
373
100
AcDbEntity
  8
0
100
AcDbCircle
 62
7
  6
CONTINUOUS
 10
5.4906118431
 20
2.1757238174
 40
0.0705
100
AcDbArc
 50
195.0
 51
270.0
  0
ARC
  5
374
100
AcDbEntity
  8
0
100
AcDbCircle
 62
7
  6
CONTINUOUS
 10
5.5859608946
 20
2.1757238174
 40
0.0705
100
AcDbArc
 50
270.0
 51
345.0
  0
ARC
  5
375
100
AcDbEntity
  8
0
100
AcDbCircle
 62
7
  6
CONTINUOUS
 10
6.3390025979
 20
4.7279299438
 40
0.612
100
AcDbArc
 50
134.6021253162
 51
194.5506225647
  0
ARC
  5
376
100
AcDbEntity
  8
0
100
AcDbCircle
 62
7
  6
CONTINUOUS
 10
6.2711884451
 20
4.4658245855
 40
0.375
100
AcDbArc
 50
210.8587312036
 51
234.0182243669
  0
ARC
  5
377
100
AcDbEntity
  8
0
100
AcDbCircle
 62
7
  6
CONTINUOUS
 10
5.280939441
 20
5.7625867416
 40
0.373125
100
AcDbArc
 50
27.2379957651
 51
43.528434722
  0
ARC
  5
378
100
AcDbEntity
  8
0
100
AcDbCircle
 62
7
  6
CONTINUOUS
 10
5.280939441
 20
5.7625867416
 40
0.373125
100
AcDbArc
 50
136.471565278
 51
152.7620042349
  0
ARC
  5
379
100
AcDbEntity
  8
0
100
AcDbCircle
 62
7
  6
CONTINUOUS
 10
5.843439441
 20
5.2304239438
 40
0.09375
100
AcDbArc
 50
314.6021253162
 51
90.0
  0
ARC
  5
37A
100
AcDbEntity
  8
0
100
AcDbCircle
 62
7
  6
CONTINUOUS
 10
5.749689441
 20
4.4804738174
 40
0.09375
100
AcDbArc
 50
270.0
 51
90.0
  0
ARC
  5
37B
100
AcDbEntity
  8
0
100
AcDbCircle
 62
7
  6
CONTINUOUS
 10
5.697189441
 20
5.4413614438
 40
0.09375
100
AcDbArc
 50
270.0
 51
360.0
  0
ARC
  5
37C
100
AcDbEntity
  8
0
100
AcDbCircle
 62
7
  6
CONTINUOUS
 10
5.5953773195
 20
6.0612738631
 40
0.0605628785
100
AcDbArc
 50
90.0
 51
223.528434722
  0
ARC
  5
37D
100
AcDbEntity
  8
0
100
AcDbCircle
 62
7
  6
CONTINUOUS
 10
5.727189441
 20
5.8883614438
 40
0.045
100
AcDbArc
 50
0.0
 51
90.0
  0
ARC
  5
37E
100
AcDbEntity
  8
0
100
AcDbCircle
 62
7
  6
CONTINUOUS
 10
5.727189441
 20
5.7908614438
 40
0.045
100
AcDbArc
 50
270.0
 51
360.0
  0
ARC
  5
37F
100
AcDbEntity
  8
0
100
AcDbCircle
 62
7
  6
CONTINUOUS
 10
5.6109394409
 20
6.1443367416
 40
0.0225
100
AcDbArc
 50
269.9999997361
 51
360.0
  0
ARC
  5
380
100
AcDbEntity
  8
0
100
AcDbCircle
 62
7
  6
CONTINUOUS
 10
7.2796199631
 20
2.5818724488
 40
0.3051520243
100
AcDbArc
 50
244.4379059516
 51
246.9622069319
  0
ARC
  5
381
100
AcDbEntity
  8
0
100
AcDbCircle
 62
7
  6
CONTINUOUS
 10
8.277189441
 20
2.6654738174
 40
0.1425
100
AcDbArc
 50
0.0
 51
64.216357742
  0
ARC
  5
382
100
AcDbEntity
  8
0
100
AcDbCircle
 62
7
  6
CONTINUOUS
 10
8.622189441
 20
2.5229738174
 40
0.07125
100
AcDbArc
 50
0.0
 51
90.0
  0
ARC
  5
383
100
AcDbEntity
  8
0
100
AcDbCircle
 62
7
  6
CONTINUOUS
 10
7.6035896926
 20
2.1757238174
 40
0.0705
100
AcDbArc
 50
195.0
 51
270.0
  0
ARC
  5
384
100
AcDbEntity
  8
0
100
AcDbCircle
 62
7
  6
CONTINUOUS
 10
7.8329816699
 20
2.1757238174
 40
0.0705
100
AcDbArc
 50
198.3207304153
 51
270.0
  0
ARC
  5
385
100
AcDbEntity
  8
0
100
AcDbCircle
 62
7
  6
CONTINUOUS
 10
7.9738473346
 20
2.1757238174
 40
0.0705
100
AcDbArc
 50
251.2253059452
 51
270.0
  0
ARC
  5
386
100
AcDbEntity
  8
0
100
AcDbCircle
 62
7
  6
CONTINUOUS
 10
8.1167389667
 20
2.1757238174
 40
0.0705
100
AcDbArc
 50
270.0
 51
345.0
  0
ARC
  5
387
100
AcDbEntity
  8
0
100
AcDbCircle
 62
7
  6
CONTINUOUS
 10
7.9739188927
 20
2.1757238174
 40
0.0705
100
AcDbArc
 50
251.194683181
 51
270.0
  0
ARC
  5
388
100
AcDbEntity
  8
0
100
AcDbCircle
 62
7
  6
CONTINUOUS
 10
8.0692679442
 20
2.1757238174
 40
0.0705
100
AcDbArc
 50
270.0
 51
345.0
  0
ARC
  5
389
100
AcDbEntity
  8
0
100
AcDbCircle
 62
7
  6
CONTINUOUS
 10
7.8331223221
 20
2.1757238174
 40
0.0705
100
AcDbArc
 50
198.1346121372
 51
270.0
  0
ARC
  5
38A
100
AcDbEntity
  8
0
100
AcDbCircle
 62
7
  6
CONTINUOUS
 10
7.9284713736
 20
2.1757238174
 40
0.0705
100
AcDbArc
 50
270.0
 51
345.0
  0
ARC
  5
38B
100
AcDbEntity
  8
0
100
AcDbCircle
 62
7
  6
CONTINUOUS
 10
7.6037946494
 20
2.1757238174
 40
0.0705
100
AcDbArc
 50
195.0
 51
270.0
  0
ARC
  5
38C
100
AcDbEntity
  8
0
100
AcDbCircle
 62
7
  6
CONTINUOUS
 10
7.6991437009
 20
2.1757238174
 40
0.0705
100
AcDbArc
 50
270.0
 51
345.0
  0
ARC
  5
38D
100
AcDbEntity
  8
0
100
AcDbCircle
 62
7
  6
CONTINUOUS
 10
7.2848183387
 20
2.1757238174
 40
0.0705
100
AcDbArc
 50
270.0
 51
273.6299828214
  0
ARC
  5
38E
100
AcDbEntity
  8
0
100
AcDbCircle
 62
7
  6
CONTINUOUS
 10
7.1894692872
 20
2.1757238174
 40
0.0705
100
AcDbArc
 50
195.0
 51
270.0
  0
ARC
  5
38F
100
AcDbEntity
  8
0
100
AcDbCircle
 62
7
  6
CONTINUOUS
 10
7.2901399152
 20
2.1757238174
 40
0.0705
100
AcDbArc
 50
267.8368847056
 51
270.0
  0
ARC
  5
390
100
AcDbEntity
  8
0
100
AcDbCircle
 62
7
  6
CONTINUOUS
 10
7.2937450072
 20
2.1757238174
 40
0.0705
100
AcDbArc
 50
195.0
 51
270.0
  0
ARC
  5
391
100
AcDbEntity
  8
0
100
AcDbCircle
 62
7
  6
CONTINUOUS
 10
7.3890940587
 20
2.1757238174
 40
0.0705
100
AcDbArc
 50
270.0
 51
345.0
  0
ARC
  5
392
100
AcDbEntity
  8
0
100
AcDbCircle
 62
7
  6
CONTINUOUS
 10
7.0088803479
 20
2.1757238174
 40
0.0705
100
AcDbArc
 50
270.0
 51
345.0
  0
ARC
  5
393
100
AcDbEntity
  8
0
100
AcDbCircle
 62
7
  6
CONTINUOUS
 10
8.468439441
 20
2.6429738174
 40
0.04875
100
AcDbArc
 50
180.0
 51
270.0
  0
ARC
  5
394
100
AcDbEntity
  8
0
100
AcDbCircle
 62
7
  6
CONTINUOUS
 10
14.8637838995
 20
16.3004318184
 40
15.0
100
AcDbArc
 50
234.0182243669
 51
244.216357742
  0
SPLINE
  5
395
100
AcDbEntity
  8
0
100
AcDbSpline
 62
7
  6
CONTINUOUS
 70
0
 71
3
 72
23
 73
19
 74
0
 42
0.0000001
 43
0.0000001
 44
0.0000000001
 40
0.0
 40
0.0
 40
0.0
 40
0.0
 40
0.056760279
 40
0.1137605135
 40
0.1712188217
 40
0.2293415629
 40
0.2882968958
 40
0.3482171767
 40
0.4091915585
 40
0.4712654383
 40
0.5344406478
 40
0.5986776563
 40
0.6638990909
 40
0.7299937199
 40
0.796822749
 40
0.8642209666
 40
0.9320134279
 40
1.0
 40
1.0
 40
1.0
 40
1.0
 10
5.6969617582
 20
5.9333614438
 30
0.0
 10
5.6981902401
 20
5.9333614438
 30
0.0
 10
5.7006548351
 20
5.9332160167
 30
0.0
 10
5.7043109969
 20
5.9325644358
 30
0.0
 10
5.7078957683
 20
5.9314856838
 30
0.0
 10
5.7113735796
 20
5.9299908537
 30
0.0
 10
5.7147110077
 20
5.928094751
 30
0.0
 10
5.7178759233
 20
5.9258162435
 30
0.0
 10
5.7208380722
 20
5.9231776821
 30
0.0
 10
5.7235692442
 20
5.9202048093
 30
0.0
 10
5.726043498
 20
5.9169264423
 30
0.0
 10
5.7282373863
 20
5.913374233
 30
0.0
 10
5.7301301213
 20
5.9095823668
 30
0.0
 10
5.7317038133
 20
5.9055872442
 30
0.0
 10
5.7329434908
 20
5.9014272192
 30
0.0
 10
5.7338375391
 20
5.8971419876
 30
0.0
 10
5.7343773053
 20
5.8927730376
 30
0.0
 10
5.7344976064
 20
5.8898329002
 30
0.0
 10
5.7344976064
 20
5.8883614438
 30
0.0
  0
SPLINE
  5
396
100
AcDbEntity
  8
0
100
AcDbSpline
 62
7
  6
CONTINUOUS
 70
0
 71
3
 72
25
 73
21
 74
0
 42
0.0000001
 43
0.0000001
 44
0.0000000001
 40
0.0
 40
0.0
 40
0.0
 40
0.0
 40
0.0202848436
 40
0.0407223606
 40
0.0614455435
 40
0.0825856552
 40
0.126556916
 40
0.1734812954
 40
0.2239134499
 40
0.2781814344
 40
0.3364158978
 40
0.398584903
 40
0.4645242783
 40
0.533962944
 40
0.606543756
 40
0.6818401032
 40
0.759371982
 40
0.8386134096
 40
0.9190172013
 40
1.0
 40
1.0
 40
1.0
 40
1.0
 10
5.6969617582
 20
5.9333614438
 30
0.0
 10
5.6973301356
 20
5.9333614438
 30
0.0
 10
5.6980701685
 20
5.9333249276
 30
0.0
 10
5.6991756391
 20
5.9331613229
 30
0.0
 10
5.7002755759
 20
5.9328890428
 30
0.0
 10
5.7017494748
 20
5.9323759202
 30
0.0
 10
5.7035735113
 20
5.9314509596
 30
0.0
 10
5.7056599586
 20
5.9299413505
 30
0.0
 10
5.707656826
 20
5.9280347303
 30
0.0
 10
5.7095469026
 20
5.9257506125
 30
0.0
 10
5.7113141986
 20
5.9231107951
 30
0.0
 10
5.7129429932
 20
5.9201401286
 30
0.0
 10
5.7144184411
 20
5.9168665208
 30
0.0
 10
5.7157268159
 20
5.9133208553
 30
0.0
 10
5.7168557793
 20
5.9095367294
 30
0.0
 10
5.7177946187
 20
5.905550115
 30
0.0
 10
5.718534317
 20
5.9013990666
 30
0.0
 10
5.7190678596
 20
5.8971231309
 30
0.0
 10
5.7193900069
 20
5.8927634411
 30
0.0
 10
5.7194617582
 20
5.8898321097
 30
0.0
 10
5.7194617582
 20
5.8883614438
 30
0.0
  0
SPLINE
  5
397
100
AcDbEntity
  8
0
100
AcDbSpline
 62
7
  6
CONTINUOUS
 70
0
 71
3
 72
31
 73
27
 74
0
 42
0.0000001
 43
0.0000001
 44
0.0000000001
 40
0.0
 40
0.0
 40
0.0
 40
0.0
 40
0.0015069177
 40
0.0032347312
 40
0.0053347064
 40
0.0078923473
 40
0.0109545677
 40
0.014547549
 40
0.0186859884
 40
0.0233785062
 40
0.0344425226
 40
0.0477540396
 40
0.0633019832
 40
0.0810636688
 40
0.1010039914
 40
0.1230826466
 40
0.147250034
 40
0.173452183
 40
0.2317127675
 40
0.2973206522
 40
0.3696555014
 40
0.4480291127
 40
0.5316934178
 40
0.6198477859
 40
0.8062131742
 40
1.0
 40
1.0
 40
1.0
 40
1.0
 10
5.3111671237
 20
5.9333614438
 30
0.0
 10
5.3111898801
 20
5.9333614438
 30
0.0
 10
5.3112390411
 20
5.9333506475
 30
0.0
 10
5.3113075654
 20
5.9333062235
 30
0.0
 10
5.311374314
 20
5.9332358456
 30
0.0
 10
5.3114404036
 20
5.9331394217
 30
0.0
 10
5.3115062682
 20
5.9330166625
 30
0.0
 10
5.311571984
 20
5.9328673698
 30
0.0
 10
5.3116375593
 20
5.9326915016
 30
0.0
 10
5.3117298607
 20
5.9324055124
 30
0.0
 10
5.3118418077
 20
5.9319807691
 30
0.0
 10
5.3119689469
 20
5.9313913162
 30
0.0
 10
5.3120945861
 20
5.9306984727
 30
0.0
 10
5.3122183263
 20
5.9299038479
 30
0.0
 10
5.3123397846
 20
5.9290092449
 30
0.0
 10
5.3124585824
 20
5.9280167985
 30
0.0
 10
5.3125744242
 20
5.9269288627
 30
0.0
 10
5.312730041
 20
5.9252957812
 30
0.0
 10
5.3129121496
 20
5.9230367341
 30
0.0
 10
5.3131078292
 20
5.9200802114
 30
0.0
 10
5.3132854601
 20
5.9168183299
 30
0.0
 10
5.3134432283
 20
5.9132824751
 30
0.0
 10
5.3135795134
 20
5.9095066726
 30
0.0
 10
5.313733545
 20
5.904099791
 30
0.0
 10
5.3138607788
 20
5.8970287022
 30
0.0
 10
5.3138944334
 20
5.8912878699
 30
0.0
 10
5.3138944334
 20
5.8883614438
 30
0.0
  0
SPLINE
  5
398
100
AcDbEntity
  8
0
100
AcDbSpline
 62
7
  6
CONTINUOUS
 70
0
 71
3
 72
11
 73
7
 74
0
 42
0.0000001
 43
0.0000001
 44
0.0000000001
 40
0.0
 40
0.0
 40
0.0
 40
0.0
 40
0.249997852
 40
0.4999970475
 40
0.7499977998
 40
1.0
 40
1.0
 40
1.0
 40
1.0
 10
5.7030201135
 20
2.284573753
 30
0.0
 10
5.7064533743
 20
2.2848813439
 30
0.0
 10
5.7133026464
 20
2.2857083922
 30
0.0
 10
5.7234835452
 20
2.2875520078
 30
0.0
 10
5.7335464901
 20
2.2899552298
 30
0.0
 10
5.7401647335
 20
2.2918972375
 30
0.0
 10
5.7434489292
 20
2.2929443117
 30
0.0
  0
SPLINE
  5
399
100
AcDbEntity
  8
0
100
AcDbSpline
 62
7
  6
CONTINUOUS
 70
0
 71
3
 72
31
 73
27
 74
0
 42
0.0000001
 43
0.0000001
 44
0.0000000001
 40
0.0
 40
0.0
 40
0.0
 40
0.0
 40
0.0015069177
 40
0.0032347312
 40
0.0053347064
 40
0.0078923473
 40
0.0109545677
 40
0.014547549
 40
0.0186859884
 40
0.0233785062
 40
0.0344425226
 40
0.0477540396
 40
0.0633019832
 40
0.0810636688
 40
0.1010039914
 40
0.1230826466
 40
0.147250034
 40
0.173452183
 40
0.2317127675
 40
0.2973206522
 40
0.3696555014
 40
0.4480291128
 40
0.5316934178
 40
0.6198477859
 40
0.8062131742
 40
1.0
 40
1.0
 40
1.0
 40
1.0
 10
5.2507117582
 20
5.9333614438
 30
0.0
 10
5.2506890019
 20
5.9333614438
 30
0.0
 10
5.2506398409
 20
5.9333506475
 30
0.0
 10
5.2505713166
 20
5.9333062235
 30
0.0
 10
5.250504568
 20
5.9332358456
 30
0.0
 10
5.2504384784
 20
5.9331394217
 30
0.0
 10
5.2503726138
 20
5.9330166625
 30
0.0
 10
5.250306898
 20
5.9328673698
 30
0.0
 10
5.2502413227
 20
5.9326915016
 30
0.0
 10
5.2501490213
 20
5.9324055124
 30
0.0
 10
5.2500370743
 20
5.9319807691
 30
0.0
 10
5.2499099351
 20
5.9313913162
 30
0.0
 10
5.2497842959
 20
5.9306984727
 30
0.0
 10
5.2496605557
 20
5.9299038479
 30
0.0
 10
5.2495390974
 20
5.9290092449
 30
0.0
 10
5.2494202996
 20
5.9280167985
 30
0.0
 10
5.2493044578
 20
5.9269288627
 30
0.0
 10
5.249148841
 20
5.9252957812
 30
0.0
 10
5.2489667324
 20
5.9230367341
 30
0.0
 10
5.2487710528
 20
5.9200802114
 30
0.0
 10
5.2485934219
 20
5.9168183299
 30
0.0
 10
5.2484356537
 20
5.9132824751
 30
0.0
 10
5.2482993686
 20
5.9095066726
 30
0.0
 10
5.248145337
 20
5.904099791
 30
0.0
 10
5.2480181032
 20
5.8970287022
 30
0.0
 10
5.2479844485
 20
5.8912878699
 30
0.0
 10
5.2479844485
 20
5.8883614438
 30
0.0
  0
SPLINE
  5
39A
100
AcDbEntity
  8
0
100
AcDbSpline
 62
7
  6
CONTINUOUS
 70
0
 71
3
 72
25
 73
21
 74
0
 42
0.0000001
 43
0.0000001
 44
0.0000000001
 40
0.0
 40
0.0
 40
0.0
 40
0.0
 40
0.0202848436
 40
0.0407223606
 40
0.0614455435
 40
0.0825856552
 40
0.126556916
 40
0.1734812954
 40
0.2239134499
 40
0.2781814344
 40
0.3364158978
 40
0.398584903
 40
0.4645242783
 40
0.533962944
 40
0.606543756
 40
0.6818401032
 40
0.759371982
 40
0.8386134096
 40
0.9190172013
 40
1.0
 40
1.0
 40
1.0
 40
1.0
 10
5.2507117582
 20
5.9333614438
 30
0.0
 10
5.2503433809
 20
5.9333614438
 30
0.0
 10
5.249603348
 20
5.9333249276
 30
0.0
 10
5.2484978774
 20
5.9331613229
 30
0.0
 10
5.2473979406
 20
5.9328890428
 30
0.0
 10
5.2459240416
 20
5.9323759203
 30
0.0
 10
5.2441000051
 20
5.9314509596
 30
0.0
 10
5.2420135579
 20
5.9299413505
 30
0.0
 10
5.2400166904
 20
5.9280347303
 30
0.0
 10
5.2381266139
 20
5.9257506125
 30
0.0
 10
5.2363593179
 20
5.9231107951
 30
0.0
 10
5.2347305233
 20
5.9201401286
 30
0.0
 10
5.2332550754
 20
5.9168665208
 30
0.0
 10
5.2319467006
 20
5.9133208553
 30
0.0
 10
5.2308177371
 20
5.9095367294
 30
0.0
 10
5.2298788978
 20
5.905550115
 30
0.0
 10
5.2291391994
 20
5.9013990666
 30
0.0
 10
5.2286056569
 20
5.8971231309
 30
0.0
 10
5.2282835096
 20
5.8927634411
 30
0.0
 10
5.2282117582
 20
5.8898321097
 30
0.0
 10
5.2282117582
 20
5.8883614438
 30
0.0
  0
SPLINE
  5
39B
100
AcDbEntity
  8
0
100
AcDbSpline
 62
7
  6
CONTINUOUS
 70
0
 71
3
 72
23
 73
19
 74
0
 42
0.0000001
 43
0.0000001
 44
0.0000000001
 40
0.0
 40
0.0
 40
0.0
 40
0.0
 40
0.056760279
 40
0.1137605135
 40
0.1712188217
 40
0.2293415628
 40
0.2882968958
 40
0.3482171767
 40
0.4091915585
 40
0.4712654382
 40
0.5344406478
 40
0.5986776563
 40
0.6638990908
 40
0.7299937199
 40
0.7968227489
 40
0.8642209666
 40
0.9320134279
 40
1.0
 40
1.0
 40
1.0
 40
1.0
 10
4.8649171237
 20
5.9333614438
 30
0.0
 10
4.8636886418
 20
5.9333614438
 30
0.0
 10
4.8612240469
 20
5.9332160167
 30
0.0
 10
4.8575678851
 20
5.9325644358
 30
0.0
 10
4.8539831137
 20
5.9314856838
 30
0.0
 10
4.8505053024
 20
5.9299908537
 30
0.0
 10
4.8471678743
 20
5.928094751
 30
0.0
 10
4.8440029587
 20
5.9258162435
 30
0.0
 10
4.8410408097
 20
5.9231776821
 30
0.0
 10
4.8383096378
 20
5.9202048093
 30
0.0
 10
4.835835384
 20
5.9169264423
 30
0.0
 10
4.8336414957
 20
5.913374233
 30
0.0
 10
4.8317487606
 20
5.9095823668
 30
0.0
 10
4.8301750687
 20
5.9055872442
 30
0.0
 10
4.8289353912
 20
5.9014272192
 30
0.0
 10
4.8280413428
 20
5.8971419876
 30
0.0
 10
4.8275015766
 20
5.8927730376
 30
0.0
 10
4.8273812756
 20
5.8898329002
 30
0.0
 10
4.8273812756
 20
5.8883614438
 30
0.0
  0
SPLINE
  5
39C
100
AcDbEntity
  8
0
100
AcDbSpline
 62
7
  6
CONTINUOUS
 70
0
 71
3
 72
25
 73
21
 74
0
 42
0.0000001
 43
0.0000001
 44
0.0000000001
 40
0.0
 40
0.0
 40
0.0
 40
0.0
 40
0.0589960512
 40
0.0885527314
 40
0.1181579493
 40
0.1775687773
 40
0.2373769255
 40
0.2674729675
 40
0.2977053871
 40
0.3585959968
 40
0.4201276372
 40
0.4823326175
 40
0.5452166917
 40
0.6087597357
 40
0.6729173693
 40
0.7376229085
 40
0.802791536
 40
0.8683195754
 40
0.9340988398
 40
1.0
 40
1.0
 40
1.0
 40
1.0
 10
4.834689441
 20
5.9333614438
 30
0.0
 10
4.8333719972
 20
5.9333614438
 30
0.0
 10
4.8313922951
 20
5.9332525734
 30
0.0
 10
4.8287775229
 20
5.932891981
 30
0.0
 10
4.8261769319
 20
5.9323875429
 30
0.0
 10
4.8229701993
 20
5.9314888021
 30
0.0
 10
4.8198685252
 20
5.9302468821
 30
0.0
 10
4.8174637664
 20
5.9290551661
 30
0.0
 10
4.8151037529
 20
5.9277271011
 30
0.0
 10
4.8122670485
 20
5.9258247742
 30
0.0
 10
4.8090890431
 20
5.9231875421
 30
0.0
 10
4.8061580898
 20
5.9202153672
 30
0.0
 10
4.8035024779
 20
5.9169371519
 30
0.0
 10
4.8011474707
 20
5.9133845284
 30
0.0
 10
4.7991155409
 20
5.9095917426
 30
0.0
 10
4.7974259962
 20
5.9055952662
 30
0.0
 10
4.7960949884
 20
5.9014335402
 30
0.0
 10
4.795135041
 20
5.897146337
 30
0.0
 10
4.794555477
 20
5.892775287
 30
0.0
 10
4.7944262831
 20
5.8898330859
 30
0.0
 10
4.7944262831
 20
5.8883614438
 30
0.0
  0
SPLINE
  5
39D
100
AcDbEntity
  8
0
100
AcDbSpline
 62
7
  6
CONTINUOUS
 70
0
 71
3
 72
25
 73
21
 74
0
 42
0.0000001
 43
0.0000001
 44
0.0000000001
 40
0.0
 40
0.0
 40
0.0
 40
0.0
 40
0.0589960512
 40
0.0885527314
 40
0.1181579493
 40
0.1775687773
 40
0.2373769255
 40
0.2674729675
 40
0.2977053871
 40
0.3585959968
 40
0.4201276372
 40
0.4823326175
 40
0.5452166917
 40
0.6087597357
 40
0.6729173693
 40
0.7376229085
 40
0.802791536
 40
0.8683195754
 40
0.9340988398
 40
1.0
 40
1.0
 40
1.0
 40
1.0
 10
4.834689441
 20
5.7458614438
 30
0.0
 10
4.8333719972
 20
5.7458614438
 30
0.0
 10
4.8313922951
 20
5.7459703142
 30
0.0
 10
4.8287775229
 20
5.7463309066
 30
0.0
 10
4.8261769319
 20
5.7468353447
 30
0.0
 10
4.8229701993
 20
5.7477340855
 30
0.0
 10
4.8198685252
 20
5.7489760055
 30
0.0
 10
4.8174637664
 20
5.7501677215
 30
0.0
 10
4.8151037529
 20
5.7514957865
 30
0.0
 10
4.8122670485
 20
5.7533981134
 30
0.0
 10
4.8090890431
 20
5.7560353455
 30
0.0
 10
4.8061580898
 20
5.7590075204
 30
0.0
 10
4.8035024779
 20
5.7622857357
 30
0.0
 10
4.8011474707
 20
5.7658383592
 30
0.0
 10
4.7991155409
 20
5.769631145
 30
0.0
 10
4.7974259962
 20
5.7736276214
 30
0.0
 10
4.7960949884
 20
5.7777893474
 30
0.0
 10
4.795135041
 20
5.7820765506
 30
0.0
 10
4.794555477
 20
5.7864476006
 30
0.0
 10
4.7944262831
 20
5.7893898017
 30
0.0
 10
4.7944262831
 20
5.7908614438
 30
0.0
  0
SPLINE
  5
39E
100
AcDbEntity
  8
0
100
AcDbSpline
 62
7
  6
CONTINUOUS
 70
0
 71
3
 72
23
 73
19
 74
0
 42
0.0000001
 43
0.0000001
 44
0.0000000001
 40
0.0
 40
0.0
 40
0.0
 40
0.0
 40
0.056760279
 40
0.1137605135
 40
0.1712188217
 40
0.2293415629
 40
0.2882968958
 40
0.3482171767
 40
0.4091915585
 40
0.4712654383
 40
0.5344406478
 40
0.5986776563
 40
0.6638990908
 40
0.7299937199
 40
0.796822749
 40
0.8642209666
 40
0.9320134279
 40
1.0
 40
1.0
 40
1.0
 40
1.0
 10
4.8649171237
 20
5.7458614438
 30
0.0
 10
4.8636886418
 20
5.7458614438
 30
0.0
 10
4.8612240469
 20
5.7460068709
 30
0.0
 10
4.8575678851
 20
5.7466584518
 30
0.0
 10
4.8539831137
 20
5.7477372039
 30
0.0
 10
4.8505053024
 20
5.7492320339
 30
0.0
 10
4.8471678743
 20
5.7511281366
 30
0.0
 10
4.8440029587
 20
5.7534066441
 30
0.0
 10
4.8410408097
 20
5.7560452055
 30
0.0
 10
4.8383096378
 20
5.7590180783
 30
0.0
 10
4.835835384
 20
5.7622964453
 30
0.0
 10
4.8336414957
 20
5.7658486546
 30
0.0
 10
4.8317487606
 20
5.7696405208
 30
0.0
 10
4.8301750687
 20
5.7736356434
 30
0.0
 10
4.8289353912
 20
5.7777956684
 30
0.0
 10
4.8280413428
 20
5.7820809
 30
0.0
 10
4.8275015766
 20
5.78644985
 30
0.0
 10
4.8273812756
 20
5.7893899874
 30
0.0
 10
4.8273812756
 20
5.7908614438
 30
0.0
  0
SPLINE
  5
39F
100
AcDbEntity
  8
0
100
AcDbSpline
 62
7
  6
CONTINUOUS
 70
0
 71
3
 72
25
 73
21
 74
0
 42
0.0000001
 43
0.0000001
 44
0.0000000001
 40
0.0
 40
0.0
 40
0.0
 40
0.0
 40
0.0202848436
 40
0.0407223606
 40
0.0614455435
 40
0.0825856552
 40
0.126556916
 40
0.1734812954
 40
0.2239134499
 40
0.2781814344
 40
0.3364158978
 40
0.398584903
 40
0.4645242783
 40
0.533962944
 40
0.606543756
 40
0.6818401032
 40
0.759371982
 40
0.8386134096
 40
0.9190172013
 40
1.0
 40
1.0
 40
1.0
 40
1.0
 10
4.8649171237
 20
5.7458614438
 30
0.0
 10
4.8645487464
 20
5.7458614438
 30
0.0
 10
4.8638087135
 20
5.74589796
 30
0.0
 10
4.8627032429
 20
5.7460615647
 30
0.0
 10
4.8616033061
 20
5.7463338448
 30
0.0
 10
4.8601294071
 20
5.7468469674
 30
0.0
 10
4.8583053707
 20
5.747771928
 30
0.0
 10
4.8562189234
 20
5.7492815371
 30
0.0
 10
4.854222056
 20
5.7511881573
 30
0.0
 10
4.8523319794
 20
5.7534722751
 30
0.0
 10
4.8505646834
 20
5.7561120925
 30
0.0
 10
4.8489358888
 20
5.759082759
 30
0.0
 10
4.8474604409
 20
5.7623563668
 30
0.0
 10
4.8461520661
 20
5.7659020323
 30
0.0
 10
4.8450231027
 20
5.7696861582
 30
0.0
 10
4.8440842633
 20
5.7736727726
 30
0.0
 10
4.843344565
 20
5.777823821
 30
0.0
 10
4.8428110224
 20
5.7820997567
 30
0.0
 10
4.8424888751
 20
5.7864594465
 30
0.0
 10
4.8424171238
 20
5.7893907779
 30
0.0
 10
4.8424171238
 20
5.7908614438
 30
0.0
  0
SPLINE
  5
3A0
100
AcDbEntity
  8
0
100
AcDbSpline
 62
7
  6
CONTINUOUS
 70
0
 71
3
 72
31
 73
27
 74
0
 42
0.0000001
 43
0.0000001
 44
0.0000000001
 40
0.0
 40
0.0
 40
0.0
 40
0.0
 40
0.0015069177
 40
0.0032347312
 40
0.0053347064
 40
0.0078923473
 40
0.0109545677
 40
0.014547549
 40
0.0186859884
 40
0.0233785062
 40
0.0344425226
 40
0.0477540396
 40
0.0633019832
 40
0.0810636688
 40
0.1010039914
 40
0.1230826466
 40
0.147250034
 40
0.173452183
 40
0.2317127675
 40
0.2973206522
 40
0.3696555014
 40
0.4480291127
 40
0.5316934178
 40
0.6198477859
 40
0.8062131742
 40
1.0
 40
1.0
 40
1.0
 40
1.0
 10
5.2507117582
 20
5.7458614438
 30
0.0
 10
5.2506890019
 20
5.7458614438
 30
0.0
 10
5.2506398409
 20
5.7458722401
 30
0.0
 10
5.2505713166
 20
5.7459166641
 30
0.0
 10
5.250504568
 20
5.745987042
 30
0.0
 10
5.2504384784
 20
5.7460834659
 30
0.0
 10
5.2503726138
 20
5.7462062251
 30
0.0
 10
5.250306898
 20
5.7463555178
 30
0.0
 10
5.2502413227
 20
5.746531386
 30
0.0
 10
5.2501490213
 20
5.7468173752
 30
0.0
 10
5.2500370743
 20
5.7472421185
 30
0.0
 10
5.2499099351
 20
5.7478315715
 30
0.0
 10
5.2497842959
 20
5.7485244149
 30
0.0
 10
5.2496605557
 20
5.7493190397
 30
0.0
 10
5.2495390974
 20
5.7502136427
 30
0.0
 10
5.2494202996
 20
5.7512060891
 30
0.0
 10
5.2493044578
 20
5.7522940249
 30
0.0
 10
5.249148841
 20
5.7539271064
 30
0.0
 10
5.2489667324
 20
5.7561861535
 30
0.0
 10
5.2487710528
 20
5.7591426762
 30
0.0
 10
5.2485934219
 20
5.7624045577
 30
0.0
 10
5.2484356537
 20
5.7659404125
 30
0.0
 10
5.2482993686
 20
5.769716215
 30
0.0
 10
5.248145337
 20
5.7751230966
 30
0.0
 10
5.2480181032
 20
5.7821941854
 30
0.0
 10
5.2479844485
 20
5.7879350177
 30
0.0
 10
5.2479844485
 20
5.7908614438
 30
0.0
  0
SPLINE
  5
3A1
100
AcDbEntity
  8
0
100
AcDbSpline
 62
7
  6
CONTINUOUS
 70
0
 71
3
 72
25
 73
21
 74
0
 42
0.0000001
 43
0.0000001
 44
0.0000000001
 40
0.0
 40
0.0
 40
0.0
 40
0.0
 40
0.0202848436
 40
0.0407223606
 40
0.0614455435
 40
0.0825856552
 40
0.126556916
 40
0.1734812954
 40
0.2239134499
 40
0.2781814344
 40
0.3364158978
 40
0.398584903
 40
0.4645242782
 40
0.533962944
 40
0.606543756
 40
0.6818401032
 40
0.759371982
 40
0.8386134096
 40
0.9190172013
 40
1.0
 40
1.0
 40
1.0
 40
1.0
 10
5.3111671237
 20
5.7458614438
 30
0.0
 10
5.3115355011
 20
5.7458614438
 30
0.0
 10
5.312275534
 20
5.74589796
 30
0.0
 10
5.3133810046
 20
5.7460615647
 30
0.0
 10
5.3144809414
 20
5.7463338448
 30
0.0
 10
5.3159548404
 20
5.7468469674
 30
0.0
 10
5.3177788768
 20
5.747771928
 30
0.0
 10
5.3198653241
 20
5.7492815371
 30
0.0
 10
5.3218621915
 20
5.7511881573
 30
0.0
 10
5.3237522681
 20
5.7534722751
 30
0.0
 10
5.3255195641
 20
5.7561120925
 30
0.0
 10
5.3271483587
 20
5.759082759
 30
0.0
 10
5.3286238066
 20
5.7623563668
 30
0.0
 10
5.3299321814
 20
5.7659020323
 30
0.0
 10
5.3310611448
 20
5.7696861582
 30
0.0
 10
5.3319999842
 20
5.7736727726
 30
0.0
 10
5.3327396825
 20
5.777823821
 30
0.0
 10
5.3332732251
 20
5.7820997567
 30
0.0
 10
5.3335953724
 20
5.7864594465
 30
0.0
 10
5.3336671238
 20
5.7893907779
 30
0.0
 10
5.3336671238
 20
5.7908614438
 30
0.0
  0
SPLINE
  5
3A2
100
AcDbEntity
  8
0
100
AcDbSpline
 62
7
  6
CONTINUOUS
 70
0
 71
3
 72
23
 73
19
 74
0
 42
0.0000001
 43
0.0000001
 44
0.0000000001
 40
0.0
 40
0.0
 40
0.0
 40
0.0
 40
0.056760279
 40
0.1137605135
 40
0.1712188217
 40
0.2293415628
 40
0.2882968958
 40
0.3482171767
 40
0.4091915585
 40
0.4712654382
 40
0.5344406478
 40
0.5986776563
 40
0.6638990908
 40
0.7299937199
 40
0.7968227489
 40
0.8642209666
 40
0.9320134279
 40
1.0
 40
1.0
 40
1.0
 40
1.0
 10
5.6969617582
 20
5.7458614438
 30
0.0
 10
5.6981902401
 20
5.7458614438
 30
0.0
 10
5.7006548351
 20
5.7460068709
 30
0.0
 10
5.7043109969
 20
5.7466584518
 30
0.0
 10
5.7078957683
 20
5.7477372039
 30
0.0
 10
5.7113735796
 20
5.7492320339
 30
0.0
 10
5.7147110077
 20
5.7511281366
 30
0.0
 10
5.7178759233
 20
5.7534066441
 30
0.0
 10
5.7208380722
 20
5.7560452055
 30
0.0
 10
5.7235692442
 20
5.7590180783
 30
0.0
 10
5.726043498
 20
5.7622964453
 30
0.0
 10
5.7282373863
 20
5.7658486546
 30
0.0
 10
5.7301301213
 20
5.7696405208
 30
0.0
 10
5.7317038133
 20
5.7736356434
 30
0.0
 10
5.7329434908
 20
5.7777956684
 30
0.0
 10
5.7338375391
 20
5.7820809
 30
0.0
 10
5.7343773053
 20
5.78644985
 30
0.0
 10
5.7344976064
 20
5.7893899874
 30
0.0
 10
5.7344976064
 20
5.7908614438
 30
0.0
  0
SPLINE
  5
3A3
100
AcDbEntity
  8
0
100
AcDbSpline
 62
7
  6
CONTINUOUS
 70
0
 71
3
 72
25
 73
21
 74
0
 42
0.0000001
 43
0.0000001
 44
0.0000000001
 40
0.0
 40
0.0
 40
0.0
 40
0.0
 40
0.0589960512
 40
0.0885527314
 40
0.1181579493
 40
0.1775687773
 40
0.2373769255
 40
0.2674729675
 40
0.2977053871
 40
0.3585959968
 40
0.4201276372
 40
0.4823326175
 40
0.5452166917
 40
0.6087597357
 40
0.6729173693
 40
0.7376229085
 40
0.802791536
 40
0.8683195754
 40
0.9340988398
 40
1.0
 40
1.0
 40
1.0
 40
1.0
 10
5.727189441
 20
5.7458614438
 30
0.0
 10
5.7285068848
 20
5.7458614438
 30
0.0
 10
5.7304865869
 20
5.7459703142
 30
0.0
 10
5.7331013591
 20
5.7463309066
 30
0.0
 10
5.7357019501
 20
5.7468353447
 30
0.0
 10
5.7389086827
 20
5.7477340855
 30
0.0
 10
5.7420103568
 20
5.7489760055
 30
0.0
 10
5.7444151156
 20
5.7501677215
 30
0.0
 10
5.7467751291
 20
5.7514957865
 30
0.0
 10
5.7496118335
 20
5.7533981134
 30
0.0
 10
5.7527898389
 20
5.7560353455
 30
0.0
 10
5.7557207922
 20
5.7590075204
 30
0.0
 10
5.758376404
 20
5.7622857357
 30
0.0
 10
5.7607314113
 20
5.7658383592
 30
0.0
 10
5.7627633411
 20
5.769631145
 30
0.0
 10
5.7644528858
 20
5.7736276214
 30
0.0
 10
5.7657838936
 20
5.7777893474
 30
0.0
 10
5.766743841
 20
5.7820765506
 30
0.0
 10
5.767323405
 20
5.7864476006
 30
0.0
 10
5.7674525989
 20
5.7893898017
 30
0.0
 10
5.7674525989
 20
5.7908614438
 30
0.0
  0
SPLINE
  5
3A4
100
AcDbEntity
  8
0
100
AcDbSpline
 62
7
  6
CONTINUOUS
 70
0
 71
3
 72
17
 73
13
 74
0
 42
0.0000001
 43
0.0000001
 44
0.0000000001
 40
0.0
 40
0.0
 40
0.0
 40
0.0
 40
0.0560183488
 40
0.1126015249
 40
0.1698789419
 40
0.2279575101
 40
0.3467997381
 40
0.4695882826
 40
0.5964474802
 40
0.7272912291
 40
0.8619047235
 40
1.0
 40
1.0
 40
1.0
 40
1.0
 10
3.7656444746
 20
2.2846610652
 30
0.0
 10
3.7665466569
 20
2.2848049452
 30
0.0
 10
3.7683514391
 20
2.2851516436
 30
0.0
 10
3.7710367995
 20
2.2858394016
 30
0.0
 10
3.7737097598
 20
2.2866920119
 30
0.0
 10
3.7772808822
 20
2.2880512627
 30
0.0
 10
3.7817077343
 20
2.2901432097
 30
0.0
 10
3.7868976179
 20
2.2931856759
 30
0.0
 10
3.7920039056
 20
2.2967202856
 30
0.0
 10
3.7970263809
 20
2.3006897547
 30
0.0
 10
3.8019674627
 20
2.3050410307
 30
0.0
 10
3.8051714803
 20
2.308127687
 30
0.0
 10
3.8067639884
 20
2.3097201951
 30
0.0
  0
SPLINE
  5
3A5
100
AcDbEntity
  8
0
100
AcDbSpline
 62
7
  6
CONTINUOUS
 70
0
 71
3
 72
31
 73
27
 74
0
 42
0.0000001
 43
0.0000001
 44
0.0000000001
 40
0.0
 40
0.0
 40
0.0
 40
0.0
 40
0.0015069177
 40
0.0032347312
 40
0.0053347064
 40
0.0078923473
 40
0.0109545677
 40
0.014547549
 40
0.0186859884
 40
0.0233785062
 40
0.0344425226
 40
0.0477540396
 40
0.0633019832
 40
0.0810636688
 40
0.1010039914
 40
0.1230826466
 40
0.147250034
 40
0.173452183
 40
0.2317127675
 40
0.2973206522
 40
0.3696555014
 40
0.4480291128
 40
0.5316934178
 40
0.6198477859
 40
0.8062131742
 40
1.0
 40
1.0
 40
1.0
 40
1.0
 10
5.3111671237
 20
5.7458614438
 30
0.0
 10
5.3111898801
 20
5.7458614438
 30
0.0
 10
5.3112390411
 20
5.7458722401
 30
0.0
 10
5.3113075654
 20
5.7459166641
 30
0.0
 10
5.311374314
 20
5.745987042
 30
0.0
 10
5.3114404036
 20
5.7460834659
 30
0.0
 10
5.3115062682
 20
5.7462062251
 30
0.0
 10
5.311571984
 20
5.7463555178
 30
0.0
 10
5.3116375593
 20
5.746531386
 30
0.0
 10
5.3117298607
 20
5.7468173752
 30
0.0
 10
5.3118418077
 20
5.7472421185
 30
0.0
 10
5.3119689469
 20
5.7478315715
 30
0.0
 10
5.3120945861
 20
5.7485244149
 30
0.0
 10
5.3122183263
 20
5.7493190397
 30
0.0
 10
5.3123397846
 20
5.7502136427
 30
0.0
 10
5.3124585824
 20
5.7512060891
 30
0.0
 10
5.3125744242
 20
5.7522940249
 30
0.0
 10
5.312730041
 20
5.7539271064
 30
0.0
 10
5.3129121496
 20
5.7561861535
 30
0.0
 10
5.3131078292
 20
5.7591426762
 30
0.0
 10
5.3132854601
 20
5.7624045577
 30
0.0
 10
5.3134432283
 20
5.7659404125
 30
0.0
 10
5.3135795134
 20
5.769716215
 30
0.0
 10
5.313733545
 20
5.7751230966
 30
0.0
 10
5.3138607788
 20
5.7821941854
 30
0.0
 10
5.3138944335
 20
5.7879350177
 30
0.0
 10
5.3138944335
 20
5.7908614438
 30
0.0
  0
SPLINE
  5
3A6
100
AcDbEntity
  8
0
100
AcDbSpline
 62
7
  6
CONTINUOUS
 70
0
 71
3
 72
23
 73
19
 74
0
 42
0.0000001
 43
0.0000001
 44
0.0000000001
 40
0.0
 40
0.0
 40
0.0
 40
0.0
 40
0.0578949336
 40
0.1152016079
 40
0.1722517086
 40
0.2293959003
 40
0.2869776778
 40
0.3453088412
 40
0.4046508503
 40
0.465204258
 40
0.5271068579
 40
0.5904389909
 40
0.6552317491
 40
0.7214768999
 40
0.7891381965
 40
0.8581594791
 40
0.9284728232
 40
1.0
 40
1.0
 40
1.0
 40
1.0
 10
4.2038353208
 20
2.2854006024
 30
0.0
 10
4.2050703412
 20
2.2850963978
 30
0.0
 10
4.2075543725
 20
2.2845926609
 30
0.0
 10
4.2113197816
 20
2.2841689145
 30
0.0
 10
4.2150920455
 20
2.2840884702
 30
0.0
 10
4.2188618291
 20
2.2843527432
 30
0.0
 10
4.2226203866
 20
2.2849575942
 30
0.0
 10
4.2263597229
 20
2.2858937583
 30
0.0
 10
4.2300731287
 20
2.2871479375
 30
0.0
 10
4.2337552893
 20
2.2887037806
 30
0.0
 10
4.2374023474
 20
2.2905427728
 30
0.0
 10
4.2410117171
 20
2.2926453225
 30
0.0
 10
4.2445818292
 20
2.2949916007
 30
0.0
 10
4.2481120584
 20
2.2975619607
 30
0.0
 10
4.251602446
 20
2.3003375359
 30
0.0
 10
4.2550535929
 20
2.3033005178
 30
0.0
 10
4.2584665058
 20
2.306434127
 30
0.0
 10
4.260698859
 20
2.3086090262
 30
0.0
 10
4.2618100279
 20
2.3097201951
 30
0.0
  0
SPLINE
  5
3A7
100
AcDbEntity
  8
0
100
AcDbSpline
 62
7
  6
CONTINUOUS
 70
0
 71
3
 72
20
 73
16
 74
0
 42
0.0000001
 43
0.0000001
 44
0.0000000001
 40
0.0
 40
0.0
 40
0.0
 40
0.0
 40
0.1352874003
 40
0.2014584637
 40
0.2666578611
 40
0.3942430858
 40
0.5184950826
 40
0.5796030394
 40
0.6401664406
 40
0.700314723
 40
0.7601901402
 40
0.8199429382
 40
0.8797276671
 40
0.9396974528
 40
1.0
 40
1.0
 40
1.0
 40
1.0
 10
4.8205039089
 20
2.2950196113
 30
0.0
 10
4.8220129096
 20
2.2939751117
 30
0.0
 10
4.824308601
 20
2.292487424
 30
0.0
 10
4.8274474971
 20
2.2906881045
 30
0.0
 10
4.8305612912
 20
2.2890603239
 30
0.0
 10
4.8344940307
 20
2.2873054198
 30
0.0
 10
4.8385244939
 20
2.2859476362
 30
0.0
 10
4.8417618303
 20
2.2851362595
 30
0.0
 10
4.844184835
 20
2.2846683411
 30
0.0
 10
4.8466138866
 20
2.2843405203
 30
0.0
 10
4.849046955
 20
2.284154973
 30
0.0
 10
4.8514818015
 20
2.2841126224
 30
0.0
 10
4.8539161999
 20
2.2842140383
 30
0.0
 10
4.8563478293
 20
2.2844582206
 30
0.0
 10
4.8579601533
 20
2.284714569
 30
0.0
 10
4.8587641504
 20
2.2848654299
 30
0.0
  0
SPLINE
  5
3A8
100
AcDbEntity
  8
0
100
AcDbSpline
 62
7
  6
CONTINUOUS
 70
0
 71
3
 72
11
 73
7
 74
0
 42
0.0000001
 43
0.0000001
 44
0.0000000001
 40
0.0
 40
0.0
 40
0.0
 40
0.0
 40
0.249990631
 40
0.4999888075
 40
0.7499920975
 40
1.0
 40
1.0
 40
1.0
 40
1.0
 10
4.687430286
 20
2.2892268842
 30
0.0
 10
4.6920009811
 20
2.2903629809
 30
0.0
 10
4.7010635869
 20
2.292963245
 30
0.0
 10
4.714379544
 20
2.2977117294
 30
0.0
 10
4.7274152324
 20
2.30317957
 30
0.0
 10
4.7359251273
 20
2.3072272034
 30
0.0
 10
4.7401373962
 20
2.3093347675
 30
0.0
  0
SPLINE
  5
3A9
100
AcDbEntity
  8
0
100
AcDbSpline
 62
7
  6
CONTINUOUS
 70
0
 71
3
 72
29
 73
25
 74
0
 42
0.0000001
 43
0.0000001
 44
0.0000000001
 40
0.0
 40
0.0
 40
0.0
 40
0.0
 40
0.0699526899
 40
0.137849266
 40
0.2035117249
 40
0.2668299213
 40
0.3278207633
 40
0.3575139708
 40
0.38672677
 40
0.4155263525
 40
0.443996626
 40
0.4722360187
 40
0.5003541997
 40
0.5284667307
 40
0.5566895297
 40
0.5851330529
 40
0.6138969576
 40
0.643066741
 40
0.672711147
 40
0.7335933324
 40
0.7967976337
 40
0.8623489039
 40
0.9301413529
 40
1.0
 40
1.0
 40
1.0
 40
1.0
 10
4.7401373962
 20
2.3093347675
 30
0.0
 10
4.7419507448
 20
2.3075324494
 30
0.0
 10
4.7456011996
 20
2.3040568049
 30
0.0
 10
4.7512546064
 20
2.2992169871
 30
0.0
 10
4.757015692
 20
2.294895483
 30
0.0
 10
4.7628867221
 20
2.2911735923
 30
0.0
 10
4.7679161771
 20
2.2886210647
 30
0.0
 10
4.7719818042
 20
2.2869798973
 30
0.0
 10
4.7750244042
 20
2.2859639929
 30
0.0
 10
4.7780839855
 20
2.2851609508
 30
0.0
 10
4.7811571339
 20
2.2845784352
 30
0.0
 10
4.7842397152
 20
2.2842220375
 30
0.0
 10
4.7873272501
 20
2.2840953019
 30
0.0
 10
4.7904150127
 20
2.2841997987
 30
0.0
 10
4.7934982793
 20
2.2845341116
 30
0.0
 10
4.7965725122
 20
2.2850951056
 30
0.0
 10
4.7996335721
 20
2.2858771491
 30
0.0
 10
4.8026779528
 20
2.286872901
 30
0.0
 10
4.8067461232
 20
2.2884880782
 30
0.0
 10
4.8117797044
 20
2.2910107844
 30
0.0
 10
4.817656077
 20
2.2947016182
 30
0.0
 10
4.8234224449
 20
2.2989961388
 30
0.0
 10
4.8290809206
 20
2.3038127136
 30
0.0
 10
4.832734209
 20
2.3072749154
 30
0.0
 10
4.8345489225
 20
2.3090709765
 30
0.0
  0
SPLINE
  5
3AA
100
AcDbEntity
  8
0
100
AcDbSpline
 62
7
  6
CONTINUOUS
 70
0
 71
3
 72
35
 73
31
 74
0
 42
0.0000001
 43
0.0000001
 44
0.0000000001
 40
0.0
 40
0.0
 40
0.0
 40
0.0
 40
0.0078161534
 40
0.0156360522
 40
0.0234540517
 40
0.0312713896
 40
0.0468925458
 40
0.0625174618
 40
0.0781439812
 40
0.0937711208
 40
0.1093982542
 40
0.1250247756
 40
0.1406512391
 40
0.156277705
 40
0.1875258521
 40
0.2187749247
 40
0.2500243687
 40
0.2812739358
 40
0.3125235981
 40
0.3437733342
 40
0.3750229492
 40
0.4375197847
 40
0.5000172634
 40
0.5625150626
 40
0.6250129875
 40
0.6875109365
 40
0.750008915
 40
0.8125068904
 40
0.8750048092
 40
1.0
 40
1.0
 40
1.0
 40
1.0
 10
5.3851300716
 20
6.1443367416
 30
0.0
 10
5.3851300716
 20
6.1440517238
 30
0.0
 10
5.3850930512
 20
6.143480896
 30
0.0
 10
5.3849304136
 20
6.1426391626
 30
0.0
 10
5.3846689977
 20
6.1418227772
 30
0.0
 10
5.3842051927
 20
6.1407796281
 30
0.0
 10
5.3834407086
 20
6.1395684322
 30
0.0
 10
5.3823212583
 20
6.1382709936
 30
0.0
 10
5.3810624476
 20
6.1371101442
 30
0.0
 10
5.3797059293
 20
6.1360669039
 30
0.0
 10
5.3782788167
 20
6.1351235946
 30
0.0
 10
5.3767993687
 20
6.1342654955
 30
0.0
 10
5.3752799561
 20
6.1334808494
 30
0.0
 10
5.3732126509
 20
6.1325201344
 30
0.0
 10
5.3705667463
 20
6.1314585716
 30
0.0
 10
5.3673277962
 20
6.1303613872
 30
0.0
 10
5.3640439395
 20
6.1294079522
 30
0.0
 10
5.3607279812
 20
6.1285741603
 30
0.0
 10
5.3573883398
 20
6.1278416868
 30
0.0
 10
5.3540309173
 20
6.1271961807
 30
0.0
 10
5.3495364259
 20
6.1264360435
 30
0.0
 10
5.3438921407
 20
6.1256501138
 30
0.0
 10
5.3370944925
 20
6.1249112624
 30
0.0
 10
5.3302813479
 20
6.1243345632
 30
0.0
 10
5.3234586385
 20
6.1238877546
 30
0.0
 10
5.3166299695
 20
6.1235458357
 30
0.0
 10
5.3097976342
 20
6.1232892661
 30
0.0
 10
5.3029630631
 20
6.123102924
 30
0.0
 10
5.2938485928
 20
6.1229328941
 30
0.0
 10
5.2870115353
 20
6.1228806289
 30
0.0
 10
5.2824535614
 20
6.1228741804
 30
0.0
  0
SPLINE
  5
3AB
100
AcDbEntity
  8
0
100
AcDbSpline
 62
7
  6
CONTINUOUS
 70
0
 71
3
 72
35
 73
31
 74
0
 42
0.0000001
 43
0.0000001
 44
0.0000000001
 40
0.0
 40
0.0
 40
0.0
 40
0.0
 40
0.124995322
 40
0.1874932973
 40
0.2499913201
 40
0.3124893461
 40
0.3749873475
 40
0.4374853359
 40
0.4999832063
 40
0.5624807665
 40
0.624977696
 40
0.6562273508
 40
0.6874770922
 40
0.7187267497
 40
0.7499763377
 40
0.7812258273
 40
0.8124749397
 40
0.8437231165
 40
0.8593495783
 40
0.8749759242
 40
0.8906024955
 40
0.9062295826
 40
0.9218565794
 40
0.9374829558
 40
0.9531077378
 40
0.968728625
 40
0.9765460553
 40
0.9843640216
 40
0.9921838327
 40
1.0
 40
1.0
 40
1.0
 40
1.0
 10
5.2824535614
 20
6.1228741804
 30
0.0
 10
5.2777694236
 20
6.1228675533
 30
0.0
 10
5.2707429999
 20
6.1229025447
 30
0.0
 10
5.2613757838
 20
6.1230502009
 30
0.0
 10
5.2543514729
 20
6.1232195903
 30
0.0
 10
5.2473291523
 20
6.1234587056
 30
0.0
 10
5.2403101601
 20
6.1237826041
 30
0.0
 10
5.2332966719
 20
6.1242110172
 30
0.0
 10
5.226292148
 20
6.1247693834
 30
0.0
 10
5.2193023418
 20
6.125490634
 30
0.0
 10
5.2134971029
 20
6.1262633211
 30
0.0
 10
5.2088732152
 20
6.1270143431
 30
0.0
 10
5.2054183986
 20
6.1276540092
 30
0.0
 10
5.2019809694
 20
6.1283818736
 30
0.0
 10
5.1985667756
 20
6.1292125938
 30
0.0
 10
5.1951841797
 20
6.1301649047
 30
0.0
 10
5.1918459276
 20
6.1312634673
 30
0.0
 10
5.1891167508
 20
6.1323289205
 30
0.0
 10
5.1869824937
 20
6.1332949751
 30
0.0
 10
5.1854127357
 20
6.1340850445
 30
0.0
 10
5.1838827919
 20
6.134950184
 30
0.0
 10
5.1824051853
 20
6.1359027172
 30
0.0
 10
5.1809983768
 20
6.1369579914
 30
0.0
 10
5.1796899594
 20
6.138134708
 30
0.0
 10
5.1785227757
 20
6.1394533853
 30
0.0
 10
5.1777222394
 20
6.1406887552
 30
0.0
 10
5.1772348882
 20
6.1417560171
 30
0.0
 10
5.176959561
 20
6.1425929178
 30
0.0
 10
5.1767879151
 20
6.143457172
 30
0.0
 10
5.1767488104
 20
6.1440438343
 30
0.0
 10
5.1767488104
 20
6.1443367416
 30
0.0
  0
SPLINE
  5
3AC
100
AcDbEntity
  8
0
100
AcDbSpline
 62
7
  6
CONTINUOUS
 70
0
 71
3
 72
26
 73
22
 74
0
 42
0.0000001
 43
0.0000001
 44
0.0000000001
 40
0.0
 40
0.0
 40
0.0
 40
0.0
 40
0.0610958631
 40
0.1207584694
 40
0.1501448986
 40
0.1792869538
 40
0.2082346682
 40
0.2370427488
 40
0.2657695282
 40
0.2944752427
 40
0.352046322
 40
0.4102432298
 40
0.4694720793
 40
0.5300486348
 40
0.5921877951
 40
0.6560091693
 40
0.7215527395
 40
0.7887977196
 40
0.8576812768
 40
0.9281171108
 40
1.0
 40
1.0
 40
1.0
 40
1.0
 10
8.1908351259
 20
2.2890856971
 30
0.0
 10
8.1922438815
 20
2.2884109234
 30
0.0
 10
8.1950805882
 20
2.2871825259
 30
0.0
 10
8.1987272648
 20
2.2859655246
 30
0.0
 10
8.2016557458
 20
2.2852162556
 30
0.0
 10
8.2038481108
 20
2.2847693908
 30
0.0
 10
8.2060457545
 20
2.2844367447
 30
0.0
 10
8.20824723
 20
2.2842203239
 30
0.0
 10
8.210450965
 20
2.2841209195
 30
0.0
 10
8.2133922929
 20
2.2841452802
 30
0.0
 10
8.2170790832
 20
2.2844721635
 30
0.0
 10
8.2214778927
 20
2.2853293476
 30
0.0
 10
8.2258449031
 20
2.2866338163
 30
0.0
 10
8.230170177
 20
2.2883608308
 30
0.0
 10
8.2344471333
 20
2.2904811368
 30
0.0
 10
8.238671617
 20
2.2929632796
 30
0.0
 10
8.2428415275
 20
2.2957753014
 30
0.0
 10
8.2469563081
 20
2.2988859641
 30
0.0
 10
8.2510166542
 20
2.3022656319
 30
0.0
 10
8.2550239344
 20
2.3058867464
 30
0.0
 10
8.2576362903
 20
2.3084206667
 30
0.0
 10
8.2589358187
 20
2.3097201951
 30
0.0
  0
SPLINE
  5
3AD
100
AcDbEntity
  8
0
100
AcDbSpline
 62
7
  6
CONTINUOUS
 70
0
 71
3
 72
23
 73
19
 74
0
 42
0.0000001
 43
0.0000001
 44
0.0000000001
 40
0.0
 40
0.0
 40
0.0
 40
0.0
 40
0.0625005375
 40
0.1250011404
 40
0.1875014608
 40
0.2500015879
 40
0.3125014757
 40
0.3750011395
 40
0.4375006162
 40
0.4999999915
 40
0.5624993679
 40
0.6249988483
 40
0.6874985177
 40
0.7499984119
 40
0.8124985444
 40
0.8749988679
 40
0.9374994703
 40
1.0
 40
1.0
 40
1.0
 40
1.0
 10
5.2047001235
 20
2.3007602073
 30
0.0
 10
5.2077210744
 20
2.2994871302
 30
0.0
 10
5.2138081684
 20
2.2970463321
 30
0.0
 10
5.2230741995
 20
2.293742664
 30
0.0
 10
5.2324742278
 20
2.2908398057
 30
0.0
 10
5.2420010986
 20
2.2883827781
 30
0.0
 10
5.2516416842
 20
2.2864156622
 30
0.0
 10
5.2613759546
 20
2.284978556
 30
0.0
 10
5.2711772129
 20
2.2841038863
 30
0.0
 10
5.2810133498
 20
2.283812844
 30
0.0
 10
5.2908492188
 20
2.2841127424
 30
0.0
 10
5.3006496978
 20
2.284996048
 30
0.0
 10
5.3103827431
 20
2.2864413779
 30
0.0
 10
5.3200217521
 20
2.2884161631
 30
0.0
 10
5.3295467982
 20
2.2908802189
 30
0.0
 10
5.3389448531
 20
2.2937894297
 30
0.0
 10
5.3482088469
 20
2.2970987816
 30
0.0
 10
5.3542945847
 20
2.2995429436
 30
0.0
 10
5.357314866
 20
2.3008176073
 30
0.0
  0
SPLINE
  5
3AE
100
AcDbEntity
  8
0
100
AcDbSpline
 62
7
  6
CONTINUOUS
 70
0
 71
3
 72
14
 73
10
 74
0
 42
0.0000001
 43
0.0000001
 44
0.0000000001
 40
0.0
 40
0.0
 40
0.0
 40
0.0
 40
0.1250025253
 40
0.2500054556
 40
0.3750087414
 40
0.5000121958
 40
0.6250158986
 40
0.7500192106
 40
1.0
 40
1.0
 40
1.0
 40
1.0
 10
4.2376165181
 20
2.2855243877
 30
0.0
 10
4.2407497998
 20
2.285960578
 30
0.0
 10
4.2469937356
 20
2.2870043162
 30
0.0
 10
4.2562645674
 20
2.2890518831
 30
0.0
 10
4.265425654
 20
2.2915440222
 30
0.0
 10
4.2744663342
 20
2.2944406254
 30
0.0
 10
4.2833817439
 20
2.2977014733
 30
0.0
 10
4.2950992154
 20
2.302482934
 30
0.0
 10
4.303703482
 20
2.3065039879
 30
0.0
 10
4.3093612008
 20
2.3093347675
 30
0.0
  0
SPLINE
  5
3AF
100
AcDbEntity
  8
0
100
AcDbSpline
 62
7
  6
CONTINUOUS
 70
0
 71
3
 72
17
 73
13
 74
0
 42
0.0000001
 43
0.0000001
 44
0.0000000001
 40
0.0
 40
0.0
 40
0.0
 40
0.0
 40
0.1390457577
 40
0.2742713861
 40
0.4053556146
 40
0.5320808519
 40
0.6544191003
 40
0.7726425058
 40
0.8304308175
 40
0.887480427
 40
0.9439447055
 40
1.0
 40
1.0
 40
1.0
 40
1.0
 10
4.3093612008
 20
2.3093347675
 30
0.0
 10
4.3110689944
 20
2.3076373623
 30
0.0
 10
4.3145060529
 20
2.3043567717
 30
0.0
 10
4.3198185408
 20
2.2997635744
 30
0.0
 10
4.3252255319
 20
2.2956219188
 30
0.0
 10
4.330729775
 20
2.2919985396
 30
0.0
 10
4.3363301895
 20
2.2889651995
 30
0.0
 10
4.3411106658
 20
2.2869750143
 30
0.0
 10
4.3449620142
 20
2.2857611023
 30
0.0
 10
4.3478435177
 20
2.2850474739
 30
0.0
 10
4.3507361005
 20
2.2845300408
 30
0.0
 10
4.3526749068
 20
2.2843182665
 30
0.0
 10
4.3536429701
 20
2.2842466669
 30
0.0
  0
SPLINE
  5
3B0
100
AcDbEntity
  8
0
100
AcDbSpline
 62
7
  6
CONTINUOUS
 70
0
 71
3
 72
29
 73
25
 74
0
 42
0.0000001
 43
0.0000001
 44
0.0000000001
 40
0.0
 40
0.0
 40
0.0
 40
0.0
 40
0.0698350794
 40
0.1376026313
 40
0.2031288732
 40
0.2663096608
 40
0.3271720941
 40
0.3568088409
 40
0.3859728403
 40
0.4147330748
 40
0.4431752083
 40
0.4713989543
 40
0.4995146949
 40
0.5276381631
 40
0.5558846201
 40
0.5843633667
 40
0.6131724331
 40
0.6423953256
 40
0.6720988838
 40
0.7331101219
 40
0.7964469451
 40
0.8621255794
 40
0.9300358387
 40
1.0
 40
1.0
 40
1.0
 40
1.0
 10
5.7274283875
 20
2.3089736371
 30
0.0
 10
5.729241613
 20
2.3071818776
 30
0.0
 10
5.7328919139
 20
2.3037283188
 30
0.0
 10
5.7385458109
 20
2.2989249531
 30
0.0
 10
5.7443074235
 20
2.2946436989
 30
0.0
 10
5.7501787998
 20
2.290966027
 30
0.0
 10
5.7552078007
 20
2.2884541544
 30
0.0
 10
5.7592720165
 20
2.2868472775
 30
0.0
 10
5.7623134141
 20
2.2858574247
 30
0.0
 10
5.7653713798
 20
2.2850809924
 30
0.0
 10
5.7684424022
 20
2.2845252401
 30
0.0
 10
5.771522351
 20
2.2841957622
 30
0.0
 10
5.7746066961
 20
2.2840956251
 30
0.0
 10
5.7776907295
 20
2.2842261956
 30
0.0
 10
5.7807697432
 20
2.2845858817
 30
0.0
 10
5.7838392812
 20
2.285171097
 30
0.0
 10
5.7868952279
 20
2.2859762568
 30
0.0
 10
5.7899341909
 20
2.286993692
 30
0.0
 10
5.7939949293
 20
2.2886361441
 30
0.0
 10
5.7990182893
 20
2.2911888401
 30
0.0
 10
5.8048823574
 20
2.2949090376
 30
0.0
 10
5.810636741
 20
2.2992272469
 30
0.0
 10
5.8162837008
 20
2.3040624561
 30
0.0
 10
5.8199301288
 20
2.3075344289
 30
0.0
 10
5.8217414858
 20
2.3093347675
 30
0.0
  0
SPLINE
  5
3B1
100
AcDbEntity
  8
0
100
AcDbSpline
 62
7
  6
CONTINUOUS
 70
0
 71
3
 72
11
 73
7
 74
0
 42
0.0000001
 43
0.0000001
 44
0.0000000001
 40
0.0
 40
0.0
 40
0.0
 40
0.0
 40
0.2500080928
 40
0.5000114604
 40
0.7500095811
 40
1.0
 40
1.0
 40
1.0
 40
1.0
 10
5.8217414858
 20
2.3093347675
 30
0.0
 10
5.8259728427
 20
2.3072176529
 30
0.0
 10
5.8345216938
 20
2.3031524338
 30
0.0
 10
5.8476183497
 20
2.2976641802
 30
0.0
 10
5.8609978541
 20
2.2929029404
 30
0.0
 10
5.8701043905
 20
2.2903005243
 30
0.0
 10
5.8746972689
 20
2.2891652452
 30
0.0
  0
SPLINE
  5
3B2
100
AcDbEntity
  8
0
100
AcDbSpline
 62
7
  6
CONTINUOUS
 70
0
 71
3
 72
29
 73
25
 74
0
 42
0.0000001
 43
0.0000001
 44
0.0000000001
 40
0.0
 40
0.0
 40
0.0
 40
0.0
 40
0.069876182
 40
0.1376815877
 40
0.2032363563
 40
0.2664306502
 40
0.3272860042
 40
0.3569105691
 40
0.3860565411
 40
0.4147934752
 40
0.4432079544
 40
0.4714010604
 40
0.4994848812
 40
0.5275769486
 40
0.5557943554
 40
0.5842479789
 40
0.6130370542
 40
0.6422458967
 40
0.6719416394
 40
0.7329552895
 40
0.7963151517
 40
0.8620312779
 40
0.9299872032
 40
1.0
 40
1.0
 40
1.0
 40
1.0
 10
8.1164007039
 20
2.3093347675
 30
0.0
 10
8.1182272709
 20
2.3075193115
 30
0.0
 10
8.1219044514
 20
2.3040193058
 30
0.0
 10
8.1276006614
 20
2.2991489455
 30
0.0
 10
8.1334062508
 20
2.2948056701
 30
0.0
 10
8.1393235201
 20
2.2910727085
 30
0.0
 10
8.1443934579
 20
2.2885215149
 30
0.0
 10
8.148491542
 20
2.2868891026
 30
0.0
 10
8.1515582869
 20
2.2858835439
 30
0.0
 10
8.1546419918
 20
2.2850947708
 30
0.0
 10
8.1577390943
 20
2.2845303966
 30
0.0
 10
8.1608453353
 20
2.2841960574
 30
0.0
 10
8.1639560809
 20
2.284095025
 30
0.0
 10
8.1670664864
 20
2.2842286808
 30
0.0
 10
8.1701717237
 20
2.2845953156
 30
0.0
 10
8.1732672087
 20
2.2851913042
 30
0.0
 10
8.1763487452
 20
2.2860107687
 30
0.0
 10
8.1794128579
 20
2.2870458433
 30
0.0
 10
8.183507183
 20
2.2887162783
 30
0.0
 10
8.1885710403
 20
2.2913110382
 30
0.0
 10
8.1944804728
 20
2.2950893038
 30
0.0
 10
8.2002783226
 20
2.2994718846
 30
0.0
 10
8.2059671293
 20
2.3043760815
 30
0.0
 10
8.2096402159
 20
2.3078956149
 30
0.0
 10
8.2114647961
 20
2.3097201951
 30
0.0
  0
SPLINE
  5
3B3
100
AcDbEntity
  8
0
100
AcDbSpline
 62
7
  6
CONTINUOUS
 70
0
 71
3
 72
14
 73
10
 74
0
 42
0.0000001
 43
0.0000001
 44
0.0000000001
 40
0.0
 40
0.0
 40
0.0
 40
0.0
 40
0.125002587
 40
0.2500055202
 40
0.3750087609
 40
0.5000121663
 40
0.6250155694
 40
0.7500184162
 40
1.0
 40
1.0
 40
1.0
 40
1.0
 10
8.0467923317
 20
2.2858352611
 30
0.0
 10
8.0498310909
 20
2.2862965842
 30
0.0
 10
8.0558854506
 20
2.2873789921
 30
0.0
 10
8.0648738689
 20
2.2894507321
 30
0.0
 10
8.0737566825
 20
2.2919357853
 30
0.0
 10
8.0825249031
 20
2.2947971983
 30
0.0
 10
8.0911746002
 20
2.2979982032
 30
0.0
 10
8.1025474556
 20
2.3026715691
 30
0.0
 10
8.1109037874
 20
2.3065844436
 30
0.0
 10
8.1164007039
 20
2.3093347675
 30
0.0
  0
SPLINE
  5
3B4
100
AcDbEntity
  8
0
100
AcDbSpline
 62
7
  6
CONTINUOUS
 70
0
 71
3
 72
23
 73
19
 74
0
 42
0.0000001
 43
0.0000001
 44
0.0000000001
 40
0.0
 40
0.0
 40
0.0
 40
0.0
 40
0.0715369788
 40
0.1418569245
 40
0.210881251
 40
0.2785417961
 40
0.34478223
 40
0.4095663888
 40
0.4728864634
 40
0.5347743459
 40
0.5953117175
 40
0.654638267
 40
0.7129568922
 40
0.7705317029
 40
0.8276771382
 40
0.884738907
 40
0.9420691274
 40
1.0
 40
1.0
 40
1.0
 40
1.0
 10
6.3000688541
 20
2.3097201951
 30
0.0
 10
6.3011825841
 20
2.3086064651
 30
0.0
 10
6.3034201016
 20
2.3064266654
 30
0.0
 10
6.3068410648
 20
2.3032863359
 30
0.0
 10
6.3103004464
 20
2.3003175012
 30
0.0
 10
6.313799257
 20
2.2975370619
 30
0.0
 10
6.3173381007
 20
2.2949629621
 30
0.0
 10
6.3209170125
 20
2.2926142072
 30
0.0
 10
6.3245353551
 20
2.2905105883
 30
0.0
 10
6.3281915367
 20
2.2886720756
 30
0.0
 10
6.3318829318
 20
2.2871183805
 30
0.0
 10
6.3356056337
 20
2.2858681244
 30
0.0
 10
6.3393542586
 20
2.2849377208
 30
0.0
 10
6.3431220129
 20
2.2843404698
 30
0.0
 10
6.3469008131
 20
2.2840855698
 30
0.0
 10
6.3506818332
 20
2.2841770551
 30
0.0
 10
6.3544556716
 20
2.2846133233
 30
0.0
 10
6.3569447992
 20
2.2851261223
 30
0.0
 10
6.3581823147
 20
2.2854350075
 30
0.0
  0
SPLINE
  5
3B5
100
AcDbEntity
  8
0
100
AcDbSpline
 62
7
  6
CONTINUOUS
 70
0
 71
3
 72
23
 73
19
 74
0
 42
0.0000001
 43
0.0000001
 44
0.0000000001
 40
0.0
 40
0.0
 40
0.0
 40
0.0
 40
0.0714624977
 40
0.141477281
 40
0.2099575385
 40
0.2768337165
 40
0.3420648751
 40
0.405653435
 40
0.4676607456
 40
0.5282230992
 40
0.5875624046
 40
0.6459874476
 40
0.7038815643
 40
0.7616754603
 40
0.8198091581
 40
0.8786916768
 40
0.9386680481
 40
1.0
 40
1.0
 40
1.0
 40
1.0
 10
3.8042836251
 20
2.3072349346
 30
0.0
 10
3.8055305058
 20
2.306038655
 30
0.0
 10
3.8080368364
 20
2.3037092636
 30
0.0
 10
3.8118801971
 20
2.3003904811
 30
0.0
 10
3.8157724136
 20
2.2973039634
 30
0.0
 10
3.8197143015
 20
2.2944744707
 30
0.0
 10
3.8237059184
 20
2.2919282686
 30
0.0
 10
3.8277462142
 20
2.2896927133
 30
0.0
 10
3.8318326818
 20
2.2877953431
 30
0.0
 10
3.8359609932
 20
2.2862627596
 30
0.0
 10
3.8401246694
 20
2.2851191773
 30
0.0
 10
3.844314871
 20
2.2843846483
 30
0.0
 10
3.8485205461
 20
2.2840731402
 30
0.0
 10
3.8527291471
 20
2.284190819
 30
0.0
 10
3.8569278128
 20
2.2847352886
 30
0.0
 10
3.8611047768
 20
2.2856959891
 30
0.0
 10
3.8652498596
 20
2.287055298
 30
0.0
 10
3.8679548733
 20
2.2881986923
 30
0.0
 10
3.869298677
 20
2.2888259527
 30
0.0
  0
SPLINE
  5
3B6
100
AcDbEntity
  8
0
100
AcDbSpline
 62
7
  6
CONTINUOUS
 70
0
 71
3
 72
17
 73
13
 74
0
 42
0.0000001
 43
0.0000001
 44
0.0000000001
 40
0.0
 40
0.0
 40
0.0
 40
0.0
 40
0.1381507675
 40
0.2728021752
 40
0.4036641114
 40
0.5305208765
 40
0.6532881966
 40
0.7720964175
 40
0.8301568484
 40
0.8874177039
 40
0.9439881338
 40
1.0
 40
1.0
 40
1.0
 40
1.0
 10
6.7551148936
 20
2.3097201951
 30
0.0
 10
6.7567140197
 20
2.308121069
 30
0.0
 10
6.7599314093
 20
2.3050220076
 30
0.0
 10
6.7648937157
 20
2.3006546464
 30
0.0
 10
6.7699381344
 20
2.2966727161
 30
0.0
 10
6.7750671114
 20
2.2931299848
 30
0.0
 10
6.7802804032
 20
2.2900845098
 30
0.0
 10
6.7847275034
 20
2.2879949487
 30
0.0
 10
6.7883148048
 20
2.2866410345
 30
0.0
 10
6.7909998073
 20
2.2857940612
 30
0.0
 10
6.7936971932
 20
2.2851136799
 30
0.0
 10
6.7955098492
 20
2.2847730684
 30
0.0
 10
6.7964159173
 20
2.2846325131
 30
0.0
  0
SPLINE
  5
3B7
100
AcDbEntity
  8
0
100
AcDbSpline
 62
7
  6
CONTINUOUS
 70
0
 71
3
 72
29
 73
25
 74
0
 42
0.0000001
 43
0.0000001
 44
0.0000000001
 40
0.0
 40
0.0
 40
0.0
 40
0.0
 40
0.069876182
 40
0.1376815877
 40
0.2032363563
 40
0.2664306502
 40
0.3272860042
 40
0.3569105691
 40
0.3860565411
 40
0.4147934752
 40
0.4432079544
 40
0.4714010604
 40
0.4994848812
 40
0.5275769486
 40
0.5557943554
 40
0.5842479789
 40
0.6130370542
 40
0.6422458967
 40
0.6719416394
 40
0.7329552895
 40
0.7963151517
 40
0.8620312779
 40
0.9299872032
 40
1.0
 40
1.0
 40
1.0
 40
1.0
 10
7.9756041334
 20
2.3093347675
 30
0.0
 10
7.9774307003
 20
2.3075193115
 30
0.0
 10
7.9811078808
 20
2.3040193058
 30
0.0
 10
7.9868040908
 20
2.2991489455
 30
0.0
 10
7.9926096802
 20
2.2948056701
 30
0.0
 10
7.9985269495
 20
2.2910727085
 30
0.0
 10
8.0035968873
 20
2.2885215149
 30
0.0
 10
8.0076949714
 20
2.2868891026
 30
0.0
 10
8.0107617163
 20
2.2858835439
 30
0.0
 10
8.0138454212
 20
2.2850947708
 30
0.0
 10
8.0169425237
 20
2.2845303966
 30
0.0
 10
8.0200487647
 20
2.2841960574
 30
0.0
 10
8.0231595104
 20
2.284095025
 30
0.0
 10
8.0262699158
 20
2.2842286808
 30
0.0
 10
8.0293751531
 20
2.2845953156
 30
0.0
 10
8.0324706381
 20
2.2851913042
 30
0.0
 10
8.0355521746
 20
2.2860107687
 30
0.0
 10
8.0386162873
 20
2.2870458433
 30
0.0
 10
8.0427106125
 20
2.2887162783
 30
0.0
 10
8.0477744698
 20
2.2913110382
 30
0.0
 10
8.0536839022
 20
2.2950893038
 30
0.0
 10
8.059481752
 20
2.2994718846
 30
0.0
 10
8.0651705587
 20
2.3043760815
 30
0.0
 10
8.0688436453
 20
2.3078956149
 30
0.0
 10
8.0706682256
 20
2.3097201951
 30
0.0
  0
SPLINE
  5
3B8
100
AcDbEntity
  8
0
100
AcDbSpline
 62
7
  6
CONTINUOUS
 70
0
 71
3
 72
23
 73
19
 74
0
 42
0.0000001
 43
0.0000001
 44
0.0000000001
 40
0.0
 40
0.0
 40
0.0
 40
0.0
 40
0.0625002344
 40
0.1250002579
 40
0.1875000435
 40
0.2499996236
 40
0.312499044
 40
0.3749983917
 40
0.4374977636
 40
0.4999972559
 40
0.5624969445
 40
0.6249968557
 40
0.6874969806
 40
0.7499972595
 40
0.8124977714
 40
0.8749981582
 40
0.9374995778
 40
1.0
 40
1.0
 40
1.0
 40
1.0
 10
7.8248221569
 20
2.2931972262
 30
0.0
 10
7.827915455
 20
2.2921983886
 30
0.0
 10
7.8341464647
 20
2.2903347783
 30
0.0
 10
7.8436150583
 20
2.2879863213
 30
0.0
 10
7.8531925277
 20
2.2861270939
 30
0.0
 10
7.8628579193
 20
2.2847951779
 30
0.0
 10
7.8725842519
 20
2.2840205337
 30
0.0
 10
7.8823395481
 20
2.2838217723
 30
0.0
 10
7.8920893523
 20
2.284203815
 30
0.0
 10
7.9017996857
 20
2.2851572564
 30
0.0
 10
7.9114399222
 20
2.2866595828
 30
0.0
 10
7.9209849154
 20
2.2886778916
 30
0.0
 10
7.9304160563
 20
2.2911723728
 30
0.0
 10
7.9397213169
 20
2.2940997763
 30
0.0
 10
7.9488944998
 20
2.2974163314
 30
0.0
 10
7.9579342557
 20
2.3010798961
 30
0.0
 10
7.9668425666
 20
2.3050512054
 30
0.0
 10
7.9726971261
 20
2.3078802772
 30
0.0
 10
7.9756041334
 20
2.3093347675
 30
0.0
  0
SPLINE
  5
3B9
100
AcDbEntity
  8
0
100
AcDbSpline
 62
7
  6
CONTINUOUS
 70
0
 71
3
 72
29
 73
25
 74
0
 42
0.0000001
 43
0.0000001
 44
0.0000000001
 40
0.0
 40
0.0
 40
0.0
 40
0.0
 40
0.069876182
 40
0.1376815877
 40
0.2032363563
 40
0.2664306502
 40
0.3272860042
 40
0.3569105691
 40
0.3860565411
 40
0.4147934752
 40
0.4432079544
 40
0.4714010604
 40
0.4994848812
 40
0.5275769486
 40
0.5557943554
 40
0.5842479789
 40
0.6130370542
 40
0.6422458967
 40
0.6719416394
 40
0.7329552895
 40
0.7963151517
 40
0.8620312779
 40
0.9299872032
 40
1.0
 40
1.0
 40
1.0
 40
1.0
 10
7.7462764606
 20
2.3093347675
 30
0.0
 10
7.7481030276
 20
2.3075193115
 30
0.0
 10
7.7517802081
 20
2.3040193058
 30
0.0
 10
7.7574764181
 20
2.2991489455
 30
0.0
 10
7.7632820075
 20
2.2948056701
 30
0.0
 10
7.7691992768
 20
2.2910727085
 30
0.0
 10
7.7742692146
 20
2.2885215149
 30
0.0
 10
7.7783672987
 20
2.2868891026
 30
0.0
 10
7.7814340436
 20
2.2858835439
 30
0.0
 10
7.7845177484
 20
2.2850947708
 30
0.0
 10
7.787614851
 20
2.2845303966
 30
0.0
 10
7.790721092
 20
2.2841960574
 30
0.0
 10
7.7938318376
 20
2.284095025
 30
0.0
 10
7.7969422431
 20
2.2842286808
 30
0.0
 10
7.8000474804
 20
2.2845953156
 30
0.0
 10
7.8031429654
 20
2.2851913042
 30
0.0
 10
7.8062245018
 20
2.2860107687
 30
0.0
 10
7.8092886145
 20
2.2870458433
 30
0.0
 10
7.8133829397
 20
2.2887162783
 30
0.0
 10
7.818446797
 20
2.2913110382
 30
0.0
 10
7.8243562295
 20
2.2950893038
 30
0.0
 10
7.8301540792
 20
2.2994718846
 30
0.0
 10
7.835842886
 20
2.3043760815
 30
0.0
 10
7.8395159726
 20
2.3078956149
 30
0.0
 10
7.8413405528
 20
2.3097201951
 30
0.0
  0
SPLINE
  5
3BA
100
AcDbEntity
  8
0
100
AcDbSpline
 62
7
  6
CONTINUOUS
 70
0
 71
3
 72
23
 73
19
 74
0
 42
0.0000001
 43
0.0000001
 44
0.0000000001
 40
0.0
 40
0.0
 40
0.0
 40
0.0
 40
0.0625026639
 40
0.1250049412
 40
0.1875064433
 40
0.2500070864
 40
0.3125067278
 40
0.3750052744
 40
0.4375028883
 40
0.5000000001
 40
0.5624971118
 40
0.6249947258
 40
0.6874932723
 40
0.7499929137
 40
0.8124935568
 40
0.8749950588
 40
0.9374973361
 40
1.0
 40
1.0
 40
1.0
 40
1.0
 10
7.5566618896
 20
2.3093347675
 30
0.0
 10
7.5603530278
 20
2.3074879457
 30
0.0
 10
7.567800777
 20
2.3039230269
 30
0.0
 10
7.5791786959
 20
2.2990292407
 30
0.0
 10
7.5907712488
 20
2.2946647677
 30
0.0
 10
7.6025780321
 20
2.2909143502
 30
0.0
 10
7.6145871172
 20
2.2878675869
 30
0.0
 10
7.6267710868
 20
2.2856122172
 30
0.0
 10
7.6390852231
 20
2.2842239802
 30
0.0
 10
7.6514691751
 20
2.2837549866
 30
0.0
 10
7.6638531272
 20
2.2842239802
 30
0.0
 10
7.6761672635
 20
2.2856122172
 30
0.0
 10
7.6883512331
 20
2.2878675869
 30
0.0
 10
7.7003603182
 20
2.2909143502
 30
0.0
 10
7.7121671014
 20
2.2946647677
 30
0.0
 10
7.7237596543
 20
2.2990292407
 30
0.0
 10
7.7351375732
 20
2.3039230269
 30
0.0
 10
7.7425853224
 20
2.3074879457
 30
0.0
 10
7.7462764606
 20
2.3093347675
 30
0.0
  0
SPLINE
  5
3BB
100
AcDbEntity
  8
0
100
AcDbSpline
 62
7
  6
CONTINUOUS
 70
0
 71
3
 72
21
 73
17
 74
0
 42
0.0000001
 43
0.0000001
 44
0.0000000001
 40
0.0
 40
0.0
 40
0.0
 40
0.0
 40
0.0565905998
 40
0.1131676155
 40
0.1699993841
 40
0.2273398303
 40
0.2854146801
 40
0.3444125255
 40
0.4656687194
 40
0.5281502318
 40
0.5919020996
 40
0.6569273204
 40
0.7232069882
 40
0.7907046407
 40
0.8593756311
 40
1.0
 40
1.0
 40
1.0
 40
1.0
 10
7.5058505128
 20
2.284279502
 30
0.0
 10
7.5069499274
 20
2.284187149
 30
0.0
 10
7.5091568531
 20
2.2840894636
 30
0.0
 10
7.5124723683
 20
2.284209441
 30
0.0
 10
7.5157824689
 20
2.2845943215
 30
0.0
 10
7.5190812467
 20
2.2852396515
 30
0.0
 10
7.5223638222
 20
2.2861383264
 30
0.0
 10
7.526752091
 20
2.2876747786
 30
0.0
 10
7.5310566696
 20
2.2896729681
 30
0.0
 10
7.5352571073
 20
2.2920496478
 30
0.0
 10
7.5384099031
 20
2.294043409
 30
0.0
 10
7.5415318986
 20
2.2962165627
 30
0.0
 10
7.5446230965
 20
2.2985561783
 30
0.0
 10
7.5476837103
 20
2.3010495655
 30
0.0
 10
7.5517561452
 20
2.3045911816
 30
0.0
 10
7.554717378
 20
2.3074020843
 30
0.0
 10
7.5566618896
 20
2.3093347675
 30
0.0
  0
SPLINE
  5
3BC
100
AcDbEntity
  8
0
100
AcDbSpline
 62
7
  6
CONTINUOUS
 70
0
 71
3
 72
29
 73
25
 74
0
 42
0.0000001
 43
0.0000001
 44
0.0000000001
 40
0.0
 40
0.0
 40
0.0
 40
0.0
 40
0.069876182
 40
0.1376815877
 40
0.2032363563
 40
0.2664306502
 40
0.3272860042
 40
0.3569105691
 40
0.3860565411
 40
0.4147934752
 40
0.4432079544
 40
0.4714010604
 40
0.4994848812
 40
0.5275769486
 40
0.5557943554
 40
0.5842479789
 40
0.6130370542
 40
0.6422458967
 40
0.6719416394
 40
0.7329552895
 40
0.7963151517
 40
0.8620312779
 40
0.9299872032
 40
1.0
 40
1.0
 40
1.0
 40
1.0
 10
7.4362268185
 20
2.3093347675
 30
0.0
 10
7.4380533854
 20
2.3075193115
 30
0.0
 10
7.4417305659
 20
2.3040193058
 30
0.0
 10
7.4474267759
 20
2.2991489455
 30
0.0
 10
7.4532323653
 20
2.2948056701
 30
0.0
 10
7.4591496346
 20
2.2910727085
 30
0.0
 10
7.4642195725
 20
2.2885215149
 30
0.0
 10
7.4683176566
 20
2.2868891026
 30
0.0
 10
7.4713844014
 20
2.2858835439
 30
0.0
 10
7.4744681063
 20
2.2850947708
 30
0.0
 10
7.4775652088
 20
2.2845303966
 30
0.0
 10
7.4806714498
 20
2.2841960574
 30
0.0
 10
7.4837821955
 20
2.284095025
 30
0.0
 10
7.4868926009
 20
2.2842286808
 30
0.0
 10
7.4899978383
 20
2.2845953156
 30
0.0
 10
7.4930933232
 20
2.2851913042
 30
0.0
 10
7.4961748597
 20
2.2860107687
 30
0.0
 10
7.4992389724
 20
2.2870458433
 30
0.0
 10
7.5033332976
 20
2.2887162783
 30
0.0
 10
7.5083971549
 20
2.2913110382
 30
0.0
 10
7.5143065873
 20
2.2950893038
 30
0.0
 10
7.5201044371
 20
2.2994718846
 30
0.0
 10
7.5257932438
 20
2.3043760815
 30
0.0
 10
7.5294663304
 20
2.3078956149
 30
0.0
 10
7.5312909107
 20
2.3097201951
 30
0.0
  0
SPLINE
  5
3BD
100
AcDbEntity
  8
0
100
AcDbSpline
 62
7
  6
CONTINUOUS
 70
0
 71
3
 72
23
 73
19
 74
0
 42
0.0000001
 43
0.0000001
 44
0.0000000001
 40
0.0
 40
0.0
 40
0.0
 40
0.0
 40
0.0625026639
 40
0.1250049412
 40
0.1875064433
 40
0.2500070864
 40
0.3125067278
 40
0.3750052744
 40
0.4375028883
 40
0.5000000001
 40
0.5624971118
 40
0.6249947258
 40
0.6874932723
 40
0.7499929137
 40
0.8124935568
 40
0.8749950588
 40
0.9374973361
 40
1.0
 40
1.0
 40
1.0
 40
1.0
 10
7.2466122475
 20
2.3093347675
 30
0.0
 10
7.2503033856
 20
2.3074879457
 30
0.0
 10
7.2577511348
 20
2.3039230269
 30
0.0
 10
7.2691290537
 20
2.2990292407
 30
0.0
 10
7.2807216067
 20
2.2946647677
 30
0.0
 10
7.2925283899
 20
2.2909143502
 30
0.0
 10
7.304537475
 20
2.2878675869
 30
0.0
 10
7.3167214446
 20
2.2856122172
 30
0.0
 10
7.3290355809
 20
2.2842239802
 30
0.0
 10
7.341419533
 20
2.2837549866
 30
0.0
 10
7.353803485
 20
2.2842239802
 30
0.0
 10
7.3661176213
 20
2.2856122172
 30
0.0
 10
7.3783015909
 20
2.2878675869
 30
0.0
 10
7.390310676
 20
2.2909143502
 30
0.0
 10
7.4021174593
 20
2.2946647677
 30
0.0
 10
7.4137100122
 20
2.2990292407
 30
0.0
 10
7.4250879311
 20
2.3039230269
 30
0.0
 10
7.4325356803
 20
2.3074879457
 30
0.0
 10
7.4362268185
 20
2.3093347675
 30
0.0
  0
SPLINE
  5
3BE
100
AcDbEntity
  8
0
100
AcDbSpline
 62
7
  6
CONTINUOUS
 70
0
 71
3
 72
29
 73
25
 74
0
 42
0.0000001
 43
0.0000001
 44
0.0000000001
 40
0.0
 40
0.0
 40
0.0
 40
0.0
 40
0.0700127968
 40
0.1379687221
 40
0.2036848483
 40
0.2670447105
 40
0.3280583606
 40
0.3577541033
 40
0.3869629459
 40
0.4157520212
 40
0.4442056447
 40
0.4724230516
 40
0.5005151189
 40
0.5285989397
 40
0.5567920457
 40
0.5852065249
 40
0.613943459
 40
0.643089431
 40
0.672713996
 40
0.7335693498
 40
0.7967636438
 40
0.8623184124
 40
0.930123818
 40
1.0
 40
1.0
 40
1.0
 40
1.0
 10
7.1515481553
 20
2.3097201951
 30
0.0
 10
7.1533727355
 20
2.3078956149
 30
0.0
 10
7.1570458221
 20
2.3043760815
 30
0.0
 10
7.1627346288
 20
2.2994718846
 30
0.0
 10
7.1685324786
 20
2.2950893038
 30
0.0
 10
7.1744419111
 20
2.2913110382
 30
0.0
 10
7.1795057684
 20
2.2887162783
 30
0.0
 10
7.1836000935
 20
2.2870458433
 30
0.0
 10
7.1866642062
 20
2.2860107687
 30
0.0
 10
7.1897457427
 20
2.2851913042
 30
0.0
 10
7.1928412277
 20
2.2845953156
 30
0.0
 10
7.195946465
 20
2.2842286808
 30
0.0
 10
7.1990568705
 20
2.284095025
 30
0.0
 10
7.2021676161
 20
2.2841960574
 30
0.0
 10
7.2052738571
 20
2.2845303966
 30
0.0
 10
7.2083709596
 20
2.2850947708
 30
0.0
 10
7.2114546645
 20
2.2858835439
 30
0.0
 10
7.2145214094
 20
2.2868891026
 30
0.0
 10
7.2186194935
 20
2.2885215149
 30
0.0
 10
7.2236894313
 20
2.2910727085
 30
0.0
 10
7.2296067006
 20
2.2948056701
 30
0.0
 10
7.23541229
 20
2.2991489455
 30
0.0
 10
7.2411085
 20
2.3040193058
 30
0.0
 10
7.2447856805
 20
2.3075193115
 30
0.0
 10
7.2466122475
 20
2.3093347675
 30
0.0
  0
SPLINE
  5
3BF
100
AcDbEntity
  8
0
100
AcDbSpline
 62
7
  6
CONTINUOUS
 70
0
 71
3
 72
29
 73
25
 74
0
 42
0.0000001
 43
0.0000001
 44
0.0000000001
 40
0.0
 40
0.0
 40
0.0
 40
0.0
 40
0.069876182
 40
0.1376815877
 40
0.2032363563
 40
0.2664306502
 40
0.3272860042
 40
0.3569105691
 40
0.3860565411
 40
0.4147934752
 40
0.4432079544
 40
0.4714010604
 40
0.4994848812
 40
0.5275769486
 40
0.5557943554
 40
0.5842479789
 40
0.6130370542
 40
0.6422458967
 40
0.6719416394
 40
0.7329552895
 40
0.7963151517
 40
0.8620312779
 40
0.9299872032
 40
1.0
 40
1.0
 40
1.0
 40
1.0
 10
7.0560131077
 20
2.3093347675
 30
0.0
 10
7.0578396746
 20
2.3075193115
 30
0.0
 10
7.0615168552
 20
2.3040193058
 30
0.0
 10
7.0672130651
 20
2.2991489455
 30
0.0
 10
7.0730186546
 20
2.2948056701
 30
0.0
 10
7.0789359238
 20
2.2910727085
 30
0.0
 10
7.0840058617
 20
2.2885215149
 30
0.0
 10
7.0881039458
 20
2.2868891026
 30
0.0
 10
7.0911706906
 20
2.2858835439
 30
0.0
 10
7.0942543955
 20
2.2850947708
 30
0.0
 10
7.097351498
 20
2.2845303966
 30
0.0
 10
7.100457739
 20
2.2841960574
 30
0.0
 10
7.1035684847
 20
2.284095025
 30
0.0
 10
7.1066788901
 20
2.2842286808
 30
0.0
 10
7.1097841275
 20
2.2845953156
 30
0.0
 10
7.1128796124
 20
2.2851913042
 30
0.0
 10
7.1159611489
 20
2.2860107687
 30
0.0
 10
7.1190252616
 20
2.2870458433
 30
0.0
 10
7.1231195868
 20
2.2887162783
 30
0.0
 10
7.1281834441
 20
2.2913110382
 30
0.0
 10
7.1340928765
 20
2.2950893038
 30
0.0
 10
7.1398907263
 20
2.2994718846
 30
0.0
 10
7.145579533
 20
2.3043760815
 30
0.0
 10
7.1492526196
 20
2.3078956149
 30
0.0
 10
7.1510771999
 20
2.3097201951
 30
0.0
  0
SPLINE
  5
3C0
100
AcDbEntity
  8
0
100
AcDbSpline
 62
7
  6
CONTINUOUS
 70
0
 71
3
 72
23
 73
19
 74
0
 42
0.0000001
 43
0.0000001
 44
0.0000000001
 40
0.0
 40
0.0
 40
0.0
 40
0.0
 40
0.0625026639
 40
0.1250049412
 40
0.1875064433
 40
0.2500070864
 40
0.3125067278
 40
0.3750052744
 40
0.4375028883
 40
0.5000000001
 40
0.5624971118
 40
0.6249947258
 40
0.6874932723
 40
0.7499929137
 40
0.8124935568
 40
0.8749950588
 40
0.9374973361
 40
1.0
 40
1.0
 40
1.0
 40
1.0
 10
6.8663985367
 20
2.3093347675
 30
0.0
 10
6.8700896748
 20
2.3074879457
 30
0.0
 10
6.8775374241
 20
2.3039230269
 30
0.0
 10
6.8889153429
 20
2.2990292407
 30
0.0
 10
6.9005078959
 20
2.2946647677
 30
0.0
 10
6.9123146791
 20
2.2909143502
 30
0.0
 10
6.9243237642
 20
2.2878675869
 30
0.0
 10
6.9365077338
 20
2.2856122172
 30
0.0
 10
6.9488218701
 20
2.2842239802
 30
0.0
 10
6.9612058222
 20
2.2837549866
 30
0.0
 10
6.9735897743
 20
2.2842239802
 30
0.0
 10
6.9859039106
 20
2.2856122172
 30
0.0
 10
6.9980878801
 20
2.2878675869
 30
0.0
 10
7.0100969652
 20
2.2909143502
 30
0.0
 10
7.0219037485
 20
2.2946647677
 30
0.0
 10
7.0334963014
 20
2.2990292407
 30
0.0
 10
7.0448742203
 20
2.3039230269
 30
0.0
 10
7.0523219695
 20
2.3074879457
 30
0.0
 10
7.0560131077
 20
2.3093347675
 30
0.0
  0
SPLINE
  5
3C1
100
AcDbEntity
  8
0
100
AcDbSpline
 62
7
  6
CONTINUOUS
 70
0
 71
3
 72
29
 73
25
 74
0
 42
0.0000001
 43
0.0000001
 44
0.0000000001
 40
0.0
 40
0.0
 40
0.0
 40
0.0
 40
0.0700127968
 40
0.1379687221
 40
0.2036848483
 40
0.2670447105
 40
0.3280583606
 40
0.3577541033
 40
0.3869629459
 40
0.4157520212
 40
0.4442056447
 40
0.4724230516
 40
0.5005151189
 40
0.5285989397
 40
0.5567920457
 40
0.5852065249
 40
0.613943459
 40
0.643089431
 40
0.672713996
 40
0.7335693498
 40
0.7967636438
 40
0.8623184124
 40
0.930123818
 40
1.0
 40
1.0
 40
1.0
 40
1.0
 10
6.7713344445
 20
2.3097201951
 30
0.0
 10
6.7731590247
 20
2.3078956149
 30
0.0
 10
6.7768321113
 20
2.3043760815
 30
0.0
 10
6.782520918
 20
2.2994718846
 30
0.0
 10
6.7883187678
 20
2.2950893038
 30
0.0
 10
6.7942282003
 20
2.2913110382
 30
0.0
 10
6.7992920576
 20
2.2887162783
 30
0.0
 10
6.8033863828
 20
2.2870458433
 30
0.0
 10
6.8064504955
 20
2.2860107687
 30
0.0
 10
6.8095320319
 20
2.2851913042
 30
0.0
 10
6.8126275169
 20
2.2845953156
 30
0.0
 10
6.8157327543
 20
2.2842286808
 30
0.0
 10
6.8188431597
 20
2.284095025
 30
0.0
 10
6.8219539053
 20
2.2841960574
 30
0.0
 10
6.8250601463
 20
2.2845303966
 30
0.0
 10
6.8281572489
 20
2.2850947708
 30
0.0
 10
6.8312409537
 20
2.2858835439
 30
0.0
 10
6.8343076986
 20
2.2868891026
 30
0.0
 10
6.8384057827
 20
2.2885215149
 30
0.0
 10
6.8434757205
 20
2.2910727085
 30
0.0
 10
6.8493929898
 20
2.2948056701
 30
0.0
 10
6.8551985792
 20
2.2991489455
 30
0.0
 10
6.8608947892
 20
2.3040193058
 30
0.0
 10
6.8645719697
 20
2.3075193115
 30
0.0
 10
6.8663985367
 20
2.3093347675
 30
0.0
  0
SPLINE
  5
3C2
100
AcDbEntity
  8
0
100
AcDbSpline
 62
7
  6
CONTINUOUS
 70
0
 71
3
 72
25
 73
21
 74
0
 42
0.0000001
 43
0.0000001
 44
0.0000000001
 40
0.0
 40
0.0
 40
0.0
 40
0.0
 40
0.0202848436
 40
0.0407223606
 40
0.0614455435
 40
0.0825856552
 40
0.126556916
 40
0.1734812954
 40
0.2239134499
 40
0.2781814344
 40
0.3364158978
 40
0.398584903
 40
0.4645242783
 40
0.533962944
 40
0.606543756
 40
0.6818401032
 40
0.759371982
 40
0.8386134096
 40
0.9190172013
 40
1.0
 40
1.0
 40
1.0
 40
1.0
 10
5.3111671237
 20
5.9333614438
 30
0.0
 10
5.3115355011
 20
5.9333614438
 30
0.0
 10
5.312275534
 20
5.9333249276
 30
0.0
 10
5.3133810046
 20
5.9331613229
 30
0.0
 10
5.3144809414
 20
5.9328890428
 30
0.0
 10
5.3159548404
 20
5.9323759202
 30
0.0
 10
5.3177788768
 20
5.9314509596
 30
0.0
 10
5.3198653241
 20
5.9299413505
 30
0.0
 10
5.3218621915
 20
5.9280347303
 30
0.0
 10
5.3237522681
 20
5.9257506125
 30
0.0
 10
5.3255195641
 20
5.9231107951
 30
0.0
 10
5.3271483587
 20
5.9201401286
 30
0.0
 10
5.3286238066
 20
5.9168665208
 30
0.0
 10
5.3299321814
 20
5.9133208553
 30
0.0
 10
5.3310611448
 20
5.9095367294
 30
0.0
 10
5.3319999842
 20
5.905550115
 30
0.0
 10
5.3327396825
 20
5.9013990666
 30
0.0
 10
5.3332732251
 20
5.8971231309
 30
0.0
 10
5.3335953724
 20
5.8927634411
 30
0.0
 10
5.3336671237
 20
5.8898321097
 30
0.0
 10
5.3336671237
 20
5.8883614438
 30
0.0
  0
SPLINE
  5
3C3
100
AcDbEntity
  8
0
100
AcDbSpline
 62
7
  6
CONTINUOUS
 70
0
 71
3
 72
25
 73
21
 74
0
 42
0.0000001
 43
0.0000001
 44
0.0000000001
 40
0.0
 40
0.0
 40
0.0
 40
0.0
 40
0.0202848436
 40
0.0407223606
 40
0.0614455435
 40
0.0825856552
 40
0.126556916
 40
0.1734812954
 40
0.2239134499
 40
0.2781814344
 40
0.3364158978
 40
0.398584903
 40
0.4645242783
 40
0.533962944
 40
0.606543756
 40
0.6818401032
 40
0.759371982
 40
0.8386134096
 40
0.9190172013
 40
1.0
 40
1.0
 40
1.0
 40
1.0
 10
4.8649171237
 20
5.9333614438
 30
0.0
 10
4.8645487464
 20
5.9333614438
 30
0.0
 10
4.8638087135
 20
5.9333249276
 30
0.0
 10
4.8627032429
 20
5.9331613229
 30
0.0
 10
4.8616033061
 20
5.9328890428
 30
0.0
 10
4.8601294071
 20
5.9323759202
 30
0.0
 10
4.8583053707
 20
5.9314509596
 30
0.0
 10
4.8562189234
 20
5.9299413505
 30
0.0
 10
4.854222056
 20
5.9280347303
 30
0.0
 10
4.8523319794
 20
5.9257506125
 30
0.0
 10
4.8505646834
 20
5.9231107951
 30
0.0
 10
4.8489358888
 20
5.9201401286
 30
0.0
 10
4.8474604409
 20
5.9168665208
 30
0.0
 10
4.8461520661
 20
5.9133208553
 30
0.0
 10
4.8450231027
 20
5.9095367294
 30
0.0
 10
4.8440842633
 20
5.905550115
 30
0.0
 10
4.843344565
 20
5.9013990666
 30
0.0
 10
4.8428110224
 20
5.8971231309
 30
0.0
 10
4.8424888751
 20
5.8927634411
 30
0.0
 10
4.8424171237
 20
5.8898321097
 30
0.0
 10
4.8424171237
 20
5.8883614438
 30
0.0
  0
SPLINE
  5
3C4
100
AcDbEntity
  8
0
100
AcDbSpline
 62
7
  6
CONTINUOUS
 70
0
 71
3
 72
29
 73
25
 74
0
 42
0.0000001
 43
0.0000001
 44
0.0000000001
 40
0.0
 40
0.0
 40
0.0
 40
0.0
 40
0.069876182
 40
0.1376815877
 40
0.2032363563
 40
0.2664306502
 40
0.3272860042
 40
0.3569105691
 40
0.3860565411
 40
0.4147934752
 40
0.4432079544
 40
0.4714010604
 40
0.4994848812
 40
0.5275769486
 40
0.5557943554
 40
0.5842479789
 40
0.6130370542
 40
0.6422458967
 40
0.6719416394
 40
0.7329552895
 40
0.7963151517
 40
0.8620312779
 40
0.9299872032
 40
1.0
 40
1.0
 40
1.0
 40
1.0
 10
6.6185824764
 20
2.3093347675
 30
0.0
 10
6.6204090433
 20
2.3075193115
 30
0.0
 10
6.6240862238
 20
2.3040193058
 30
0.0
 10
6.6297824338
 20
2.2991489455
 30
0.0
 10
6.6355880232
 20
2.2948056701
 30
0.0
 10
6.6415052925
 20
2.2910727085
 30
0.0
 10
6.6465752303
 20
2.2885215149
 30
0.0
 10
6.6506733144
 20
2.2868891026
 30
0.0
 10
6.6537400593
 20
2.2858835439
 30
0.0
 10
6.6568237642
 20
2.2850947708
 30
0.0
 10
6.6599208667
 20
2.2845303966
 30
0.0
 10
6.6630271077
 20
2.2841960574
 30
0.0
 10
6.6661378534
 20
2.284095025
 30
0.0
 10
6.6692482588
 20
2.2842286808
 30
0.0
 10
6.6723534961
 20
2.2845953156
 30
0.0
 10
6.6754489811
 20
2.2851913042
 30
0.0
 10
6.6785305176
 20
2.2860107687
 30
0.0
 10
6.6815946303
 20
2.2870458433
 30
0.0
 10
6.6856889555
 20
2.2887162783
 30
0.0
 10
6.6907528128
 20
2.2913110382
 30
0.0
 10
6.6966622452
 20
2.2950893038
 30
0.0
 10
6.702460095
 20
2.2994718846
 30
0.0
 10
6.7081489017
 20
2.3043760815
 30
0.0
 10
6.7118219883
 20
2.3078956149
 30
0.0
 10
6.7136465686
 20
2.3097201951
 30
0.0
  0
SPLINE
  5
3C5
100
AcDbEntity
  8
0
100
AcDbSpline
 62
7
  6
CONTINUOUS
 70
0
 71
3
 72
23
 73
19
 74
0
 42
0.0000001
 43
0.0000001
 44
0.0000000001
 40
0.0
 40
0.0
 40
0.0
 40
0.0
 40
0.0625026639
 40
0.1250049412
 40
0.1875064433
 40
0.2500070864
 40
0.3125067278
 40
0.3750052744
 40
0.4375028883
 40
0.5000000001
 40
0.5624971118
 40
0.6249947258
 40
0.6874932723
 40
0.7499929137
 40
0.8124935568
 40
0.8749950588
 40
0.9374973361
 40
1.0
 40
1.0
 40
1.0
 40
1.0
 10
6.4289679054
 20
2.3093347675
 30
0.0
 10
6.4326590435
 20
2.3074879457
 30
0.0
 10
6.4401067927
 20
2.3039230269
 30
0.0
 10
6.4514847116
 20
2.2990292407
 30
0.0
 10
6.4630772646
 20
2.2946647677
 30
0.0
 10
6.4748840478
 20
2.2909143502
 30
0.0
 10
6.4868931329
 20
2.2878675869
 30
0.0
 10
6.4990771025
 20
2.2856122172
 30
0.0
 10
6.5113912388
 20
2.2842239802
 30
0.0
 10
6.5237751909
 20
2.2837549866
 30
0.0
 10
6.5361591429
 20
2.2842239802
 30
0.0
 10
6.5484732792
 20
2.2856122172
 30
0.0
 10
6.5606572488
 20
2.2878675869
 30
0.0
 10
6.5726663339
 20
2.2909143502
 30
0.0
 10
6.5844731172
 20
2.2946647677
 30
0.0
 10
6.5960656701
 20
2.2990292407
 30
0.0
 10
6.607443589
 20
2.3039230269
 30
0.0
 10
6.6148913382
 20
2.3074879457
 30
0.0
 10
6.6185824764
 20
2.3093347675
 30
0.0
  0
SPLINE
  5
3C6
100
AcDbEntity
  8
0
100
AcDbSpline
 62
7
  6
CONTINUOUS
 70
0
 71
3
 72
29
 73
25
 74
0
 42
0.0000001
 43
0.0000001
 44
0.0000000001
 40
0.0
 40
0.0
 40
0.0
 40
0.0
 40
0.0700127968
 40
0.1379687221
 40
0.2036848483
 40
0.2670447105
 40
0.3280583606
 40
0.3577541033
 40
0.3869629459
 40
0.4157520212
 40
0.4442056447
 40
0.4724230516
 40
0.5005151189
 40
0.5285989397
 40
0.5567920457
 40
0.5852065249
 40
0.613943459
 40
0.643089431
 40
0.672713996
 40
0.7335693498
 40
0.7967636438
 40
0.8623184124
 40
0.930123818
 40
1.0
 40
1.0
 40
1.0
 40
1.0
 10
6.3339038131
 20
2.3097201951
 30
0.0
 10
6.3357283934
 20
2.3078956149
 30
0.0
 10
6.33940148
 20
2.3043760815
 30
0.0
 10
6.3450902867
 20
2.2994718846
 30
0.0
 10
6.3508881365
 20
2.2950893038
 30
0.0
 10
6.356797569
 20
2.2913110382
 30
0.0
 10
6.3618614262
 20
2.2887162783
 30
0.0
 10
6.3659557514
 20
2.2870458433
 30
0.0
 10
6.3690198641
 20
2.2860107687
 30
0.0
 10
6.3721014006
 20
2.2851913042
 30
0.0
 10
6.3751968856
 20
2.2845953156
 30
0.0
 10
6.3783021229
 20
2.2842286808
 30
0.0
 10
6.3814125284
 20
2.284095025
 30
0.0
 10
6.384523274
 20
2.2841960574
 30
0.0
 10
6.387629515
 20
2.2845303966
 30
0.0
 10
6.3907266175
 20
2.2850947708
 30
0.0
 10
6.3938103224
 20
2.2858835439
 30
0.0
 10
6.3968770673
 20
2.2868891026
 30
0.0
 10
6.4009751514
 20
2.2885215149
 30
0.0
 10
6.4060450892
 20
2.2910727085
 30
0.0
 10
6.4119623585
 20
2.2948056701
 30
0.0
 10
6.4177679479
 20
2.2991489455
 30
0.0
 10
6.4234641579
 20
2.3040193058
 30
0.0
 10
6.4271413384
 20
2.3075193115
 30
0.0
 10
6.4289679054
 20
2.3093347675
 30
0.0
  0
SPLINE
  5
3C7
100
AcDbEntity
  8
0
100
AcDbSpline
 62
7
  6
CONTINUOUS
 70
0
 71
3
 72
23
 73
19
 74
0
 42
0.0000001
 43
0.0000001
 44
0.0000000001
 40
0.0
 40
0.0
 40
0.0
 40
0.0
 40
0.0692474177
 40
0.136834843
 40
0.2027238798
 40
0.2669246029
 40
0.3295123969
 40
0.3906448109
 40
0.4505718379
 40
0.5096347842
 40
0.5682495018
 40
0.6268736947
 40
0.6859641611
 40
0.7459342611
 40
0.8071217946
 40
0.8697729076
 40
0.9340415206
 40
1.0
 40
1.0
 40
1.0
 40
1.0
 10
6.7040283459
 20
2.3000977089
 30
0.0
 10
6.7053272138
 20
2.2990317705
 30
0.0
 10
6.7079391252
 20
2.2969796906
 30
0.0
 10
6.7119543897
 20
2.2941343144
 30
0.0
 10
6.7160211466
 20
2.2915854464
 30
0.0
 10
6.7201380468
 20
2.2893620317
 30
0.0
 10
6.7243022435
 20
2.2874929846
 30
0.0
 10
6.7285088384
 20
2.2860060255
 30
0.0
 10
6.7327505628
 20
2.2849259986
 30
0.0
 10
6.7370175881
 20
2.2842728874
 30
0.0
 10
6.7412978082
 20
2.2840597345
 30
0.0
 10
6.7455777483
 20
2.2842909857
 30
0.0
 10
6.7498439644
 20
2.2849618174
 30
0.0
 10
6.7540844332
 20
2.2860588723
 30
0.0
 10
6.7582894179
 20
2.2875619224
 30
0.0
 10
6.7624517919
 20
2.2894459964
 30
0.0
 10
6.7665665889
 20
2.2916831928
 30
0.0
 10
6.769241808
 20
2.2933690965
 30
0.0
 10
6.7705715776
 20
2.2942597018
 30
0.0
  0
SPLINE
  5
3C8
100
AcDbEntity
  8
0
100
AcDbSpline
 62
7
  6
CONTINUOUS
 70
0
 71
3
 72
25
 73
21
 74
0
 42
0.0000001
 43
0.0000001
 44
0.0000000001
 40
0.0
 40
0.0
 40
0.0
 40
0.0
 40
0.0202848436
 40
0.0407223606
 40
0.0614455435
 40
0.0825856552
 40
0.126556916
 40
0.1734812954
 40
0.2239134499
 40
0.2781814344
 40
0.3364158978
 40
0.398584903
 40
0.4645242783
 40
0.533962944
 40
0.606543756
 40
0.6818401032
 40
0.759371982
 40
0.8386134096
 40
0.9190172013
 40
1.0
 40
1.0
 40
1.0
 40
1.0
 10
5.2507117582
 20
5.7458614438
 30
0.0
 10
5.2503433809
 20
5.7458614438
 30
0.0
 10
5.249603348
 20
5.74589796
 30
0.0
 10
5.2484978774
 20
5.7460615647
 30
0.0
 10
5.2473979406
 20
5.7463338448
 30
0.0
 10
5.2459240416
 20
5.7468469674
 30
0.0
 10
5.2441000051
 20
5.747771928
 30
0.0
 10
5.2420135579
 20
5.7492815371
 30
0.0
 10
5.2400166904
 20
5.7511881573
 30
0.0
 10
5.2381266139
 20
5.7534722751
 30
0.0
 10
5.2363593179
 20
5.7561120925
 30
0.0
 10
5.2347305233
 20
5.759082759
 30
0.0
 10
5.2332550754
 20
5.7623563668
 30
0.0
 10
5.2319467006
 20
5.7659020323
 30
0.0
 10
5.2308177371
 20
5.7696861582
 30
0.0
 10
5.2298788978
 20
5.7736727726
 30
0.0
 10
5.2291391994
 20
5.777823821
 30
0.0
 10
5.2286056569
 20
5.7820997567
 30
0.0
 10
5.2282835096
 20
5.7864594465
 30
0.0
 10
5.2282117582
 20
5.7893907779
 30
0.0
 10
5.2282117582
 20
5.7908614438
 30
0.0
  0
SPLINE
  5
3C9
100
AcDbEntity
  8
0
100
AcDbSpline
 62
7
  6
CONTINUOUS
 70
0
 71
3
 72
34
 73
30
 74
0
 42
0.0000001
 43
0.0000001
 44
0.0000000001
 40
0.0
 40
0.0
 40
0.0
 40
0.0
 40
0.0700280869
 40
0.1047929246
 40
0.1393763376
 40
0.1737688834
 40
0.2079627274
 40
0.2419496789
 40
0.2757212146
 40
0.3092683695
 40
0.3425821953
 40
0.3756539584
 40
0.4084750184
 40
0.4410367369
 40
0.4733307465
 40
0.5370832872
 40
0.599669762
 40
0.6610289012
 40
0.691229884
 40
0.7211014884
 40
0.7506361413
 40
0.7798262521
 40
0.8086639267
 40
0.8371411304
 40
0.865250037
 40
0.8929830427
 40
0.9203329118
 40
0.947291572
 40
1.0
 40
1.0
 40
1.0
 40
1.0
 10
5.1588553722
 20
5.7458614438
 30
0.0
 10
5.1541363805
 20
5.7458614438
 30
0.0
 10
5.1470745796
 20
5.7459370525
 30
0.0
 10
5.1376846409
 20
5.7461421565
 30
0.0
 10
5.1306964504
 20
5.7463343637
 30
0.0
 10
5.1237476115
 20
5.7465545852
 30
0.0
 10
5.1168396042
 20
5.7467932493
 30
0.0
 10
5.1099737792
 20
5.7470404861
 30
0.0
 10
5.1031515216
 20
5.7472866275
 30
0.0
 10
5.0963743577
 20
5.7475245402
 30
0.0
 10
5.089643848
 20
5.7477470917
 30
0.0
 10
5.0829615654
 20
5.7479468085
 30
0.0
 10
5.0763291787
 20
5.7481177789
 30
0.0
 10
5.0697484507
 20
5.7482564028
 30
0.0
 10
5.0610829377
 20
5.7483923656
 30
0.0
 10
5.0503930335
 20
5.7484620385
 30
0.0
 10
5.0377444896
 20
5.7483810741
 30
0.0
 10
5.0273587087
 20
5.7481772942
 30
0.0
 10
5.0191789453
 20
5.7479485389
 30
0.0
 10
5.0131438413
 20
5.7477490679
 30
0.0
 10
5.0071777164
 20
5.7475267054
 30
0.0
 10
5.0012819225
 20
5.7472889141
 30
0.0
 10
4.9954577944
 20
5.7470428348
 30
0.0
 10
4.9897066439
 20
5.7467955846
 30
0.0
 10
4.984029636
 20
5.74655681
 30
0.0
 10
4.978427909
 20
5.74633639
 30
0.0
 10
4.9729026742
 20
5.7461438635
 30
0.0
 10
4.9656939958
 20
5.7459402875
 30
0.0
 10
4.9603253794
 20
5.7458614438
 30
0.0
 10
4.9567735098
 20
5.7458614438
 30
0.0
  0
SPLINE
  5
3CA
100
AcDbEntity
  8
0
100
AcDbSpline
 62
7
  6
CONTINUOUS
 70
0
 71
3
 72
34
 73
30
 74
0
 42
0.0000001
 43
0.0000001
 44
0.0000000001
 40
0.0
 40
0.0
 40
0.0
 40
0.0
 40
0.052708428
 40
0.0796670882
 40
0.1070169573
 40
0.1347499629
 40
0.1628588694
 40
0.1913360732
 40
0.2201737476
 40
0.2493638585
 40
0.2788985113
 40
0.3087701157
 40
0.3389710985
 40
0.4003302378
 40
0.4629167126
 40
0.5266692533
 40
0.5589632629
 40
0.5915249813
 40
0.6243460412
 40
0.6574178044
 40
0.6907316302
 40
0.7242787851
 40
0.7580503209
 40
0.7920372724
 40
0.8262311165
 40
0.8606236623
 40
0.8952070754
 40
0.9299719131
 40
1.0
 40
1.0
 40
1.0
 40
1.0
 10
5.6051053722
 20
5.7458614438
 30
0.0
 10
5.6015535026
 20
5.7458614438
 30
0.0
 10
5.5961848861
 20
5.7459402875
 30
0.0
 10
5.5889762078
 20
5.7461438635
 30
0.0
 10
5.583450973
 20
5.74633639
 30
0.0
 10
5.577849246
 20
5.74655681
 30
0.0
 10
5.5721722381
 20
5.7467955846
 30
0.0
 10
5.5664210876
 20
5.7470428348
 30
0.0
 10
5.5605969595
 20
5.7472889141
 30
0.0
 10
5.5547011656
 20
5.7475267054
 30
0.0
 10
5.5487350407
 20
5.7477490679
 30
0.0
 10
5.5426999367
 20
5.7479485388
 30
0.0
 10
5.5345201734
 20
5.7481772942
 30
0.0
 10
5.5241343924
 20
5.7483810741
 30
0.0
 10
5.5114858485
 20
5.7484620385
 30
0.0
 10
5.5007959444
 20
5.7483923656
 30
0.0
 10
5.4921304313
 20
5.7482564028
 30
0.0
 10
5.4855497033
 20
5.748117779
 30
0.0
 10
5.4789173166
 20
5.7479468086
 30
0.0
 10
5.472235034
 20
5.7477470917
 30
0.0
 10
5.4655045244
 20
5.7475245402
 30
0.0
 10
5.4587273604
 20
5.7472866275
 30
0.0
 10
5.4519051028
 20
5.7470404861
 30
0.0
 10
5.4450392778
 20
5.7467932493
 30
0.0
 10
5.4381312706
 20
5.7465545852
 30
0.0
 10
5.4311824316
 20
5.7463343637
 30
0.0
 10
5.4241942411
 20
5.7461421565
 30
0.0
 10
5.4148043024
 20
5.7459370525
 30
0.0
 10
5.4077425015
 20
5.7458614438
 30
0.0
 10
5.4030235098
 20
5.7458614438
 30
0.0
  0
SPLINE
  5
3CB
100
AcDbEntity
  8
0
100
AcDbSpline
 62
7
  6
CONTINUOUS
 70
0
 71
3
 72
25
 73
21
 74
0
 42
0.0000001
 43
0.0000001
 44
0.0000000001
 40
0.0
 40
0.0
 40
0.0
 40
0.0
 40
0.0202848436
 40
0.0407223606
 40
0.0614455435
 40
0.0825856552
 40
0.126556916
 40
0.1734812954
 40
0.2239134499
 40
0.2781814344
 40
0.3364158978
 40
0.398584903
 40
0.4645242783
 40
0.533962944
 40
0.606543756
 40
0.6818401032
 40
0.759371982
 40
0.8386134096
 40
0.9190172013
 40
1.0
 40
1.0
 40
1.0
 40
1.0
 10
5.6969617582
 20
5.7458614438
 30
0.0
 10
5.6973301356
 20
5.7458614438
 30
0.0
 10
5.6980701685
 20
5.74589796
 30
0.0
 10
5.6991756391
 20
5.7460615647
 30
0.0
 10
5.7002755759
 20
5.7463338448
 30
0.0
 10
5.7017494748
 20
5.7468469674
 30
0.0
 10
5.7035735113
 20
5.747771928
 30
0.0
 10
5.7056599586
 20
5.7492815371
 30
0.0
 10
5.707656826
 20
5.7511881573
 30
0.0
 10
5.7095469026
 20
5.7534722751
 30
0.0
 10
5.7113141986
 20
5.7561120925
 30
0.0
 10
5.7129429932
 20
5.759082759
 30
0.0
 10
5.7144184411
 20
5.7623563668
 30
0.0
 10
5.7157268159
 20
5.7659020323
 30
0.0
 10
5.7168557793
 20
5.7696861582
 30
0.0
 10
5.7177946187
 20
5.7736727726
 30
0.0
 10
5.718534317
 20
5.777823821
 30
0.0
 10
5.7190678596
 20
5.7820997567
 30
0.0
 10
5.7193900069
 20
5.7864594465
 30
0.0
 10
5.7194617582
 20
5.7893907779
 30
0.0
 10
5.7194617582
 20
5.7908614438
 30
0.0
  0
SPLINE
  5
3CC
100
AcDbEntity
  8
0
100
AcDbSpline
 62
7
  6
CONTINUOUS
 70
0
 71
3
 72
26
 73
22
 74
0
 42
0.0000001
 43
0.0000001
 44
0.0000000001
 40
0.0
 40
0.0
 40
0.0
 40
0.0
 40
0.0718828976
 40
0.1423181878
 40
0.2112005834
 40
0.2784437384
 40
0.3439848195
 40
0.4078031077
 40
0.4699387487
 40
0.5305116399
 40
0.5897370973
 40
0.6479314031
 40
0.7055012171
 40
0.7342069609
 40
0.7629342693
 40
0.7917434086
 40
0.8206927302
 40
0.8498369396
 40
0.8792260604
 40
0.9388955431
 40
1.0
 40
1.0
 40
1.0
 40
1.0
 10
2.3029430701
 20
2.3097201951
 30
0.0
 10
2.3042430502
 20
2.308420215
 30
0.0
 10
2.3068563177
 20
2.3058854372
 30
0.0
 10
2.3108650288
 20
2.3022631703
 30
0.0
 10
2.3149268445
 20
2.2988825375
 30
0.0
 10
2.3190431345
 20
2.295771128
 30
0.0
 10
2.3232145939
 20
2.2929586105
 30
0.0
 10
2.3274406642
 20
2.2904762584
 30
0.0
 10
2.3317192398
 20
2.2883560633
 30
0.0
 10
2.3360461566
 20
2.2866295108
 30
0.0
 10
2.3404148196
 20
2.2853258777
 30
0.0
 10
2.344815272
 20
2.2844699133
 30
0.0
 10
2.3485033795
 20
2.2841443637
 30
0.0
 10
2.3514457221
 20
2.2841212382
 30
0.0
 10
2.3536502209
 20
2.2842216454
 30
0.0
 10
2.3558524449
 20
2.284439148
 30
0.0
 10
2.3580508204
 20
2.2847729434
 30
0.0
 10
2.3602439001
 20
2.2852210205
 30
0.0
 10
2.3631733376
 20
2.2859719968
 30
0.0
 10
2.3668211555
 20
2.2871912618
 30
0.0
 10
2.3696586609
 20
2.2884215084
 30
0.0
 10
2.3710678114
 20
2.2890972224
 30
0.0
  0
SPLINE
  5
3CD
100
AcDbEntity
  8
0
100
AcDbSpline
 62
7
  6
CONTINUOUS
 70
0
 71
3
 72
29
 73
25
 74
0
 42
0.0000001
 43
0.0000001
 44
0.0000000001
 40
0.0
 40
0.0
 40
0.0
 40
0.0
 40
0.069876182
 40
0.1376815877
 40
0.2032363563
 40
0.2664306502
 40
0.3272860042
 40
0.3569105691
 40
0.3860565411
 40
0.4147934752
 40
0.4432079544
 40
0.4714010604
 40
0.4994848812
 40
0.5275769486
 40
0.5557943554
 40
0.5842479789
 40
0.6130370542
 40
0.6422458967
 40
0.6719416394
 40
0.7329552895
 40
0.7963151517
 40
0.8620312779
 40
0.9299872032
 40
1.0
 40
1.0
 40
1.0
 40
1.0
 10
6.1388304398
 20
2.3093347675
 30
0.0
 10
6.1406570068
 20
2.3075193115
 30
0.0
 10
6.1443341873
 20
2.3040193058
 30
0.0
 10
6.1500303973
 20
2.2991489455
 30
0.0
 10
6.1558359867
 20
2.2948056701
 30
0.0
 10
6.161753256
 20
2.2910727085
 30
0.0
 10
6.1668231938
 20
2.2885215149
 30
0.0
 10
6.1709212779
 20
2.2868891026
 30
0.0
 10
6.1739880228
 20
2.2858835439
 30
0.0
 10
6.1770717277
 20
2.2850947708
 30
0.0
 10
6.1801688302
 20
2.2845303966
 30
0.0
 10
6.1832750712
 20
2.2841960574
 30
0.0
 10
6.1863858169
 20
2.284095025
 30
0.0
 10
6.1894962223
 20
2.2842286808
 30
0.0
 10
6.1926014596
 20
2.2845953156
 30
0.0
 10
6.1956969446
 20
2.2851913042
 30
0.0
 10
6.1987784811
 20
2.2860107687
 30
0.0
 10
6.2018425938
 20
2.2870458433
 30
0.0
 10
6.205936919
 20
2.2887162783
 30
0.0
 10
6.2110007762
 20
2.2913110382
 30
0.0
 10
6.2169102087
 20
2.2950893038
 30
0.0
 10
6.2227080585
 20
2.2994718846
 30
0.0
 10
6.2283968652
 20
2.3043760815
 30
0.0
 10
6.2320699518
 20
2.3078956149
 30
0.0
 10
6.2338945321
 20
2.3097201951
 30
0.0
  0
SPLINE
  5
3CE
100
AcDbEntity
  8
0
100
AcDbSpline
 62
7
  6
CONTINUOUS
 70
0
 71
3
 72
23
 73
19
 74
0
 42
0.0000001
 43
0.0000001
 44
0.0000000001
 40
0.0
 40
0.0
 40
0.0
 40
0.0
 40
0.0625026639
 40
0.1250049412
 40
0.1875064433
 40
0.2500070864
 40
0.3125067278
 40
0.3750052744
 40
0.4375028883
 40
0.5000000001
 40
0.5624971118
 40
0.6249947258
 40
0.6874932723
 40
0.7499929137
 40
0.8124935568
 40
0.8749950588
 40
0.9374973361
 40
1.0
 40
1.0
 40
1.0
 40
1.0
 10
5.9492158688
 20
2.3093347675
 30
0.0
 10
5.952907007
 20
2.3074879457
 30
0.0
 10
5.9603547562
 20
2.3039230269
 30
0.0
 10
5.9717326751
 20
2.2990292407
 30
0.0
 10
5.983325228
 20
2.2946647677
 30
0.0
 10
5.9951320113
 20
2.2909143502
 30
0.0
 10
6.0071410964
 20
2.2878675869
 30
0.0
 10
6.019325066
 20
2.2856122172
 30
0.0
 10
6.0316392023
 20
2.2842239802
 30
0.0
 10
6.0440231544
 20
2.2837549866
 30
0.0
 10
6.0564071064
 20
2.2842239802
 30
0.0
 10
6.0687212427
 20
2.2856122172
 30
0.0
 10
6.0809052123
 20
2.2878675869
 30
0.0
 10
6.0929142974
 20
2.2909143502
 30
0.0
 10
6.1047210806
 20
2.2946647677
 30
0.0
 10
6.1163136336
 20
2.2990292407
 30
0.0
 10
6.1276915525
 20
2.3039230269
 30
0.0
 10
6.1351393017
 20
2.3074879457
 30
0.0
 10
6.1388304398
 20
2.3093347675
 30
0.0
  0
SPLINE
  5
3CF
100
AcDbEntity
  8
0
100
AcDbSpline
 62
7
  6
CONTINUOUS
 70
0
 71
3
 72
29
 73
25
 74
0
 42
0.0000001
 43
0.0000001
 44
0.0000000001
 40
0.0
 40
0.0
 40
0.0
 40
0.0
 40
0.0700127968
 40
0.1379687221
 40
0.2036848483
 40
0.2670447105
 40
0.3280583606
 40
0.3577541033
 40
0.3869629459
 40
0.4157520212
 40
0.4442056447
 40
0.4724230516
 40
0.5005151189
 40
0.5285989397
 40
0.5567920457
 40
0.5852065249
 40
0.613943459
 40
0.643089431
 40
0.672713996
 40
0.7335693498
 40
0.7967636438
 40
0.8623184124
 40
0.930123818
 40
1.0
 40
1.0
 40
1.0
 40
1.0
 10
5.8541517766
 20
2.3097201951
 30
0.0
 10
5.8559763569
 20
2.3078956149
 30
0.0
 10
5.8596494435
 20
2.3043760815
 30
0.0
 10
5.8653382502
 20
2.2994718846
 30
0.0
 10
5.8711361
 20
2.2950893038
 30
0.0
 10
5.8770455324
 20
2.2913110382
 30
0.0
 10
5.8821093897
 20
2.2887162783
 30
0.0
 10
5.8862037149
 20
2.2870458433
 30
0.0
 10
5.8892678276
 20
2.2860107687
 30
0.0
 10
5.8923493641
 20
2.2851913042
 30
0.0
 10
5.8954448491
 20
2.2845953156
 30
0.0
 10
5.8985500864
 20
2.2842286808
 30
0.0
 10
5.9016604919
 20
2.284095025
 30
0.0
 10
5.9047712375
 20
2.2841960574
 30
0.0
 10
5.9078774785
 20
2.2845303966
 30
0.0
 10
5.910974581
 20
2.2850947708
 30
0.0
 10
5.9140582859
 20
2.2858835439
 30
0.0
 10
5.9171250308
 20
2.2868891026
 30
0.0
 10
5.9212231149
 20
2.2885215149
 30
0.0
 10
5.9262930527
 20
2.2910727085
 30
0.0
 10
5.932210322
 20
2.2948056701
 30
0.0
 10
5.9380159114
 20
2.2991489455
 30
0.0
 10
5.9437121214
 20
2.3040193058
 30
0.0
 10
5.9473893019
 20
2.3075193115
 30
0.0
 10
5.9492158688
 20
2.3093347675
 30
0.0
  0
SPLINE
  5
3D0
100
AcDbEntity
  8
0
100
AcDbSpline
 62
7
  6
CONTINUOUS
 70
0
 71
3
 72
39
 73
35
 74
0
 42
0.0000001
 43
0.0000001
 44
0.0000000001
 40
0.0
 40
0.0
 40
0.0
 40
0.0
 40
0.0352399938
 40
0.0699877587
 40
0.1042165142
 40
0.1379023293
 40
0.1710233868
 40
0.2035621064
 40
0.2355068002
 40
0.2668536933
 40
0.2976094596
 40
0.3277935143
 40
0.3574402178
 40
0.3866007448
 40
0.4153439131
 40
0.4437556635
 40
0.4719369566
 40
0.5
 40
0.5280630435
 40
0.5562443366
 40
0.584656087
 40
0.6133992552
 40
0.6425597823
 40
0.6722064857
 40
0.7023905404
 40
0.7331463068
 40
0.7644931998
 40
0.7964378936
 40
0.8289766132
 40
0.8620976707
 40
0.8957834858
 40
0.9300122413
 40
0.9647600062
 40
1.0
 40
1.0
 40
1.0
 40
1.0
 10
5.5786356735
 20
5.5267539089
 30
0.0
 10
5.5815141753
 20
5.5238754072
 30
0.0
 10
5.5872933023
 20
5.5182204433
 30
0.0
 10
5.5960993123
 20
5.5100097191
 30
0.0
 10
5.6049862595
 20
5.5021547499
 30
0.0
 10
5.6139559765
 20
5.4946843277
 30
0.0
 10
5.6230099075
 20
5.4876289541
 30
0.0
 10
5.6321486829
 20
5.4810207779
 30
0.0
 10
5.6413721323
 20
5.4748934412
 30
0.0
 10
5.6506789889
 20
5.4692815702
 30
0.0
 10
5.6600667061
 20
5.4642202464
 30
0.0
 10
5.669531306
 20
5.459744414
 30
0.0
 10
5.6790671023
 20
5.4558879019
 30
0.0
 10
5.6886665427
 20
5.4526823746
 30
0.0
 10
5.6983201516
 20
5.4501562421
 30
0.0
 10
5.7080165427
 20
5.4483334632
 30
0.0
 10
5.7177425791
 20
5.4472322392
 30
0.0
 10
5.7274837898
 20
5.4468638772
 30
0.0
 10
5.7372250006
 20
5.4472322392
 30
0.0
 10
5.746951037
 20
5.4483334632
 30
0.0
 10
5.7566474281
 20
5.4501562421
 30
0.0
 10
5.766301037
 20
5.4526823746
 30
0.0
 10
5.7759004774
 20
5.4558879019
 30
0.0
 10
5.7854362736
 20
5.4597444141
 30
0.0
 10
5.7949008735
 20
5.4642202464
 30
0.0
 10
5.8042885907
 20
5.4692815702
 30
0.0
 10
5.8135954474
 20
5.4748934412
 30
0.0
 10
5.8228188968
 20
5.4810207779
 30
0.0
 10
5.8319576721
 20
5.4876289541
 30
0.0
 10
5.8410116031
 20
5.4946843277
 30
0.0
 10
5.8499813201
 20
5.5021547499
 30
0.0
 10
5.8588682674
 20
5.5100097191
 30
0.0
 10
5.8676742773
 20
5.5182204433
 30
0.0
 10
5.8734534044
 20
5.5238754072
 30
0.0
 10
5.8763319061
 20
5.5267539089
 30
0.0
  0
SPLINE
  5
3D1
100
AcDbEntity
  8
0
100
AcDbSpline
 62
7
  6
CONTINUOUS
 70
0
 71
3
 72
39
 73
35
 74
0
 42
0.0000001
 43
0.0000001
 44
0.0000000001
 40
0.0
 40
0.0
 40
0.0
 40
0.0
 40
0.0352399938
 40
0.0699877587
 40
0.1042165142
 40
0.1379023293
 40
0.1710233868
 40
0.2035621064
 40
0.2355068002
 40
0.2668536933
 40
0.2976094596
 40
0.3277935143
 40
0.3574402178
 40
0.3866007448
 40
0.4153439131
 40
0.4437556635
 40
0.4719369566
 40
0.5
 40
0.5280630435
 40
0.5562443366
 40
0.584656087
 40
0.6133992552
 40
0.6425597823
 40
0.6722064857
 40
0.7023905404
 40
0.7331463068
 40
0.7644931998
 40
0.7964378936
 40
0.8289766132
 40
0.8620976707
 40
0.8957834858
 40
0.9300122413
 40
0.9647600062
 40
1.0
 40
1.0
 40
1.0
 40
1.0
 10
5.5786356735
 20
5.6372189787
 30
0.0
 10
5.5815141753
 20
5.6400974804
 30
0.0
 10
5.5872933023
 20
5.6457524443
 30
0.0
 10
5.5960993123
 20
5.6539631685
 30
0.0
 10
5.6049862595
 20
5.6618181377
 30
0.0
 10
5.6139559765
 20
5.6692885599
 30
0.0
 10
5.6230099075
 20
5.6763439335
 30
0.0
 10
5.6321486829
 20
5.6829521097
 30
0.0
 10
5.6413721323
 20
5.6890794464
 30
0.0
 10
5.6506789889
 20
5.6946913174
 30
0.0
 10
5.6600667061
 20
5.6997526412
 30
0.0
 10
5.669531306
 20
5.7042284736
 30
0.0
 10
5.6790671023
 20
5.7080849857
 30
0.0
 10
5.6886665427
 20
5.711290513
 30
0.0
 10
5.6983201516
 20
5.7138166455
 30
0.0
 10
5.7080165427
 20
5.7156394244
 30
0.0
 10
5.7177425791
 20
5.7167406484
 30
0.0
 10
5.7274837898
 20
5.7171090104
 30
0.0
 10
5.7372250006
 20
5.7167406484
 30
0.0
 10
5.746951037
 20
5.7156394244
 30
0.0
 10
5.7566474281
 20
5.7138166455
 30
0.0
 10
5.766301037
 20
5.711290513
 30
0.0
 10
5.7759004774
 20
5.7080849857
 30
0.0
 10
5.7854362736
 20
5.7042284736
 30
0.0
 10
5.7949008735
 20
5.6997526412
 30
0.0
 10
5.8042885907
 20
5.6946913174
 30
0.0
 10
5.8135954474
 20
5.6890794464
 30
0.0
 10
5.8228188968
 20
5.6829521097
 30
0.0
 10
5.8319576721
 20
5.6763439335
 30
0.0
 10
5.8410116031
 20
5.6692885599
 30
0.0
 10
5.8499813201
 20
5.6618181377
 30
0.0
 10
5.8588682674
 20
5.6539631685
 30
0.0
 10
5.8676742773
 20
5.6457524443
 30
0.0
 10
5.8734534044
 20
5.6400974804
 30
0.0
 10
5.8763319061
 20
5.6372189787
 30
0.0
  0
SPLINE
  5
3D2
100
AcDbEntity
  8
0
100
AcDbSpline
 62
7
  6
CONTINUOUS
 70
0
 71
3
 72
29
 73
25
 74
0
 42
0.0000001
 43
0.0000001
 44
0.0000000001
 40
0.0
 40
0.0
 40
0.0
 40
0.0
 40
0.0700127968
 40
0.1379687221
 40
0.2036848483
 40
0.2670447105
 40
0.3280583606
 40
0.3577541033
 40
0.3869629459
 40
0.4157520212
 40
0.4442056447
 40
0.4724230516
 40
0.5005151189
 40
0.5285989397
 40
0.5567920457
 40
0.5852065249
 40
0.613943459
 40
0.643089431
 40
0.672713996
 40
0.7335693498
 40
0.7967636438
 40
0.8623184124
 40
0.930123818
 40
1.0
 40
1.0
 40
1.0
 40
1.0
 10
2.3504498582
 20
2.3097201951
 30
0.0
 10
2.3522744384
 20
2.3078956149
 30
0.0
 10
2.355947525
 20
2.3043760815
 30
0.0
 10
2.3616363318
 20
2.2994718846
 30
0.0
 10
2.3674341816
 20
2.2950893038
 30
0.0
 10
2.373343614
 20
2.2913110382
 30
0.0
 10
2.3784074713
 20
2.2887162783
 30
0.0
 10
2.3825017965
 20
2.2870458433
 30
0.0
 10
2.3855659092
 20
2.2860107687
 30
0.0
 10
2.3886474456
 20
2.2851913042
 30
0.0
 10
2.3917429306
 20
2.2845953156
 30
0.0
 10
2.394848168
 20
2.2842286808
 30
0.0
 10
2.3979585734
 20
2.284095025
 30
0.0
 10
2.4010693191
 20
2.2841960574
 30
0.0
 10
2.4041755601
 20
2.2845303966
 30
0.0
 10
2.4072726626
 20
2.2850947708
 30
0.0
 10
2.4103563675
 20
2.2858835439
 30
0.0
 10
2.4134231123
 20
2.2868891026
 30
0.0
 10
2.4175211964
 20
2.2885215149
 30
0.0
 10
2.4225911342
 20
2.2910727085
 30
0.0
 10
2.4285084035
 20
2.2948056701
 30
0.0
 10
2.4343139929
 20
2.2991489455
 30
0.0
 10
2.4400102029
 20
2.3040193058
 30
0.0
 10
2.4436873834
 20
2.3075193115
 30
0.0
 10
2.4455139504
 20
2.3093347675
 30
0.0
  0
SPLINE
  5
3D3
100
AcDbEntity
  8
0
100
AcDbSpline
 62
7
  6
CONTINUOUS
 70
0
 71
3
 72
14
 73
10
 74
0
 42
0.0000001
 43
0.0000001
 44
0.0000000001
 40
0.0
 40
0.0
 40
0.0
 40
0.0
 40
0.2499815684
 40
0.3749844236
 40
0.4999878315
 40
0.6249912377
 40
0.74999448
 40
0.8749974139
 40
1.0
 40
1.0
 40
1.0
 40
1.0
 10
2.4455139504
 20
2.3093347675
 30
0.0
 10
2.4510139303
 20
2.3065829109
 30
0.0
 10
2.4593749833
 20
2.3026679722
 30
0.0
 10
2.4707543972
 20
2.2979925299
 30
0.0
 10
2.4794091495
 20
2.2947903637
 30
0.0
 10
2.4881825525
 20
2.2919282486
 30
0.0
 10
2.4970706595
 20
2.2894430166
 30
0.0
 10
2.5060644521
 20
2.2873716802
 30
0.0
 10
2.5121224225
 20
2.2862899626
 30
0.0
 10
2.515162983
 20
2.2858290932
 30
0.0
  0
SPLINE
  5
3D4
100
AcDbEntity
  8
0
100
AcDbSpline
 62
7
  6
CONTINUOUS
 70
0
 71
3
 72
29
 73
25
 74
0
 42
0.0000001
 43
0.0000001
 44
0.0000000001
 40
0.0
 40
0.0
 40
0.0
 40
0.0
 40
0.069876182
 40
0.1376815877
 40
0.2032363563
 40
0.2664306502
 40
0.3272860042
 40
0.3569105691
 40
0.3860565411
 40
0.4147934752
 40
0.4432079544
 40
0.4714010604
 40
0.4994848812
 40
0.5275769486
 40
0.5557943554
 40
0.5842479789
 40
0.6130370542
 40
0.6422458967
 40
0.6719416394
 40
0.7329552895
 40
0.7963151517
 40
0.8620312779
 40
0.9299872032
 40
1.0
 40
1.0
 40
1.0
 40
1.0
 10
5.6330936543
 20
2.3093347675
 30
0.0
 10
5.6349202213
 20
2.3075193115
 30
0.0
 10
5.6385974018
 20
2.3040193058
 30
0.0
 10
5.6442936118
 20
2.2991489455
 30
0.0
 10
5.6500992012
 20
2.2948056701
 30
0.0
 10
5.6560164705
 20
2.2910727085
 30
0.0
 10
5.6610864083
 20
2.2885215149
 30
0.0
 10
5.6651844924
 20
2.2868891026
 30
0.0
 10
5.6682512373
 20
2.2858835439
 30
0.0
 10
5.6713349422
 20
2.2850947708
 30
0.0
 10
5.6744320447
 20
2.2845303966
 30
0.0
 10
5.6775382857
 20
2.2841960574
 30
0.0
 10
5.6806490313
 20
2.284095025
 30
0.0
 10
5.6837594368
 20
2.2842286808
 30
0.0
 10
5.6868646741
 20
2.2845953156
 30
0.0
 10
5.6899601591
 20
2.2851913042
 30
0.0
 10
5.6930416956
 20
2.2860107687
 30
0.0
 10
5.6961058083
 20
2.2870458433
 30
0.0
 10
5.7002001334
 20
2.2887162783
 30
0.0
 10
5.7052639907
 20
2.2913110382
 30
0.0
 10
5.7111734232
 20
2.2950893038
 30
0.0
 10
5.716971273
 20
2.2994718846
 30
0.0
 10
5.7226600797
 20
2.3043760815
 30
0.0
 10
5.7263331663
 20
2.3078956149
 30
0.0
 10
5.7281577465
 20
2.3097201951
 30
0.0
  0
SPLINE
  5
3D5
100
AcDbEntity
  8
0
100
AcDbSpline
 62
7
  6
CONTINUOUS
 70
0
 71
3
 72
23
 73
19
 74
0
 42
0.0000001
 43
0.0000001
 44
0.0000000001
 40
0.0
 40
0.0
 40
0.0
 40
0.0
 40
0.0625026639
 40
0.1250049412
 40
0.1875064433
 40
0.2500070864
 40
0.3125067278
 40
0.3750052744
 40
0.4375028883
 40
0.5000000001
 40
0.5624971118
 40
0.6249947258
 40
0.6874932723
 40
0.7499929137
 40
0.8124935568
 40
0.8749950588
 40
0.9374973361
 40
1.0
 40
1.0
 40
1.0
 40
1.0
 10
5.4434790833
 20
2.3093347675
 30
0.0
 10
5.4471702215
 20
2.3074879457
 30
0.0
 10
5.4546179707
 20
2.3039230269
 30
0.0
 10
5.4659958896
 20
2.2990292407
 30
0.0
 10
5.4775884425
 20
2.2946647677
 30
0.0
 10
5.4893952258
 20
2.2909143502
 30
0.0
 10
5.5014043109
 20
2.2878675869
 30
0.0
 10
5.5135882805
 20
2.2856122172
 30
0.0
 10
5.5259024168
 20
2.2842239802
 30
0.0
 10
5.5382863688
 20
2.2837549866
 30
0.0
 10
5.5506703209
 20
2.2842239802
 30
0.0
 10
5.5629844572
 20
2.2856122172
 30
0.0
 10
5.5751684268
 20
2.2878675869
 30
0.0
 10
5.5871775119
 20
2.2909143502
 30
0.0
 10
5.5989842951
 20
2.2946647677
 30
0.0
 10
5.6105768481
 20
2.2990292407
 30
0.0
 10
5.6219547669
 20
2.3039230269
 30
0.0
 10
5.6294025162
 20
2.3074879457
 30
0.0
 10
5.6330936543
 20
2.3093347675
 30
0.0
  0
SPLINE
  5
3D6
100
AcDbEntity
  8
0
100
AcDbSpline
 62
7
  6
CONTINUOUS
 70
0
 71
3
 72
29
 73
25
 74
0
 42
0.0000001
 43
0.0000001
 44
0.0000000001
 40
0.0
 40
0.0
 40
0.0
 40
0.0
 40
0.0700127968
 40
0.1379687221
 40
0.2036848483
 40
0.2670447105
 40
0.3280583606
 40
0.3577541033
 40
0.3869629459
 40
0.4157520212
 40
0.4442056447
 40
0.4724230516
 40
0.5005151189
 40
0.5285989397
 40
0.5567920457
 40
0.5852065249
 40
0.613943459
 40
0.643089431
 40
0.672713996
 40
0.7335693498
 40
0.7967636438
 40
0.8623184124
 40
0.930123818
 40
1.0
 40
1.0
 40
1.0
 40
1.0
 10
5.3484149911
 20
2.3097201951
 30
0.0
 10
5.3502395713
 20
2.3078956149
 30
0.0
 10
5.353912658
 20
2.3043760815
 30
0.0
 10
5.3596014647
 20
2.2994718846
 30
0.0
 10
5.3653993145
 20
2.2950893038
 30
0.0
 10
5.3713087469
 20
2.2913110382
 30
0.0
 10
5.3763726042
 20
2.2887162783
 30
0.0
 10
5.3804669294
 20
2.2870458433
 30
0.0
 10
5.3835310421
 20
2.2860107687
 30
0.0
 10
5.3866125786
 20
2.2851913042
 30
0.0
 10
5.3897080635
 20
2.2845953156
 30
0.0
 10
5.3928133009
 20
2.2842286808
 30
0.0
 10
5.3959237063
 20
2.284095025
 30
0.0
 10
5.399034452
 20
2.2841960574
 30
0.0
 10
5.402140693
 20
2.2845303966
 30
0.0
 10
5.4052377955
 20
2.2850947708
 30
0.0
 10
5.4083215004
 20
2.2858835439
 30
0.0
 10
5.4113882452
 20
2.2868891026
 30
0.0
 10
5.4154863293
 20
2.2885215149
 30
0.0
 10
5.4205562672
 20
2.2910727085
 30
0.0
 10
5.4264735364
 20
2.2948056701
 30
0.0
 10
5.4322791259
 20
2.2991489455
 30
0.0
 10
5.4379753358
 20
2.3040193058
 30
0.0
 10
5.4416525164
 20
2.3075193115
 30
0.0
 10
5.4434790833
 20
2.3093347675
 30
0.0
  0
SPLINE
  5
3D7
100
AcDbEntity
  8
0
100
AcDbSpline
 62
7
  6
CONTINUOUS
 70
0
 71
3
 72
31
 73
27
 74
0
 42
0.0000001
 43
0.0000001
 44
0.0000000001
 40
0.0
 40
0.0
 40
0.0
 40
0.0
 40
0.0624991447
 40
0.124997374
 40
0.1874946492
 40
0.2499907289
 40
0.281241806
 40
0.312492947
 40
0.3437441094
 40
0.3749952605
 40
0.4062464188
 40
0.4374976088
 40
0.4687488115
 40
0.5
 40
0.5312511886
 40
0.5625023912
 40
0.5937535812
 40
0.6250047395
 40
0.6562558906
 40
0.687507053
 40
0.7187581941
 40
0.7500092711
 40
0.8125053508
 40
0.875002626
 40
0.9375008553
 40
1.0
 40
1.0
 40
1.0
 40
1.0
 10
4.9832432084
 20
5.5267539089
 30
0.0
 10
4.9948345027
 20
5.5209582618
 30
0.0
 10
5.0182224481
 20
5.5097713102
 30
0.0
 10
5.0539518485
 20
5.4944152649
 30
0.0
 10
5.0903536127
 20
5.4807213152
 30
0.0
 10
5.1212514932
 20
5.4709152686
 30
0.0
 10
5.1462823805
 20
5.4641754696
 30
0.0
 10
5.1652055009
 20
5.459706967
 30
0.0
 10
5.1842646451
 20
5.4558587559
 30
0.0
 10
5.2034441213
 20
5.4526618372
 30
0.0
 10
5.2227247405
 20
5.4501438345
 30
0.0
 10
5.2420843218
 20
5.4483277866
 30
0.0
 10
5.261498095
 20
5.4472310246
 30
0.0
 10
5.280939441
 20
5.4468642262
 30
0.0
 10
5.300380787
 20
5.4472310246
 30
0.0
 10
5.3197945602
 20
5.4483277866
 30
0.0
 10
5.3391541416
 20
5.4501438345
 30
0.0
 10
5.3584347608
 20
5.4526618372
 30
0.0
 10
5.3776142369
 20
5.4558587559
 30
0.0
 10
5.3966733811
 20
5.459706967
 30
0.0
 10
5.4155965015
 20
5.4641754696
 30
0.0
 10
5.4406273888
 20
5.4709152686
 30
0.0
 10
5.4715252693
 20
5.4807213152
 30
0.0
 10
5.5079270335
 20
5.4944152649
 30
0.0
 10
5.5436564339
 20
5.5097713102
 30
0.0
 10
5.5670443793
 20
5.5209582618
 30
0.0
 10
5.5786356735
 20
5.5267539089
 30
0.0
  0
SPLINE
  5
3D8
100
AcDbEntity
  8
0
100
AcDbSpline
 62
7
  6
CONTINUOUS
 70
0
 71
3
 72
31
 73
27
 74
0
 42
0.0000001
 43
0.0000001
 44
0.0000000001
 40
0.0
 40
0.0
 40
0.0
 40
0.0
 40
0.0624991447
 40
0.124997374
 40
0.1874946492
 40
0.2499907289
 40
0.281241806
 40
0.312492947
 40
0.3437441094
 40
0.3749952605
 40
0.4062464188
 40
0.4374976088
 40
0.4687488115
 40
0.5
 40
0.5312511886
 40
0.5625023912
 40
0.5937535812
 40
0.6250047395
 40
0.6562558906
 40
0.687507053
 40
0.7187581941
 40
0.7500092711
 40
0.8125053508
 40
0.875002626
 40
0.9375008553
 40
1.0
 40
1.0
 40
1.0
 40
1.0
 10
4.9832432084
 20
5.6372189787
 30
0.0
 10
4.9948345027
 20
5.6430146258
 30
0.0
 10
5.0182224481
 20
5.6542015774
 30
0.0
 10
5.0539518485
 20
5.6695576227
 30
0.0
 10
5.0903536127
 20
5.6832515724
 30
0.0
 10
5.1212514932
 20
5.693057619
 30
0.0
 10
5.1462823805
 20
5.699797418
 30
0.0
 10
5.1652055009
 20
5.7042659206
 30
0.0
 10
5.1842646451
 20
5.7081141317
 30
0.0
 10
5.2034441213
 20
5.7113110504
 30
0.0
 10
5.2227247405
 20
5.7138290531
 30
0.0
 10
5.2420843218
 20
5.715645101
 30
0.0
 10
5.261498095
 20
5.716741863
 30
0.0
 10
5.280939441
 20
5.7171086614
 30
0.0
 10
5.300380787
 20
5.716741863
 30
0.0
 10
5.3197945602
 20
5.715645101
 30
0.0
 10
5.3391541416
 20
5.7138290531
 30
0.0
 10
5.3584347608
 20
5.7113110504
 30
0.0
 10
5.3776142369
 20
5.7081141317
 30
0.0
 10
5.3966733811
 20
5.7042659206
 30
0.0
 10
5.4155965015
 20
5.699797418
 30
0.0
 10
5.4406273888
 20
5.693057619
 30
0.0
 10
5.4715252693
 20
5.6832515724
 30
0.0
 10
5.5079270335
 20
5.6695576227
 30
0.0
 10
5.5436564339
 20
5.6542015774
 30
0.0
 10
5.5670443793
 20
5.6430146258
 30
0.0
 10
5.5786356735
 20
5.6372189787
 30
0.0
  0
SPLINE
  5
3D9
100
AcDbEntity
  8
0
100
AcDbSpline
 62
7
  6
CONTINUOUS
 70
0
 71
3
 72
39
 73
35
 74
0
 42
0.0000001
 43
0.0000001
 44
0.0000000001
 40
0.0
 40
0.0
 40
0.0
 40
0.0
 40
0.0352399938
 40
0.0699877587
 40
0.1042165142
 40
0.1379023293
 40
0.1710233868
 40
0.2035621064
 40
0.2355068002
 40
0.2668536933
 40
0.2976094596
 40
0.3277935143
 40
0.3574402178
 40
0.3866007448
 40
0.4153439131
 40
0.4437556635
 40
0.4719369566
 40
0.5
 40
0.5280630435
 40
0.5562443366
 40
0.584656087
 40
0.6133992552
 40
0.6425597823
 40
0.6722064857
 40
0.7023905404
 40
0.7331463068
 40
0.7644931998
 40
0.7964378936
 40
0.8289766132
 40
0.8620976707
 40
0.8957834858
 40
0.9300122413
 40
0.9647600062
 40
1.0
 40
1.0
 40
1.0
 40
1.0
 10
4.6855469759
 20
5.5267539089
 30
0.0
 10
4.6884254776
 20
5.5238754072
 30
0.0
 10
4.6942046047
 20
5.5182204433
 30
0.0
 10
4.7030106146
 20
5.5100097191
 30
0.0
 10
4.7118975619
 20
5.5021547499
 30
0.0
 10
4.7208672788
 20
5.4946843277
 30
0.0
 10
4.7299212099
 20
5.4876289541
 30
0.0
 10
4.7390599852
 20
5.4810207779
 30
0.0
 10
4.7482834346
 20
5.4748934412
 30
0.0
 10
4.7575902913
 20
5.4692815702
 30
0.0
 10
4.7669780085
 20
5.4642202464
 30
0.0
 10
4.7764426084
 20
5.459744414
 30
0.0
 10
4.7859784046
 20
5.4558879019
 30
0.0
 10
4.7955778451
 20
5.4526823746
 30
0.0
 10
4.8052314539
 20
5.4501562421
 30
0.0
 10
4.814927845
 20
5.4483334632
 30
0.0
 10
4.8246538815
 20
5.4472322392
 30
0.0
 10
4.8343950922
 20
5.4468638772
 30
0.0
 10
4.8441363029
 20
5.4472322392
 30
0.0
 10
4.8538623393
 20
5.4483334632
 30
0.0
 10
4.8635587305
 20
5.4501562421
 30
0.0
 10
4.8732123393
 20
5.4526823746
 30
0.0
 10
4.8828117797
 20
5.4558879019
 30
0.0
 10
4.892347576
 20
5.4597444141
 30
0.0
 10
4.9018121759
 20
5.4642202464
 30
0.0
 10
4.911199893
 20
5.4692815702
 30
0.0
 10
4.9205067497
 20
5.4748934412
 30
0.0
 10
4.9297301991
 20
5.4810207779
 30
0.0
 10
4.9388689744
 20
5.4876289541
 30
0.0
 10
4.9479229055
 20
5.4946843277
 30
0.0
 10
4.9568926225
 20
5.5021547499
 30
0.0
 10
4.9657795697
 20
5.5100097191
 30
0.0
 10
4.9745855797
 20
5.5182204433
 30
0.0
 10
4.9803647067
 20
5.5238754072
 30
0.0
 10
4.9832432084
 20
5.5267539089
 30
0.0
  0
SPLINE
  5
3DA
100
AcDbEntity
  8
0
100
AcDbSpline
 62
7
  6
CONTINUOUS
 70
0
 71
3
 72
29
 73
25
 74
0
 42
0.0000001
 43
0.0000001
 44
0.0000000001
 40
0.0
 40
0.0
 40
0.0
 40
0.0
 40
0.0700127968
 40
0.1379687221
 40
0.2036848483
 40
0.2670447105
 40
0.3280583606
 40
0.3577541033
 40
0.3869629459
 40
0.4157520212
 40
0.4442056447
 40
0.4724230516
 40
0.5005151189
 40
0.5285989397
 40
0.5567920457
 40
0.5852065249
 40
0.613943459
 40
0.643089431
 40
0.672713996
 40
0.7335693498
 40
0.7967636438
 40
0.8623184124
 40
0.930123818
 40
1.0
 40
1.0
 40
1.0
 40
1.0
 10
2.4912809762
 20
2.3097201951
 30
0.0
 10
2.4931055564
 20
2.3078956149
 30
0.0
 10
2.496778643
 20
2.3043760815
 30
0.0
 10
2.5024674498
 20
2.2994718846
 30
0.0
 10
2.5082652996
 20
2.2950893038
 30
0.0
 10
2.514174732
 20
2.2913110382
 30
0.0
 10
2.5192385893
 20
2.2887162783
 30
0.0
 10
2.5233329145
 20
2.2870458433
 30
0.0
 10
2.5263970272
 20
2.2860107687
 30
0.0
 10
2.5294785636
 20
2.2851913042
 30
0.0
 10
2.5325740486
 20
2.2845953156
 30
0.0
 10
2.535679286
 20
2.2842286808
 30
0.0
 10
2.5387896914
 20
2.284095025
 30
0.0
 10
2.5419004371
 20
2.2841960574
 30
0.0
 10
2.5450066781
 20
2.2845303966
 30
0.0
 10
2.5481037806
 20
2.2850947708
 30
0.0
 10
2.5511874855
 20
2.2858835439
 30
0.0
 10
2.5542542303
 20
2.2868891026
 30
0.0
 10
2.5583523144
 20
2.2885215149
 30
0.0
 10
2.5634222522
 20
2.2910727085
 30
0.0
 10
2.5693395215
 20
2.2948056701
 30
0.0
 10
2.5751451109
 20
2.2991489455
 30
0.0
 10
2.5808413209
 20
2.3040193058
 30
0.0
 10
2.5845185014
 20
2.3075193115
 30
0.0
 10
2.5863450684
 20
2.3093347675
 30
0.0
  0
SPLINE
  5
3DB
100
AcDbEntity
  8
0
100
AcDbSpline
 62
7
  6
CONTINUOUS
 70
0
 71
3
 72
23
 73
19
 74
0
 42
0.0000001
 43
0.0000001
 44
0.0000000001
 40
0.0
 40
0.0
 40
0.0
 40
0.0
 40
0.0625004237
 40
0.125001844
 40
0.1875022319
 40
0.2500027444
 40
0.3125030235
 40
0.375003148
 40
0.4375030585
 40
0.5000027462
 40
0.5625022375
 40
0.6250016086
 40
0.6875009555
 40
0.7500003757
 40
0.8124999557
 40
0.8749997416
 40
0.9374997655
 40
1.0
 40
1.0
 40
1.0
 40
1.0
 10
2.5863450684
 20
2.3093347675
 30
0.0
 10
2.5892525518
 20
2.307880039
 30
0.0
 10
2.5951080769
 20
2.3050505169
 30
0.0
 10
2.6040178785
 20
2.3010786267
 30
0.0
 10
2.6130591694
 20
2.2974145942
 30
0.0
 10
2.6222339315
 20
2.2940977049
 30
0.0
 10
2.6315408123
 20
2.2911701231
 30
0.0
 10
2.6409736074
 20
2.2886756414
 30
0.0
 10
2.6505202773
 20
2.2866575295
 30
0.0
 10
2.6601621967
 20
2.2851556116
 30
0.0
 10
2.6698741993
 20
2.2842027958
 30
0.0
 10
2.6796256374
 20
2.2838215904
 30
0.0
 10
2.6893825124
 20
2.2840213835
 30
0.0
 10
2.6991103536
 20
2.2847972267
 30
0.0
 10
2.7087771751
 20
2.286130476
 30
0.0
 10
2.7183559941
 20
2.287991136
 30
0.0
 10
2.7278258616
 20
2.2903410923
 30
0.0
 10
2.7340576759
 20
2.2922057282
 30
0.0
 10
2.7371513669
 20
2.2932050814
 30
0.0
  0
SPLINE
  5
3DC
100
AcDbEntity
  8
0
100
AcDbSpline
 62
7
  6
CONTINUOUS
 70
0
 71
3
 72
29
 73
25
 74
0
 42
0.0000001
 43
0.0000001
 44
0.0000000001
 40
0.0
 40
0.0
 40
0.0
 40
0.0
 40
0.069876182
 40
0.1376815877
 40
0.2032363563
 40
0.2664306502
 40
0.3272860042
 40
0.3569105691
 40
0.3860565411
 40
0.4147934752
 40
0.4432079544
 40
0.4714010604
 40
0.4994848812
 40
0.5275769486
 40
0.5557943554
 40
0.5842479789
 40
0.6130370542
 40
0.6422458967
 40
0.6719416394
 40
0.7329552895
 40
0.7963151517
 40
0.8620312779
 40
0.9299872032
 40
1.0
 40
1.0
 40
1.0
 40
1.0
 10
5.1185936162
 20
2.3093347675
 30
0.0
 10
5.1204201832
 20
2.3075193115
 30
0.0
 10
5.1240973637
 20
2.3040193058
 30
0.0
 10
5.1297935737
 20
2.2991489455
 30
0.0
 10
5.1355991631
 20
2.2948056701
 30
0.0
 10
5.1415164324
 20
2.2910727085
 30
0.0
 10
5.1465863702
 20
2.2885215149
 30
0.0
 10
5.1506844543
 20
2.2868891026
 30
0.0
 10
5.1537511992
 20
2.2858835439
 30
0.0
 10
5.156834904
 20
2.2850947708
 30
0.0
 10
5.1599320066
 20
2.2845303966
 30
0.0
 10
5.1630382476
 20
2.2841960574
 30
0.0
 10
5.1661489932
 20
2.284095025
 30
0.0
 10
5.1692593986
 20
2.2842286808
 30
0.0
 10
5.172364636
 20
2.2845953156
 30
0.0
 10
5.175460121
 20
2.2851913042
 30
0.0
 10
5.1785416574
 20
2.2860107687
 30
0.0
 10
5.1816057701
 20
2.2870458433
 30
0.0
 10
5.1857000953
 20
2.2887162783
 30
0.0
 10
5.1907639526
 20
2.2913110382
 30
0.0
 10
5.196673385
 20
2.2950893038
 30
0.0
 10
5.2024712348
 20
2.2994718846
 30
0.0
 10
5.2081600416
 20
2.3043760815
 30
0.0
 10
5.2118331282
 20
2.3078956149
 30
0.0
 10
5.2136577084
 20
2.3097201951
 30
0.0
  0
SPLINE
  5
3DD
100
AcDbEntity
  8
0
100
AcDbSpline
 62
7
  6
CONTINUOUS
 70
0
 71
3
 72
23
 73
19
 74
0
 42
0.0000001
 43
0.0000001
 44
0.0000000001
 40
0.0
 40
0.0
 40
0.0
 40
0.0
 40
0.0625026639
 40
0.1250049412
 40
0.1875064433
 40
0.2500070864
 40
0.3125067278
 40
0.3750052744
 40
0.4375028883
 40
0.5000000001
 40
0.5624971118
 40
0.6249947258
 40
0.6874932723
 40
0.7499929137
 40
0.8124935568
 40
0.8749950588
 40
0.9374973361
 40
1.0
 40
1.0
 40
1.0
 40
1.0
 10
4.9289790452
 20
2.3093347675
 30
0.0
 10
4.9326701834
 20
2.3074879457
 30
0.0
 10
4.9401179326
 20
2.3039230269
 30
0.0
 10
4.9514958515
 20
2.2990292407
 30
0.0
 10
4.9630884044
 20
2.2946647677
 30
0.0
 10
4.9748951877
 20
2.2909143502
 30
0.0
 10
4.9869042728
 20
2.2878675869
 30
0.0
 10
4.9990882424
 20
2.2856122172
 30
0.0
 10
5.0114023787
 20
2.2842239802
 30
0.0
 10
5.0237863307
 20
2.2837549866
 30
0.0
 10
5.0361702828
 20
2.2842239802
 30
0.0
 10
5.0484844191
 20
2.2856122172
 30
0.0
 10
5.0606683887
 20
2.2878675869
 30
0.0
 10
5.0726774738
 20
2.2909143502
 30
0.0
 10
5.084484257
 20
2.2946647677
 30
0.0
 10
5.0960768099
 20
2.2990292407
 30
0.0
 10
5.1074547288
 20
2.3039230269
 30
0.0
 10
5.114902478
 20
2.3074879457
 30
0.0
 10
5.1185936162
 20
2.3093347675
 30
0.0
  0
SPLINE
  5
3DE
100
AcDbEntity
  8
0
100
AcDbSpline
 62
7
  6
CONTINUOUS
 70
0
 71
3
 72
29
 73
25
 74
0
 42
0.0000001
 43
0.0000001
 44
0.0000000001
 40
0.0
 40
0.0
 40
0.0
 40
0.0
 40
0.0700127968
 40
0.1379687221
 40
0.2036848483
 40
0.2670447105
 40
0.3280583606
 40
0.3577541033
 40
0.3869629459
 40
0.4157520212
 40
0.4442056447
 40
0.4724230516
 40
0.5005151189
 40
0.5285989397
 40
0.5567920457
 40
0.5852065249
 40
0.613943459
 40
0.643089431
 40
0.672713996
 40
0.7335693498
 40
0.7967636438
 40
0.8623184124
 40
0.930123818
 40
1.0
 40
1.0
 40
1.0
 40
1.0
 10
2.7206408018
 20
2.3097201951
 30
0.0
 10
2.722465382
 20
2.3078956149
 30
0.0
 10
2.7261384686
 20
2.3043760815
 30
0.0
 10
2.7318272754
 20
2.2994718846
 30
0.0
 10
2.7376251252
 20
2.2950893038
 30
0.0
 10
2.7435345576
 20
2.2913110382
 30
0.0
 10
2.7485984149
 20
2.2887162783
 30
0.0
 10
2.7526927401
 20
2.2870458433
 30
0.0
 10
2.7557568528
 20
2.2860107687
 30
0.0
 10
2.7588383892
 20
2.2851913042
 30
0.0
 10
2.7619338742
 20
2.2845953156
 30
0.0
 10
2.7650391116
 20
2.2842286808
 30
0.0
 10
2.768149517
 20
2.284095025
 30
0.0
 10
2.7712602627
 20
2.2841960574
 30
0.0
 10
2.7743665037
 20
2.2845303966
 30
0.0
 10
2.7774636062
 20
2.2850947708
 30
0.0
 10
2.7805473111
 20
2.2858835439
 30
0.0
 10
2.7836140559
 20
2.2868891026
 30
0.0
 10
2.78771214
 20
2.2885215149
 30
0.0
 10
2.7927820779
 20
2.2910727085
 30
0.0
 10
2.7986993471
 20
2.2948056701
 30
0.0
 10
2.8045049365
 20
2.2991489455
 30
0.0
 10
2.8102011465
 20
2.3040193058
 30
0.0
 10
2.813878327
 20
2.3075193115
 30
0.0
 10
2.815704894
 20
2.3093347675
 30
0.0
  0
SPLINE
  5
3DF
100
AcDbEntity
  8
0
100
AcDbSpline
 62
7
  6
CONTINUOUS
 70
0
 71
3
 72
29
 73
25
 74
0
 42
0.0000001
 43
0.0000001
 44
0.0000000001
 40
0.0
 40
0.0
 40
0.0
 40
0.0
 40
0.0700127968
 40
0.1379687221
 40
0.2036848483
 40
0.2670447105
 40
0.3280583606
 40
0.3577541033
 40
0.3869629459
 40
0.4157520212
 40
0.4442056447
 40
0.4724230516
 40
0.5005151189
 40
0.5285989397
 40
0.5567920457
 40
0.5852065249
 40
0.613943459
 40
0.643089431
 40
0.672713996
 40
0.7335693498
 40
0.7967636438
 40
0.8623184124
 40
0.930123818
 40
1.0
 40
1.0
 40
1.0
 40
1.0
 10
4.833914953
 20
2.3097201951
 30
0.0
 10
4.8357395332
 20
2.3078956149
 30
0.0
 10
4.8394126199
 20
2.3043760815
 30
0.0
 10
4.8451014266
 20
2.2994718846
 30
0.0
 10
4.8508992764
 20
2.2950893038
 30
0.0
 10
4.8568087088
 20
2.2913110382
 30
0.0
 10
4.8618725661
 20
2.2887162783
 30
0.0
 10
4.8659668913
 20
2.2870458433
 30
0.0
 10
4.869031004
 20
2.2860107687
 30
0.0
 10
4.8721125405
 20
2.2851913042
 30
0.0
 10
4.8752080254
 20
2.2845953156
 30
0.0
 10
4.8783132628
 20
2.2842286808
 30
0.0
 10
4.8814236682
 20
2.284095025
 30
0.0
 10
4.8845344139
 20
2.2841960574
 30
0.0
 10
4.8876406549
 20
2.2845303966
 30
0.0
 10
4.8907377574
 20
2.2850947708
 30
0.0
 10
4.8938214623
 20
2.2858835439
 30
0.0
 10
4.8968882071
 20
2.2868891026
 30
0.0
 10
4.9009862912
 20
2.2885215149
 30
0.0
 10
4.9060562291
 20
2.2910727085
 30
0.0
 10
4.9119734983
 20
2.2948056701
 30
0.0
 10
4.9177790878
 20
2.2991489455
 30
0.0
 10
4.9234752977
 20
2.3040193058
 30
0.0
 10
4.9271524783
 20
2.3075193115
 30
0.0
 10
4.9289790452
 20
2.3093347675
 30
0.0
  0
SPLINE
  5
3E0
100
AcDbEntity
  8
0
100
AcDbSpline
 62
7
  6
CONTINUOUS
 70
0
 71
3
 72
23
 73
19
 74
0
 42
0.0000001
 43
0.0000001
 44
0.0000000001
 40
0.0
 40
0.0
 40
0.0
 40
0.0
 40
0.0625026639
 40
0.1250049412
 40
0.1875064433
 40
0.2500070864
 40
0.3125067278
 40
0.3750052744
 40
0.4375028883
 40
0.5000000001
 40
0.5624971118
 40
0.6249947258
 40
0.6874932723
 40
0.7499929137
 40
0.8124935568
 40
0.8749950588
 40
0.9374973361
 40
1.0
 40
1.0
 40
1.0
 40
1.0
 10
2.815704894
 20
2.3093347675
 30
0.0
 10
2.8193960322
 20
2.3074879457
 30
0.0
 10
2.8268437814
 20
2.3039230269
 30
0.0
 10
2.8382217003
 20
2.2990292407
 30
0.0
 10
2.8498142532
 20
2.2946647677
 30
0.0
 10
2.8616210364
 20
2.2909143502
 30
0.0
 10
2.8736301216
 20
2.2878675869
 30
0.0
 10
2.8858140911
 20
2.2856122172
 30
0.0
 10
2.8981282274
 20
2.2842239802
 30
0.0
 10
2.9105121795
 20
2.2837549866
 30
0.0
 10
2.9228961316
 20
2.2842239802
 30
0.0
 10
2.9352102679
 20
2.2856122172
 30
0.0
 10
2.9473942375
 20
2.2878675869
 30
0.0
 10
2.9594033226
 20
2.2909143502
 30
0.0
 10
2.9712101058
 20
2.2946647677
 30
0.0
 10
2.9828026587
 20
2.2990292407
 30
0.0
 10
2.9941805776
 20
2.3039230269
 30
0.0
 10
3.0016283268
 20
2.3074879457
 30
0.0
 10
3.005319465
 20
2.3093347675
 30
0.0
  0
SPLINE
  5
3E1
100
AcDbEntity
  8
0
100
AcDbSpline
 62
7
  6
CONTINUOUS
 70
0
 71
3
 72
21
 73
17
 74
0
 42
0.0000001
 43
0.0000001
 44
0.0000000001
 40
0.0
 40
0.0
 40
0.0
 40
0.0
 40
0.140629867
 40
0.2093026343
 40
0.2768013469
 40
0.3430813196
 40
0.4081060897
 40
0.4718567771
 40
0.5343364731
 40
0.6555876958
 40
0.7145830181
 40
0.772655767
 40
0.8299949702
 40
0.8868267958
 40
0.9434055812
 40
1.0
 40
1.0
 40
1.0
 40
1.0
 10
3.005319465
 20
2.3093347675
 30
0.0
 10
3.0072649374
 20
2.3074011294
 30
0.0
 10
3.010227654
 20
2.3045888812
 30
0.0
 10
3.0143021986
 20
2.3010456998
 30
0.0
 10
3.0173644003
 20
2.2985513192
 30
0.0
 10
3.0204572178
 20
2.2962108889
 30
0.0
 10
3.0235808638
 20
2.2940371194
 30
0.0
 10
3.0267353408
 20
2.2920429621
 30
0.0
 10
3.0309380146
 20
2.2896660873
 30
0.0
 10
3.0352449368
 20
2.2876681933
 30
0.0
 10
3.0396355737
 20
2.2861326542
 30
0.0
 10
3.0429199096
 20
2.2852349605
 30
0.0
 10
3.0462204368
 20
2.2845909168
 30
0.0
 10
3.0495322647
 20
2.2842076275
 30
0.0
 10
3.052849472
 20
2.2840895269
 30
0.0
 10
3.0550574517
 20
2.2841886391
 30
0.0
 10
3.0561573817
 20
2.2842817399
 30
0.0
  0
SPLINE
  5
3E2
100
AcDbEntity
  8
0
100
AcDbSpline
 62
7
  6
CONTINUOUS
 70
0
 71
3
 72
10
 73
6
 74
0
 42
0.0000001
 43
0.0000001
 44
0.0000000001
 40
0.0
 40
0.0
 40
0.0
 40
0.0
 40
0.4999324594
 40
0.7499667861
 40
1.0
 40
1.0
 40
1.0
 40
1.0
 10
6.2166595444
 20
2.2924830893
 30
0.0
 10
6.2237317723
 20
2.2946839155
 30
0.0
 10
6.2341796407
 20
2.2985241463
 30
0.0
 10
6.2477529606
 20
2.3044657505
 30
0.0
 10
6.254431667
 20
2.3076772231
 30
0.0
 10
6.257744507
 20
2.3093347675
 30
0.0
  0
SPLINE
  5
3E3
100
AcDbEntity
  8
0
100
AcDbSpline
 62
7
  6
CONTINUOUS
 70
0
 71
3
 72
23
 73
19
 74
0
 42
0.0000001
 43
0.0000001
 44
0.0000000001
 40
0.0
 40
0.0
 40
0.0
 40
0.0
 40
0.0717896504
 40
0.1422062631
 40
0.2111553343
 40
0.2785591076
 40
0.344358383
 40
0.4085280493
 40
0.4710917008
 40
0.5321364382
 40
0.5918270026
 40
0.6504136111
 40
0.7082285592
 40
0.7656687386
 40
0.8231646778
 40
0.881141774
 40
0.9399827779
 40
1.0
 40
1.0
 40
1.0
 40
1.0
 10
6.257744507
 20
2.3093347675
 30
0.0
 10
6.2589757801
 20
2.3081109842
 30
0.0
 10
6.2614504295
 20
2.3057222786
 30
0.0
 10
6.2652422162
 20
2.3023009709
 30
0.0
 10
6.2690814468
 20
2.299095545
 30
0.0
 10
6.2729692687
 20
2.2961293018
 30
0.0
 10
6.2769062999
 20
2.2934272103
 30
0.0
 10
6.280892146
 20
2.2910155425
 30
0.0
 10
6.284925237
 20
2.2889212871
 30
0.0
 10
6.2890024847
 20
2.2871713037
 30
0.0
 10
6.2931188605
 20
2.2857909938
 30
0.0
 10
6.2972671301
 20
2.2848027653
 30
0.0
 10
6.3014377769
 20
2.2842242513
 30
0.0
 10
6.3056193468
 20
2.2840665166
 30
0.0
 10
6.3097992755
 20
2.2843327124
 30
0.0
 10
6.3139652685
 20
2.2850176251
 30
0.0
 10
6.3181059633
 20
2.2861082102
 30
0.0
 10
6.3208141983
 20
2.2870824
 30
0.0
 10
6.3221594159
 20
2.287627114
 30
0.0
  0
SPLINE
  5
3E4
100
AcDbEntity
  8
0
100
AcDbSpline
 62
7
  6
CONTINUOUS
 70
0
 71
3
 72
29
 73
25
 74
0
 42
0.0000001
 43
0.0000001
 44
0.0000000001
 40
0.0
 40
0.0
 40
0.0
 40
0.0
 40
0.0700127968
 40
0.1379687221
 40
0.2036848483
 40
0.2670447105
 40
0.3280583606
 40
0.3577541033
 40
0.3869629459
 40
0.4157520212
 40
0.4442056447
 40
0.4724230516
 40
0.5005151189
 40
0.5285989397
 40
0.5567920457
 40
0.5852065249
 40
0.613943459
 40
0.643089431
 40
0.672713996
 40
0.7335693498
 40
0.7967636438
 40
0.8623184124
 40
0.930123818
 40
1.0
 40
1.0
 40
1.0
 40
1.0
 10
3.0307191074
 20
2.3097201951
 30
0.0
 10
3.0325436876
 20
2.3078956149
 30
0.0
 10
3.0362167742
 20
2.3043760815
 30
0.0
 10
3.041905581
 20
2.2994718846
 30
0.0
 10
3.0477034308
 20
2.2950893038
 30
0.0
 10
3.0536128632
 20
2.2913110382
 30
0.0
 10
3.0586767205
 20
2.2887162783
 30
0.0
 10
3.0627710457
 20
2.2870458433
 30
0.0
 10
3.0658351584
 20
2.2860107687
 30
0.0
 10
3.0689166948
 20
2.2851913042
 30
0.0
 10
3.0720121798
 20
2.2845953156
 30
0.0
 10
3.0751174172
 20
2.2842286808
 30
0.0
 10
3.0782278226
 20
2.284095025
 30
0.0
 10
3.0813385683
 20
2.2841960574
 30
0.0
 10
3.0844448093
 20
2.2845303966
 30
0.0
 10
3.0875419118
 20
2.2850947708
 30
0.0
 10
3.0906256167
 20
2.2858835439
 30
0.0
 10
3.0936923615
 20
2.2868891026
 30
0.0
 10
3.0977904456
 20
2.2885215149
 30
0.0
 10
3.1028603834
 20
2.2910727085
 30
0.0
 10
3.1087776527
 20
2.2948056701
 30
0.0
 10
3.1145832421
 20
2.2991489455
 30
0.0
 10
3.1202794521
 20
2.3040193058
 30
0.0
 10
3.1239566326
 20
2.3075193115
 30
0.0
 10
3.1257831996
 20
2.3093347675
 30
0.0
  0
SPLINE
  5
3E5
100
AcDbEntity
  8
0
100
AcDbSpline
 62
7
  6
CONTINUOUS
 70
0
 71
3
 72
23
 73
19
 74
0
 42
0.0000001
 43
0.0000001
 44
0.0000000001
 40
0.0
 40
0.0
 40
0.0
 40
0.0
 40
0.0625026639
 40
0.1250049412
 40
0.1875064433
 40
0.2500070864
 40
0.3125067278
 40
0.3750052744
 40
0.4375028883
 40
0.5000000001
 40
0.5624971118
 40
0.6249947258
 40
0.6874932723
 40
0.7499929137
 40
0.8124935568
 40
0.8749950588
 40
0.9374973361
 40
1.0
 40
1.0
 40
1.0
 40
1.0
 10
3.1257831996
 20
2.3093347675
 30
0.0
 10
3.1294743378
 20
2.3074879457
 30
0.0
 10
3.136922087
 20
2.3039230269
 30
0.0
 10
3.1483000059
 20
2.2990292407
 30
0.0
 10
3.1598925588
 20
2.2946647677
 30
0.0
 10
3.171699342
 20
2.2909143502
 30
0.0
 10
3.1837084271
 20
2.2878675869
 30
0.0
 10
3.1958923967
 20
2.2856122172
 30
0.0
 10
3.208206533
 20
2.2842239802
 30
0.0
 10
3.2205904851
 20
2.2837549866
 30
0.0
 10
3.2329744372
 20
2.2842239802
 30
0.0
 10
3.2452885735
 20
2.2856122172
 30
0.0
 10
3.2574725431
 20
2.2878675869
 30
0.0
 10
3.2694816282
 20
2.2909143502
 30
0.0
 10
3.2812884114
 20
2.2946647677
 30
0.0
 10
3.2928809643
 20
2.2990292407
 30
0.0
 10
3.3042588832
 20
2.3039230269
 30
0.0
 10
3.3117066324
 20
2.3074879457
 30
0.0
 10
3.3153977706
 20
2.3093347675
 30
0.0
  0
SPLINE
  5
3E6
100
AcDbEntity
  8
0
100
AcDbSpline
 62
7
  6
CONTINUOUS
 70
0
 71
3
 72
29
 73
25
 74
0
 42
0.0000001
 43
0.0000001
 44
0.0000000001
 40
0.0
 40
0.0
 40
0.0
 40
0.0
 40
0.069876182
 40
0.1376815877
 40
0.2032363563
 40
0.2664306502
 40
0.3272860042
 40
0.3569105691
 40
0.3860565411
 40
0.4147934752
 40
0.4432079544
 40
0.4714010604
 40
0.4994848812
 40
0.5275769486
 40
0.5557943554
 40
0.5842479789
 40
0.6130370542
 40
0.6422458967
 40
0.6719416394
 40
0.7329552895
 40
0.7963151517
 40
0.8620312779
 40
0.9299872032
 40
1.0
 40
1.0
 40
1.0
 40
1.0
 10
3.3153977706
 20
2.3093347675
 30
0.0
 10
3.3172243375
 20
2.3075193115
 30
0.0
 10
3.3209015181
 20
2.3040193058
 30
0.0
 10
3.326597728
 20
2.2991489455
 30
0.0
 10
3.3324033175
 20
2.2948056701
 30
0.0
 10
3.3383205867
 20
2.2910727085
 30
0.0
 10
3.3433905246
 20
2.2885215149
 30
0.0
 10
3.3474886087
 20
2.2868891026
 30
0.0
 10
3.3505553535
 20
2.2858835439
 30
0.0
 10
3.3536390584
 20
2.2850947708
 30
0.0
 10
3.3567361609
 20
2.2845303966
 30
0.0
 10
3.3598424019
 20
2.2841960574
 30
0.0
 10
3.3629531476
 20
2.284095025
 30
0.0
 10
3.366063553
 20
2.2842286808
 30
0.0
 10
3.3691687904
 20
2.2845953156
 30
0.0
 10
3.3722642754
 20
2.2851913042
 30
0.0
 10
3.3753458118
 20
2.2860107687
 30
0.0
 10
3.3784099245
 20
2.2870458433
 30
0.0
 10
3.3825042497
 20
2.2887162783
 30
0.0
 10
3.387568107
 20
2.2913110382
 30
0.0
 10
3.3934775394
 20
2.2950893038
 30
0.0
 10
3.3992753892
 20
2.2994718846
 30
0.0
 10
3.4049641959
 20
2.3043760815
 30
0.0
 10
3.4086372826
 20
2.3078956149
 30
0.0
 10
3.4104618628
 20
2.3097201951
 30
0.0
  0
SPLINE
  5
3E7
100
AcDbEntity
  8
0
100
AcDbSpline
 62
7
  6
CONTINUOUS
 70
0
 71
3
 72
39
 73
35
 74
0
 42
0.0000001
 43
0.0000001
 44
0.0000000001
 40
0.0
 40
0.0
 40
0.0
 40
0.0
 40
0.0352399938
 40
0.0699877587
 40
0.1042165142
 40
0.1379023293
 40
0.1710233868
 40
0.2035621064
 40
0.2355068002
 40
0.2668536933
 40
0.2976094596
 40
0.3277935143
 40
0.3574402178
 40
0.3866007448
 40
0.4153439131
 40
0.4437556635
 40
0.4719369566
 40
0.5
 40
0.5280630435
 40
0.5562443366
 40
0.584656087
 40
0.6133992552
 40
0.6425597823
 40
0.6722064857
 40
0.7023905404
 40
0.7331463068
 40
0.7644931998
 40
0.7964378936
 40
0.8289766132
 40
0.8620976707
 40
0.8957834858
 40
0.9300122413
 40
0.9647600062
 40
1.0
 40
1.0
 40
1.0
 40
1.0
 10
4.6855469759
 20
5.6372189787
 30
0.0
 10
4.6884254776
 20
5.6400974804
 30
0.0
 10
4.6942046047
 20
5.6457524443
 30
0.0
 10
4.7030106146
 20
5.6539631685
 30
0.0
 10
4.7118975619
 20
5.6618181377
 30
0.0
 10
4.7208672788
 20
5.6692885599
 30
0.0
 10
4.7299212099
 20
5.6763439335
 30
0.0
 10
4.7390599852
 20
5.6829521097
 30
0.0
 10
4.7482834346
 20
5.6890794464
 30
0.0
 10
4.7575902913
 20
5.6946913174
 30
0.0
 10
4.7669780085
 20
5.6997526412
 30
0.0
 10
4.7764426084
 20
5.7042284736
 30
0.0
 10
4.7859784046
 20
5.7080849857
 30
0.0
 10
4.7955778451
 20
5.711290513
 30
0.0
 10
4.8052314539
 20
5.7138166455
 30
0.0
 10
4.814927845
 20
5.7156394244
 30
0.0
 10
4.8246538815
 20
5.7167406484
 30
0.0
 10
4.8343950922
 20
5.7171090104
 30
0.0
 10
4.8441363029
 20
5.7167406484
 30
0.0
 10
4.8538623393
 20
5.7156394244
 30
0.0
 10
4.8635587305
 20
5.7138166455
 30
0.0
 10
4.8732123393
 20
5.711290513
 30
0.0
 10
4.8828117797
 20
5.7080849857
 30
0.0
 10
4.892347576
 20
5.7042284736
 30
0.0
 10
4.9018121759
 20
5.6997526412
 30
0.0
 10
4.911199893
 20
5.6946913174
 30
0.0
 10
4.9205067497
 20
5.6890794464
 30
0.0
 10
4.9297301991
 20
5.6829521097
 30
0.0
 10
4.9388689744
 20
5.6763439335
 30
0.0
 10
4.9479229055
 20
5.6692885599
 30
0.0
 10
4.9568926225
 20
5.6618181377
 30
0.0
 10
4.9657795697
 20
5.6539631685
 30
0.0
 10
4.9745855797
 20
5.6457524443
 30
0.0
 10
4.9803647067
 20
5.6400974804
 30
0.0
 10
4.9832432084
 20
5.6372189787
 30
0.0
  0
SPLINE
  5
3E8
100
AcDbEntity
  8
0
100
AcDbSpline
 62
7
  6
CONTINUOUS
 70
0
 71
3
 72
29
 73
25
 74
0
 42
0.0000001
 43
0.0000001
 44
0.0000000001
 40
0.0
 40
0.0
 40
0.0
 40
0.0
 40
0.069876182
 40
0.1376815877
 40
0.2032363563
 40
0.2664306502
 40
0.3272860042
 40
0.3569105691
 40
0.3860565411
 40
0.4147934752
 40
0.4432079544
 40
0.4714010604
 40
0.4994848812
 40
0.5275769486
 40
0.5557943554
 40
0.5842479789
 40
0.6130370542
 40
0.6422458967
 40
0.6719416394
 40
0.7329552895
 40
0.7963151517
 40
0.8620312779
 40
0.9299872032
 40
1.0
 40
1.0
 40
1.0
 40
1.0
 10
4.6128502308
 20
2.3093347675
 30
0.0
 10
4.6146767977
 20
2.3075193115
 30
0.0
 10
4.6183539782
 20
2.3040193058
 30
0.0
 10
4.6240501882
 20
2.2991489455
 30
0.0
 10
4.6298557776
 20
2.2948056701
 30
0.0
 10
4.6357730469
 20
2.2910727085
 30
0.0
 10
4.6408429847
 20
2.2885215149
 30
0.0
 10
4.6449410689
 20
2.2868891026
 30
0.0
 10
4.6480078137
 20
2.2858835439
 30
0.0
 10
4.6510915186
 20
2.2850947708
 30
0.0
 10
4.6541886211
 20
2.2845303966
 30
0.0
 10
4.6572948621
 20
2.2841960574
 30
0.0
 10
4.6604056078
 20
2.284095025
 30
0.0
 10
4.6635160132
 20
2.2842286808
 30
0.0
 10
4.6666212505
 20
2.2845953156
 30
0.0
 10
4.6697167355
 20
2.2851913042
 30
0.0
 10
4.672798272
 20
2.2860107687
 30
0.0
 10
4.6758623847
 20
2.2870458433
 30
0.0
 10
4.6799567099
 20
2.2887162783
 30
0.0
 10
4.6850205672
 20
2.2913110382
 30
0.0
 10
4.6909299996
 20
2.2950893038
 30
0.0
 10
4.6967278494
 20
2.2994718846
 30
0.0
 10
4.7024166561
 20
2.3043760815
 30
0.0
 10
4.7060897427
 20
2.3078956149
 30
0.0
 10
4.707914323
 20
2.3097201951
 30
0.0
  0
SPLINE
  5
3E9
100
AcDbEntity
  8
0
100
AcDbSpline
 62
7
  6
CONTINUOUS
 70
0
 71
3
 72
23
 73
19
 74
0
 42
0.0000001
 43
0.0000001
 44
0.0000000001
 40
0.0
 40
0.0
 40
0.0
 40
0.0
 40
0.0625026639
 40
0.1250049412
 40
0.1875064433
 40
0.2500070864
 40
0.3125067278
 40
0.3750052744
 40
0.4375028883
 40
0.5000000001
 40
0.5624971118
 40
0.6249947258
 40
0.6874932723
 40
0.7499929137
 40
0.8124935568
 40
0.8749950588
 40
0.9374973361
 40
1.0
 40
1.0
 40
1.0
 40
1.0
 10
4.4232356598
 20
2.3093347675
 30
0.0
 10
4.4269267979
 20
2.3074879457
 30
0.0
 10
4.4343745471
 20
2.3039230269
 30
0.0
 10
4.445752466
 20
2.2990292407
 30
0.0
 10
4.457345019
 20
2.2946647677
 30
0.0
 10
4.4691518022
 20
2.2909143502
 30
0.0
 10
4.4811608873
 20
2.2878675869
 30
0.0
 10
4.4933448569
 20
2.2856122172
 30
0.0
 10
4.5056589932
 20
2.2842239802
 30
0.0
 10
4.5180429453
 20
2.2837549866
 30
0.0
 10
4.5304268973
 20
2.2842239802
 30
0.0
 10
4.5427410336
 20
2.2856122172
 30
0.0
 10
4.5549250032
 20
2.2878675869
 30
0.0
 10
4.5669340883
 20
2.2909143502
 30
0.0
 10
4.5787408716
 20
2.2946647677
 30
0.0
 10
4.5903334245
 20
2.2990292407
 30
0.0
 10
4.6017113434
 20
2.3039230269
 30
0.0
 10
4.6091590926
 20
2.3074879457
 30
0.0
 10
4.6128502308
 20
2.3093347675
 30
0.0
  0
SPLINE
  5
3EA
100
AcDbEntity
  8
0
100
AcDbSpline
 62
7
  6
CONTINUOUS
 70
0
 71
3
 72
29
 73
25
 74
0
 42
0.0000001
 43
0.0000001
 44
0.0000000001
 40
0.0
 40
0.0
 40
0.0
 40
0.0
 40
0.0700127968
 40
0.1379687221
 40
0.2036848483
 40
0.2670447105
 40
0.3280583606
 40
0.3577541033
 40
0.3869629459
 40
0.4157520212
 40
0.4442056447
 40
0.4724230516
 40
0.5005151189
 40
0.5285989397
 40
0.5567920457
 40
0.5852065249
 40
0.613943459
 40
0.643089431
 40
0.672713996
 40
0.7335693498
 40
0.7967636438
 40
0.8623184124
 40
0.930123818
 40
1.0
 40
1.0
 40
1.0
 40
1.0
 10
4.3281715676
 20
2.3097201951
 30
0.0
 10
4.3299961478
 20
2.3078956149
 30
0.0
 10
4.3336692344
 20
2.3043760815
 30
0.0
 10
4.3393580411
 20
2.2994718846
 30
0.0
 10
4.3451558909
 20
2.2950893038
 30
0.0
 10
4.3510653234
 20
2.2913110382
 30
0.0
 10
4.3561291807
 20
2.2887162783
 30
0.0
 10
4.3602235058
 20
2.2870458433
 30
0.0
 10
4.3632876185
 20
2.2860107687
 30
0.0
 10
4.366369155
 20
2.2851913042
 30
0.0
 10
4.36946464
 20
2.2845953156
 30
0.0
 10
4.3725698773
 20
2.2842286808
 30
0.0
 10
4.3756802828
 20
2.284095025
 30
0.0
 10
4.3787910284
 20
2.2841960574
 30
0.0
 10
4.3818972694
 20
2.2845303966
 30
0.0
 10
4.3849943719
 20
2.2850947708
 30
0.0
 10
4.3880780768
 20
2.2858835439
 30
0.0
 10
4.3911448217
 20
2.2868891026
 30
0.0
 10
4.3952429058
 20
2.2885215149
 30
0.0
 10
4.4003128436
 20
2.2910727085
 30
0.0
 10
4.4062301129
 20
2.2948056701
 30
0.0
 10
4.4120357023
 20
2.2991489455
 30
0.0
 10
4.4177319123
 20
2.3040193058
 30
0.0
 10
4.4214090928
 20
2.3075193115
 30
0.0
 10
4.4232356598
 20
2.3093347675
 30
0.0
  0
SPLINE
  5
3EB
100
AcDbEntity
  8
0
100
AcDbSpline
 62
7
  6
CONTINUOUS
 70
0
 71
3
 72
29
 73
25
 74
0
 42
0.0000001
 43
0.0000001
 44
0.0000000001
 40
0.0
 40
0.0
 40
0.0
 40
0.0
 40
0.0700127968
 40
0.1379687221
 40
0.2036848483
 40
0.2670447105
 40
0.3280583606
 40
0.3577541033
 40
0.3869629459
 40
0.4157520212
 40
0.4442056447
 40
0.4724230516
 40
0.5005151189
 40
0.5285989397
 40
0.5567920457
 40
0.5852065249
 40
0.613943459
 40
0.643089431
 40
0.672713996
 40
0.7335693498
 40
0.7967636438
 40
0.8623184124
 40
0.930123818
 40
1.0
 40
1.0
 40
1.0
 40
1.0
 10
3.4109570161
 20
2.3097201951
 30
0.0
 10
3.4127815964
 20
2.3078956149
 30
0.0
 10
3.416454683
 20
2.3043760815
 30
0.0
 10
3.4221434897
 20
2.2994718846
 30
0.0
 10
3.4279413395
 20
2.2950893038
 30
0.0
 10
3.4338507719
 20
2.2913110382
 30
0.0
 10
3.4389146292
 20
2.2887162783
 30
0.0
 10
3.4430089544
 20
2.2870458433
 30
0.0
 10
3.4460730671
 20
2.2860107687
 30
0.0
 10
3.4491546036
 20
2.2851913042
 30
0.0
 10
3.4522500886
 20
2.2845953156
 30
0.0
 10
3.4553553259
 20
2.2842286808
 30
0.0
 10
3.4584657313
 20
2.284095025
 30
0.0
 10
3.461576477
 20
2.2841960574
 30
0.0
 10
3.464682718
 20
2.2845303966
 30
0.0
 10
3.4677798205
 20
2.2850947708
 30
0.0
 10
3.4708635254
 20
2.2858835439
 30
0.0
 10
3.4739302703
 20
2.2868891026
 30
0.0
 10
3.4780283544
 20
2.2885215149
 30
0.0
 10
3.4830982922
 20
2.2910727085
 30
0.0
 10
3.4890155615
 20
2.2948056701
 30
0.0
 10
3.4948211509
 20
2.2991489455
 30
0.0
 10
3.5005173609
 20
2.3040193058
 30
0.0
 10
3.5041945414
 20
2.3075193115
 30
0.0
 10
3.5060211083
 20
2.3093347675
 30
0.0
  0
SPLINE
  5
3EC
100
AcDbEntity
  8
0
100
AcDbSpline
 62
7
  6
CONTINUOUS
 70
0
 71
3
 72
23
 73
19
 74
0
 42
0.0000001
 43
0.0000001
 44
0.0000000001
 40
0.0
 40
0.0
 40
0.0
 40
0.0
 40
0.0625026639
 40
0.1250049412
 40
0.1875064433
 40
0.2500070864
 40
0.3125067278
 40
0.3750052744
 40
0.4375028883
 40
0.5000000001
 40
0.5624971118
 40
0.6249947258
 40
0.6874932723
 40
0.7499929137
 40
0.8124935568
 40
0.8749950588
 40
0.9374973361
 40
1.0
 40
1.0
 40
1.0
 40
1.0
 10
3.5060211083
 20
2.3093347675
 30
0.0
 10
3.5097122465
 20
2.3074879457
 30
0.0
 10
3.5171599957
 20
2.3039230269
 30
0.0
 10
3.5285379146
 20
2.2990292407
 30
0.0
 10
3.5401304675
 20
2.2946647677
 30
0.0
 10
3.5519372508
 20
2.2909143502
 30
0.0
 10
3.5639463359
 20
2.2878675869
 30
0.0
 10
3.5761303055
 20
2.2856122172
 30
0.0
 10
3.5884444418
 20
2.2842239802
 30
0.0
 10
3.6008283938
 20
2.2837549866
 30
0.0
 10
3.6132123459
 20
2.2842239802
 30
0.0
 10
3.6255264822
 20
2.2856122172
 30
0.0
 10
3.6377104518
 20
2.2878675869
 30
0.0
 10
3.6497195369
 20
2.2909143502
 30
0.0
 10
3.6615263201
 20
2.2946647677
 30
0.0
 10
3.6731188731
 20
2.2990292407
 30
0.0
 10
3.684496792
 20
2.3039230269
 30
0.0
 10
3.6919445412
 20
2.3074879457
 30
0.0
 10
3.6956356793
 20
2.3093347675
 30
0.0
  0
SPLINE
  5
3ED
100
AcDbEntity
  8
0
100
AcDbSpline
 62
7
  6
CONTINUOUS
 70
0
 71
3
 72
29
 73
25
 74
0
 42
0.0000001
 43
0.0000001
 44
0.0000000001
 40
0.0
 40
0.0
 40
0.0
 40
0.0
 40
0.069876182
 40
0.1376815877
 40
0.2032363563
 40
0.2664306502
 40
0.3272860042
 40
0.3569105691
 40
0.3860565411
 40
0.4147934752
 40
0.4432079544
 40
0.4714010604
 40
0.4994848812
 40
0.5275769486
 40
0.5557943554
 40
0.5842479789
 40
0.6130370542
 40
0.6422458967
 40
0.6719416394
 40
0.7329552895
 40
0.7963151517
 40
0.8620312779
 40
0.9299872032
 40
1.0
 40
1.0
 40
1.0
 40
1.0
 10
3.6956356793
 20
2.3093347675
 30
0.0
 10
3.6974622463
 20
2.3075193115
 30
0.0
 10
3.7011394268
 20
2.3040193058
 30
0.0
 10
3.7068356368
 20
2.2991489455
 30
0.0
 10
3.7126412262
 20
2.2948056701
 30
0.0
 10
3.7185584955
 20
2.2910727085
 30
0.0
 10
3.7236284333
 20
2.2885215149
 30
0.0
 10
3.7277265174
 20
2.2868891026
 30
0.0
 10
3.7307932623
 20
2.2858835439
 30
0.0
 10
3.7338769672
 20
2.2850947708
 30
0.0
 10
3.7369740697
 20
2.2845303966
 30
0.0
 10
3.7400803107
 20
2.2841960574
 30
0.0
 10
3.7431910563
 20
2.284095025
 30
0.0
 10
3.7463014618
 20
2.2842286808
 30
0.0
 10
3.7494066991
 20
2.2845953156
 30
0.0
 10
3.7525021841
 20
2.2851913042
 30
0.0
 10
3.7555837206
 20
2.2860107687
 30
0.0
 10
3.7586478333
 20
2.2870458433
 30
0.0
 10
3.7627421584
 20
2.2887162783
 30
0.0
 10
3.7678060157
 20
2.2913110382
 30
0.0
 10
3.7737154482
 20
2.2950893038
 30
0.0
 10
3.779513298
 20
2.2994718846
 30
0.0
 10
3.7852021047
 20
2.3043760815
 30
0.0
 10
3.7888751913
 20
2.3078956149
 30
0.0
 10
3.7906997715
 20
2.3097201951
 30
0.0
  0
SPLINE
  5
3EE
100
AcDbEntity
  8
0
100
AcDbSpline
 62
7
  6
CONTINUOUS
 70
0
 71
3
 72
25
 73
21
 74
0
 42
0.0000001
 43
0.0000001
 44
0.0000000001
 40
0.0
 40
0.0
 40
0.0
 40
0.0
 40
0.0589960512
 40
0.0885527314
 40
0.1181579493
 40
0.1775687773
 40
0.2373769255
 40
0.2674729675
 40
0.2977053871
 40
0.3585959968
 40
0.4201276372
 40
0.4823326175
 40
0.5452166917
 40
0.6087597357
 40
0.6729173693
 40
0.7376229085
 40
0.802791536
 40
0.8683195754
 40
0.9340988398
 40
1.0
 40
1.0
 40
1.0
 40
1.0
 10
5.727189441
 20
5.9333614438
 30
0.0
 10
5.7285068848
 20
5.9333614438
 30
0.0
 10
5.7304865869
 20
5.9332525734
 30
0.0
 10
5.7331013591
 20
5.932891981
 30
0.0
 10
5.7357019501
 20
5.9323875429
 30
0.0
 10
5.7389086827
 20
5.9314888021
 30
0.0
 10
5.7420103568
 20
5.9302468821
 30
0.0
 10
5.7444151156
 20
5.9290551661
 30
0.0
 10
5.7467751291
 20
5.9277271011
 30
0.0
 10
5.7496118335
 20
5.9258247742
 30
0.0
 10
5.7527898389
 20
5.9231875421
 30
0.0
 10
5.7557207922
 20
5.9202153672
 30
0.0
 10
5.758376404
 20
5.9169371519
 30
0.0
 10
5.7607314113
 20
5.9133845284
 30
0.0
 10
5.7627633411
 20
5.9095917426
 30
0.0
 10
5.7644528858
 20
5.9055952662
 30
0.0
 10
5.7657838936
 20
5.9014335402
 30
0.0
 10
5.766743841
 20
5.897146337
 30
0.0
 10
5.767323405
 20
5.892775287
 30
0.0
 10
5.7674525989
 20
5.8898330859
 30
0.0
 10
5.7674525989
 20
5.8883614438
 30
0.0
  0
SPLINE
  5
3EF
100
AcDbEntity
  8
0
100
AcDbSpline
 62
7
  6
CONTINUOUS
 70
0
 71
3
 72
29
 73
25
 74
0
 42
0.0000001
 43
0.0000001
 44
0.0000000001
 40
0.0
 40
0.0
 40
0.0
 40
0.0
 40
0.0700127968
 40
0.1379687221
 40
0.2036848483
 40
0.2670447105
 40
0.3280583606
 40
0.3577541033
 40
0.3869629459
 40
0.4157520212
 40
0.4442056447
 40
0.4724230516
 40
0.5005151189
 40
0.5285989397
 40
0.5567920457
 40
0.5852065249
 40
0.613943459
 40
0.643089431
 40
0.672713996
 40
0.7335693498
 40
0.7967636438
 40
0.8623184124
 40
0.930123818
 40
1.0
 40
1.0
 40
1.0
 40
1.0
 10
3.8484065559
 20
2.3097201951
 30
0.0
 10
3.8502311362
 20
2.3078956149
 30
0.0
 10
3.8539042228
 20
2.3043760815
 30
0.0
 10
3.8595930295
 20
2.2994718846
 30
0.0
 10
3.8653908793
 20
2.2950893038
 30
0.0
 10
3.8713003117
 20
2.2913110382
 30
0.0
 10
3.876364169
 20
2.2887162783
 30
0.0
 10
3.8804584942
 20
2.2870458433
 30
0.0
 10
3.8835226069
 20
2.2860107687
 30
0.0
 10
3.8866041434
 20
2.2851913042
 30
0.0
 10
3.8896996284
 20
2.2845953156
 30
0.0
 10
3.8928048657
 20
2.2842286808
 30
0.0
 10
3.8959152711
 20
2.284095025
 30
0.0
 10
3.8990260168
 20
2.2841960574
 30
0.0
 10
3.9021322578
 20
2.2845303966
 30
0.0
 10
3.9052293603
 20
2.2850947708
 30
0.0
 10
3.9083130652
 20
2.2858835439
 30
0.0
 10
3.91137981
 20
2.2868891026
 30
0.0
 10
3.9154778941
 20
2.2885215149
 30
0.0
 10
3.920547832
 20
2.2910727085
 30
0.0
 10
3.9264651013
 20
2.2948056701
 30
0.0
 10
3.9322706907
 20
2.2991489455
 30
0.0
 10
3.9379669007
 20
2.3040193058
 30
0.0
 10
3.9416440812
 20
2.3075193115
 30
0.0
 10
3.9434706481
 20
2.3093347675
 30
0.0
  0
SPLINE
  5
3F0
100
AcDbEntity
  8
0
100
AcDbSpline
 62
7
  6
CONTINUOUS
 70
0
 71
3
 72
23
 73
19
 74
0
 42
0.0000001
 43
0.0000001
 44
0.0000000001
 40
0.0
 40
0.0
 40
0.0
 40
0.0
 40
0.0625026639
 40
0.1250049412
 40
0.1875064433
 40
0.2500070864
 40
0.3125067278
 40
0.3750052744
 40
0.4375028883
 40
0.5000000001
 40
0.5624971118
 40
0.6249947258
 40
0.6874932723
 40
0.7499929137
 40
0.8124935568
 40
0.8749950588
 40
0.9374973361
 40
1.0
 40
1.0
 40
1.0
 40
1.0
 10
3.9434706481
 20
2.3093347675
 30
0.0
 10
3.9471617863
 20
2.3074879457
 30
0.0
 10
3.9546095355
 20
2.3039230269
 30
0.0
 10
3.9659874544
 20
2.2990292407
 30
0.0
 10
3.9775800073
 20
2.2946647677
 30
0.0
 10
3.9893867906
 20
2.2909143502
 30
0.0
 10
4.0013958757
 20
2.2878675869
 30
0.0
 10
4.0135798453
 20
2.2856122172
 30
0.0
 10
4.0258939816
 20
2.2842239802
 30
0.0
 10
4.0382779336
 20
2.2837549866
 30
0.0
 10
4.0506618857
 20
2.2842239802
 30
0.0
 10
4.062976022
 20
2.2856122172
 30
0.0
 10
4.0751599916
 20
2.2878675869
 30
0.0
 10
4.0871690767
 20
2.2909143502
 30
0.0
 10
4.0989758599
 20
2.2946647677
 30
0.0
 10
4.1105684129
 20
2.2990292407
 30
0.0
 10
4.1219463317
 20
2.3039230269
 30
0.0
 10
4.129394081
 20
2.3074879457
 30
0.0
 10
4.1330852191
 20
2.3093347675
 30
0.0
  0
SPLINE
  5
3F1
100
AcDbEntity
  8
0
100
AcDbSpline
 62
7
  6
CONTINUOUS
 70
0
 71
3
 72
29
 73
25
 74
0
 42
0.0000001
 43
0.0000001
 44
0.0000000001
 40
0.0
 40
0.0
 40
0.0
 40
0.0
 40
0.069876182
 40
0.1376815877
 40
0.2032363563
 40
0.2664306502
 40
0.3272860042
 40
0.3569105691
 40
0.3860565411
 40
0.4147934752
 40
0.4432079544
 40
0.4714010604
 40
0.4994848812
 40
0.5275769486
 40
0.5557943554
 40
0.5842479789
 40
0.6130370542
 40
0.6422458967
 40
0.6719416394
 40
0.7329552895
 40
0.7963151517
 40
0.8620312779
 40
0.9299872032
 40
1.0
 40
1.0
 40
1.0
 40
1.0
 10
4.1330852191
 20
2.3093347675
 30
0.0
 10
4.1349117861
 20
2.3075193115
 30
0.0
 10
4.1385889666
 20
2.3040193058
 30
0.0
 10
4.1442851766
 20
2.2991489455
 30
0.0
 10
4.150090766
 20
2.2948056701
 30
0.0
 10
4.1560080353
 20
2.2910727085
 30
0.0
 10
4.1610779731
 20
2.2885215149
 30
0.0
 10
4.1651760572
 20
2.2868891026
 30
0.0
 10
4.1682428021
 20
2.2858835439
 30
0.0
 10
4.171326507
 20
2.2850947708
 30
0.0
 10
4.1744236095
 20
2.2845303966
 30
0.0
 10
4.1775298505
 20
2.2841960574
 30
0.0
 10
4.1806405961
 20
2.284095025
 30
0.0
 10
4.1837510016
 20
2.2842286808
 30
0.0
 10
4.1868562389
 20
2.2845953156
 30
0.0
 10
4.1899517239
 20
2.2851913042
 30
0.0
 10
4.1930332604
 20
2.2860107687
 30
0.0
 10
4.1960973731
 20
2.2870458433
 30
0.0
 10
4.2001916982
 20
2.2887162783
 30
0.0
 10
4.2052555555
 20
2.2913110382
 30
0.0
 10
4.211164988
 20
2.2950893038
 30
0.0
 10
4.2169628378
 20
2.2994718846
 30
0.0
 10
4.2226516445
 20
2.3043760815
 30
0.0
 10
4.2263247311
 20
2.3078956149
 30
0.0
 10
4.2281493113
 20
2.3097201951
 30
0.0
  0
ENDSEC
  0
SECTION
  2
OBJECTS
  0
DICTIONARY
  5
C
100
AcDbDictionary
280
0
281
1
  3
ACAD_GROUP
350
D
  3
ACAD_MLINESTYLE
350
17
  3
ACAD_LAYOUT
350
1A
  3
ACAD_PLOTSETTINGS
350
19
  3
ACAD_PLOTSTYLENAME
350
E
  0
DICTIONARY
  5
D
102
{ACAD_REACTORS
330
C
102
}
100
AcDbDictionary
280
0
281
1
  0
ACDBDICTIONARYWDFLT
  5
E
102
{ACAD_REACTORS
330
C
102
}
100
AcDbDictionary
281
1
  3
Normal
350
F
100
AcDbDictionaryWithDefault
340
F
  0
DICTIONARY
  5
17
102
{ACAD_REACTORS
330
C
102
}
100
AcDbDictionary
280
0
281
1
  3
Standard
350
18
  0
DICTIONARY
  5
19
102
{ACAD_REACTORS
330
C
102
}
100
AcDbDictionary
281
1
  0
DICTIONARY
  5
1A
102
{ACAD_REACTORS
330
C
102
}
100
AcDbDictionary
281
1
  3
Model
350
3F2
  3
Layout1
350
3F3
  0
ACDBPLACEHOLDER
  5
F
102
{ACAD_REACTORS
330
E
102
}
  0
MLINESTYLE
  5
18
102
{ACAD_REACTORS
330
17
102
}
100
AcDbMlineStyle
  2
STANDARD
 70
0
  3

 62
256
 51
90.0
 52
90.0
 71
2
 49
0.5
 62
256
  6
BYLAYER
 49
-0.5
 62
256
  6
BYLAYER
  0
LAYOUT
  5
3F2
102
{ACAD_REACTORS
330
1A
102
}
100
AcDbPlotSettings
  1

  2
none_device
  4
ANSI_A_(11.00_x_8.50_Inches)
  6

 40
0.0
 41
0.0
 42
0.0
 43
0.0
 44
279.4
 45
215.9
 46
0.0
 47
0.0
 48
0.0
 49
0.0
140
0.0
141
0.0
142
1.0
143
1.0
 70
1024
 72
0
 73
0
 74
0
  7

 75
0
147
1.0
148
0.0
149
0.0
100
AcDbLayout
  1
Model
 70
0
 71
0
 10
0.0
 20
0.0
 11
11.0
 21
8.5
 12
0.0
 22
0.0
 32
0.0
 14
0.0
 24
0.0
 34
0.0
 15
0.0
 25
0.0
 35
0.0
146
0.0
 13
0.0
 23
0.0
 33
0.0
 16
1.0
 26
0.0
 36
0.0
 17
0.0
 27
1.0
 37
0.0
 76
0
330
202
345
0
346
0
  0
LAYOUT
  5
3F3
102
{ACAD_REACTORS
330
1A
102
}
100
AcDbPlotSettings
  1

  2
none_device
  4
ANSI_A_(11.00_x_8.50_Inches)
  6

 40
0.0
 41
0.0
 42
0.0
 43
0.0
 44
279.4
 45
215.9
 46
0.0
 47
0.0
 48
0.0
 49
0.0
140
0.0
141
0.0
142
1.0
143
1.0
 70
0
 72
0
 73
0
 74
0
  7

 75
0
147
1.0
148
0.0
149
0.0
100
AcDbLayout
  1
Layout1
 70
0
 71
1
 10
0.0
 20
0.0
 11
11.0
 21
8.5
 12
0.0
 22
0.0
 32
0.0
 14
0.0
 24
0.0
 34
0.0
 15
0.0
 25
0.0
 35
0.0
146
0.0
 13
0.0
 23
0.0
 33
0.0
 16
1.0
 26
0.0
 36
0.0
 17
0.0
 27
1.0
 37
0.0
 76
0
330
203
345
0
346
0
  0
ENDSEC
  0
EOF
