999
DXF file: 2162_SIDE.dxf
999
Pro/ENGINEER 2023134 by Parametric Technology Corporation
  0
SECTION
  2
HEADER
  9
$ACADVER
  1
AC1032
  9
$DWGCODEPAGE
  3
ANSI_1252
  9
$EXTMAX
 10
11.0
 20
8.5
 30
0.0
  9
$EXTMIN
 10
0.0
 20
0.0
 30
0.0
  9
$LIMMIN
 10
0.0
 20
0.0
  9
$LIMMAX
 10
11.0
 20
8.5
  9
$VIEWCTR
 10
5.5
 20
4.25
  9
$VIEWSIZE
 40
8.5
  9
$CLAYER
  8
0
  9
$LTSCALE
 40
0.605
  9
$CELTYPE
  6
BYLAYER
  9
$DIMSCALE
 40
1.0
  9
$DIMASZ
 40
0.1
  9
$DIMEXO
 40
0.0625
  9
$DIMDLI
 40
0.418
  9
$DIMEXE
 40
0.125
  9
$DIMCEN
 40
0.099
  9
$DIMLFAC
 40
1.0
  9
$DIMBLK
  1
_FILLED
  9
$DIMALT
 70
1
  9
$DIMALTD
 70
2
  9
$DIMALTTD
 70
2
  9
$DIMALTF
 40
25.4
  9
$DIMTXT
 40
0.08
  9
$DIMTOL
 70
1
  9
$DIMLIM
 70
0
  9
$DIMTFAC
 40
1.0
  9
$DIMTP
 40
0.001
  9
$DIMTM
 40
0.001
  9
$DIMGAP
 40
0.09
  9
$DIMDSEP
 70
46
  9
$AUNITS
 70
0
  9
$PDMODE
 70
3
  9
$PDSIZE
 40
0.3125
  9
$HANDSEED
  5
386
  9
$TILEMODE
 70
1
  9
$MEASUREMENT
 70
0
  9
$INSUNITS
 70
1
  0
ENDSEC
  0
SECTION
  2
CLASSES
  0
CLASS
  1
ACDBDICTIONARYWDFLT
  2
AcDbDictionaryWithDefault
  3
AutoCAD 2000
 90
0
 91
1
280
0
281
0
  0
CLASS
  1
ACDBPLACEHOLDER
  2
AcDbPlaceHolder
  3
AutoCAD 2000
 90
0
 91
1
280
0
281
0
  0
CLASS
  1
LAYOUT
  2
AcDbLayout
  3
AutoCAD 2000
 90
0
 91
0
280
0
281
0
  0
ENDSEC
  0
SECTION
  2
TABLES
  0
TABLE
  2
VPORT
  5
8
100
AcDbSymbolTable
 70
2
  0
VPORT
  5
1F4
100
AcDbSymbolTableRecord
100
AcDbViewportTableRecord
  2
*ACTIVE
 70
0
 10
0.0
 20
0.0
 11
1.0
 21
1.0
 12
5.5
 22
4.25
 13
0.0
 23
0.0
 14
1.0
 24
1.0
 15
0.0
 25
0.0
 16
0.0
 26
0.0
 36
1.0
 17
0.0
 27
0.0
 37
0.0
 40
8.5
 41
1.2941176471
 42
50.0
 43
0.0
 44
0.0
 50
0.0
 51
0.0
 71
0
 72
100
 73
1
 74
1
 75
0
 76
0
 77
0
 78
0
  0
ENDTAB
  0
TABLE
  2
LTYPE
  5
5
100
AcDbSymbolTable
 70
6
  0
LTYPE
  5
14
100
AcDbSymbolTableRecord
100
AcDbLinetypeTableRecord
  2
BYBLOCK
 70
0
  3

 72
65
 73
0
 40
0.0
  0
LTYPE
  5
15
100
AcDbSymbolTableRecord
100
AcDbLinetypeTableRecord
  2
BYLAYER
 70
0
  3

 72
65
 73
0
 40
0.0
  0
LTYPE
  5
16
100
AcDbSymbolTableRecord
100
AcDbLinetypeTableRecord
  2
CONTINUOUS
 70
64
  3
Solid line
 72
65
 73
0
 40
0.0
  0
LTYPE
  5
1F5
100
AcDbSymbolTableRecord
100
AcDbLinetypeTableRecord
  2
CENTER
 70
64
  3
____ _ ____ _ ____ _ ____ _ ____ _ ____ _ ____
 72
65
 73
4
 40
0.6
 49
0.375
 74
0
 49
-0.075
 74
0
 49
0.075
 74
0
 49
-0.075
 74
0
  0
LTYPE
  5
1F6
100
AcDbSymbolTableRecord
100
AcDbLinetypeTableRecord
  2
HIDDEN
 70
64
  3
- - - - - - - - - - - - - - - - - - - -
 72
65
 73
2
 40
0.2
 49
0.1
 74
0
 49
-0.1
 74
0
  0
LTYPE
  5
1F7
100
AcDbSymbolTableRecord
100
AcDbLinetypeTableRecord
  2
PHANTOM
 70
64
  3
_____ _ _ _____ _ _ _____ _ _ _____
 72
65
 73
6
 40
0.8
 49
0.45
 74
0
 49
-0.05
 74
0
 49
0.1
 74
0
 49
-0.05
 74
0
 49
0.1
 74
0
 49
-0.05
 74
0
  0
LTYPE
  5
1F8
100
AcDbSymbolTableRecord
100
AcDbLinetypeTableRecord
  2
DOT
 70
64
  3
. . . . . . . . . . . . . . . . . . . .
 72
65
 73
2
 40
0.2
 49
0.1
 74
0
 49
-0.1
 74
0
  0
LTYPE
  5
1F9
100
AcDbSymbolTableRecord
100
AcDbLinetypeTableRecord
  2
DASHED
 70
64
  3
- - - - - - - - - - - - - - - - - - - -
 72
65
 73
2
 40
0.2
 49
0.1
 74
0
 49
-0.1
 74
0
  0
ENDTAB
  0
TABLE
  2
LAYER
  5
2
100
AcDbSymbolTable
 70
36
  0
LAYER
  5
10
100
AcDbSymbolTableRecord
100
AcDbLayerTableRecord
  2
0
 70
0
 62
7
  6
CONTINUOUS
370
-3
390
F
  0
LAYER
  5
1FA
100
AcDbSymbolTableRecord
100
AcDbLayerTableRecord
  2
DEFAULT_1
 70
0
 62
7
  6
CENTER
370
-3
390
F
  0
LAYER
  5
1FB
100
AcDbSymbolTableRecord
100
AcDbLayerTableRecord
  2
DEFAULT_2
 70
0
 62
8
  6
HIDDEN
370
-3
390
F
  0
LAYER
  5
1FC
100
AcDbSymbolTableRecord
100
AcDbLayerTableRecord
  2
DEFAULT_3
 70
0
 62
7
  6
PHANTOM
370
-3
390
F
  0
LAYER
  5
1FD
100
AcDbSymbolTableRecord
100
AcDbLayerTableRecord
  2
DEFAULT_COORDINATE_SYSTEM
 70
0
 62
7
  6
CONTINUOUS
370
-3
390
F
  0
LAYER
  5
1FE
100
AcDbSymbolTableRecord
100
AcDbLayerTableRecord
  2
DEFAULT_DATUM_AXES
 70
0
 62
7
  6
CONTINUOUS
370
-3
390
F
  0
LAYER
  5
1FF
100
AcDbSymbolTableRecord
100
AcDbLayerTableRecord
  2
DEFAULT_DATUM_PLANES
 70
0
 62
7
  6
CONTINUOUS
370
-3
390
F
  0
ENDTAB
  0
TABLE
  2
STYLE
  5
3
100
AcDbSymbolTable
 70
1
  0
STYLE
  5
11
100
AcDbSymbolTableRecord
100
AcDbTextStyleTableRecord
  2
STANDARD
 70
0
 40
0.0
 41
0.8
 50
0.0
 71
0
 42
0.2
  3
txt
  4

  0
STYLE
  5
200
100
AcDbSymbolTableRecord
100
AcDbTextStyleTableRecord
  2
TEXTSTYLE_1
 70
0
 40
0.0
 41
0.8
 50
0.0
 71
0
 42
0.2
  3
gdt
  4

  0
ENDTAB
  0
TABLE
  2
VIEW
  5
6
100
AcDbSymbolTable
 70
0
  0
ENDTAB
  0
TABLE
  2
UCS
  5
7
100
AcDbSymbolTable
 70
0
  0
ENDTAB
  0
TABLE
  2
APPID
  5
9
100
AcDbSymbolTable
 70
1
  0
APPID
  5
201
100
AcDbSymbolTableRecord
100
AcDbRegAppTableRecord
  2
ACAD
 70
0
  0
ENDTAB
  0
TABLE
  2
BLOCK_RECORD
  5
1
100
AcDbSymbolTable
 70
0
  0
BLOCK_RECORD
  5
202
100
AcDbSymbolTableRecord
100
AcDbBlockTableRecord
  2
*Model_Space
  0
BLOCK_RECORD
  5
203
100
AcDbSymbolTableRecord
100
AcDbBlockTableRecord
  2
*Paper_Space
  0
BLOCK_RECORD
  5
204
100
AcDbSymbolTableRecord
100
AcDbBlockTableRecord
  2
_FILLED
  0
ENDTAB
  0
TABLE
  2
DIMSTYLE
  5
A
100
AcDbSymbolTable
 70
1
100
AcDbDimStyleTable
 71
0
  0
DIMSTYLE
105
205
100
AcDbSymbolTableRecord
100
AcDbDimStyleTableRecord
  2
STANDARD
 70
0
  3

  4

 40
1.0
 41
0.1
 42
0.0625
 43
0.38
 44
0.125
 45
0.0
 46
0.0
 47
0.001
 48
0.001
140
0.08
141
0.09
142
0.0
143
25.4
144
1.0
145
0.0
146
1.0
147
0.09
 71
1
 72
0
 73
1
 74
1
 75
0
 76
0
 77
0
 78
4
 79
1
170
1
171
2
172
0
173
0
174
0
175
0
176
0
177
0
178
0
270
2
179
3
271
3
272
3
273
2
274
2
275
0
280
0
281
0
282
0
283
1
284
4
285
0
286
0
287
3
288
0
340
11
278
46
341
204
342
204
343
204
344
204
  0
ENDTAB
  0
ENDSEC
  0
SECTION
  2
BLOCKS
  0
BLOCK
  5
20
100
AcDbEntity
  8
0
100
AcDbBlockBegin
  2
*Model_Space
 70
0
 10
0.0
 20
0.0
 30
0.0
  3
*Model_Space
  1

  0
ENDBLK
  5
21
100
AcDbEntity
  8
0
100
AcDbBlockEnd
  0
BLOCK
  5
1C
100
AcDbEntity
  8
0
100
AcDbBlockBegin
  2
*Paper_Space
 70
0
 10
0.0
 20
0.0
 30
0.0
  3
*Paper_Space
  1

  0
ENDBLK
  5
1D
100
AcDbEntity
  8
0
100
AcDbBlockEnd
  0
BLOCK
  5
206
100
AcDbEntity
  8
0
100
AcDbBlockBegin
  2
_FILLED
 70
64
 10
0.0
 20
0.0
  3
_FILLED
  1

  0
SOLID
  5
207
100
AcDbEntity
  8
0
  6
BYBLOCK
 62
0
100
AcDbTrace
 10
0.0
 20
0.0
 11
-1.0
 21
0.2
 12
-1.0
 22
-0.2
 13
-1.0
 23
-0.2
  0
ENDBLK
  5
208
100
AcDbEntity
  8
0
  6
BYBLOCK
 62
0
100
AcDbBlockEnd
  0
ENDSEC
  0
SECTION
  2
ENTITIES
  0
LINE
  5
209
100
AcDbEntity
  8
0
100
AcDbLine
 62
7
  6
CONTINUOUS
 10
0.0
 20
0.0
 11
0.0
 21
8.5
  0
LINE
  5
20A
100
AcDbEntity
  8
0
100
AcDbLine
 62
7
  6
CONTINUOUS
 10
0.0
 20
0.0
 11
11.0
 21
0.0
  0
LINE
  5
20B
100
AcDbEntity
  8
0
100
AcDbLine
 62
7
  6
CONTINUOUS
 10
0.0
 20
8.5
 11
11.0
 21
8.5
  0
LINE
  5
20C
100
AcDbEntity
  8
0
100
AcDbLine
 62
7
  6
CONTINUOUS
 10
11.0
 20
0.0
 11
11.0
 21
8.5
  0
LINE
  5
20D
100
AcDbEntity
  8
0
100
AcDbLine
 62
7
  6
CONTINUOUS
 10
1.0229284499
 20
3.1336418787
 11
1.0015693454
 21
3.0125083773
  0
LINE
  5
20E
100
AcDbEntity
  8
0
100
AcDbLine
 62
7
  6
CONTINUOUS
 10
1.4247791243
 20
3.6672896998
 11
1.2905820014
 21
3.3433091858
  0
LINE
  5
20F
100
AcDbEntity
  8
0
100
AcDbLine
 62
7
  6
CONTINUOUS
 10
2.1908491571
 20
2.8734952632
 11
2.1908491571
 21
2.9180306963
  0
LINE
  5
210
100
AcDbEntity
  8
0
100
AcDbLine
 62
7
  6
CONTINUOUS
 10
2.2142410138
 20
2.8734952632
 11
2.2142410138
 21
2.9180306963
  0
LINE
  5
211
100
AcDbEntity
  8
0
100
AcDbLine
 62
7
  6
CONTINUOUS
 10
2.3201067081
 20
2.8734952632
 11
2.3201067081
 21
2.9180306963
  0
LINE
  5
212
100
AcDbEntity
  8
0
100
AcDbLine
 62
7
  6
CONTINUOUS
 10
2.4334925348
 20
2.8734952632
 11
2.4334925348
 21
2.9180306963
  0
LINE
  5
213
100
AcDbEntity
  8
0
100
AcDbLine
 62
7
  6
CONTINUOUS
 10
2.5051317609
 20
2.8734952632
 11
2.5051317609
 21
2.9180306963
  0
LINE
  5
214
100
AcDbEntity
  8
0
100
AcDbLine
 62
7
  6
CONTINUOUS
 10
2.505839475
 20
2.8734952632
 11
2.505839475
 21
2.9180306963
  0
LINE
  5
215
100
AcDbEntity
  8
0
100
AcDbLine
 62
7
  6
CONTINUOUS
 10
2.6192253017
 20
2.8734952632
 11
2.6192253017
 21
2.9180306963
  0
LINE
  5
216
100
AcDbEntity
  8
0
100
AcDbLine
 62
7
  6
CONTINUOUS
 10
2.6283966978
 20
2.8734952632
 11
2.6283966978
 21
2.9180306963
  0
LINE
  5
217
100
AcDbEntity
  8
0
100
AcDbLine
 62
7
  6
CONTINUOUS
 10
2.6575024261
 20
2.8734952632
 11
2.6575024261
 21
2.9180306963
  0
LINE
  5
218
100
AcDbEntity
  8
0
100
AcDbLine
 62
7
  6
CONTINUOUS
 10
2.7668659575
 20
2.8734952632
 11
2.7668659575
 21
2.9180306963
  0
LINE
  5
219
100
AcDbEntity
  8
0
100
AcDbLine
 62
7
  6
CONTINUOUS
 10
2.8802517842
 20
2.8734952632
 11
2.8802517842
 21
2.9180306963
  0
LINE
  5
21A
100
AcDbEntity
  8
0
100
AcDbLine
 62
7
  6
CONTINUOUS
 10
2.8934054859
 20
2.8734952632
 11
2.8934054859
 21
2.9180306963
  0
LINE
  5
21B
100
AcDbEntity
  8
0
100
AcDbLine
 62
7
  6
CONTINUOUS
 10
2.9645151585
 20
2.8734952632
 11
2.9645151585
 21
2.9180306963
  0
LINE
  5
21C
100
AcDbEntity
  8
0
100
AcDbLine
 62
7
  6
CONTINUOUS
 10
2.9920103742
 20
2.8734952632
 11
2.9920103742
 21
2.9180306963
  0
LINE
  5
21D
100
AcDbEntity
  8
0
100
AcDbLine
 62
7
  6
CONTINUOUS
 10
2.2313851049
 20
4.3293796284
 11
2.1110241346
 21
4.1725221581
  0
LINE
  5
21E
100
AcDbEntity
  8
0
100
AcDbLine
 62
7
  6
CONTINUOUS
 10
3.0967588172
 20
2.8734952632
 11
3.0967588172
 21
2.9180306963
  0
LINE
  5
21F
100
AcDbEntity
  8
0
100
AcDbLine
 62
7
  6
CONTINUOUS
 10
3.210144644
 20
2.8734952632
 11
3.210144644
 21
2.9180306963
  0
LINE
  5
220
100
AcDbEntity
  8
0
100
AcDbLine
 62
7
  6
CONTINUOUS
 10
3.2160431864
 20
2.8734952632
 11
3.2160431864
 21
2.9180306963
  0
LINE
  5
221
100
AcDbEntity
  8
0
100
AcDbLine
 62
7
  6
CONTINUOUS
 10
3.2469493113
 20
2.8734952632
 11
3.2469493113
 21
2.9180306963
  0
LINE
  5
222
100
AcDbEntity
  8
0
100
AcDbLine
 62
7
  6
CONTINUOUS
 10
3.2866606377
 20
2.8734952632
 11
3.2866606377
 21
2.9180306963
  0
LINE
  5
223
100
AcDbEntity
  8
0
100
AcDbLine
 62
7
  6
CONTINUOUS
 10
3.4000464644
 20
2.8734952632
 11
3.4000464644
 21
2.9180306963
  0
LINE
  5
224
100
AcDbEntity
  8
0
100
AcDbLine
 62
7
  6
CONTINUOUS
 10
3.4301642594
 20
2.8734952632
 11
3.4301642594
 21
2.9180306963
  0
LINE
  5
225
100
AcDbEntity
  8
0
100
AcDbLine
 62
7
  6
CONTINUOUS
 10
3.4873949971
 20
2.8734952632
 11
3.4873949971
 21
2.9180306963
  0
LINE
  5
226
100
AcDbEntity
  8
0
100
AcDbLine
 62
7
  6
CONTINUOUS
 10
3.6007808239
 20
2.8734952632
 11
3.6007808239
 21
2.9180306963
  0
LINE
  5
227
100
AcDbEntity
  8
0
100
AcDbLine
 62
7
  6
CONTINUOUS
 10
3.6058785097
 20
2.8734952632
 11
3.6058785097
 21
2.9180306963
  0
LINE
  5
228
100
AcDbEntity
  8
0
100
AcDbLine
 62
7
  6
CONTINUOUS
 10
3.6544996229
 20
2.8734952632
 11
3.6544996229
 21
2.9180306963
  0
LINE
  5
229
100
AcDbEntity
  8
0
100
AcDbLine
 62
7
  6
CONTINUOUS
 10
3.7678854497
 20
2.8734952632
 11
3.7678854497
 21
2.9180306963
  0
LINE
  5
22A
100
AcDbEntity
  8
0
100
AcDbLine
 62
7
  6
CONTINUOUS
 10
3.8285560508
 20
2.8734952632
 11
3.8285560508
 21
2.9180306963
  0
LINE
  5
22B
100
AcDbEntity
  8
0
100
AcDbLine
 62
7
  6
CONTINUOUS
 10
3.9291557381
 20
2.8734952632
 11
3.9291557381
 21
2.9180306963
  0
LINE
  5
22C
100
AcDbEntity
  8
0
100
AcDbLine
 62
7
  6
CONTINUOUS
 10
4.0425415649
 20
2.8734952632
 11
4.0425415649
 21
2.9180306963
  0
LINE
  5
22D
100
AcDbEntity
  8
0
100
AcDbLine
 62
7
  6
CONTINUOUS
 10
4.0837040273
 20
2.8734952632
 11
4.0837040273
 21
2.9180306963
  0
LINE
  5
22E
100
AcDbEntity
  8
0
100
AcDbLine
 62
7
  6
CONTINUOUS
 10
4.197089854
 20
2.8734952632
 11
4.197089854
 21
2.9180306963
  0
LINE
  5
22F
100
AcDbEntity
  8
0
100
AcDbLine
 62
7
  6
CONTINUOUS
 10
4.2155092403
 20
2.8734952632
 11
4.2155092403
 21
2.9180306963
  0
LINE
  5
230
100
AcDbEntity
  8
0
100
AcDbLine
 62
7
  6
CONTINUOUS
 10
4.2404518332
 20
2.8734952632
 11
4.2404518332
 21
2.9180306963
  0
LINE
  5
231
100
AcDbEntity
  8
0
100
AcDbLine
 62
7
  6
CONTINUOUS
 10
4.35383766
 20
2.8734952632
 11
4.35383766
 21
2.9180306963
  0
LINE
  5
232
100
AcDbEntity
  8
0
100
AcDbLine
 62
7
  6
CONTINUOUS
 10
5.1363539656
 20
5.9942165231
 11
5.1203539656
 21
5.9782165231
  0
LINE
  5
233
100
AcDbEntity
  8
0
100
AcDbLine
 62
7
  6
CONTINUOUS
 10
8.8395131782
 20
2.8640464443
 11
8.7450249893
 21
2.8640464443
  0
LINE
  5
234
100
AcDbEntity
  8
0
100
AcDbLine
 62
7
  6
CONTINUOUS
 10
8.7254196374
 20
2.8640464443
 11
8.6309314484
 21
2.8640464443
  0
LINE
  5
235
100
AcDbEntity
  8
0
100
AcDbLine
 62
7
  6
CONTINUOUS
 10
8.3559644879
 20
2.8640464443
 11
8.3282003534
 21
2.8640464443
  0
LINE
  5
236
100
AcDbEntity
  8
0
100
AcDbLine
 62
7
  6
CONTINUOUS
 10
8.3281272494
 20
2.8640464443
 11
8.1738978653
 21
2.8640464443
  0
LINE
  5
237
100
AcDbEntity
  8
0
100
AcDbLine
 62
7
  6
CONTINUOUS
 10
7.984309801
 20
2.8640464443
 11
7.9712966087
 21
2.8640464443
  0
LINE
  5
238
100
AcDbEntity
  8
0
100
AcDbLine
 62
7
  6
CONTINUOUS
 10
7.9705721506
 20
2.8640464443
 11
7.8199924909
 21
2.8640464443
  0
LINE
  5
239
100
AcDbEntity
  8
0
100
AcDbLine
 62
7
  6
CONTINUOUS
 10
7.623055625
 20
2.8640464443
 11
7.556640235
 21
2.8640464443
  0
LINE
  5
23A
100
AcDbEntity
  8
0
100
AcDbLine
 62
7
  6
CONTINUOUS
 10
7.5563101865
 20
2.8640464443
 11
7.4567979893
 21
2.8640464443
  0
LINE
  5
23B
100
AcDbEntity
  8
0
100
AcDbLine
 62
7
  6
CONTINUOUS
 10
7.2877523261
 20
2.8640464443
 11
7.276122155
 21
2.8640464443
  0
LINE
  5
23C
100
AcDbEntity
  8
0
100
AcDbLine
 62
7
  6
CONTINUOUS
 10
7.2003298892
 20
2.8640464443
 11
7.1020824876
 21
2.8640464443
  0
LINE
  5
23D
100
AcDbEntity
  8
0
100
AcDbLine
 62
7
  6
CONTINUOUS
 10
7.0955418616
 20
2.8640464443
 11
7.0010536726
 21
2.8640464443
  0
LINE
  5
23E
100
AcDbEntity
  8
0
100
AcDbLine
 62
7
  6
CONTINUOUS
 10
6.9995574546
 20
2.8640464443
 11
6.9229016682
 21
2.8640464443
  0
LINE
  5
23F
100
AcDbEntity
  8
0
100
AcDbLine
 62
7
  6
CONTINUOUS
 10
6.8421268148
 20
2.8640464443
 11
6.7476386259
 21
2.8640464443
  0
LINE
  5
240
100
AcDbEntity
  8
0
100
AcDbLine
 62
7
  6
CONTINUOUS
 10
6.747126801
 20
2.8640464443
 11
6.7284695105
 21
2.8640464443
  0
LINE
  5
241
100
AcDbEntity
  8
0
100
AcDbLine
 62
7
  6
CONTINUOUS
 10
6.6049286891
 20
2.8640464443
 11
6.5051246323
 21
2.8640464443
  0
LINE
  5
242
100
AcDbEntity
  8
0
100
AcDbLine
 62
7
  6
CONTINUOUS
 10
6.5044888959
 20
2.8640464443
 11
6.4835343352
 21
2.8640464443
  0
LINE
  5
243
100
AcDbEntity
  8
0
100
AcDbLine
 62
7
  6
CONTINUOUS
 10
6.3578021786
 20
2.8640464443
 11
6.2577566492
 21
2.8640464443
  0
LINE
  5
244
100
AcDbEntity
  8
0
100
AcDbLine
 62
7
  6
CONTINUOUS
 10
6.2263688287
 20
2.8640464443
 11
6.1277632967
 21
2.8640464443
  0
LINE
  5
245
100
AcDbEntity
  8
0
100
AcDbLine
 62
7
  6
CONTINUOUS
 10
5.6983368044
 20
2.8640464443
 11
5.2266546974
 21
2.8640464443
  0
LINE
  5
246
100
AcDbEntity
  8
0
100
AcDbLine
 62
7
  6
CONTINUOUS
 10
5.2264307009
 20
2.8640464443
 11
5.1744285996
 21
2.8640464443
  0
LINE
  5
247
100
AcDbEntity
  8
0
100
AcDbLine
 62
7
  6
CONTINUOUS
 10
5.1734340998
 20
2.8640464443
 11
5.0789459108
 21
2.8640464443
  0
LINE
  5
248
100
AcDbEntity
  8
0
100
AcDbLine
 62
7
  6
CONTINUOUS
 10
5.0254864353
 20
2.8640464443
 11
4.9309982463
 21
2.8640464443
  0
LINE
  5
249
100
AcDbEntity
  8
0
100
AcDbLine
 62
7
  6
CONTINUOUS
 10
4.9306426956
 20
2.8640464443
 11
4.8149194753
 21
2.8640464443
  0
LINE
  5
24A
100
AcDbEntity
  8
0
100
AcDbLine
 62
7
  6
CONTINUOUS
 10
4.8141152159
 20
2.8640464443
 11
4.7196270269
 21
2.8640464443
  0
LINE
  5
24B
100
AcDbEntity
  8
0
100
AcDbLine
 62
7
  6
CONTINUOUS
 10
4.7193156509
 20
2.8640464443
 11
4.565847999
 21
2.8640464443
  0
LINE
  5
24C
100
AcDbEntity
  8
0
100
AcDbLine
 62
7
  6
CONTINUOUS
 10
4.0928392406
 20
2.8640464443
 11
3.938604557
 21
2.8640464443
  0
LINE
  5
24D
100
AcDbEntity
  8
0
100
AcDbLine
 62
7
  6
CONTINUOUS
 10
3.9324930587
 20
2.8640464443
 11
3.8338998671
 21
2.8640464443
  0
LINE
  5
24E
100
AcDbEntity
  8
0
100
AcDbLine
 62
7
  6
CONTINUOUS
 10
3.833741221
 20
2.8640464443
 11
3.6639484418
 21
2.8640464443
  0
LINE
  5
24F
100
AcDbEntity
  8
0
100
AcDbLine
 62
7
  6
CONTINUOUS
 10
3.660665402
 20
2.8640464443
 11
3.4292596683
 21
2.8640464443
  0
LINE
  5
250
100
AcDbEntity
  8
0
100
AcDbLine
 62
7
  6
CONTINUOUS
 10
3.4207154403
 20
2.8640464443
 11
3.3912405802
 21
2.8640464443
  0
LINE
  5
251
100
AcDbEntity
  8
0
100
AcDbLine
 62
7
  6
CONTINUOUS
 10
3.3905976455
 20
2.8640464443
 11
3.2961094566
 21
2.8640464443
  0
LINE
  5
252
100
AcDbEntity
  8
0
100
AcDbLine
 62
7
  6
CONTINUOUS
 10
3.2956453137
 20
2.8640464443
 11
3.2563981302
 21
2.8640464443
  0
LINE
  5
253
100
AcDbEntity
  8
0
100
AcDbLine
 62
7
  6
CONTINUOUS
 10
3.1058749208
 20
2.8640464443
 11
3.0963719191
 21
2.8640464443
  0
LINE
  5
254
100
AcDbEntity
  8
0
100
AcDbLine
 62
7
  6
CONTINUOUS
 10
2.883956667
 20
2.8640464443
 11
2.8713960383
 21
2.8640464443
  0
LINE
  5
255
100
AcDbEntity
  8
0
100
AcDbLine
 62
7
  6
CONTINUOUS
 10
2.6097764828
 20
2.8640464443
 11
2.5152882939
 21
2.8640464443
  0
LINE
  5
256
100
AcDbEntity
  8
0
100
AcDbLine
 62
7
  6
CONTINUOUS
 10
2.200297976
 20
2.8640464443
 11
2.3286409882
 21
2.8640464443
  0
LINE
  5
257
100
AcDbEntity
  8
0
100
AcDbLine
 62
7
  6
CONTINUOUS
 10
2.329555527
 20
2.8640464443
 11
2.495682942
 21
2.8640464443
  0
LINE
  5
258
100
AcDbEntity
  8
0
100
AcDbLine
 62
7
  6
CONTINUOUS
 10
2.6205366415
 20
2.8640464443
 11
2.8708029653
 21
2.8640464443
  0
LINE
  5
259
100
AcDbEntity
  8
0
100
AcDbLine
 62
7
  6
CONTINUOUS
 10
2.8841250167
 20
2.8640464443
 11
3.0959473821
 21
2.8640464443
  0
LINE
  5
25A
100
AcDbEntity
  8
0
100
AcDbLine
 62
7
  6
CONTINUOUS
 10
3.1062076361
 20
2.8640464443
 11
3.2422889402
 21
2.8640464443
  0
LINE
  5
25B
100
AcDbEntity
  8
0
100
AcDbLine
 62
7
  6
CONTINUOUS
 10
3.6610624758
 20
2.8640464443
 11
3.6637142176
 21
2.8640464443
  0
LINE
  5
25C
100
AcDbEntity
  8
0
100
AcDbLine
 62
7
  6
CONTINUOUS
 10
4.0931528462
 20
2.8640464443
 11
4.3845074035
 21
2.8640464443
  0
LINE
  5
25D
100
AcDbEntity
  8
0
100
AcDbLine
 62
7
  6
CONTINUOUS
 10
4.3848350317
 20
2.8640464443
 11
4.5654447114
 21
2.8640464443
  0
LINE
  5
25E
100
AcDbEntity
  8
0
100
AcDbLine
 62
7
  6
CONTINUOUS
 10
5.026887136
 20
2.8640464443
 11
5.0785737968
 21
2.8640464443
  0
LINE
  5
25F
100
AcDbEntity
  8
0
100
AcDbLine
 62
7
  6
CONTINUOUS
 10
5.698493014
 20
2.8640464443
 11
5.9831245238
 21
2.8640464443
  0
LINE
  5
260
100
AcDbEntity
  8
0
100
AcDbLine
 62
7
  6
CONTINUOUS
 10
5.9834929702
 20
2.8640464443
 11
6.121798628
 21
2.8640464443
  0
LINE
  5
261
100
AcDbEntity
  8
0
100
AcDbLine
 62
7
  6
CONTINUOUS
 10
6.2267491193
 20
2.8640464443
 11
6.257309383
 21
2.8640464443
  0
LINE
  5
262
100
AcDbEntity
  8
0
100
AcDbLine
 62
7
  6
CONTINUOUS
 10
6.3580245328
 20
2.8640464443
 11
6.4826342904
 21
2.8640464443
  0
LINE
  5
263
100
AcDbEntity
  8
0
100
AcDbLine
 62
7
  6
CONTINUOUS
 10
6.6053428935
 20
2.8640464443
 11
6.7283381618
 21
2.8640464443
  0
LINE
  5
264
100
AcDbEntity
  8
0
100
AcDbLine
 62
7
  6
CONTINUOUS
 10
6.8427279141
 20
2.8640464443
 11
6.9224182229
 21
2.8640464443
  0
LINE
  5
265
100
AcDbEntity
  8
0
100
AcDbLine
 62
7
  6
CONTINUOUS
 10
7.2009331536
 20
2.8640464443
 11
7.2751189084
 21
2.8640464443
  0
LINE
  5
266
100
AcDbEntity
  8
0
100
AcDbLine
 62
7
  6
CONTINUOUS
 10
7.2882179747
 20
2.8640464443
 11
7.4027030615
 21
2.8640464443
  0
LINE
  5
267
100
AcDbEntity
  8
0
100
AcDbLine
 62
7
  6
CONTINUOUS
 10
7.6237768749
 20
2.8640464443
 11
7.7693186783
 21
2.8640464443
  0
LINE
  5
268
100
AcDbEntity
  8
0
100
AcDbLine
 62
7
  6
CONTINUOUS
 10
7.998418991
 20
2.8640464443
 11
8.1653360338
 21
2.8640464443
  0
LINE
  5
269
100
AcDbEntity
  8
0
100
AcDbLine
 62
7
  6
CONTINUOUS
 10
8.3699049659
 20
2.8640464443
 11
8.3752457575
 21
2.8640464443
  0
LINE
  5
26A
100
AcDbEntity
  8
0
100
AcDbLine
 62
7
  6
CONTINUOUS
 10
8.3757468121
 20
2.8640464443
 11
8.6201705509
 21
2.8640464443
  0
LINE
  5
26B
100
AcDbEntity
  8
0
100
AcDbLine
 62
7
  6
CONTINUOUS
 10
8.8396906241
 20
2.8640464443
 11
8.8856483237
 21
2.8640464443
  0
LINE
  5
26C
100
AcDbEntity
  8
0
100
AcDbLine
 62
7
  6
CONTINUOUS
 10
8.8862638005
 20
2.8640464443
 11
9.0404099553
 21
2.8640464443
  0
LINE
  5
26D
100
AcDbEntity
  8
0
100
AcDbLine
 62
7
  6
CONTINUOUS
 10
9.0498587742
 20
2.8734952632
 11
8.7355761704
 21
2.8734952632
  0
LINE
  5
26E
100
AcDbEntity
  8
0
100
AcDbLine
 62
7
  6
CONTINUOUS
 10
8.7348684563
 20
2.8734952632
 11
8.1644503825
 21
2.8734952632
  0
LINE
  5
26F
100
AcDbEntity
  8
0
100
AcDbLine
 62
7
  6
CONTINUOUS
 10
8.1643099799
 20
2.8734952632
 11
7.8105436719
 21
2.8734952632
  0
LINE
  5
270
100
AcDbEntity
  8
0
100
AcDbLine
 62
7
  6
CONTINUOUS
 10
7.7787674972
 20
2.8734952632
 11
7.4473491704
 21
2.8734952632
  0
LINE
  5
271
100
AcDbEntity
  8
0
100
AcDbLine
 62
7
  6
CONTINUOUS
 10
7.4121518804
 20
2.8734952632
 11
3.6544996229
 21
2.8734952632
  0
LINE
  5
272
100
AcDbEntity
  8
0
100
AcDbLine
 62
7
  6
CONTINUOUS
 10
3.6543755747
 20
2.8734952632
 11
3.6059810494
 21
2.8734952632
  0
LINE
  5
273
100
AcDbEntity
  8
0
100
AcDbLine
 62
7
  6
CONTINUOUS
 10
3.6058785097
 20
2.8734952632
 11
2.505839475
 21
2.8734952632
  0
LINE
  5
274
100
AcDbEntity
  8
0
100
AcDbLine
 62
7
  6
CONTINUOUS
 10
2.5051317609
 20
2.8734952632
 11
2.1908491571
 21
2.8734952632
  0
LINE
  5
275
100
AcDbEntity
  8
0
100
AcDbLine
 62
7
  6
CONTINUOUS
 10
1.2883539656
 20
2.9180306963
 11
9.9523539656
 21
2.9180306963
  0
LINE
  5
276
100
AcDbEntity
  8
0
100
AcDbLine
 62
7
  6
CONTINUOUS
 10
10.1603539656
 20
2.9186165231
 11
1.0803539656
 21
2.9186165231
  0
LINE
  5
277
100
AcDbEntity
  8
0
100
AcDbLine
 62
7
  6
CONTINUOUS
 10
1.0015693454
 20
3.0125083773
 11
10.2391385859
 21
3.0125083773
  0
LINE
  5
278
100
AcDbEntity
  8
0
100
AcDbLine
 62
7
  6
CONTINUOUS
 10
1.0229284499
 20
3.1336418787
 11
10.2177794813
 21
3.1336418787
  0
LINE
  5
279
100
AcDbEntity
  8
0
100
AcDbLine
 62
7
  6
CONTINUOUS
 10
4.3753862128
 20
2.8734952632
 11
4.3753862128
 21
2.9180306963
  0
LINE
  5
27A
100
AcDbEntity
  8
0
100
AcDbLine
 62
7
  6
CONTINUOUS
 10
4.4035245726
 20
2.8734952632
 11
4.4035245726
 21
2.9180306963
  0
LINE
  5
27B
100
AcDbEntity
  8
0
100
AcDbLine
 62
7
  6
CONTINUOUS
 10
4.4111634245
 20
2.8734952632
 11
4.4111634245
 21
2.9180306963
  0
LINE
  5
27C
100
AcDbEntity
  8
0
100
AcDbLine
 62
7
  6
CONTINUOUS
 10
4.5245492513
 20
2.8734952632
 11
4.5245492513
 21
2.9180306963
  0
LINE
  5
27D
100
AcDbEntity
  8
0
100
AcDbLine
 62
7
  6
CONTINUOUS
 10
4.5604781037
 20
2.8734952632
 11
4.5604781037
 21
2.9180306963
  0
LINE
  5
27E
100
AcDbEntity
  8
0
100
AcDbLine
 62
7
  6
CONTINUOUS
 10
4.6738639304
 20
2.8734952632
 11
4.6738639304
 21
2.9180306963
  0
LINE
  5
27F
100
AcDbEntity
  8
0
100
AcDbLine
 62
7
  6
CONTINUOUS
 10
4.6762149448
 20
2.8734952632
 11
4.6762149448
 21
2.9180306963
  0
LINE
  5
280
100
AcDbEntity
  8
0
100
AcDbLine
 62
7
  6
CONTINUOUS
 10
10.0773988603
 20
3.3119416266
 11
1.1633090709
 21
3.3119416266
  0
LINE
  5
281
100
AcDbEntity
  8
0
100
AcDbLine
 62
7
  6
CONTINUOUS
 10
10.0454077804
 20
3.3186165231
 11
1.1953001508
 21
3.3186165231
  0
LINE
  5
282
100
AcDbEntity
  8
0
100
AcDbLine
 62
7
  6
CONTINUOUS
 10
1.2905820014
 20
3.3433091858
 11
9.9501259298
 21
3.3433091858
  0
LINE
  5
283
100
AcDbEntity
  8
0
100
AcDbLine
 62
7
  6
CONTINUOUS
 10
4.710178208
 20
2.8734952632
 11
4.710178208
 21
2.9180306963
  0
LINE
  5
284
100
AcDbEntity
  8
0
100
AcDbLine
 62
7
  6
CONTINUOUS
 10
4.8235640348
 20
2.8734952632
 11
4.8235640348
 21
2.9180306963
  0
LINE
  5
285
100
AcDbEntity
  8
0
100
AcDbLine
 62
7
  6
CONTINUOUS
 10
4.8515873478
 20
2.8734952632
 11
4.8515873478
 21
2.9180306963
  0
LINE
  5
286
100
AcDbEntity
  8
0
100
AcDbLine
 62
7
  6
CONTINUOUS
 10
4.8618367852
 20
2.8734952632
 11
4.8618367852
 21
2.9180306963
  0
LINE
  5
287
100
AcDbEntity
  8
0
100
AcDbLine
 62
7
  6
CONTINUOUS
 10
4.9215494274
 20
2.8734952632
 11
4.9215494274
 21
2.9180306963
  0
LINE
  5
288
100
AcDbEntity
  8
0
100
AcDbLine
 62
7
  6
CONTINUOUS
 10
1.4247791243
 20
3.6672896998
 11
9.815928807
 21
3.6672896998
  0
LINE
  5
289
100
AcDbEntity
  8
0
100
AcDbLine
 62
7
  6
CONTINUOUS
 10
5.0349352542
 20
2.8734952632
 11
5.0349352542
 21
2.9180306963
  0
LINE
  5
28A
100
AcDbEntity
  8
0
100
AcDbLine
 62
7
  6
CONTINUOUS
 10
5.0363539656
 20
5.0946165231
 11
5.0363539656
 21
5.173418799
  0
LINE
  5
28B
100
AcDbEntity
  8
0
100
AcDbLine
 62
7
  6
CONTINUOUS
 10
5.0694970919
 20
2.8734952632
 11
5.0694970919
 21
2.9180306963
  0
LINE
  5
28C
100
AcDbEntity
  8
0
100
AcDbLine
 62
7
  6
CONTINUOUS
 10
5.1203539656
 20
5.3142165262
 11
5.1203539656
 21
5.9782165231
  0
LINE
  5
28D
100
AcDbEntity
  8
0
100
AcDbLine
 62
7
  6
CONTINUOUS
 10
5.1828829187
 20
2.8734952632
 11
5.1828829187
 21
2.9180306963
  0
LINE
  5
28E
100
AcDbEntity
  8
0
100
AcDbLine
 62
7
  6
CONTINUOUS
 10
5.2172058785
 20
2.8734952632
 11
5.2172058785
 21
2.9180306963
  0
LINE
  5
28F
100
AcDbEntity
  8
0
100
AcDbLine
 62
7
  6
CONTINUOUS
 10
5.3305917053
 20
2.8734952632
 11
5.3305917053
 21
2.9180306963
  0
LINE
  5
290
100
AcDbEntity
  8
0
100
AcDbLine
 62
7
  6
CONTINUOUS
 10
5.354542002
 20
5.1658165262
 11
5.354542002
 21
5.173418799
  0
LINE
  5
291
100
AcDbEntity
  8
0
100
AcDbLine
 62
7
  6
CONTINUOUS
 10
5.3642471977
 20
2.8734952632
 11
5.3642471977
 21
2.9180306963
  0
LINE
  5
292
100
AcDbEntity
  8
0
100
AcDbLine
 62
7
  6
CONTINUOUS
 10
5.4477463496
 20
2.8734952632
 11
5.4477463496
 21
2.9180306963
  0
LINE
  5
293
100
AcDbEntity
  8
0
100
AcDbLine
 62
7
  6
CONTINUOUS
 10
5.5611321763
 20
2.8734952632
 11
5.5611321763
 21
2.9180306963
  0
LINE
  5
294
100
AcDbEntity
  8
0
100
AcDbLine
 62
7
  6
CONTINUOUS
 10
5.5943997965
 20
2.8734952632
 11
5.5943997965
 21
2.9180306963
  0
LINE
  5
295
100
AcDbEntity
  8
0
100
AcDbLine
 62
7
  6
CONTINUOUS
 10
2.0833182272
 20
4.1570759647
 11
9.1573897041
 21
4.1570759647
  0
LINE
  5
296
100
AcDbEntity
  8
0
100
AcDbLine
 62
7
  6
CONTINUOUS
 10
2.1110241346
 20
4.1725221581
 11
9.1296837966
 21
4.1725221581
  0
LINE
  5
297
100
AcDbEntity
  8
0
100
AcDbLine
 62
7
  6
CONTINUOUS
 10
2.2313851049
 20
4.3293796284
 11
9.0093228264
 21
4.3293796284
  0
LINE
  5
298
100
AcDbEntity
  8
0
100
AcDbLine
 62
7
  6
CONTINUOUS
 10
2.4403539656
 20
4.4386165231
 11
8.8003539656
 21
4.4386165231
  0
LINE
  5
299
100
AcDbEntity
  8
0
100
AcDbLine
 62
7
  6
CONTINUOUS
 10
5.7077856233
 20
2.8734952632
 11
5.7077856233
 21
2.9180306963
  0
LINE
  5
29A
100
AcDbEntity
  8
0
100
AcDbLine
 62
7
  6
CONTINUOUS
 10
5.7393753026
 20
2.8734952632
 11
5.7393753026
 21
2.9180306963
  0
LINE
  5
29B
100
AcDbEntity
  8
0
100
AcDbLine
 62
7
  6
CONTINUOUS
 10
5.8527611293
 20
2.8734952632
 11
5.8527611293
 21
2.9180306963
  0
LINE
  5
29C
100
AcDbEntity
  8
0
100
AcDbLine
 62
7
  6
CONTINUOUS
 10
5.879187516
 20
2.8734952632
 11
5.879187516
 21
2.9180306963
  0
LINE
  5
29D
100
AcDbEntity
  8
0
100
AcDbLine
 62
7
  6
CONTINUOUS
 10
5.8861659292
 20
5.1658165262
 11
5.8861659292
 21
5.1734187989
  0
LINE
  5
29E
100
AcDbEntity
  8
0
100
AcDbLine
 62
7
  6
CONTINUOUS
 10
5.9767974764
 20
2.8734952632
 11
5.9767974764
 21
2.9180306963
  0
LINE
  5
29F
100
AcDbEntity
  8
0
100
AcDbLine
 62
7
  6
CONTINUOUS
 10
6.0901833032
 20
2.8734952632
 11
6.0901833032
 21
2.9180306963
  0
LINE
  5
2A0
100
AcDbEntity
  8
0
100
AcDbLine
 62
7
  6
CONTINUOUS
 10
6.1183144778
 20
2.8734952632
 11
6.1183144778
 21
2.9180306963
  0
LINE
  5
2A1
100
AcDbEntity
  8
0
100
AcDbLine
 62
7
  6
CONTINUOUS
 10
6.1203539656
 20
5.3142165262
 11
6.1203539656
 21
5.9782165231
  0
LINE
  5
2A2
100
AcDbEntity
  8
0
100
AcDbLine
 62
7
  6
CONTINUOUS
 10
6.2043539656
 20
5.0946165231
 11
6.2043539656
 21
5.1734187989
  0
LINE
  5
2A3
100
AcDbEntity
  8
0
100
AcDbLine
 62
7
  6
CONTINUOUS
 10
6.2317003046
 20
2.8734952632
 11
6.2317003046
 21
2.9180306963
  0
LINE
  5
2A4
100
AcDbEntity
  8
0
100
AcDbLine
 62
7
  6
CONTINUOUS
 10
6.2358176476
 20
2.8734952632
 11
6.2358176476
 21
2.9180306963
  0
LINE
  5
2A5
100
AcDbEntity
  8
0
100
AcDbLine
 62
7
  6
CONTINUOUS
 10
6.2538651707
 20
2.8734952632
 11
6.2538651707
 21
2.9180306963
  0
LINE
  5
2A6
100
AcDbEntity
  8
0
100
AcDbLine
 62
7
  6
CONTINUOUS
 10
6.437851884
 20
5.0853039252
 11
4.8028560473
 21
5.0853039252
  0
LINE
  5
2A7
100
AcDbEntity
  8
0
100
AcDbLine
 62
7
  6
CONTINUOUS
 10
6.4003913557
 20
5.0946165231
 11
4.8403165755
 21
5.0946165231
  0
LINE
  5
2A8
100
AcDbEntity
  8
0
100
AcDbLine
 62
7
  6
CONTINUOUS
 10
6.3672509975
 20
2.8734952632
 11
6.3672509975
 21
2.9180306963
  0
LINE
  5
2A9
100
AcDbEntity
  8
0
100
AcDbLine
 62
7
  6
CONTINUOUS
 10
6.3743021461
 20
2.8734952632
 11
6.3743021461
 21
2.9180306963
  0
LINE
  5
2AA
100
AcDbEntity
  8
0
100
AcDbLine
 62
7
  6
CONTINUOUS
 10
6.4876879729
 20
2.8734952632
 11
6.4876879729
 21
2.9180306963
  0
LINE
  5
2AB
100
AcDbEntity
  8
0
100
AcDbLine
 62
7
  6
CONTINUOUS
 10
6.4956758134
 20
2.8734952632
 11
6.4956758134
 21
2.9180306963
  0
LINE
  5
2AC
100
AcDbEntity
  8
0
100
AcDbLine
 62
7
  6
CONTINUOUS
 10
6.6090616401
 20
2.8734952632
 11
6.6090616401
 21
2.9180306963
  0
LINE
  5
2AD
100
AcDbEntity
  8
0
100
AcDbLine
 62
7
  6
CONTINUOUS
 10
6.614377508
 20
2.8734952632
 11
6.614377508
 21
2.9180306963
  0
LINE
  5
2AE
100
AcDbEntity
  8
0
100
AcDbLine
 62
7
  6
CONTINUOUS
 10
6.6244011539
 20
2.8734952632
 11
6.6244011539
 21
2.9180306963
  0
LINE
  5
2AF
100
AcDbEntity
  8
0
100
AcDbLine
 62
7
  6
CONTINUOUS
 10
5.3545420019
 20
5.1658165262
 11
5.8861659293
 21
5.1658165262
  0
LINE
  5
2B0
100
AcDbEntity
  8
0
100
AcDbLine
 62
7
  6
CONTINUOUS
 10
6.2043539656
 20
5.1734187989
 11
5.8861659292
 21
5.1734187989
  0
LINE
  5
2B1
100
AcDbEntity
  8
0
100
AcDbLine
 62
7
  6
CONTINUOUS
 10
5.354542002
 20
5.173418799
 11
5.0363539656
 21
5.173418799
  0
LINE
  5
2B2
100
AcDbEntity
  8
0
100
AcDbLine
 62
7
  6
CONTINUOUS
 10
6.1203539656
 20
5.3142165262
 11
5.1203539656
 21
5.3142165262
  0
LINE
  5
2B3
100
AcDbEntity
  8
0
100
AcDbLine
 62
7
  6
CONTINUOUS
 10
6.7377869807
 20
2.8734952632
 11
6.7377869807
 21
2.9180306963
  0
LINE
  5
2B4
100
AcDbEntity
  8
0
100
AcDbLine
 62
7
  6
CONTINUOUS
 10
6.7381898069
 20
2.8734952632
 11
6.7381898069
 21
2.9180306963
  0
LINE
  5
2B5
100
AcDbEntity
  8
0
100
AcDbLine
 62
7
  6
CONTINUOUS
 10
6.8515756337
 20
2.8734952632
 11
6.8515756337
 21
2.9180306963
  0
LINE
  5
2B6
100
AcDbEntity
  8
0
100
AcDbLine
 62
7
  6
CONTINUOUS
 10
6.9318670418
 20
2.8734952632
 11
6.9318670418
 21
2.9180306963
  0
LINE
  5
2B7
100
AcDbEntity
  8
0
100
AcDbLine
 62
7
  6
CONTINUOUS
 10
6.9595138191
 20
2.8734952632
 11
6.9595138191
 21
2.9180306963
  0
LINE
  5
2B8
100
AcDbEntity
  8
0
100
AcDbLine
 62
7
  6
CONTINUOUS
 10
6.9916048537
 20
2.8734952632
 11
6.9916048537
 21
2.9180306963
  0
LINE
  5
2B9
100
AcDbEntity
  8
0
100
AcDbLine
 62
7
  6
CONTINUOUS
 10
7.1049906805
 20
2.8734952632
 11
7.1049906805
 21
2.9180306963
  0
LINE
  5
2BA
100
AcDbEntity
  8
0
100
AcDbLine
 62
7
  6
CONTINUOUS
 10
7.2097787081
 20
2.8734952632
 11
7.2097787081
 21
2.9180306963
  0
LINE
  5
2BB
100
AcDbEntity
  8
0
100
AcDbLine
 62
7
  6
CONTINUOUS
 10
7.2845677273
 20
2.8734952632
 11
7.2845677273
 21
2.9180306963
  0
LINE
  5
2BC
100
AcDbEntity
  8
0
100
AcDbLine
 62
7
  6
CONTINUOUS
 10
6.1203539656
 20
5.9782165231
 11
5.1203539656
 21
5.9782165231
  0
LINE
  5
2BD
100
AcDbEntity
  8
0
100
AcDbLine
 62
7
  6
CONTINUOUS
 10
6.1043539656
 20
5.9942165231
 11
5.1363539656
 21
5.9942165231
  0
LINE
  5
2BE
100
AcDbEntity
  8
0
100
AcDbLine
 62
7
  6
CONTINUOUS
 10
6.1043539656
 20
5.9942165231
 11
6.1203539656
 21
5.9782165231
  0
LINE
  5
2BF
100
AcDbEntity
  8
0
100
AcDbLine
 62
7
  6
CONTINUOUS
 10
7.297201145
 20
2.8734952632
 11
7.297201145
 21
2.9180306963
  0
LINE
  5
2C0
100
AcDbEntity
  8
0
100
AcDbLine
 62
7
  6
CONTINUOUS
 10
7.3028586792
 20
2.8734952632
 11
7.3028586792
 21
2.9180306963
  0
LINE
  5
2C1
100
AcDbEntity
  8
0
100
AcDbLine
 62
7
  6
CONTINUOUS
 10
7.3801815494
 20
2.8734952632
 11
7.3801815494
 21
2.9180306963
  0
LINE
  5
2C2
100
AcDbEntity
  8
0
100
AcDbLine
 62
7
  6
CONTINUOUS
 10
7.4121518804
 20
2.8734952632
 11
7.4121518804
 21
2.9180306963
  0
LINE
  5
2C3
100
AcDbEntity
  8
0
100
AcDbLine
 62
7
  6
CONTINUOUS
 10
7.4473491704
 20
2.8734952632
 11
7.4473491704
 21
2.9180306963
  0
LINE
  5
2C4
100
AcDbEntity
  8
0
100
AcDbLine
 62
7
  6
CONTINUOUS
 10
7.4523731786
 20
2.8734952632
 11
7.4523731786
 21
2.9180306963
  0
LINE
  5
2C5
100
AcDbEntity
  8
0
100
AcDbLine
 62
7
  6
CONTINUOUS
 10
7.5657590054
 20
2.8734952632
 11
7.5657590054
 21
2.9180306963
  0
LINE
  5
2C6
100
AcDbEntity
  8
0
100
AcDbLine
 62
7
  6
CONTINUOUS
 10
7.6325044439
 20
2.8734952632
 11
7.6325044439
 21
2.9180306963
  0
LINE
  5
2C7
100
AcDbEntity
  8
0
100
AcDbLine
 62
7
  6
CONTINUOUS
 10
7.6473034462
 20
2.8734952632
 11
7.6473034462
 21
2.9180306963
  0
LINE
  5
2C8
100
AcDbEntity
  8
0
100
AcDbLine
 62
7
  6
CONTINUOUS
 10
7.7059097971
 20
2.8734952632
 11
7.7059097971
 21
2.9180306963
  0
LINE
  5
2C9
100
AcDbEntity
  8
0
100
AcDbLine
 62
7
  6
CONTINUOUS
 10
7.7236036783
 20
2.8734952632
 11
7.7236036783
 21
2.9180306963
  0
LINE
  5
2CA
100
AcDbEntity
  8
0
100
AcDbLine
 62
7
  6
CONTINUOUS
 10
7.7482152483
 20
2.8734952632
 11
7.7482152483
 21
2.9180306963
  0
LINE
  5
2CB
100
AcDbEntity
  8
0
100
AcDbLine
 62
7
  6
CONTINUOUS
 10
7.7787674972
 20
2.8734952632
 11
7.7787674972
 21
2.9180306963
  0
LINE
  5
2CC
100
AcDbEntity
  8
0
100
AcDbLine
 62
7
  6
CONTINUOUS
 10
7.8105436719
 20
2.8734952632
 11
7.8105436719
 21
2.9180306963
  0
LINE
  5
2CD
100
AcDbEntity
  8
0
100
AcDbLine
 62
7
  6
CONTINUOUS
 10
7.8666351427
 20
2.8734952632
 11
7.8666351427
 21
2.9180306963
  0
LINE
  5
2CE
100
AcDbEntity
  8
0
100
AcDbLine
 62
7
  6
CONTINUOUS
 10
7.9800209695
 20
2.8734952632
 11
7.9800209695
 21
2.9180306963
  0
LINE
  5
2CF
100
AcDbEntity
  8
0
100
AcDbLine
 62
7
  6
CONTINUOUS
 10
7.9923766823
 20
2.8734952632
 11
7.9923766823
 21
2.9180306963
  0
LINE
  5
2D0
100
AcDbEntity
  8
0
100
AcDbLine
 62
7
  6
CONTINUOUS
 10
8.1023559989
 20
2.8734952632
 11
8.1023559989
 21
2.9180306963
  0
LINE
  5
2D1
100
AcDbEntity
  8
0
100
AcDbLine
 62
7
  6
CONTINUOUS
 10
8.1644423658
 20
2.8734952632
 11
8.1644423658
 21
2.9180306963
  0
LINE
  5
2D2
100
AcDbEntity
  8
0
100
AcDbLine
 62
7
  6
CONTINUOUS
 10
8.2241902415
 20
2.8734952632
 11
8.2241902415
 21
2.9180306963
  0
LINE
  5
2D3
100
AcDbEntity
  8
0
100
AcDbLine
 62
7
  6
CONTINUOUS
 10
9.0093228264
 20
4.3293796284
 11
9.1296837966
 21
4.1725221581
  0
LINE
  5
2D4
100
AcDbEntity
  8
0
100
AcDbLine
 62
7
  6
CONTINUOUS
 10
8.3375760683
 20
2.8734952632
 11
8.3375760683
 21
2.9180306963
  0
LINE
  5
2D5
100
AcDbEntity
  8
0
100
AcDbLine
 62
7
  6
CONTINUOUS
 10
8.3654133068
 20
2.8734952632
 11
8.3654133068
 21
2.9180306963
  0
LINE
  5
2D6
100
AcDbEntity
  8
0
100
AcDbLine
 62
7
  6
CONTINUOUS
 10
8.3662979931
 20
2.8734952632
 11
8.3662979931
 21
2.9180306963
  0
LINE
  5
2D7
100
AcDbEntity
  8
0
100
AcDbLine
 62
7
  6
CONTINUOUS
 10
8.4796838199
 20
2.8734952632
 11
8.4796838199
 21
2.9180306963
  0
LINE
  5
2D8
100
AcDbEntity
  8
0
100
AcDbLine
 62
7
  6
CONTINUOUS
 10
8.5162342819
 20
2.8734952632
 11
8.5162342819
 21
2.9180306963
  0
LINE
  5
2D9
100
AcDbEntity
  8
0
100
AcDbLine
 62
7
  6
CONTINUOUS
 10
8.6296201087
 20
2.8734952632
 11
8.6296201087
 21
2.9180306963
  0
LINE
  5
2DA
100
AcDbEntity
  8
0
100
AcDbLine
 62
7
  6
CONTINUOUS
 10
8.7348684563
 20
2.8734952632
 11
8.7348684563
 21
2.9180306963
  0
LINE
  5
2DB
100
AcDbEntity
  8
0
100
AcDbLine
 62
7
  6
CONTINUOUS
 10
8.7355761704
 20
2.8734952632
 11
8.7355761704
 21
2.9180306963
  0
LINE
  5
2DC
100
AcDbEntity
  8
0
100
AcDbLine
 62
7
  6
CONTINUOUS
 10
8.8489619971
 20
2.8734952632
 11
8.8489619971
 21
2.9180306963
  0
LINE
  5
2DD
100
AcDbEntity
  8
0
100
AcDbLine
 62
7
  6
CONTINUOUS
 10
8.8768149816
 20
2.8734952632
 11
8.8768149816
 21
2.9180306963
  0
LINE
  5
2DE
100
AcDbEntity
  8
0
100
AcDbLine
 62
7
  6
CONTINUOUS
 10
8.9902008084
 20
2.8734952632
 11
8.9902008084
 21
2.9180306963
  0
LINE
  5
2DF
100
AcDbEntity
  8
0
100
AcDbLine
 62
7
  6
CONTINUOUS
 10
9.0498587742
 20
2.8734952632
 11
9.0498587742
 21
2.9180306963
  0
LINE
  5
2E0
100
AcDbEntity
  8
0
100
AcDbLine
 62
7
  6
CONTINUOUS
 10
9.815928807
 20
3.6672896998
 11
9.9501259298
 21
3.3433091858
  0
LINE
  5
2E1
100
AcDbEntity
  8
0
100
AcDbLine
 62
7
  6
CONTINUOUS
 10
10.2177794813
 20
3.1336418787
 11
10.2391385859
 21
3.0125083773
  0
ARC
  5
2E2
100
AcDbEntity
  8
0
100
AcDbCircle
 62
7
  6
CONTINUOUS
 10
1.2592823107
 20
3.091966316
 40
0.24
100
AcDbArc
 50
113.5712081957
 51
170.0
  0
ARC
  5
2E3
100
AcDbEntity
  8
0
100
AcDbCircle
 62
7
  6
CONTINUOUS
 10
1.0803539656
 20
2.9986165231
 40
0.08
100
AcDbArc
 50
170.0
 51
270.0
  0
ARC
  5
2E4
100
AcDbEntity
  8
0
100
AcDbCircle
 62
7
  6
CONTINUOUS
 10
1.2883539656
 20
2.9860306963
 40
0.068
100
AcDbArc
 50
262.490576845
 51
270.0
  0
ARC
  5
2E5
100
AcDbEntity
  8
0
100
AcDbCircle
 62
7
  6
CONTINUOUS
 10
2.1638827503
 20
3.3611429539
 40
0.8
100
AcDbArc
 50
95.7798066019
 51
157.5
  0
ARC
  5
2E6
100
AcDbEntity
  8
0
100
AcDbCircle
 62
7
  6
CONTINUOUS
 10
1.1953001508
 20
3.2386165231
 40
0.08
100
AcDbArc
 50
90.0
 51
113.5712081957
  0
ARC
  5
2E7
100
AcDbEntity
  8
0
100
AcDbCircle
 62
7
  6
CONTINUOUS
 10
1.2536268201
 20
3.3586165231
 40
0.04
100
AcDbArc
 50
270.0
 51
337.5
  0
ARC
  5
2E8
100
AcDbEntity
  8
0
100
AcDbCircle
 62
7
  6
CONTINUOUS
 10
2.6205366415
 20
2.8734952632
 40
0.0094488189
100
AcDbArc
 50
235.2789204138
 51
270.0
  0
ARC
  5
2E9
100
AcDbEntity
  8
0
100
AcDbCircle
 62
7
  6
CONTINUOUS
 10
2.495682942
 20
2.8734952632
 40
0.0094488189
100
AcDbArc
 50
270.0
 51
360.0
  0
ARC
  5
2EA
100
AcDbEntity
  8
0
100
AcDbCircle
 62
7
  6
CONTINUOUS
 10
2.2002979759
 20
2.8734952632
 40
0.0094488189
100
AcDbArc
 50
180.0
 51
270.0
  0
ARC
  5
2EB
100
AcDbEntity
  8
0
100
AcDbCircle
 62
7
  6
CONTINUOUS
 10
2.2236898327
 20
2.8734952632
 40
0.0094488189
100
AcDbArc
 50
180.0
 51
270.0
  0
ARC
  5
2EC
100
AcDbEntity
  8
0
100
AcDbCircle
 62
7
  6
CONTINUOUS
 10
2.3181780217
 20
2.8734952632
 40
0.0094488189
100
AcDbArc
 50
270.0
 51
307.0310113869
  0
ARC
  5
2ED
100
AcDbEntity
  8
0
100
AcDbCircle
 62
7
  6
CONTINUOUS
 10
2.329555527
 20
2.8734952632
 40
0.0094488189
100
AcDbArc
 50
180.0
 51
270.0
  0
ARC
  5
2EE
100
AcDbEntity
  8
0
100
AcDbCircle
 62
7
  6
CONTINUOUS
 10
2.4240437159
 20
2.8734952632
 40
0.0094488189
100
AcDbArc
 50
270.0
 51
360.0
  0
ARC
  5
2EF
100
AcDbEntity
  8
0
100
AcDbCircle
 62
7
  6
CONTINUOUS
 10
2.5152882939
 20
2.8734952632
 40
0.0094488189
100
AcDbArc
 50
180.0
 51
270.0
  0
ARC
  5
2F0
100
AcDbEntity
  8
0
100
AcDbCircle
 62
7
  6
CONTINUOUS
 10
2.6097764828
 20
2.8734952632
 40
0.0094488189
100
AcDbArc
 50
270.0
 51
360.0
  0
ARC
  5
2F1
100
AcDbEntity
  8
0
100
AcDbCircle
 62
7
  6
CONTINUOUS
 10
2.7763147764
 20
2.8734952632
 40
0.0094488189
100
AcDbArc
 50
180.0
 51
270.0
  0
ARC
  5
2F2
100
AcDbEntity
  8
0
100
AcDbCircle
 62
7
  6
CONTINUOUS
 10
2.8708029653
 20
2.8734952632
 40
0.0094488189
100
AcDbArc
 50
270.0
 51
360.0
  0
ARC
  5
2F3
100
AcDbEntity
  8
0
100
AcDbCircle
 62
7
  6
CONTINUOUS
 10
3.1062076361
 20
2.8734952632
 40
0.0094488189
100
AcDbArc
 50
180.0
 51
270.0
  0
ARC
  5
2F4
100
AcDbEntity
  8
0
100
AcDbCircle
 62
7
  6
CONTINUOUS
 10
3.2006958251
 20
2.8734952632
 40
0.0094488189
100
AcDbArc
 50
270.0
 51
360.0
  0
ARC
  5
2F5
100
AcDbEntity
  8
0
100
AcDbCircle
 62
7
  6
CONTINUOUS
 10
2.9550663396
 20
2.8734952632
 40
0.0094488189
100
AcDbArc
 50
270.0
 51
360.0
  0
ARC
  5
2F6
100
AcDbEntity
  8
0
100
AcDbCircle
 62
7
  6
CONTINUOUS
 10
2.6378455167
 20
2.8734952632
 40
0.0094488189
100
AcDbArc
 50
180.0
 51
270.0
  0
ARC
  5
2F7
100
AcDbEntity
  8
0
100
AcDbCircle
 62
7
  6
CONTINUOUS
 10
2.666951245
 20
2.8734952632
 40
0.0094488189
100
AcDbArc
 50
180.0
 51
270.0
  0
ARC
  5
2F8
100
AcDbEntity
  8
0
100
AcDbCircle
 62
7
  6
CONTINUOUS
 10
2.7614394339
 20
2.8734952632
 40
0.0094488189
100
AcDbArc
 50
270.0
 51
321.9420066299
  0
ARC
  5
2F9
100
AcDbEntity
  8
0
100
AcDbCircle
 62
7
  6
CONTINUOUS
 10
2.883956667
 20
2.8734952632
 40
0.0094488189
100
AcDbArc
 50
270.0
 51
360.0
  0
ARC
  5
2FA
100
AcDbEntity
  8
0
100
AcDbCircle
 62
7
  6
CONTINUOUS
 10
3.0014591931
 20
2.8734952632
 40
0.0094488189
100
AcDbArc
 50
180.0
 51
270.0
  0
ARC
  5
2FB
100
AcDbEntity
  8
0
100
AcDbCircle
 62
7
  6
CONTINUOUS
 10
3.0959473821
 20
2.8734952632
 40
0.0094488189
100
AcDbArc
 50
270.0
 51
302.8857103184
  0
ARC
  5
2FC
100
AcDbEntity
  8
0
100
AcDbCircle
 62
7
  6
CONTINUOUS
 10
3.2961094566
 20
2.8734952632
 40
0.0094488189
100
AcDbArc
 50
180.0
 51
270.0
  0
ARC
  5
2FD
100
AcDbEntity
  8
0
100
AcDbCircle
 62
7
  6
CONTINUOUS
 10
3.2422889402
 20
2.8734952632
 40
0.0094488189
100
AcDbArc
 50
270.0
 51
318.3058557131
  0
ARC
  5
2FE
100
AcDbEntity
  8
0
100
AcDbCircle
 62
7
  6
CONTINUOUS
 10
3.2065943675
 20
2.8734952632
 40
0.0094488189
100
AcDbArc
 50
270.0
 51
360.0
  0
ARC
  5
2FF
100
AcDbEntity
  8
0
100
AcDbCircle
 62
7
  6
CONTINUOUS
 10
3.2563981302
 20
2.8734952632
 40
0.0094488189
100
AcDbArc
 50
180.0
 51
270.0
  0
ARC
  5
300
100
AcDbEntity
  8
0
100
AcDbCircle
 62
7
  6
CONTINUOUS
 10
2.4535240402
 20
4.1589264283
 40
0.28
100
AcDbArc
 50
92.6959578731
 51
142.5
  0
ARC
  5
301
100
AcDbEntity
  8
0
100
AcDbCircle
 62
7
  6
CONTINUOUS
 10
2.079290001
 20
4.1968726152
 40
0.04
100
AcDbArc
 50
275.7798066019
 51
322.5
  0
ARC
  5
302
100
AcDbEntity
  8
0
100
AcDbCircle
 62
7
  6
CONTINUOUS
 10
3.496843816
 20
2.8734952632
 40
0.0094488189
100
AcDbArc
 50
180.0
 51
270.0
  0
ARC
  5
303
100
AcDbEntity
  8
0
100
AcDbCircle
 62
7
  6
CONTINUOUS
 10
3.591332005
 20
2.8734952632
 40
0.0094488189
100
AcDbArc
 50
270.0
 51
360.0
  0
ARC
  5
304
100
AcDbEntity
  8
0
100
AcDbCircle
 62
7
  6
CONTINUOUS
 10
3.938604557
 20
2.8734952632
 40
0.0094488189
100
AcDbArc
 50
180.0
 51
270.0
  0
ARC
  5
305
100
AcDbEntity
  8
0
100
AcDbCircle
 62
7
  6
CONTINUOUS
 10
4.033092746
 20
2.8734952632
 40
0.0094488189
100
AcDbArc
 50
270.0
 51
360.0
  0
ARC
  5
306
100
AcDbEntity
  8
0
100
AcDbCircle
 62
7
  6
CONTINUOUS
 10
4.4206122434
 20
2.8734952632
 40
0.0094488189
100
AcDbArc
 50
180.0
 51
270.0
  0
ARC
  5
307
100
AcDbEntity
  8
0
100
AcDbCircle
 62
7
  6
CONTINUOUS
 10
4.5151004324
 20
2.8734952632
 40
0.0094488189
100
AcDbArc
 50
270.0
 51
360.0
  0
ARC
  5
308
100
AcDbEntity
  8
0
100
AcDbCircle
 62
7
  6
CONTINUOUS
 10
4.9309982463
 20
2.8734952632
 40
0.0094488189
100
AcDbArc
 50
180.0
 51
270.0
  0
ARC
  5
309
100
AcDbEntity
  8
0
100
AcDbCircle
 62
7
  6
CONTINUOUS
 10
5.0254864353
 20
2.8734952632
 40
0.0094488189
100
AcDbArc
 50
270.0
 51
360.0
  0
ARC
  5
30A
100
AcDbEntity
  8
0
100
AcDbCircle
 62
7
  6
CONTINUOUS
 10
5.4571951685
 20
2.8734952632
 40
0.0094488189
100
AcDbArc
 50
180.0
 51
270.0
  0
ARC
  5
30B
100
AcDbEntity
  8
0
100
AcDbCircle
 62
7
  6
CONTINUOUS
 10
5.5516833574
 20
2.8734952632
 40
0.0094488189
100
AcDbArc
 50
270.0
 51
360.0
  0
ARC
  5
30C
100
AcDbEntity
  8
0
100
AcDbCircle
 62
7
  6
CONTINUOUS
 10
3.4292596683
 20
2.8734952632
 40
0.0094488189
100
AcDbArc
 50
243.1179867458
 51
270.0
  0
ARC
  5
30D
100
AcDbEntity
  8
0
100
AcDbCircle
 62
7
  6
CONTINUOUS
 10
3.3905976455
 20
2.8734952632
 40
0.0094488189
100
AcDbArc
 50
270.0
 51
360.0
  0
ARC
  5
30E
100
AcDbEntity
  8
0
100
AcDbCircle
 62
7
  6
CONTINUOUS
 10
3.6639484418
 20
2.8734952632
 40
0.0094488189
100
AcDbArc
 50
180.0
 51
270.0
  0
ARC
  5
30F
100
AcDbEntity
  8
0
100
AcDbCircle
 62
7
  6
CONTINUOUS
 10
3.7584366308
 20
2.8734952632
 40
0.0094488189
100
AcDbArc
 50
270.0
 51
360.0
  0
ARC
  5
310
100
AcDbEntity
  8
0
100
AcDbCircle
 62
7
  6
CONTINUOUS
 10
4.0931528462
 20
2.8734952632
 40
0.0094488189
100
AcDbArc
 50
180.0
 51
270.0
  0
ARC
  5
311
100
AcDbEntity
  8
0
100
AcDbCircle
 62
7
  6
CONTINUOUS
 10
4.1876410351
 20
2.8734952632
 40
0.0094488189
100
AcDbArc
 50
270.0
 51
360.0
  0
ARC
  5
312
100
AcDbEntity
  8
0
100
AcDbCircle
 62
7
  6
CONTINUOUS
 10
4.5699269226
 20
2.8734952632
 40
0.0094488189
100
AcDbArc
 50
180.0
 51
270.0
  0
ARC
  5
313
100
AcDbEntity
  8
0
100
AcDbCircle
 62
7
  6
CONTINUOUS
 10
4.6644151115
 20
2.8734952632
 40
0.0094488189
100
AcDbArc
 50
270.0
 51
360.0
  0
ARC
  5
314
100
AcDbEntity
  8
0
100
AcDbCircle
 62
7
  6
CONTINUOUS
 10
5.0789459108
 20
2.8734952632
 40
0.0094488189
100
AcDbArc
 50
180.0
 51
270.0
  0
ARC
  5
315
100
AcDbEntity
  8
0
100
AcDbCircle
 62
7
  6
CONTINUOUS
 10
5.1734340998
 20
2.8734952632
 40
0.0094488189
100
AcDbArc
 50
270.0
 51
360.0
  0
ARC
  5
316
100
AcDbEntity
  8
0
100
AcDbCircle
 62
7
  6
CONTINUOUS
 10
5.6038486154
 20
2.8734952632
 40
0.0094488189
100
AcDbArc
 50
180.0
 51
270.0
  0
ARC
  5
317
100
AcDbEntity
  8
0
100
AcDbCircle
 62
7
  6
CONTINUOUS
 10
3.4207154405
 20
2.8734952632
 40
0.0094488189
100
AcDbArc
 50
270.0
 51
360.0
  0
ARC
  5
318
100
AcDbEntity
  8
0
100
AcDbCircle
 62
7
  6
CONTINUOUS
 10
3.5964296908
 20
2.8734952632
 40
0.0094488189
100
AcDbArc
 50
270.0
 51
360.0
  0
ARC
  5
319
100
AcDbEntity
  8
0
100
AcDbCircle
 62
7
  6
CONTINUOUS
 10
3.8380048697
 20
2.8734952632
 40
0.0094488189
100
AcDbArc
 50
180.0
 51
270.0
  0
ARC
  5
31A
100
AcDbEntity
  8
0
100
AcDbCircle
 62
7
  6
CONTINUOUS
 10
3.9324930587
 20
2.8734952632
 40
0.0094488189
100
AcDbArc
 50
270.0
 51
288.8743370856
  0
ARC
  5
31B
100
AcDbEntity
  8
0
100
AcDbCircle
 62
7
  6
CONTINUOUS
 10
4.2499006521
 20
2.8734952632
 40
0.0094488189
100
AcDbArc
 50
180.0
 51
270.0
  0
ARC
  5
31C
100
AcDbEntity
  8
0
100
AcDbCircle
 62
7
  6
CONTINUOUS
 10
4.3443888411
 20
2.8734952632
 40
0.0094488189
100
AcDbArc
 50
270.0
 51
360.0
  0
ARC
  5
31D
100
AcDbEntity
  8
0
100
AcDbCircle
 62
7
  6
CONTINUOUS
 10
4.7196270269
 20
2.8734952632
 40
0.0094488189
100
AcDbArc
 50
180.0
 51
270.0
  0
ARC
  5
31E
100
AcDbEntity
  8
0
100
AcDbCircle
 62
7
  6
CONTINUOUS
 10
4.8141152159
 20
2.8734952632
 40
0.0094488189
100
AcDbArc
 50
270.0
 51
360.0
  0
ARC
  5
31F
100
AcDbEntity
  8
0
100
AcDbCircle
 62
7
  6
CONTINUOUS
 10
5.2266546974
 20
2.8734952632
 40
0.0094488189
100
AcDbArc
 50
180.0
 51
270.0
  0
ARC
  5
320
100
AcDbEntity
  8
0
100
AcDbCircle
 62
7
  6
CONTINUOUS
 10
5.3211428864
 20
2.8734952632
 40
0.0094488189
100
AcDbArc
 50
270.0
 51
360.0
  0
ARC
  5
321
100
AcDbEntity
  8
0
100
AcDbCircle
 62
7
  6
CONTINUOUS
 10
4.2186857393
 20
2.8734952632
 40
0.0094488189
100
AcDbArc
 50
270.0
 51
289.3916611582
  0
ARC
  5
322
100
AcDbEntity
  8
0
100
AcDbCircle
 62
7
  6
CONTINUOUS
 10
3.660665402
 20
2.8734952632
 40
0.0094488189
100
AcDbArc
 50
270.0
 51
280.0078082161
  0
ARC
  5
323
100
AcDbEntity
  8
0
100
AcDbCircle
 62
7
  6
CONTINUOUS
 10
3.833741221
 20
2.8734952632
 40
0.0094488189
100
AcDbArc
 50
270.0
 51
283.0434477924
  0
ARC
  5
324
100
AcDbEntity
  8
0
100
AcDbCircle
 62
7
  6
CONTINUOUS
 10
4.4129733915
 20
2.8734952632
 40
0.0094488189
100
AcDbArc
 50
180.0
 51
270.0
  0
ARC
  5
325
100
AcDbEntity
  8
0
100
AcDbCircle
 62
7
  6
CONTINUOUS
 10
4.8712856041
 20
2.8734952632
 40
0.0094488189
100
AcDbArc
 50
180.0
 51
270.0
  0
ARC
  5
326
100
AcDbEntity
  8
0
100
AcDbCircle
 62
7
  6
CONTINUOUS
 10
5.3736960166
 20
2.8734952632
 40
0.0094488189
100
AcDbArc
 50
180.0
 51
270.0
  0
ARC
  5
327
100
AcDbEntity
  8
0
100
AcDbCircle
 62
7
  6
CONTINUOUS
 10
4.2249580592
 20
2.8734952632
 40
0.0094488189
100
AcDbArc
 50
180.0
 51
270.0
  0
ARC
  5
328
100
AcDbEntity
  8
0
100
AcDbCircle
 62
7
  6
CONTINUOUS
 10
4.6667661259
 20
2.8734952632
 40
0.0094488189
100
AcDbArc
 50
270.0
 51
360.0
  0
ARC
  5
329
100
AcDbEntity
  8
0
100
AcDbCircle
 62
7
  6
CONTINUOUS
 10
4.3848350317
 20
2.8734952632
 40
0.0094488189
100
AcDbArc
 50
180.0
 51
270.0
  0
ARC
  5
32A
100
AcDbEntity
  8
0
100
AcDbCircle
 62
7
  6
CONTINUOUS
 10
4.5654447114
 20
2.8734952632
 40
0.0094488189
100
AcDbArc
 50
270.0
 51
283.7250149171
  0
ARC
  5
32B
100
AcDbEntity
  8
0
100
AcDbCircle
 62
7
  6
CONTINUOUS
 10
4.8421385289
 20
2.8734952632
 40
0.0094488189
100
AcDbArc
 50
270.0
 51
360.0
  0
ARC
  5
32C
100
AcDbEntity
  8
0
100
AcDbCircle
 62
7
  6
CONTINUOUS
 10
5.1963539656
 20
5.173418799
 40
0.16
100
AcDbArc
 50
118.3593500282
 51
180.0
  0
ARC
  5
32D
100
AcDbEntity
  8
0
100
AcDbCircle
 62
7
  6
CONTINUOUS
 10
4.8403165755
 20
5.0146165231
 40
0.08
100
AcDbArc
 50
90.0
 51
117.921188264
  0
ARC
  5
32E
100
AcDbEntity
  8
0
100
AcDbCircle
 62
7
  6
CONTINUOUS
 10
2.1765430413
 20
10.0411134741
 40
5.6087046891
100
AcDbArc
 50
272.6959578731
 51
297.921188264
  0
ARC
  5
32F
100
AcDbEntity
  8
0
100
AcDbCircle
 62
7
  6
CONTINUOUS
 10
5.9862462953
 20
2.8734952632
 40
0.0094488189
100
AcDbArc
 50
180.0
 51
270.0
  0
ARC
  5
330
100
AcDbEntity
  8
0
100
AcDbCircle
 62
7
  6
CONTINUOUS
 10
6.0807344843
 20
2.8734952632
 40
0.0094488189
100
AcDbArc
 50
270.0
 51
360.0
  0
ARC
  5
331
100
AcDbEntity
  8
0
100
AcDbCircle
 62
7
  6
CONTINUOUS
 10
6.5051246323
 20
2.8734952632
 40
0.0094488189
100
AcDbArc
 50
180.0
 51
270.0
  0
ARC
  5
332
100
AcDbEntity
  8
0
100
AcDbCircle
 62
7
  6
CONTINUOUS
 10
6.5996128212
 20
2.8734952632
 40
0.0094488189
100
AcDbArc
 50
270.0
 51
360.0
  0
ARC
  5
333
100
AcDbEntity
  8
0
100
AcDbCircle
 62
7
  6
CONTINUOUS
 10
7.0010536726
 20
2.8734952632
 40
0.0094488189
100
AcDbArc
 50
180.0
 51
270.0
  0
ARC
  5
334
100
AcDbEntity
  8
0
100
AcDbCircle
 62
7
  6
CONTINUOUS
 10
7.0955418616
 20
2.8734952632
 40
0.0094488189
100
AcDbArc
 50
270.0
 51
360.0
  0
ARC
  5
335
100
AcDbEntity
  8
0
100
AcDbCircle
 62
7
  6
CONTINUOUS
 10
7.4618219975
 20
2.8734952632
 40
0.0094488189
100
AcDbArc
 50
180.0
 51
270.0
  0
ARC
  5
336
100
AcDbEntity
  8
0
100
AcDbCircle
 62
7
  6
CONTINUOUS
 10
7.5563101865
 20
2.8734952632
 40
0.0094488189
100
AcDbArc
 50
270.0
 51
360.0
  0
ARC
  5
337
100
AcDbEntity
  8
0
100
AcDbCircle
 62
7
  6
CONTINUOUS
 10
7.8760839616
 20
2.8734952632
 40
0.0094488189
100
AcDbArc
 50
180.0
 51
270.0
  0
ARC
  5
338
100
AcDbEntity
  8
0
100
AcDbCircle
 62
7
  6
CONTINUOUS
 10
7.7693186783
 20
2.8734952632
 40
0.0094488189
100
AcDbArc
 50
270.0
 51
360.0
  0
ARC
  5
339
100
AcDbEntity
  8
0
100
AcDbCircle
 62
7
  6
CONTINUOUS
 10
5.6983368044
 20
2.8734952632
 40
0.0094488189
100
AcDbArc
 50
270.0
 51
360.0
  0
ARC
  5
33A
100
AcDbEntity
  8
0
100
AcDbCircle
 62
7
  6
CONTINUOUS
 10
6.1277632967
 20
2.8734952632
 40
0.0094488189
100
AcDbArc
 50
180.0
 51
270.0
  0
ARC
  5
33B
100
AcDbEntity
  8
0
100
AcDbCircle
 62
7
  6
CONTINUOUS
 10
6.2222514857
 20
2.8734952632
 40
0.0094488189
100
AcDbArc
 50
270.0
 51
360.0
  0
ARC
  5
33C
100
AcDbEntity
  8
0
100
AcDbCircle
 62
7
  6
CONTINUOUS
 10
6.6338499728
 20
2.8734952632
 40
0.0094488189
100
AcDbArc
 50
180.0
 51
270.0
  0
ARC
  5
33D
100
AcDbEntity
  8
0
100
AcDbCircle
 62
7
  6
CONTINUOUS
 10
6.7283381618
 20
2.8734952632
 40
0.0094488189
100
AcDbArc
 50
270.0
 51
360.0
  0
ARC
  5
33E
100
AcDbEntity
  8
0
100
AcDbCircle
 62
7
  6
CONTINUOUS
 10
7.1058417003
 20
2.8734952632
 40
0.0094488189
100
AcDbArc
 50
236.9725983018
 51
270.0
  0
ARC
  5
33F
100
AcDbEntity
  8
0
100
AcDbCircle
 62
7
  6
CONTINUOUS
 10
7.2003298892
 20
2.8734952632
 40
0.0094488189
100
AcDbArc
 50
270.0
 51
360.0
  0
ARC
  5
340
100
AcDbEntity
  8
0
100
AcDbCircle
 62
7
  6
CONTINUOUS
 10
7.623055625
 20
2.8734952632
 40
0.0094488189
100
AcDbArc
 50
270.0
 51
360.0
  0
ARC
  5
341
100
AcDbEntity
  8
0
100
AcDbCircle
 62
7
  6
CONTINUOUS
 10
7.4027030615
 20
2.8734952632
 40
0.0094488189
100
AcDbArc
 50
270.0
 51
360.0
  0
ARC
  5
342
100
AcDbEntity
  8
0
100
AcDbCircle
 62
7
  6
CONTINUOUS
 10
5.7488241215
 20
2.8734952632
 40
0.0094488189
100
AcDbArc
 50
180.0
 51
270.0
  0
ARC
  5
343
100
AcDbEntity
  8
0
100
AcDbCircle
 62
7
  6
CONTINUOUS
 10
5.8433123104
 20
2.8734952632
 40
0.0094488189
100
AcDbArc
 50
270.0
 51
360.0
  0
ARC
  5
344
100
AcDbEntity
  8
0
100
AcDbCircle
 62
7
  6
CONTINUOUS
 10
6.2633139896
 20
2.8734952632
 40
0.0094488189
100
AcDbArc
 50
180.0
 51
270.0
  0
ARC
  5
345
100
AcDbEntity
  8
0
100
AcDbCircle
 62
7
  6
CONTINUOUS
 10
6.3578021786
 20
2.8734952632
 40
0.0094488189
100
AcDbArc
 50
270.0
 51
360.0
  0
ARC
  5
346
100
AcDbEntity
  8
0
100
AcDbCircle
 62
7
  6
CONTINUOUS
 10
6.7476386258
 20
2.8734952632
 40
0.0094488189
100
AcDbArc
 50
180.0
 51
270.0
  0
ARC
  5
347
100
AcDbEntity
  8
0
100
AcDbCircle
 62
7
  6
CONTINUOUS
 10
6.8421268148
 20
2.8734952632
 40
0.0094488189
100
AcDbArc
 50
270.0
 51
360.0
  0
ARC
  5
348
100
AcDbEntity
  8
0
100
AcDbCircle
 62
7
  6
CONTINUOUS
 10
7.2751189084
 20
2.8734952632
 40
0.0094488189
100
AcDbArc
 50
270.0
 51
360.0
  0
ARC
  5
349
100
AcDbEntity
  8
0
100
AcDbCircle
 62
7
  6
CONTINUOUS
 10
7.6378546273
 20
2.8734952632
 40
0.0094488189
100
AcDbArc
 50
270.0
 51
360.0
  0
ARC
  5
34A
100
AcDbEntity
  8
0
100
AcDbCircle
 62
7
  6
CONTINUOUS
 10
7.8199924908
 20
2.8734952632
 40
0.0094488189
100
AcDbArc
 50
180.0
 51
270.0
  0
ARC
  5
34B
100
AcDbEntity
  8
0
100
AcDbCircle
 62
7
  6
CONTINUOUS
 10
7.7387664294
 20
2.8734952632
 40
0.0094488189
100
AcDbArc
 50
270.0
 51
360.0
  0
ARC
  5
34C
100
AcDbEntity
  8
0
100
AcDbCircle
 62
7
  6
CONTINUOUS
 10
6.121798628
 20
2.8734952632
 40
0.0094488189
100
AcDbArc
 50
270.0
 51
288.4020219646
  0
ARC
  5
34D
100
AcDbEntity
  8
0
100
AcDbCircle
 62
7
  6
CONTINUOUS
 10
5.8886363349
 20
2.8734952632
 40
0.0094488189
100
AcDbArc
 50
180.0
 51
270.0
  0
ARC
  5
34E
100
AcDbEntity
  8
0
100
AcDbCircle
 62
7
  6
CONTINUOUS
 10
5.9831245238
 20
2.8734952632
 40
0.0094488189
100
AcDbArc
 50
270.0
 51
279.0
  0
ARC
  5
34F
100
AcDbEntity
  8
0
100
AcDbCircle
 62
7
  6
CONTINUOUS
 10
6.383750965
 20
2.8734952632
 40
0.0094488189
100
AcDbArc
 50
180.0
 51
270.0
  0
ARC
  5
350
100
AcDbEntity
  8
0
100
AcDbCircle
 62
7
  6
CONTINUOUS
 10
6.478239154
 20
2.8734952632
 40
0.0094488189
100
AcDbArc
 50
270.0
 51
360.0
  0
ARC
  5
351
100
AcDbEntity
  8
0
100
AcDbCircle
 62
7
  6
CONTINUOUS
 10
6.9224182229
 20
2.8734952632
 40
0.0094488189
100
AcDbArc
 50
270.0
 51
360.0
  0
ARC
  5
352
100
AcDbEntity
  8
0
100
AcDbCircle
 62
7
  6
CONTINUOUS
 10
7.2877523261
 20
2.8734952632
 40
0.0094488189
100
AcDbArc
 50
270.0
 51
360.0
  0
ARC
  5
353
100
AcDbEntity
  8
0
100
AcDbCircle
 62
7
  6
CONTINUOUS
 10
7.4567979893
 20
2.8734952632
 40
0.0094488189
100
AcDbArc
 50
180.0
 51
270.0
  0
ARC
  5
354
100
AcDbEntity
  8
0
100
AcDbCircle
 62
7
  6
CONTINUOUS
 10
7.6964609782
 20
2.8734952632
 40
0.0094488189
100
AcDbArc
 50
270.0
 51
360.0
  0
ARC
  5
355
100
AcDbEntity
  8
0
100
AcDbCircle
 62
7
  6
CONTINUOUS
 10
7.7141548594
 20
2.8734952632
 40
0.0094488189
100
AcDbArc
 50
270.0
 51
360.0
  0
ARC
  5
356
100
AcDbEntity
  8
0
100
AcDbCircle
 62
7
  6
CONTINUOUS
 10
7.3707327305
 20
2.8734952632
 40
0.0094488189
100
AcDbArc
 50
270.0
 51
360.0
  0
ARC
  5
357
100
AcDbEntity
  8
0
100
AcDbCircle
 62
7
  6
CONTINUOUS
 10
6.1168613584
 20
2.8734952632
 40
0.0094488189
100
AcDbArc
 50
270.0
 51
305.2427365972
  0
ARC
  5
358
100
AcDbEntity
  8
0
100
AcDbCircle
 62
7
  6
CONTINUOUS
 10
6.4835343352
 20
2.8734952632
 40
0.0094488189
100
AcDbArc
 50
253.7220019148
 51
270.0
  0
ARC
  5
359
100
AcDbEntity
  8
0
100
AcDbCircle
 62
7
  6
CONTINUOUS
 10
6.9500650002
 20
2.8734952632
 40
0.0094488189
100
AcDbArc
 50
270.0
 51
360.0
  0
ARC
  5
35A
100
AcDbEntity
  8
0
100
AcDbCircle
 62
7
  6
CONTINUOUS
 10
7.1020824876
 20
2.8734952632
 40
0.0094488189
100
AcDbArc
 50
249.7452637427
 51
270.0
  0
ARC
  5
35B
100
AcDbEntity
  8
0
100
AcDbCircle
 62
7
  6
CONTINUOUS
 10
7.2934098603
 20
2.8734952632
 40
0.0094488189
100
AcDbArc
 50
270.0
 51
360.0
  0
ARC
  5
35C
100
AcDbEntity
  8
0
100
AcDbCircle
 62
7
  6
CONTINUOUS
 10
6.2263688287
 20
2.8734952632
 40
0.0094488189
100
AcDbArc
 50
270.0
 51
360.0
  0
ARC
  5
35D
100
AcDbEntity
  8
0
100
AcDbCircle
 62
7
  6
CONTINUOUS
 10
6.6049286891
 20
2.8734952632
 40
0.0094488189
100
AcDbArc
 50
270.0
 51
360.0
  0
ARC
  5
35E
100
AcDbEntity
  8
0
100
AcDbCircle
 62
7
  6
CONTINUOUS
 10
5.8741808933
 20
2.8734952632
 40
0.0094488189
100
AcDbArc
 50
270.0
 51
319.9224908163
  0
ARC
  5
35F
100
AcDbEntity
  8
0
100
AcDbCircle
 62
7
  6
CONTINUOUS
 10
6.257309383
 20
2.8734952632
 40
0.0094488189
100
AcDbArc
 50
270.0
 51
288.5304927072
  0
ARC
  5
360
100
AcDbEntity
  8
0
100
AcDbCircle
 62
7
  6
CONTINUOUS
 10
6.0443539656
 20
5.1734187989
 40
0.16
100
AcDbArc
 50
0.0
 51
61.6406499718
  0
ARC
  5
361
100
AcDbEntity
  8
0
100
AcDbCircle
 62
7
  6
CONTINUOUS
 10
6.4003913557
 20
5.0146165231
 40
0.08
100
AcDbArc
 50
62.078811736
 51
90.0
  0
ARC
  5
362
100
AcDbEntity
  8
0
100
AcDbCircle
 62
7
  6
CONTINUOUS
 10
7.9705721506
 20
2.8734952632
 40
0.0094488189
100
AcDbArc
 50
270.0
 51
360.0
  0
ARC
  5
363
100
AcDbEntity
  8
0
100
AcDbCircle
 62
7
  6
CONTINUOUS
 10
8.2336390604
 20
2.8734952632
 40
0.0094488189
100
AcDbArc
 50
180.0
 51
270.0
  0
ARC
  5
364
100
AcDbEntity
  8
0
100
AcDbCircle
 62
7
  6
CONTINUOUS
 10
8.3281272494
 20
2.8734952632
 40
0.0094488189
100
AcDbArc
 50
270.0
 51
360.0
  0
ARC
  5
365
100
AcDbEntity
  8
0
100
AcDbCircle
 62
7
  6
CONTINUOUS
 10
8.5256831008
 20
2.8734952632
 40
0.0094488189
100
AcDbArc
 50
180.0
 51
270.0
  0
ARC
  5
366
100
AcDbEntity
  8
0
100
AcDbCircle
 62
7
  6
CONTINUOUS
 10
8.6201712898
 20
2.8734952632
 40
0.0094488189
100
AcDbArc
 50
270.0
 51
360.0
  0
ARC
  5
367
100
AcDbEntity
  8
0
100
AcDbCircle
 62
7
  6
CONTINUOUS
 10
8.8395131782
 20
2.8734952632
 40
0.0094488189
100
AcDbArc
 50
270.0
 51
360.0
  0
ARC
  5
368
100
AcDbEntity
  8
0
100
AcDbCircle
 62
7
  6
CONTINUOUS
 10
8.7450249893
 20
2.8734952632
 40
0.0094488189
100
AcDbArc
 50
180.0
 51
270.0
  0
ARC
  5
369
100
AcDbEntity
  8
0
100
AcDbCircle
 62
7
  6
CONTINUOUS
 10
8.9807519895
 20
2.8734952632
 40
0.0094488189
100
AcDbArc
 50
270.0
 51
360.0
  0
ARC
  5
36A
100
AcDbEntity
  8
0
100
AcDbCircle
 62
7
  6
CONTINUOUS
 10
8.8862638005
 20
2.8734952632
 40
0.0094488189
100
AcDbArc
 50
180.0
 51
270.0
  0
ARC
  5
36B
100
AcDbEntity
  8
0
100
AcDbCircle
 62
7
  6
CONTINUOUS
 10
9.0404099553
 20
2.8734952632
 40
0.0094488189
100
AcDbArc
 50
270.0
 51
360.0
  0
ARC
  5
36C
100
AcDbEntity
  8
0
100
AcDbCircle
 62
7
  6
CONTINUOUS
 10
8.7254196374
 20
2.8734952632
 40
0.0094488189
100
AcDbArc
 50
270.0
 51
360.0
  0
ARC
  5
36D
100
AcDbEntity
  8
0
100
AcDbCircle
 62
7
  6
CONTINUOUS
 10
8.6309314484
 20
2.8734952632
 40
0.0094488189
100
AcDbArc
 50
235.2789204138
 51
270.0
  0
ARC
  5
36E
100
AcDbEntity
  8
0
100
AcDbCircle
 62
7
  6
CONTINUOUS
 10
8.3699049659
 20
2.8734952632
 40
0.0094488189
100
AcDbArc
 50
222.4546194605
 51
270.0
  0
ARC
  5
36F
100
AcDbEntity
  8
0
100
AcDbCircle
 62
7
  6
CONTINUOUS
 10
7.9829278634
 20
2.8734952632
 40
0.0094488189
100
AcDbArc
 50
270.0
 51
360.0
  0
ARC
  5
370
100
AcDbEntity
  8
0
100
AcDbCircle
 62
7
  6
CONTINUOUS
 10
8.1738911847
 20
2.8734952632
 40
0.0094488189
100
AcDbArc
 50
180.0
 51
270.0
  0
ARC
  5
371
100
AcDbEntity
  8
0
100
AcDbCircle
 62
7
  6
CONTINUOUS
 10
8.470235001
 20
2.8734952632
 40
0.0094488189
100
AcDbArc
 50
270.0
 51
360.0
  0
ARC
  5
372
100
AcDbEntity
  8
0
100
AcDbCircle
 62
7
  6
CONTINUOUS
 10
8.375746812
 20
2.8734952632
 40
0.0094488189
100
AcDbArc
 50
180.0
 51
270.0
  0
ARC
  5
373
100
AcDbEntity
  8
0
100
AcDbCircle
 62
7
  6
CONTINUOUS
 10
8.487518391
 20
2.8734952632
 40
0.0094488189
100
AcDbArc
 50
203.845180779
 51
270.0
  0
ARC
  5
374
100
AcDbEntity
  8
0
100
AcDbCircle
 62
7
  6
CONTINUOUS
 10
8.3559644879
 20
2.8734952632
 40
0.0094488189
100
AcDbArc
 50
270.0
 51
360.0
  0
ARC
  5
375
100
AcDbEntity
  8
0
100
AcDbCircle
 62
7
  6
CONTINUOUS
 10
8.09290718
 20
2.8734952632
 40
0.0094488189
100
AcDbArc
 50
270.0
 51
360.0
  0
ARC
  5
376
100
AcDbEntity
  8
0
100
AcDbCircle
 62
7
  6
CONTINUOUS
 10
7.998418991
 20
2.8734952632
 40
0.0094488189
100
AcDbArc
 50
214.915289959
 51
270.0
  0
ARC
  5
377
100
AcDbEntity
  8
0
100
AcDbCircle
 62
7
  6
CONTINUOUS
 10
8.1653360338
 20
2.8734952632
 40
0.0094488189
100
AcDbArc
 50
270.0
 51
296.9187091896
  0
ARC
  5
378
100
AcDbEntity
  8
0
100
AcDbCircle
 62
7
  6
CONTINUOUS
 10
7.984309801
 20
2.8734952632
 40
0.0094488189
100
AcDbArc
 50
270.0
 51
318.3058557131
  0
ARC
  5
379
100
AcDbEntity
  8
0
100
AcDbCircle
 62
7
  6
CONTINUOUS
 10
9.9814256206
 20
3.091966316
 40
0.24
100
AcDbArc
 50
10.0
 51
66.4287918043
  0
ARC
  5
37A
100
AcDbEntity
  8
0
100
AcDbCircle
 62
7
  6
CONTINUOUS
 10
10.1603539656
 20
2.9986165231
 40
0.08
100
AcDbArc
 50
270.0
 51
10.0
  0
ARC
  5
37B
100
AcDbEntity
  8
0
100
AcDbCircle
 62
7
  6
CONTINUOUS
 10
9.9523539656
 20
2.9860306963
 40
0.068
100
AcDbArc
 50
270.0
 51
277.509423155
  0
ARC
  5
37C
100
AcDbEntity
  8
0
100
AcDbCircle
 62
7
  6
CONTINUOUS
 10
9.076825181
 20
3.3611429539
 40
0.8
100
AcDbArc
 50
22.5
 51
84.2201933981
  0
ARC
  5
37D
100
AcDbEntity
  8
0
100
AcDbCircle
 62
7
  6
CONTINUOUS
 10
10.0454077804
 20
3.2386165231
 40
0.08
100
AcDbArc
 50
66.4287918043
 51
90.0
  0
ARC
  5
37E
100
AcDbEntity
  8
0
100
AcDbCircle
 62
7
  6
CONTINUOUS
 10
9.9870811111
 20
3.3586165231
 40
0.04
100
AcDbArc
 50
202.5
 51
270.0
  0
ARC
  5
37F
100
AcDbEntity
  8
0
100
AcDbCircle
 62
7
  6
CONTINUOUS
 10
8.7871838911
 20
4.1589264283
 40
0.28
100
AcDbArc
 50
37.5
 51
87.3040421269
  0
ARC
  5
380
100
AcDbEntity
  8
0
100
AcDbCircle
 62
7
  6
CONTINUOUS
 10
9.1614179302
 20
4.1968726152
 40
0.04
100
AcDbArc
 50
217.5
 51
264.2201933981
  0
ARC
  5
381
100
AcDbEntity
  8
0
100
AcDbCircle
 62
7
  6
CONTINUOUS
 10
9.0641648899
 20
10.0411134741
 40
5.6087046891
100
AcDbArc
 50
242.078811736
 51
267.3040421269
  0
SPLINE
  5
382
100
AcDbEntity
  8
0
100
AcDbSpline
 62
7
  6
CONTINUOUS
 70
0
 71
3
 72
41
 73
37
 74
0
 42
0.0000001
 43
0.0000001
 44
0.0000000001
 40
0.0
 40
0.0
 40
0.0
 40
0.0
 40
0.0312466954
 40
0.0468839833
 40
0.0625172188
 40
0.078149524
 40
0.0937813766
 40
0.109415375
 40
0.1250487317
 40
0.1563029971
 40
0.1875571063
 40
0.2188146033
 40
0.2500683134
 40
0.2813252203
 40
0.3125775193
 40
0.3438327063
 40
0.3750833672
 40
0.4063353029
 40
0.4375861669
 40
0.4688343284
 40
0.5000842775
 40
0.5313321272
 40
0.5625783096
 40
0.5938258651
 40
0.6250726691
 40
0.6563174241
 40
0.6875626381
 40
0.7188084171
 40
0.7500526342
 40
0.7812956987
 40
0.8125394242
 40
0.8437843767
 40
0.87502993
 40
0.9062751941
 40
0.9375195747
 40
1.0
 40
1.0
 40
1.0
 40
1.0
 10
5.354542002
 20
5.173418799
 30
0.0
 10
5.354542002
 20
5.1767700419
 30
0.0
 10
5.3548921872
 20
5.1818071382
 30
0.0
 10
5.3560363029
 20
5.1884172193
 30
0.0
 10
5.35722405
 20
5.1933094614
 30
0.0
 10
5.3587251679
 20
5.1981135275
 30
0.0
 10
5.3605255626
 20
5.2028135635
 30
0.0
 10
5.362605233
 20
5.2073967825
 30
0.0
 10
5.3657248991
 20
5.2133358988
 30
0.0
 10
5.3702306679
 20
5.2204225569
 30
0.0
 10
5.3764484349
 20
5.228344556
 30
0.0
 10
5.3833428074
 20
5.2356820668
 30
0.0
 10
5.3907941234
 20
5.2424499124
 30
0.0
 10
5.3987042067
 20
5.2486714782
 30
0.0
 10
5.4069900563
 20
5.2543807274
 30
0.0
 10
5.41558636
 20
5.2596073611
 30
0.0
 10
5.4244367634
 20
5.2643891183
 30
0.0
 10
5.4334986129
 20
5.2687543096
 30
0.0
 10
5.4427345329
 20
5.2727357732
 30
0.0
 10
5.4521148844
 20
5.2763621659
 30
0.0
 10
5.4616160962
 20
5.2796568287
 30
0.0
 10
5.4712169819
 20
5.2826468437
 30
0.0
 10
5.4809012339
 20
5.2853529687
 30
0.0
 10
5.4906555781
 20
5.287793132
 30
0.0
 10
5.500467863
 20
5.2899872222
 30
0.0
 10
5.5103282657
 20
5.2919519074
 30
0.0
 10
5.5202292645
 20
5.29369937
 30
0.0
 10
5.5301639677
 20
5.2952426908
 30
0.0
 10
5.5401260821
 20
5.2965955484
 30
0.0
 10
5.5501108855
 20
5.2977669853
 30
0.0
 10
5.5601146252
 20
5.2987642036
 30
0.0
 10
5.5701338017
 20
5.2995947699
 30
0.0
 10
5.5801649778
 20
5.3002667596
 30
0.0
 10
5.5902052141
 20
5.3007853539
 30
0.0
 10
5.6035997983
 20
5.3012748586
 30
0.0
 10
5.6136527401
 20
5.3014187977
 30
0.0
 10
5.6203538354
 20
5.3014187989
 30
0.0
  0
SPLINE
  5
383
100
AcDbEntity
  8
0
100
AcDbSpline
 62
7
  6
CONTINUOUS
 70
0
 71
3
 72
41
 73
37
 74
0
 42
0.0000001
 43
0.0000001
 44
0.0000000001
 40
0.0
 40
0.0
 40
0.0
 40
0.0
 40
0.0624804502
 40
0.0937248588
 40
0.1249701581
 40
0.1562157548
 40
0.1874607587
 40
0.2187045197
 40
0.2499475804
 40
0.2811917391
 40
0.3124374671
 40
0.3436826437
 40
0.3749273558
 40
0.4061741028
 40
0.4374216089
 40
0.4686677521
 40
0.4999155657
 40
0.5311654427
 40
0.5624135464
 40
0.5936643893
 40
0.6249162298
 40
0.6561668739
 40
0.6874219853
 40
0.7186742565
 40
0.7499312304
 40
0.7811849793
 40
0.812442532
 40
0.8436966742
 40
0.8749509217
 40
0.8905843598
 40
0.9062184123
 40
0.921850298
 40
0.9374826189
 40
0.9531158661
 40
0.9687532166
 40
1.0
 40
1.0
 40
1.0
 40
1.0
 10
5.6203538354
 20
5.3014187989
 30
0.0
 10
5.6270549388
 20
5.3014188002
 30
0.0
 10
5.6371078945
 20
5.3012748752
 30
0.0
 10
5.6505024994
 20
5.3007853808
 30
0.0
 10
5.6605427553
 20
5.3002667839
 30
0.0
 10
5.6705739517
 20
5.2995947693
 30
0.0
 10
5.680593151
 20
5.2987642135
 30
0.0
 10
5.6905969096
 20
5.2977670122
 30
0.0
 10
5.7005817198
 20
5.2965955876
 30
0.0
 10
5.710543826
 20
5.2952426986
 30
0.0
 10
5.7204785205
 20
5.2936993731
 30
0.0
 10
5.7303795157
 20
5.2919519251
 30
0.0
 10
5.7402399151
 20
5.2899872567
 30
0.0
 10
5.7500521923
 20
5.2877931678
 30
0.0
 10
5.7598065295
 20
5.2853530078
 30
0.0
 10
5.7694907774
 20
5.2826468881
 30
0.0
 10
5.7790916606
 20
5.279656891
 30
0.0
 10
5.7885928624
 20
5.2763622285
 30
0.0
 10
5.7979732054
 20
5.2727358375
 30
0.0
 10
5.8072091301
 20
5.2687544106
 30
0.0
 10
5.8162709659
 20
5.264389205
 30
0.0
 10
5.8251213716
 20
5.2596074785
 30
0.0
 10
5.8337176793
 20
5.2543808593
 30
0.0
 10
5.84200353
 20
5.2486716053
 30
0.0
 10
5.8499136524
 20
5.2424500623
 30
0.0
 10
5.8573649824
 20
5.2356821939
 30
0.0
 10
5.8642593899
 20
5.2283446865
 30
0.0
 10
5.8704771718
 20
5.2204226794
 30
0.0
 10
5.8749829716
 20
5.21333602
 30
0.0
 10
5.8781026381
 20
5.2073968835
 30
0.0
 10
5.8801823307
 20
5.2028136506
 30
0.0
 10
5.8819827379
 20
5.1981136029
 30
0.0
 10
5.8834838636
 20
5.1933095284
 30
0.0
 10
5.8846716241
 20
5.1884172751
 30
0.0
 10
5.8858157282
 20
5.1818071689
 30
0.0
 10
5.8861659292
 20
5.176770054
 30
0.0
 10
5.8861659292
 20
5.1734187989
 30
0.0
  0
ENDSEC
  0
SECTION
  2
OBJECTS
  0
DICTIONARY
  5
C
100
AcDbDictionary
280
0
281
1
  3
ACAD_GROUP
350
D
  3
ACAD_MLINESTYLE
350
17
  3
ACAD_LAYOUT
350
1A
  3
ACAD_PLOTSETTINGS
350
19
  3
ACAD_PLOTSTYLENAME
350
E
  0
DICTIONARY
  5
D
102
{ACAD_REACTORS
330
C
102
}
100
AcDbDictionary
280
0
281
1
  0
ACDBDICTIONARYWDFLT
  5
E
102
{ACAD_REACTORS
330
C
102
}
100
AcDbDictionary
281
1
  3
Normal
350
F
100
AcDbDictionaryWithDefault
340
F
  0
DICTIONARY
  5
17
102
{ACAD_REACTORS
330
C
102
}
100
AcDbDictionary
280
0
281
1
  3
Standard
350
18
  0
DICTIONARY
  5
19
102
{ACAD_REACTORS
330
C
102
}
100
AcDbDictionary
281
1
  0
DICTIONARY
  5
1A
102
{ACAD_REACTORS
330
C
102
}
100
AcDbDictionary
281
1
  3
Model
350
384
  3
Layout1
350
385
  0
ACDBPLACEHOLDER
  5
F
102
{ACAD_REACTORS
330
E
102
}
  0
MLINESTYLE
  5
18
102
{ACAD_REACTORS
330
17
102
}
100
AcDbMlineStyle
  2
STANDARD
 70
0
  3

 62
256
 51
90.0
 52
90.0
 71
2
 49
0.5
 62
256
  6
BYLAYER
 49
-0.5
 62
256
  6
BYLAYER
  0
LAYOUT
  5
384
102
{ACAD_REACTORS
330
1A
102
}
100
AcDbPlotSettings
  1

  2
none_device
  4
ANSI_A_(11.00_x_8.50_Inches)
  6

 40
0.0
 41
0.0
 42
0.0
 43
0.0
 44
279.4
 45
215.9
 46
0.0
 47
0.0
 48
0.0
 49
0.0
140
0.0
141
0.0
142
1.0
143
1.0
 70
1024
 72
0
 73
0
 74
0
  7

 75
0
147
1.0
148
0.0
149
0.0
100
AcDbLayout
  1
Model
 70
0
 71
0
 10
0.0
 20
0.0
 11
11.0
 21
8.5
 12
0.0
 22
0.0
 32
0.0
 14
0.0
 24
0.0
 34
0.0
 15
0.0
 25
0.0
 35
0.0
146
0.0
 13
0.0
 23
0.0
 33
0.0
 16
1.0
 26
0.0
 36
0.0
 17
0.0
 27
1.0
 37
0.0
 76
0
330
202
345
0
346
0
  0
LAYOUT
  5
385
102
{ACAD_REACTORS
330
1A
102
}
100
AcDbPlotSettings
  1

  2
none_device
  4
ANSI_A_(11.00_x_8.50_Inches)
  6

 40
0.0
 41
0.0
 42
0.0
 43
0.0
 44
279.4
 45
215.9
 46
0.0
 47
0.0
 48
0.0
 49
0.0
140
0.0
141
0.0
142
1.0
143
1.0
 70
0
 72
0
 73
0
 74
0
  7

 75
0
147
1.0
148
0.0
149
0.0
100
AcDbLayout
  1
Layout1
 70
0
 71
1
 10
0.0
 20
0.0
 11
11.0
 21
8.5
 12
0.0
 22
0.0
 32
0.0
 14
0.0
 24
0.0
 34
0.0
 15
0.0
 25
0.0
 35
0.0
146
0.0
 13
0.0
 23
0.0
 33
0.0
 16
1.0
 26
0.0
 36
0.0
 17
0.0
 27
1.0
 37
0.0
 76
0
330
203
345
0
346
0
  0
ENDSEC
  0
EOF
